  0
SECTION
  2
HEADER
  9
$ACADVER
  1
AC1021
  9
$ACADMAINTVER
 70
    25
  9
$DWGCODEPAGE
  3
ANSI_932
  9
$INSBASE
 10
0.0
 20
0.0
 30
0.0
  9
$EXTMIN
 10
74.59999999999997
 20
496.5
 30
0.0
  9
$EXTMAX
 10
313.5000000000001
 20
685.9999999999999
 30
0.0
  9
$LIMMIN
 10
0.0
 20
0.0
  9
$LIMMAX
 10
12.0
 20
9.0
  9
$ORTHOMODE
 70
     0
  9
$REGENMODE
 70
     1
  9
$FILLMODE
 70
     1
  9
$QTEXTMODE
 70
     0
  9
$MIRRTEXT
 70
     1
  9
$LTSCALE
 40
1.0
  9
$ATTMODE
 70
     1
  9
$TEXTSIZE
 40
0.2
  9
$TRACEWID
 40
0.05
  9
$TEXTSTYLE
  7
Standard
  9
$CLAYER
  8
0
  9
$CELTYPE
  6
ByLayer
  9
$CECOLOR
 62
   256
  9
$CELTSCALE
 40
1.0
  9
$DISPSILH
 70
     0
  9
$DIMSCALE
 40
1.0
  9
$DIMASZ
 40
3.0
  9
$DIMEXO
 40
0.0625
  9
$DIMDLI
 40
0.38
  9
$DIMRND
 40
0.0
  9
$DIMDLE
 40
0.0
  9
$DIMEXE
 40
0.18
  9
$DIMTP
 40
0.0
  9
$DIMTM
 40
0.0
  9
$DIMTXT
 40
3.0
  9
$DIMCEN
 40
0.09
  9
$DIMTSZ
 40
0.0
  9
$DIMTOL
 70
     0
  9
$DIMLIM
 70
     0
  9
$DIMTIH
 70
     1
  9
$DIMTOH
 70
     1
  9
$DIMSE1
 70
     0
  9
$DIMSE2
 70
     0
  9
$DIMTAD
 70
     1
  9
$DIMZIN
 70
     0
  9
$DIMBLK
  1

  9
$DIMASO
 70
     1
  9
$DIMSHO
 70
     1
  9
$DIMPOST
  1

  9
$DIMAPOST
  1

  9
$DIMALT
 70
     0
  9
$DIMALTD
 70
     2
  9
$DIMALTF
 40
25.4
  9
$DIMLFAC
 40
1.0
  9
$DIMTOFL
 70
     0
  9
$DIMTVP
 40
0.0
  9
$DIMTIX
 70
     0
  9
$DIMSOXD
 70
     0
  9
$DIMSAH
 70
     0
  9
$DIMBLK1
  1

  9
$DIMBLK2
  1

  9
$DIMSTYLE
  2
Standard
  9
$DIMCLRD
 70
     0
  9
$DIMCLRE
 70
     0
  9
$DIMCLRT
 70
     0
  9
$DIMTFAC
 40
1.0
  9
$DIMGAP
 40
0.09
  9
$DIMJUST
 70
     0
  9
$DIMSD1
 70
     0
  9
$DIMSD2
 70
     0
  9
$DIMTOLJ
 70
     1
  9
$DIMTZIN
 70
     0
  9
$DIMALTZ
 70
     0
  9
$DIMALTTZ
 70
     0
  9
$DIMUPT
 70
     0
  9
$DIMDEC
 70
     2
  9
$DIMTDEC
 70
     4
  9
$DIMALTU
 70
     2
  9
$DIMALTTD
 70
     2
  9
$DIMTXSTY
  7
Standard
  9
$DIMAUNIT
 70
     0
  9
$DIMADEC
 70
     2
  9
$DIMALTRND
 40
0.0
  9
$DIMAZIN
 70
     0
  9
$DIMDSEP
 70
    46
  9
$DIMATFIT
 70
     3
  9
$DIMFRAC
 70
     0
  9
$DIMLDRBLK
  1

  9
$DIMLUNIT
 70
     2
  9
$DIMLWD
 70
    -2
  9
$DIMLWE
 70
    -2
  9
$DIMTMOVE
 70
     0
  9
$DIMFXL
 40
1.0
  9
$DIMFXLON
 70
     0
  9
$DIMJOGANG
 40
0.7853981633974483
  9
$DIMTFILL
 70
     0
  9
$DIMTFILLCLR
 70
     0
  9
$DIMARCSYM
 70
     0
  9
$DIMLTYPE
  6

  9
$DIMLTEX1
  6

  9
$DIMLTEX2
  6

  9
$LUNITS
 70
     2
  9
$LUPREC
 70
     4
  9
$SKETCHINC
 40
0.1
  9
$FILLETRAD
 40
0.5
  9
$AUNITS
 70
     0
  9
$AUPREC
 70
     0
  9
$MENU
  1
.
  9
$ELEVATION
 40
0.0
  9
$PELEVATION
 40
0.0
  9
$THICKNESS
 40
0.0
  9
$LIMCHECK
 70
     0
  9
$CHAMFERA
 40
0.5
  9
$CHAMFERB
 40
0.5
  9
$CHAMFERC
 40
1.0
  9
$CHAMFERD
 40
0.0
  9
$SKPOLY
 70
     0
  9
$TDCREATE
 40
2459311.429804306
  9
$TDUCREATE
 40
2459311.054804306
  9
$TDUPDATE
 40
2459311.429804317
  9
$TDUUPDATE
 40
2459311.054804317
  9
$TDINDWG
 40
0.0000000116
  9
$TDUSRTIMER
 40
0.0000000116
  9
$USRTIMER
 70
     1
  9
$ANGBASE
 50
0.0
  9
$ANGDIR
 70
     0
  9
$PDMODE
 70
     0
  9
$PDSIZE
 40
0.0
  9
$PLINEWID
 40
0.0
  9
$SPLFRAME
 70
     0
  9
$SPLINETYPE
 70
     6
  9
$SPLINESEGS
 70
     8
  9
$HANDSEED
  5
1FB
  9
$SURFTAB1
 70
     6
  9
$SURFTAB2
 70
     6
  9
$SURFTYPE
 70
     6
  9
$SURFU
 70
     6
  9
$SURFV
 70
     6
  9
$UCSBASE
  2

  9
$UCSNAME
  2

  9
$UCSORG
 10
0.0
 20
0.0
 30
0.0
  9
$UCSXDIR
 10
1.0
 20
0.0
 30
0.0
  9
$UCSYDIR
 10
0.0
 20
1.0
 30
0.0
  9
$UCSORTHOREF
  2

  9
$UCSORTHOVIEW
 70
     0
  9
$UCSORGTOP
 10
0.0
 20
0.0
 30
0.0
  9
$UCSORGBOTTOM
 10
0.0
 20
0.0
 30
0.0
  9
$UCSORGLEFT
 10
0.0
 20
0.0
 30
0.0
  9
$UCSORGRIGHT
 10
0.0
 20
0.0
 30
0.0
  9
$UCSORGFRONT
 10
0.0
 20
0.0
 30
0.0
  9
$UCSORGBACK
 10
0.0
 20
0.0
 30
0.0
  9
$PUCSBASE
  2

  9
$PUCSNAME
  2

  9
$PUCSORG
 10
0.0
 20
0.0
 30
0.0
  9
$PUCSXDIR
 10
1.0
 20
0.0
 30
0.0
  9
$PUCSYDIR
 10
0.0
 20
1.0
 30
0.0
  9
$PUCSORTHOREF
  2

  9
$PUCSORTHOVIEW
 70
     0
  9
$PUCSORGTOP
 10
0.0
 20
0.0
 30
0.0
  9
$PUCSORGBOTTOM
 10
0.0
 20
0.0
 30
0.0
  9
$PUCSORGLEFT
 10
0.0
 20
0.0
 30
0.0
  9
$PUCSORGRIGHT
 10
0.0
 20
0.0
 30
0.0
  9
$PUCSORGFRONT
 10
0.0
 20
0.0
 30
0.0
  9
$PUCSORGBACK
 10
0.0
 20
0.0
 30
0.0
  9
$USERI1
 70
     0
  9
$USERI2
 70
     0
  9
$USERI3
 70
     0
  9
$USERI4
 70
     0
  9
$USERI5
 70
     0
  9
$USERR1
 40
0.0
  9
$USERR2
 40
0.0
  9
$USERR3
 40
0.0
  9
$USERR4
 40
0.0
  9
$USERR5
 40
0.0
  9
$WORLDVIEW
 70
     1
  9
$SHADEDGE
 70
     3
  9
$SHADEDIF
 70
    70
  9
$TILEMODE
 70
     1
  9
$MAXACTVP
 70
    64
  9
$PINSBASE
 10
0.0
 20
0.0
 30
0.0
  9
$PLIMCHECK
 70
     0
  9
$PEXTMIN
 10
1.000000000000000E+20
 20
1.000000000000000E+20
 30
1.000000000000000E+20
  9
$PEXTMAX
 10
-1.000000000000000E+20
 20
-1.000000000000000E+20
 30
-1.000000000000000E+20
  9
$PLIMMIN
 10
0.0
 20
0.0
  9
$PLIMMAX
 10
12.0
 20
9.0
  9
$UNITMODE
 70
     0
  9
$VISRETAIN
 70
     1
  9
$PLINEGEN
 70
     0
  9
$PSLTSCALE
 70
     1
  9
$TREEDEPTH
 70
  3020
  9
$CMLSTYLE
  2
Standard
  9
$CMLJUST
 70
     0
  9
$CMLSCALE
 40
1.0
  9
$PROXYGRAPHICS
 70
     1
  9
$MEASUREMENT
 70
     1
  9
$CELWEIGHT
370
    -1
  9
$ENDCAPS
280
     0
  9
$JOINSTYLE
280
     0
  9
$LWDISPLAY
290
     1
  9
$INSUNITS
 70
     4
  9
$HYPERLINKBASE
  1

  9
$STYLESHEET
  1

  9
$XEDIT
290
     1
  9
$CEPSNTYPE
380
     0
  9
$PSTYLEMODE
290
     1
  9
$FINGERPRINTGUID
  2
{8D60C136-4E3D-42DB-B12B-87E00D99B4EE}
  9
$VERSIONGUID
  2
{FAEB1C32-E019-11D5-929B-00C0DF256EC4}
  9
$EXTNAMES
290
     1
  9
$PSVPSCALE
 40
0.0
  9
$OLESTARTUP
290
     0
  9
$SORTENTS
280
   127
  9
$INDEXCTL
280
     0
  9
$HIDETEXT
280
     1
  9
$XCLIPFRAME
290
     0
  9
$HALOGAP
280
     0
  9
$OBSCOLOR
 70
   257
  9
$OBSLTYPE
280
     0
  9
$INTERSECTIONDISPLAY
280
     0
  9
$INTERSECTIONCOLOR
 70
   257
  9
$DIMASSOC
280
     2
  9
$PROJECTNAME
  1

  9
$CAMERADISPLAY
290
     0
  9
$LENSLENGTH
 40
50.0
  9
$CAMERAHEIGHT
 40
0.0
  9
$STEPSPERSEC
 40
2.0
  9
$STEPSIZE
 40
6.0
  9
$3DDWFPREC
 40
2.0
  9
$PSOLWIDTH
 40
0.25
  9
$PSOLHEIGHT
 40
4.0
  9
$LOFTANG1
 40
1.570796326794897
  9
$LOFTANG2
 40
1.570796326794897
  9
$LOFTMAG1
 40
0.0
  9
$LOFTMAG2
 40
0.0
  9
$LOFTPARAM
 70
     7
  9
$LOFTNORMALS
280
     1
  9
$LATITUDE
 40
37.795
  9
$LONGITUDE
 40
-122.394
  9
$NORTHDIRECTION
 40
0.0
  9
$TIMEZONE
 70
 -8000
  9
$LIGHTGLYPHDISPLAY
280
     1
  9
$TILEMODELIGHTSYNCH
280
     1
  9
$SOLIDHIST
280
     1
  9
$SHOWHIST
280
     1
  9
$DWFFRAME
280
     2
  9
$DGNFRAME
280
     2
  9
$REALWORLDSCALE
290
     1
  9
$INTERFERECOLOR
 62
   256
  9
$CSHADOW
280
     0
  9
$SHADOWPLANELOCATION
 40
0.0
  0
ENDSEC
  0
SECTION
  2
CLASSES
  0
CLASS
  1
ACDBDICTIONARYWDFLT
  2
AcDbDictionaryWithDefault
  3
ObjectDBX Classes
 90
        0
 91
        4
280
     0
281
     0
  0
CLASS
  1
VISUALSTYLE
  2
AcDbVisualStyle
  3
ObjectDBX Classes
 90
     4095
 91
        4
280
     0
281
     0
  0
ENDSEC
  0
SECTION
  2
TABLES
  0
TABLE
  2
VPORT
  5
8
330
0
100
AcDbSymbolTable
 70
     1
  0
VPORT
  5
29
330
8
100
AcDbSymbolTableRecord
100
AcDbViewportTableRecord
  2
*Active
 70
     0
 10
0.0
 20
0.0
 11
1.0
 21
1.0
 12
194.05
 22
591.25
 13
0.0
 23
0.0
 14
0.5
 24
0.5
 15
0.5
 25
0.5
 16
0.0
 26
0.0
 36
1.0
 17
0.0
 27
0.0
 37
0.0
 40
189.4999999999999
 41
1.6
 42
50.0
 43
0.0
 44
0.0
 50
0.0
 51
0.0
 71
     0
 72
   100
 73
     1
 74
     3
 75
     0
 76
     0
 77
     0
 78
     0
281
     0
 65
     1
110
0.0
120
0.0
130
0.0
111
1.0
121
0.0
131
0.0
112
0.0
122
1.0
132
0.0
 79
     0
146
0.0
 60
     3
 61
     5
292
     1
282
     1
141
0.0
142
0.0
 63
   250
  0
ENDTAB
  0
TABLE
  2
LTYPE
  5
5
330
0
100
AcDbSymbolTable
 70
     2
  0
LTYPE
  5
14
330
5
100
AcDbSymbolTableRecord
100
AcDbLinetypeTableRecord
  2
ByBlock
 70
     0
  3

 72
    65
 73
     0
 40
0.0
  0
LTYPE
  5
15
330
5
100
AcDbSymbolTableRecord
100
AcDbLinetypeTableRecord
  2
ByLayer
 70
     0
  3

 72
    65
 73
     0
 40
0.0
  0
LTYPE
  5
16
330
5
100
AcDbSymbolTableRecord
100
AcDbLinetypeTableRecord
  2
Continuous
 70
     0
  3
Solid line
 72
    65
 73
     0
 40
0.0
  0
LTYPE
  5
3D
330
5
100
AcDbSymbolTableRecord
100
AcDbLinetypeTableRecord
  2
________________
 70
     0
  3

 72
    65
 73
     0
 40
0.0
  0
ENDTAB
  0
TABLE
  2
LAYER
  5
2
330
0
100
AcDbSymbolTable
 70
     1
  0
LAYER
  5
10
330
2
100
AcDbSymbolTableRecord
100
AcDbLayerTableRecord
  2
0
 70
     0
 62
     7
  6
Continuous
370
    -3
390
F
347
0
  0
ENDTAB
  0
TABLE
  2
STYLE
  5
3
330
0
100
AcDbSymbolTable
 70
     1
  0
STYLE
  5
11
330
3
100
AcDbSymbolTableRecord
100
AcDbTextStyleTableRecord
  2
Standard
 70
     0
 40
0.0
 41
1.0
 50
0.0
 71
     0
 42
0.2
  3
txt
  4

  0
ENDTAB
  0
TABLE
  2
VIEW
  5
6
330
0
100
AcDbSymbolTable
 70
     0
  0
ENDTAB
  0
TABLE
  2
UCS
  5
7
330
0
100
AcDbSymbolTable
 70
     0
  0
ENDTAB
  0
TABLE
  2
APPID
  5
9
330
0
100
AcDbSymbolTable
 70
     1
  0
APPID
  5
12
330
9
100
AcDbSymbolTableRecord
100
AcDbRegAppTableRecord
  2
ACAD
 70
     0
  0
ENDTAB
  0
TABLE
  2
DIMSTYLE
  5
A
330
0
100
AcDbSymbolTable
 70
     1
100
AcDbDimStyleTable
  0
DIMSTYLE
105
27
330
A
100
AcDbSymbolTableRecord
100
AcDbDimStyleTableRecord
  2
Standard
 70
     0
340
11
  0
ENDTAB
  0
TABLE
  2
BLOCK_RECORD
  5
1
330
0
100
AcDbSymbolTable
 70
     4
  0
BLOCK_RECORD
  5
1F
330
1
100
AcDbSymbolTableRecord
100
AcDbBlockTableRecord
  2
*Model_Space
340
22
 70
     0
280
     1
281
     0
  0
BLOCK_RECORD
  5
1B
330
1
100
AcDbSymbolTableRecord
100
AcDbBlockTableRecord
  2
*Paper_Space
340
1E
 70
     0
280
     1
281
     0
  0
BLOCK_RECORD
  5
23
330
1
100
AcDbSymbolTableRecord
100
AcDbBlockTableRecord
  2
*Paper_Space0
340
26
 70
     0
280
     1
281
     0
  0
BLOCK_RECORD
  5
3B
330
1
100
AcDbSymbolTableRecord
100
AcDbBlockTableRecord
  2
@1423
340
0
102
{BLKREFS
331
3C
102
}
 70
     0
280
     1
281
     0
  0
BLOCK_RECORD
  5
139
330
1
100
AcDbSymbolTableRecord
100
AcDbBlockTableRecord
  2
@1643
340
0
102
{BLKREFS
331
13C
102
}
 70
     0
280
     1
281
     0
  0
BLOCK_RECORD
  5
1B7
330
1
100
AcDbSymbolTableRecord
100
AcDbBlockTableRecord
  2
@1800
340
0
102
{BLKREFS
331
1BA
102
}
 70
     0
280
     1
281
     0
  0
ENDTAB
  0
ENDSEC
  0
SECTION
  2
BLOCKS
  0
BLOCK
  5
20
330
1F
100
AcDbEntity
  8
0
100
AcDbBlockBegin
  2
*Model_Space
 70
     0
 10
0.0
 20
0.0
 30
0.0
  3
*Model_Space
  1

  0
ENDBLK
  5
21
330
1F
100
AcDbEntity
  8
0
100
AcDbBlockEnd
  0
BLOCK
  5
1C
330
1B
100
AcDbEntity
 67
     1
  8
0
100
AcDbBlockBegin
  2
*Paper_Space
 70
     0
 10
0.0
 20
0.0
 30
0.0
  3
*Paper_Space
  1

  0
ENDBLK
  5
1D
330
1B
100
AcDbEntity
 67
     1
  8
0
100
AcDbBlockEnd
  0
BLOCK
  5
24
330
23
100
AcDbEntity
  8
0
100
AcDbBlockBegin
  2
*Paper_Space0
 70
     0
 10
0.0
 20
0.0
 30
0.0
  3
*Paper_Space0
  1

  0
ENDBLK
  5
25
330
23
100
AcDbEntity
  8
0
100
AcDbBlockEnd
  0
BLOCK
  5
13A
330
3B
100
AcDbEntity
  8
0
100
AcDbBlockBegin
  2
@1423
 70
     0
 10
0.0
 20
0.0
 30
0.0
  3
@1423
  1

  0
ENDBLK
  5
13B
330
3B
100
AcDbEntity
  8
0
100
AcDbBlockEnd
  0
BLOCK
  5
1B8
330
139
100
AcDbEntity
  8
0
100
AcDbBlockBegin
  2
@1643
 70
     0
 10
0.0
 20
0.0
 30
0.0
  3
@1643
  1

  0
ENDBLK
  5
1B9
330
139
100
AcDbEntity
  8
0
100
AcDbBlockEnd
  0
BLOCK
  5
1F7
330
1B7
100
AcDbEntity
  8
0
100
AcDbBlockBegin
  2
@1800
 70
     0
 10
0.0
 20
0.0
 30
0.0
  3
@1800
  1

  0
ENDBLK
  5
1F8
330
1B7
100
AcDbEntity
  8
0
100
AcDbBlockEnd
  0
ENDSEC
  0
SECTION
  2
ENTITIES
  0
INSERT
  5
3C
330
1F
100
AcDbEntity
  8
0
  6
________________
 62
     7
370
     9
100
AcDbBlockReference
  2
@1423
 10
0.0
 20
0.0
 30
0.0
  0
ARC
  5
3E
330
1F
100
AcDbEntity
  8
0
  6
________________
 62
     7
370
     9
100
AcDbCircle
 10
175.3999999999997
 20
517.6274108271261
 30
0.0
 40
5.000000000000303
100
AcDbArc
 50
0.0000000000005069
 51
19.79887635452521
  0
POLYLINE
  5
3F
330
1F
100
AcDbEntity
  8
0
  6
________________
 62
     7
370
     9
100
AcDb3dPolyline
 66
     1
 10
0.0
 20
0.0
 30
0.0
 70
     8
  0
VERTEX
  5
40
330
3F
100
AcDbEntity
  8
0
  6
________________
 62
     7
370
     9
100
AcDbVertex
100
AcDb3dPolylineVertex
 10
75.59132057018064
 20
516.5343873696246
 30
0.0
 70
    32
  0
VERTEX
  5
41
330
3F
100
AcDbEntity
  8
0
  6
________________
 62
     7
370
     9
100
AcDbVertex
100
AcDb3dPolylineVertex
 10
75.57507876216863
 20
516.5346613999983
 30
0.0
 70
    32
  0
VERTEX
  5
42
330
3F
100
AcDbEntity
  8
0
  6
________________
 62
     7
370
     9
100
AcDbVertex
100
AcDb3dPolylineVertex
 10
75.52541407586021
 20
516.5371464653809
 30
0.0
 70
    32
  0
VERTEX
  5
43
330
3F
100
AcDbEntity
  8
0
  6
________________
 62
     7
370
     9
100
AcDbVertex
100
AcDb3dPolylineVertex
 10
75.47587207692379
 20
516.5421036138541
 30
0.0
 70
    32
  0
VERTEX
  5
44
330
3F
100
AcDbEntity
  8
0
  6
________________
 62
     7
370
     9
100
AcDbVertex
100
AcDb3dPolylineVertex
 10
75.42663477945722
 20
516.549510323822
 30
0.0
 70
    32
  0
VERTEX
  5
45
330
3F
100
AcDbEntity
  8
0
  6
________________
 62
     7
370
     9
100
AcDbVertex
100
AcDb3dPolylineVertex
 10
75.37788419755829
 20
516.5593440736887
 30
0.0
 70
    32
  0
VERTEX
  5
46
330
3F
100
AcDbEntity
  8
0
  6
________________
 62
     7
370
     9
100
AcDbVertex
100
AcDb3dPolylineVertex
 10
75.33134999180787
 20
516.5711544516382
 30
0.0
 70
    32
  0
VERTEX
  5
47
330
3F
100
AcDbEntity
  8
0
  6
________________
 62
     7
370
     9
100
AcDbVertex
100
AcDb3dPolylineVertex
 10
75.28530731796363
 20
516.5852470280606
 30
0.0
 70
    32
  0
VERTEX
  5
48
330
3F
100
AcDbEntity
  8
0
  6
________________
 62
     7
370
     9
100
AcDbVertex
100
AcDb3dPolylineVertex
 10
75.23990959867399
 20
516.601558976547
 30
0.0
 70
    32
  0
VERTEX
  5
49
330
3F
100
AcDbEntity
  8
0
  6
________________
 62
     7
370
     9
100
AcDbVertex
100
AcDb3dPolylineVertex
 10
75.19531025658745
 20
516.6200274706886
 30
0.0
 70
    32
  0
VERTEX
  5
4A
330
3F
100
AcDbEntity
  8
0
  6
________________
 62
     7
370
     9
100
AcDbVertex
100
AcDb3dPolylineVertex
 10
75.15166271435244
 20
516.6405896840764
 30
0.0
 70
    32
  0
VERTEX
  5
4B
330
3F
100
AcDbEntity
  8
0
  6
________________
 62
     7
370
     9
100
AcDbVertex
100
AcDb3dPolylineVertex
 10
75.10912039461746
 20
516.6631827903019
 30
0.0
 70
    32
  0
VERTEX
  5
4C
330
3F
100
AcDbEntity
  8
0
  6
________________
 62
     7
370
     9
100
AcDbVertex
100
AcDb3dPolylineVertex
 10
75.06783672003097
 20
516.687743962956
 30
0.0
 70
    32
  0
VERTEX
  5
4D
330
3F
100
AcDbEntity
  8
0
  6
________________
 62
     7
370
     9
100
AcDbVertex
100
AcDb3dPolylineVertex
 10
75.02790669716642
 20
516.7142289546026
 30
0.0
 70
    32
  0
VERTEX
  5
4E
330
3F
100
AcDbEntity
  8
0
  6
________________
 62
     7
370
     9
100
AcDbVertex
100
AcDb3dPolylineVertex
 10
74.98918814925435
 20
516.7426991021745
 30
0.0
 70
    32
  0
VERTEX
  5
4F
330
3F
100
AcDbEntity
  8
0
  6
________________
 62
     7
370
     9
100
AcDbVertex
100
AcDb3dPolylineVertex
 10
74.95180501082432
 20
516.773044843153
 30
0.0
 70
    32
  0
VERTEX
  5
50
330
3F
100
AcDbEntity
  8
0
  6
________________
 62
     7
370
     9
100
AcDbVertex
100
AcDb3dPolylineVertex
 10
74.915881216406
 20
516.8051566150191
 30
0.0
 70
    32
  0
VERTEX
  5
51
330
3F
100
AcDbEntity
  8
0
  6
________________
 62
     7
370
     9
100
AcDbVertex
100
AcDb3dPolylineVertex
 10
74.88154070052902
 20
516.8389248552543
 30
0.0
 70
    32
  0
VERTEX
  5
52
330
3F
100
AcDbEntity
  8
0
  6
________________
 62
     7
370
     9
100
AcDbVertex
100
AcDb3dPolylineVertex
 10
74.84890739772301
 20
516.8742400013397
 30
0.0
 70
    32
  0
VERTEX
  5
53
330
3F
100
AcDbEntity
  8
0
  6
________________
 62
     7
370
     9
100
AcDbVertex
100
AcDb3dPolylineVertex
 10
74.81810524251759
 20
516.9109924907563
 30
0.0
 70
    32
  0
VERTEX
  5
54
330
3F
100
AcDbEntity
  8
0
  6
________________
 62
     7
370
     9
100
AcDbVertex
100
AcDb3dPolylineVertex
 10
74.78917017442204
 20
516.9491638892014
 30
0.0
 70
    32
  0
VERTEX
  5
55
330
3F
100
AcDbEntity
  8
0
  6
________________
 62
     7
370
     9
100
AcDbVertex
100
AcDb3dPolylineVertex
 10
74.76203277519755
 20
516.988808460341
 30
0.0
 70
    32
  0
VERTEX
  5
56
330
3F
100
AcDbEntity
  8
0
  6
________________
 62
     7
370
     9
100
AcDbVertex
100
AcDb3dPolylineVertex
 10
74.7367739371573
 20
517.0297814522118
 30
0.0
 70
    32
  0
VERTEX
  5
57
330
3F
100
AcDbEntity
  8
0
  6
________________
 62
     7
370
     9
100
AcDbVertex
100
AcDb3dPolylineVertex
 10
74.7134745526146
 20
517.0719381128501
 30
0.0
 70
    32
  0
VERTEX
  5
58
330
3F
100
AcDbEntity
  8
0
  6
________________
 62
     7
370
     9
100
AcDbVertex
100
AcDb3dPolylineVertex
 10
74.69221551388273
 20
517.1151336902927
 30
0.0
 70
    32
  0
VERTEX
  5
59
330
3F
100
AcDbEntity
  8
0
  6
________________
 62
     7
370
     9
100
AcDbVertex
100
AcDb3dPolylineVertex
 10
74.67307771327496
 20
517.1592234325759
 30
0.0
 70
    32
  0
VERTEX
  5
5A
330
3F
100
AcDbEntity
  8
0
  6
________________
 62
     7
370
     9
100
AcDbVertex
100
AcDb3dPolylineVertex
 10
74.65614204310458
 20
517.2040625877364
 30
0.0
 70
    32
  0
VERTEX
  5
5B
330
3F
100
AcDbEntity
  8
0
  6
________________
 62
     7
370
     9
100
AcDbVertex
100
AcDb3dPolylineVertex
 10
74.64141805940328
 20
517.2496829864583
 30
0.0
 70
    32
  0
VERTEX
  5
5C
330
3F
100
AcDbEntity
  8
0
  6
________________
 62
     7
370
     9
100
AcDbVertex
100
AcDb3dPolylineVertex
 10
74.62888161498768
 20
517.2960995110752
 30
0.0
 70
    32
  0
VERTEX
  5
5D
330
3F
100
AcDbEntity
  8
0
  6
________________
 62
     7
370
     9
100
AcDbVertex
100
AcDb3dPolylineVertex
 10
74.61856092467272
 20
517.3431480520095
 30
0.0
 70
    32
  0
VERTEX
  5
5E
330
3F
100
AcDbEntity
  8
0
  6
________________
 62
     7
370
     9
100
AcDbVertex
100
AcDb3dPolylineVertex
 10
74.61048420327334
 20
517.3906644996835
 30
0.0
 70
    32
  0
VERTEX
  5
5F
330
3F
100
AcDbEntity
  8
0
  6
________________
 62
     7
370
     9
100
AcDbVertex
100
AcDb3dPolylineVertex
 10
74.6046796656045
 20
517.4384847445194
 30
0.0
 70
    32
  0
VERTEX
  5
60
330
3F
100
AcDbEntity
  8
0
  6
________________
 62
     7
370
     9
100
AcDbVertex
100
AcDb3dPolylineVertex
 10
74.60117552648113
 20
517.48644467694
 30
0.0
 70
    32
  0
VERTEX
  5
61
330
3F
100
AcDbEntity
  8
0
  6
________________
 62
     7
370
     9
100
AcDbVertex
100
AcDb3dPolylineVertex
 10
74.60000000071814
 20
517.5343801873671
 30
0.0
 70
    32
  0
SEQEND
  5
62
330
3F
100
AcDbEntity
  8
0
  6
________________
 62
     7
370
     9
  0
POLYLINE
  5
63
330
1F
100
AcDbEntity
  8
0
  6
________________
 62
     7
370
     9
100
AcDb3dPolyline
 66
     1
 10
0.0
 20
0.0
 30
0.0
 70
     8
  0
VERTEX
  5
64
330
63
100
AcDbEntity
  8
0
  6
________________
 62
     7
370
     9
100
AcDbVertex
100
AcDb3dPolylineVertex
 10
179.4086794298194
 20
516.5343873696246
 30
0.0
 70
    32
  0
VERTEX
  5
65
330
63
100
AcDbEntity
  8
0
  6
________________
 62
     7
370
     9
100
AcDbVertex
100
AcDb3dPolylineVertex
 10
179.4249212378307
 20
516.5346613999983
 30
0.0
 70
    32
  0
VERTEX
  5
66
330
63
100
AcDbEntity
  8
0
  6
________________
 62
     7
370
     9
100
AcDbVertex
100
AcDb3dPolylineVertex
 10
179.4745859241394
 20
516.5371464653809
 30
0.0
 70
    32
  0
VERTEX
  5
67
330
63
100
AcDbEntity
  8
0
  6
________________
 62
     7
370
     9
100
AcDbVertex
100
AcDb3dPolylineVertex
 10
179.524127923076
 20
516.5421036138541
 30
0.0
 70
    32
  0
VERTEX
  5
68
330
63
100
AcDbEntity
  8
0
  6
________________
 62
     7
370
     9
100
AcDbVertex
100
AcDb3dPolylineVertex
 10
179.5733652205427
 20
516.549510323822
 30
0.0
 70
    32
  0
VERTEX
  5
69
330
63
100
AcDbEntity
  8
0
  6
________________
 62
     7
370
     9
100
AcDbVertex
100
AcDb3dPolylineVertex
 10
179.6221158024417
 20
516.5593440736887
 30
0.0
 70
    32
  0
VERTEX
  5
6A
330
63
100
AcDbEntity
  8
0
  6
________________
 62
     7
370
     9
100
AcDbVertex
100
AcDb3dPolylineVertex
 10
179.6686500081921
 20
516.5711544516382
 30
0.0
 70
    32
  0
VERTEX
  5
6B
330
63
100
AcDbEntity
  8
0
  6
________________
 62
     7
370
     9
100
AcDbVertex
100
AcDb3dPolylineVertex
 10
179.7146926820364
 20
516.5852470280606
 30
0.0
 70
    32
  0
VERTEX
  5
6C
330
63
100
AcDbEntity
  8
0
  6
________________
 62
     7
370
     9
100
AcDbVertex
100
AcDb3dPolylineVertex
 10
179.760090401326
 20
516.601558976547
 30
0.0
 70
    32
  0
VERTEX
  5
6D
330
63
100
AcDbEntity
  8
0
  6
________________
 62
     7
370
     9
100
AcDbVertex
100
AcDb3dPolylineVertex
 10
179.8046897434126
 20
516.6200274706886
 30
0.0
 70
    32
  0
VERTEX
  5
6E
330
63
100
AcDbEntity
  8
0
  6
________________
 62
     7
370
     9
100
AcDbVertex
100
AcDb3dPolylineVertex
 10
179.8483372856475
 20
516.6405896840764
 30
0.0
 70
    32
  0
VERTEX
  5
6F
330
63
100
AcDbEntity
  8
0
  6
________________
 62
     7
370
     9
100
AcDbVertex
100
AcDb3dPolylineVertex
 10
179.8908796053825
 20
516.6631827903019
 30
0.0
 70
    32
  0
VERTEX
  5
70
330
63
100
AcDbEntity
  8
0
  6
________________
 62
     7
370
     9
100
AcDbVertex
100
AcDb3dPolylineVertex
 10
179.932163279969
 20
516.687743962956
 30
0.0
 70
    32
  0
VERTEX
  5
71
330
63
100
AcDbEntity
  8
0
  6
________________
 62
     7
370
     9
100
AcDbVertex
100
AcDb3dPolylineVertex
 10
179.9720933028336
 20
516.7142289546026
 30
0.0
 70
    32
  0
VERTEX
  5
72
330
63
100
AcDbEntity
  8
0
  6
________________
 62
     7
370
     9
100
AcDbVertex
100
AcDb3dPolylineVertex
 10
180.0108118507457
 20
516.7426991021745
 30
0.0
 70
    32
  0
VERTEX
  5
73
330
63
100
AcDbEntity
  8
0
  6
________________
 62
     7
370
     9
100
AcDbVertex
100
AcDb3dPolylineVertex
 10
180.0481949891757
 20
516.773044843153
 30
0.0
 70
    32
  0
VERTEX
  5
74
330
63
100
AcDbEntity
  8
0
  6
________________
 62
     7
370
     9
100
AcDbVertex
100
AcDb3dPolylineVertex
 10
180.084118783594
 20
516.8051566150191
 30
0.0
 70
    32
  0
VERTEX
  5
75
330
63
100
AcDbEntity
  8
0
  6
________________
 62
     7
370
     9
100
AcDbVertex
100
AcDb3dPolylineVertex
 10
180.118459299471
 20
516.8389248552543
 30
0.0
 70
    32
  0
VERTEX
  5
76
330
63
100
AcDbEntity
  8
0
  6
________________
 62
     7
370
     9
100
AcDbVertex
100
AcDb3dPolylineVertex
 10
180.151092602277
 20
516.8742400013397
 30
0.0
 70
    32
  0
VERTEX
  5
77
330
63
100
AcDbEntity
  8
0
  6
________________
 62
     7
370
     9
100
AcDbVertex
100
AcDb3dPolylineVertex
 10
180.1818947574824
 20
516.9109924907563
 30
0.0
 70
    32
  0
VERTEX
  5
78
330
63
100
AcDbEntity
  8
0
  6
________________
 62
     7
370
     9
100
AcDbVertex
100
AcDb3dPolylineVertex
 10
180.2108298255779
 20
516.9491638892014
 30
0.0
 70
    32
  0
VERTEX
  5
79
330
63
100
AcDbEntity
  8
0
  6
________________
 62
     7
370
     9
100
AcDbVertex
100
AcDb3dPolylineVertex
 10
180.2379672248024
 20
516.988808460341
 30
0.0
 70
    32
  0
VERTEX
  5
7A
330
63
100
AcDbEntity
  8
0
  6
________________
 62
     7
370
     9
100
AcDbVertex
100
AcDb3dPolylineVertex
 10
180.2632260628427
 20
517.0297814522118
 30
0.0
 70
    32
  0
VERTEX
  5
7B
330
63
100
AcDbEntity
  8
0
  6
________________
 62
     7
370
     9
100
AcDbVertex
100
AcDb3dPolylineVertex
 10
180.2865254473854
 20
517.0719381128501
 30
0.0
 70
    32
  0
VERTEX
  5
7C
330
63
100
AcDbEntity
  8
0
  6
________________
 62
     7
370
     9
100
AcDbVertex
100
AcDb3dPolylineVertex
 10
180.3077844861173
 20
517.1151336902927
 30
0.0
 70
    32
  0
VERTEX
  5
7D
330
63
100
AcDbEntity
  8
0
  6
________________
 62
     7
370
     9
100
AcDbVertex
100
AcDb3dPolylineVertex
 10
180.326922286725
 20
517.1592234325759
 30
0.0
 70
    32
  0
VERTEX
  5
7E
330
63
100
AcDbEntity
  8
0
  6
________________
 62
     7
370
     9
100
AcDbVertex
100
AcDb3dPolylineVertex
 10
180.3438579568954
 20
517.2040625877364
 30
0.0
 70
    32
  0
VERTEX
  5
7F
330
63
100
AcDbEntity
  8
0
  6
________________
 62
     7
370
     9
100
AcDbVertex
100
AcDb3dPolylineVertex
 10
180.3585819405967
 20
517.2496829864583
 30
0.0
 70
    32
  0
VERTEX
  5
80
330
63
100
AcDbEntity
  8
0
  6
________________
 62
     7
370
     9
100
AcDbVertex
100
AcDb3dPolylineVertex
 10
180.3711183850123
 20
517.2960995110752
 30
0.0
 70
    32
  0
VERTEX
  5
81
330
63
100
AcDbEntity
  8
0
  6
________________
 62
     7
370
     9
100
AcDbVertex
100
AcDb3dPolylineVertex
 10
180.3814390753273
 20
517.3431480520095
 30
0.0
 70
    32
  0
VERTEX
  5
82
330
63
100
AcDbEntity
  8
0
  6
________________
 62
     7
370
     9
100
AcDbVertex
100
AcDb3dPolylineVertex
 10
180.3895157967266
 20
517.3906644996835
 30
0.0
 70
    32
  0
VERTEX
  5
83
330
63
100
AcDbEntity
  8
0
  6
________________
 62
     7
370
     9
100
AcDbVertex
100
AcDb3dPolylineVertex
 10
180.3953203343955
 20
517.4384847445194
 30
0.0
 70
    32
  0
VERTEX
  5
84
330
63
100
AcDbEntity
  8
0
  6
________________
 62
     7
370
     9
100
AcDbVertex
100
AcDb3dPolylineVertex
 10
180.3988244735189
 20
517.48644467694
 30
0.0
 70
    32
  0
VERTEX
  5
85
330
63
100
AcDbEntity
  8
0
  6
________________
 62
     7
370
     9
100
AcDbVertex
100
AcDb3dPolylineVertex
 10
180.3999999992818
 20
517.5343801873671
 30
0.0
 70
    32
  0
SEQEND
  5
86
330
63
100
AcDbEntity
  8
0
  6
________________
 62
     7
370
     9
  0
LINE
  5
87
330
1F
100
AcDbEntity
  8
0
  6
________________
 62
     7
370
     9
100
AcDbLine
 10
98.71782602852544
 20
502.5000000000001
 30
0.0
 11
104.125
 21
502.5000000000001
 31
0.0
  0
LINE
  5
88
330
1F
100
AcDbEntity
  8
0
  6
________________
 62
     7
370
     9
100
AcDbLine
 10
104.125
 20
502.5000000000001
 30
0.0
 11
104.125
 21
506.5000000000001
 31
0.0
  0
LINE
  5
89
330
1F
100
AcDbEntity
  8
0
  6
________________
 62
     7
370
     9
100
AcDbLine
 10
85.13011095603659
 20
506.5000000000001
 30
0.0
 11
104.125
 21
506.5000000000001
 31
0.0
  0
LINE
  5
8A
330
1F
100
AcDbEntity
  8
0
  6
________________
 62
     7
370
     9
100
AcDbLine
 10
85.13011095603657
 20
506.5000000000001
 30
0.0
 11
85.13011095603657
 21
502.5000000000001
 31
0.0
  0
LINE
  5
8B
330
1F
100
AcDbEntity
  8
0
  6
________________
 62
     7
370
     9
100
AcDbLine
 10
85.13011095603659
 20
502.5000000000001
 30
0.0
 11
88.07144990824762
 21
502.5000000000001
 31
0.0
  0
LINE
  5
8C
330
1F
100
AcDbEntity
  8
0
  6
________________
 62
     7
370
     9
100
AcDbLine
 10
175.75
 20
499.828718180383
 30
0.0
 11
175.6851896333303
 21
499.828718180383
 31
0.0
  0
LINE
  5
8D
330
1F
100
AcDbEntity
  8
0
  6
________________
 62
     7
370
     9
100
AcDbLine
 10
79.25000000000001
 20
499.8287181803822
 30
0.0
 11
79.31481036666973
 21
499.8287181803822
 31
0.0
  0
LINE
  5
8E
330
1F
100
AcDbEntity
  8
0
  6
________________
 62
     7
370
     9
100
AcDbLine
 10
79.31481036666973
 20
499.8287181803822
 30
0.0
 11
79.31481036666976
 21
516.5
 31
0.0
  0
LINE
  5
8F
330
1F
100
AcDbEntity
  8
0
  6
________________
 62
     7
370
     9
100
AcDbLine
 10
175.75
 20
510.4999999999999
 30
0.0
 11
175.75
 21
516.5
 31
0.0
  0
LINE
  5
90
330
1F
100
AcDbEntity
  8
0
  6
________________
 62
     7
370
     9
100
AcDbLine
 10
175.6851896333303
 20
499.8287181803822
 30
0.0
 11
175.6851896333303
 21
510.4999999999999
 31
0.0
  0
LINE
  5
91
330
1F
100
AcDbEntity
  8
0
  6
________________
 62
     7
370
     9
100
AcDbLine
 10
166.9285500917525
 20
502.5000000000001
 30
0.0
 11
169.8698890439634
 21
502.5000000000001
 31
0.0
  0
LINE
  5
92
330
1F
100
AcDbEntity
  8
0
  6
________________
 62
     7
370
     9
100
AcDbLine
 10
169.8698890439634
 20
502.5000000000001
 30
0.0
 11
169.8698890439634
 21
506.5000000000001
 31
0.0
  0
LINE
  5
93
330
1F
100
AcDbEntity
  8
0
  6
________________
 62
     7
370
     9
100
AcDbLine
 10
150.875
 20
506.5000000000001
 30
0.0
 11
169.8698890439634
 21
506.5000000000001
 31
0.0
  0
LINE
  5
94
330
1F
100
AcDbEntity
  8
0
  6
________________
 62
     7
370
     9
100
AcDbLine
 10
150.8750000000001
 20
506.5000000000001
 30
0.0
 11
150.8750000000001
 21
502.5000000000001
 31
0.0
  0
LINE
  5
95
330
1F
100
AcDbEntity
  8
0
  6
________________
 62
     7
370
     9
100
AcDbLine
 10
150.875
 20
502.5000000000001
 30
0.0
 11
156.2821739714745
 21
502.5000000000001
 31
0.0
  0
ARC
  5
96
330
1F
100
AcDbEntity
  8
0
  6
________________
 62
     7
370
     9
100
AcDbCircle
 10
-193.200000000005
 20
541.9903566914961
 30
0.0
 40
20.00000000000498
210
0.0
220
0.0
230
-1.0
100
AcDbArc
 50
340.2011236454719
 51
0.0000000000003411
  0
ARC
  5
97
330
1F
100
AcDbEntity
  8
0
  6
________________
 62
     7
370
     9
100
AcDbCircle
 10
-61.79999999999632
 20
541.9903566914958
 30
0.0
 40
20.00000000000368
210
0.0
220
0.0
230
-1.0
100
AcDbArc
 50
180.0
 51
199.7988763545262
  0
POLYLINE
  5
98
330
1F
100
AcDbEntity
  8
0
  6
________________
 62
     7
370
     9
100
AcDb3dPolyline
 66
     1
 10
0.0
 20
0.0
 30
0.0
 70
     8
  0
VERTEX
  5
99
330
98
100
AcDbEntity
  8
0
  6
________________
 62
     7
370
     9
100
AcDbVertex
100
AcDb3dPolylineVertex
 10
82.80000000000001
 20
548.5
 30
0.0
 70
    32
  0
VERTEX
  5
9A
330
98
100
AcDbEntity
  8
0
  6
________________
 62
     7
370
     9
100
AcDbVertex
100
AcDb3dPolylineVertex
 10
82.78362381867419
 20
548.4998659013513
 30
0.0
 70
    32
  0
VERTEX
  5
9B
330
98
100
AcDbEntity
  8
0
  6
________________
 62
     7
370
     9
100
AcDbVertex
100
AcDb3dPolylineVertex
 10
82.73205752110265
 20
548.4976883605689
 30
0.0
 70
    32
  0
VERTEX
  5
9C
330
98
100
AcDbEntity
  8
0
  6
________________
 62
     7
370
     9
100
AcDbVertex
100
AcDb3dPolylineVertex
 10
82.6806709442263
 20
548.4928547610039
 30
0.0
 70
    32
  0
VERTEX
  5
9D
330
98
100
AcDbEntity
  8
0
  6
________________
 62
     7
370
     9
100
AcDbVertex
100
AcDb3dPolylineVertex
 10
82.62905110975233
 20
548.4852789673308
 30
0.0
 70
    32
  0
VERTEX
  5
9E
330
98
100
AcDbEntity
  8
0
  6
________________
 62
     7
370
     9
100
AcDbVertex
100
AcDb3dPolylineVertex
 10
82.57789367586912
 20
548.4750224514241
 30
0.0
 70
    32
  0
VERTEX
  5
9F
330
98
100
AcDbEntity
  8
0
  6
________________
 62
     7
370
     9
100
AcDbVertex
100
AcDb3dPolylineVertex
 10
82.53761940720386
 20
548.4649610334529
 30
0.0
 70
    32
  0
VERTEX
  5
A0
330
98
100
AcDbEntity
  8
0
  6
________________
 62
     7
370
     9
100
AcDbVertex
100
AcDb3dPolylineVertex
 10
82.497760807216
 20
548.4532259344894
 30
0.0
 70
    32
  0
VERTEX
  5
A1
330
98
100
AcDbEntity
  8
0
  6
________________
 62
     7
370
     9
100
AcDbVertex
100
AcDb3dPolylineVertex
 10
82.45841982343843
 20
548.4398491131275
 30
0.0
 70
    32
  0
VERTEX
  5
A2
330
98
100
AcDbEntity
  8
0
  6
________________
 62
     7
370
     9
100
AcDbVertex
100
AcDb3dPolylineVertex
 10
82.41969840340415
 20
548.4248625279612
 30
0.0
 70
    32
  0
VERTEX
  5
A3
330
98
100
AcDbEntity
  8
0
  6
________________
 62
     7
370
     9
100
AcDbVertex
100
AcDb3dPolylineVertex
 10
82.38054291569658
 20
548.4077710594532
 30
0.0
 70
    32
  0
VERTEX
  5
A4
330
98
100
AcDbEntity
  8
0
  6
________________
 62
     7
370
     9
100
AcDbVertex
100
AcDb3dPolylineVertex
 10
82.34211472664408
 20
548.3890038317918
 30
0.0
 70
    32
  0
VERTEX
  5
A5
330
98
100
AcDbEntity
  8
0
  6
________________
 62
     7
370
     9
100
AcDbVertex
100
AcDb3dPolylineVertex
 10
82.30451776690623
 20
548.3686137807426
 30
0.0
 70
    32
  0
VERTEX
  5
A6
330
98
100
AcDbEntity
  8
0
  6
________________
 62
     7
370
     9
100
AcDbVertex
100
AcDb3dPolylineVertex
 10
82.26785596714254
 20
548.3466538420713
 30
0.0
 70
    32
  0
VERTEX
  5
A7
330
98
100
AcDbEntity
  8
0
  6
________________
 62
     7
370
     9
100
AcDbVertex
100
AcDb3dPolylineVertex
 10
82.23324212861803
 20
548.3238803889509
 30
0.0
 70
    32
  0
VERTEX
  5
A8
330
98
100
AcDbEntity
  8
0
  6
________________
 62
     7
370
     9
100
AcDbVertex
100
AcDb3dPolylineVertex
 10
82.19956893445764
 20
548.2996691584748
 30
0.0
 70
    32
  0
VERTEX
  5
A9
330
98
100
AcDbEntity
  8
0
  6
________________
 62
     7
370
     9
100
AcDbVertex
100
AcDb3dPolylineVertex
 10
82.1669219460169
 20
548.2740836899795
 30
0.0
 70
    32
  0
VERTEX
  5
AA
330
98
100
AcDbEntity
  8
0
  6
________________
 62
     7
370
     9
100
AcDbVertex
100
AcDb3dPolylineVertex
 10
82.13538672465124
 20
548.2471875228015
 30
0.0
 70
    32
  0
VERTEX
  5
AB
330
98
100
AcDbEntity
  8
0
  6
________________
 62
     7
370
     9
100
AcDbVertex
100
AcDb3dPolylineVertex
 10
82.10413432313067
 20
548.2181667640298
 30
0.0
 70
    32
  0
VERTEX
  5
AC
330
98
100
AcDbEntity
  8
0
  6
________________
 62
     7
370
     9
100
AcDbVertex
100
AcDb3dPolylineVertex
 10
82.07411697541455
 20
548.187808527171
 30
0.0
 70
    32
  0
VERTEX
  5
AD
330
98
100
AcDbEntity
  8
0
  6
________________
 62
     7
370
     9
100
AcDbVertex
100
AcDb3dPolylineVertex
 10
82.04541523009118
 20
548.1561968972483
 30
0.0
 70
    32
  0
VERTEX
  5
AE
330
98
100
AcDbEntity
  8
0
  6
________________
 62
     7
370
     9
100
AcDbVertex
100
AcDb3dPolylineVertex
 10
82.01810963574881
 20
548.1234159592849
 30
0.0
 70
    32
  0
VERTEX
  5
AF
330
98
100
AcDbEntity
  8
0
  6
________________
 62
     7
370
     9
100
AcDbVertex
100
AcDb3dPolylineVertex
 10
81.99296676543402
 20
548.0905003811771
 30
0.0
 70
    32
  0
VERTEX
  5
B0
330
98
100
AcDbEntity
  8
0
  6
________________
 62
     7
370
     9
100
AcDbVertex
100
AcDb3dPolylineVertex
 10
81.96918556642666
 20
548.0565388903156
 30
0.0
 70
    32
  0
VERTEX
  5
B1
330
98
100
AcDbEntity
  8
0
  6
________________
 62
     7
370
     9
100
AcDbVertex
100
AcDb3dPolylineVertex
 10
81.94682594683069
 20
548.0216199557561
 30
0.0
 70
    32
  0
VERTEX
  5
B2
330
98
100
AcDbEntity
  8
0
  6
________________
 62
     7
370
     9
100
AcDbVertex
100
AcDb3dPolylineVertex
 10
81.92594781474999
 20
547.9858320465551
 30
0.0
 70
    32
  0
VERTEX
  5
B3
330
98
100
AcDbEntity
  8
0
  6
________________
 62
     7
370
     9
100
AcDbVertex
100
AcDb3dPolylineVertex
 10
81.9060360995689
 20
547.9481306138796
 30
0.0
 70
    32
  0
VERTEX
  5
B4
330
98
100
AcDbEntity
  8
0
  6
________________
 62
     7
370
     9
100
AcDbVertex
100
AcDb3dPolylineVertex
 10
81.88773122892897
 20
547.9095758236213
 30
0.0
 70
    32
  0
VERTEX
  5
B5
330
98
100
AcDbEntity
  8
0
  6
________________
 62
     7
370
     9
100
AcDbVertex
100
AcDb3dPolylineVertex
 10
81.8710814321559
 20
547.8702739498895
 30
0.0
 70
    32
  0
VERTEX
  5
B6
330
98
100
AcDbEntity
  8
0
  6
________________
 62
     7
370
     9
100
AcDbVertex
100
AcDb3dPolylineVertex
 10
81.85613493857538
 20
547.8303312667941
 30
0.0
 70
    32
  0
VERTEX
  5
B7
330
98
100
AcDbEntity
  8
0
  6
________________
 62
     7
370
     9
100
AcDbVertex
100
AcDb3dPolylineVertex
 10
81.84325945553525
 20
547.7909309533519
 30
0.0
 70
    32
  0
VERTEX
  5
B8
330
98
100
AcDbEntity
  8
0
  6
________________
 62
     7
370
     9
100
AcDbVertex
100
AcDb3dPolylineVertex
 10
81.83201748684642
 20
547.7509938627853
 30
0.0
 70
    32
  0
VERTEX
  5
B9
330
98
100
AcDbEntity
  8
0
  6
________________
 62
     7
370
     9
100
AcDbVertex
100
AcDb3dPolylineVertex
 10
81.822436246567
 20
547.7106238299364
 30
0.0
 70
    32
  0
VERTEX
  5
BA
330
98
100
AcDbEntity
  8
0
  6
________________
 62
     7
370
     9
100
AcDbVertex
100
AcDb3dPolylineVertex
 10
81.81454294875495
 20
547.6699246896468
 30
0.0
 70
    32
  0
VERTEX
  5
BB
330
98
100
AcDbEntity
  8
0
  6
________________
 62
     7
370
     9
100
AcDbVertex
100
AcDb3dPolylineVertex
 10
81.80819554626822
 20
547.6277356117206
 30
0.0
 70
    32
  0
VERTEX
  5
BC
330
98
100
AcDbEntity
  8
0
  6
________________
 62
     7
370
     9
100
AcDbVertex
100
AcDb3dPolylineVertex
 10
81.80364919282745
 20
547.5852740314798
 30
0.0
 70
    32
  0
VERTEX
  5
BD
330
98
100
AcDbEntity
  8
0
  6
________________
 62
     7
370
     9
100
AcDbVertex
100
AcDb3dPolylineVertex
 10
81.80091398016171
 20
547.5426566079108
 30
0.0
 70
    32
  0
VERTEX
  5
BE
330
98
100
AcDbEntity
  8
0
  6
________________
 62
     7
370
     9
100
AcDbVertex
100
AcDb3dPolylineVertex
 10
81.80000000000001
 20
547.5
 30
0.0
 70
    32
  0
SEQEND
  5
BF
330
98
100
AcDbEntity
  8
0
  6
________________
 62
     7
370
     9
  0
LINE
  5
C0
330
1F
100
AcDbEntity
  8
0
  6
________________
 62
     7
370
     9
100
AcDbLine
 10
82.80000000000004
 20
548.5
 30
0.0
 11
172.2
 21
548.5
 31
0.0
  0
POLYLINE
  5
C1
330
1F
100
AcDbEntity
  8
0
  6
________________
 62
     7
370
     9
100
AcDb3dPolyline
 66
     1
 10
0.0
 20
0.0
 30
0.0
 70
     8
  0
VERTEX
  5
C2
330
C1
100
AcDbEntity
  8
0
  6
________________
 62
     7
370
     9
100
AcDbVertex
100
AcDb3dPolylineVertex
 10
173.2
 20
547.5
 30
0.0
 70
    32
  0
VERTEX
  5
C3
330
C1
100
AcDbEntity
  8
0
  6
________________
 62
     7
370
     9
100
AcDbVertex
100
AcDb3dPolylineVertex
 10
173.1991371153712
 20
547.5414524093791
 30
0.0
 70
    32
  0
VERTEX
  5
C4
330
C1
100
AcDbEntity
  8
0
  6
________________
 62
     7
370
     9
100
AcDbVertex
100
AcDb3dPolylineVertex
 10
173.1965544612599
 20
547.5828688685882
 30
0.0
 70
    32
  0
VERTEX
  5
C5
330
C1
100
AcDbEntity
  8
0
  6
________________
 62
     7
370
     9
100
AcDbVertex
100
AcDb3dPolylineVertex
 10
173.192261037329
 20
547.6241423018524
 30
0.0
 70
    32
  0
VERTEX
  5
C6
330
C1
100
AcDbEntity
  8
0
  6
________________
 62
     7
370
     9
100
AcDbVertex
100
AcDb3dPolylineVertex
 10
173.1862658432414
 20
547.665165633397
 30
0.0
 70
    32
  0
VERTEX
  5
C7
330
C1
100
AcDbEntity
  8
0
  6
________________
 62
     7
370
     9
100
AcDbVertex
100
AcDb3dPolylineVertex
 10
173.1783198087867
 20
547.7070816898748
 30
0.0
 70
    32
  0
VERTEX
  5
C8
330
C1
100
AcDbEntity
  8
0
  6
________________
 62
     7
370
     9
100
AcDbVertex
100
AcDb3dPolylineVertex
 10
173.168584746427
 20
547.7486567987976
 30
0.0
 70
    32
  0
VERTEX
  5
C9
330
C1
100
AcDbEntity
  8
0
  6
________________
 62
     7
370
     9
100
AcDbVertex
100
AcDb3dPolylineVertex
 10
173.1570900370202
 20
547.7897777333693
 30
0.0
 70
    32
  0
VERTEX
  5
CA
330
C1
100
AcDbEntity
  8
0
  6
________________
 62
     7
370
     9
100
AcDbVertex
100
AcDb3dPolylineVertex
 10
173.1438650614246
 20
547.8303312667941
 30
0.0
 70
    32
  0
VERTEX
  5
CB
330
C1
100
AcDbEntity
  8
0
  6
________________
 62
     7
370
     9
100
AcDbVertex
100
AcDb3dPolylineVertex
 10
173.1293628444145
 20
547.8691585240506
 30
0.0
 70
    32
  0
VERTEX
  5
CC
330
C1
100
AcDbEntity
  8
0
  6
________________
 62
     7
370
     9
100
AcDbVertex
100
AcDb3dPolylineVertex
 10
173.1132515471707
 20
547.9073815368183
 30
0.0
 70
    32
  0
VERTEX
  5
CD
330
C1
100
AcDbEntity
  8
0
  6
________________
 62
     7
370
     9
100
AcDbVertex
100
AcDb3dPolylineVertex
 10
173.0955752057927
 20
547.9449026434171
 30
0.0
 70
    32
  0
VERTEX
  5
CE
330
C1
100
AcDbEntity
  8
0
  6
________________
 62
     7
370
     9
100
AcDbVertex
100
AcDb3dPolylineVertex
 10
173.0763778563796
 20
547.9816241821666
 30
0.0
 70
    32
  0
VERTEX
  5
CF
330
C1
100
AcDbEntity
  8
0
  6
________________
 62
     7
370
     9
100
AcDbVertex
100
AcDb3dPolylineVertex
 10
173.0550496903264
 20
548.0185388744063
 30
0.0
 70
    32
  0
VERTEX
  5
D0
330
C1
100
AcDbEntity
  8
0
  6
________________
 62
     7
370
     9
100
AcDbVertex
100
AcDb3dPolylineVertex
 10
173.0321490299604
 20
548.0545400953027
 30
0.0
 70
    32
  0
VERTEX
  5
D1
330
C1
100
AcDbEntity
  8
0
  6
________________
 62
     7
370
     9
100
AcDbVertex
100
AcDb3dPolylineVertex
 10
173.0077409097719
 20
548.0895313039106
 30
0.0
 70
    32
  0
VERTEX
  5
D2
330
C1
100
AcDbEntity
  8
0
  6
________________
 62
     7
370
     9
100
AcDbVertex
100
AcDb3dPolylineVertex
 10
172.9818903642512
 20
548.1234159592849
 30
0.0
 70
    32
  0
VERTEX
  5
D3
330
C1
100
AcDbEntity
  8
0
  6
________________
 62
     7
370
     9
100
AcDbVertex
100
AcDb3dPolylineVertex
 10
172.9553705067086
 20
548.1552928679973
 30
0.0
 70
    32
  0
VERTEX
  5
D4
330
C1
100
AcDbEntity
  8
0
  6
________________
 62
     7
370
     9
100
AcDbVertex
100
AcDb3dPolylineVertex
 10
172.9275311499769
 20
548.1860660235976
 30
0.0
 70
    32
  0
VERTEX
  5
D5
330
C1
100
AcDbEntity
  8
0
  6
________________
 62
     7
370
     9
100
AcDbVertex
100
AcDb3dPolylineVertex
 10
172.8984460671009
 20
548.2156580434118
 30
0.0
 70
    32
  0
VERTEX
  5
D6
330
C1
100
AcDbEntity
  8
0
  6
________________
 62
     7
370
     9
100
AcDbVertex
100
AcDb3dPolylineVertex
 10
172.8681890311254
 20
548.2439915447663
 30
0.0
 70
    32
  0
VERTEX
  5
D7
330
C1
100
AcDbEntity
  8
0
  6
________________
 62
     7
370
     9
100
AcDbVertex
100
AcDb3dPolylineVertex
 10
172.83585892165
 20
548.2718005015568
 30
0.0
 70
    32
  0
VERTEX
  5
D8
330
C1
100
AcDbEntity
  8
0
  6
________________
 62
     7
370
     9
100
AcDbVertex
100
AcDb3dPolylineVertex
 10
172.8023460335174
 20
548.29822682344
 30
0.0
 70
    32
  0
VERTEX
  5
D9
330
C1
100
AcDbEntity
  8
0
  6
________________
 62
     7
370
     9
100
AcDbVertex
100
AcDb3dPolylineVertex
 10
172.7677433946218
 20
548.3232010803126
 30
0.0
 70
    32
  0
VERTEX
  5
DA
330
C1
100
AcDbEntity
  8
0
  6
________________
 62
     7
370
     9
100
AcDbVertex
100
AcDb3dPolylineVertex
 10
172.7321440328575
 20
548.3466538420713
 30
0.0
 70
    32
  0
VERTEX
  5
DB
330
C1
100
AcDbEntity
  8
0
  6
________________
 62
     7
370
     9
100
AcDbVertex
100
AcDb3dPolylineVertex
 10
172.6965245393105
 20
548.36801885225
 30
0.0
 70
    32
  0
VERTEX
  5
DC
330
C1
100
AcDbEntity
  8
0
  6
________________
 62
     7
370
     9
100
AcDbVertex
100
AcDb3dPolylineVertex
 10
172.6600207960904
 20
548.3879014762952
 30
0.0
 70
    32
  0
VERTEX
  5
DD
330
C1
100
AcDbEntity
  8
0
  6
________________
 62
     7
370
     9
100
AcDbVertex
100
AcDb3dPolylineVertex
 10
172.6227281111551
 20
548.406252883456
 30
0.0
 70
    32
  0
VERTEX
  5
DE
330
C1
100
AcDbEntity
  8
0
  6
________________
 62
     7
370
     9
100
AcDbVertex
100
AcDb3dPolylineVertex
 10
172.5847417924624
 20
548.4230242429821
 30
0.0
 70
    32
  0
VERTEX
  5
DF
330
C1
100
AcDbEntity
  8
0
  6
________________
 62
     7
370
     9
100
AcDbVertex
100
AcDb3dPolylineVertex
 10
172.5449665190953
 20
548.4386110338869
 30
0.0
 70
    32
  0
VERTEX
  5
E0
330
C1
100
AcDbEntity
  8
0
  6
________________
 62
     7
370
     9
100
AcDbVertex
100
AcDb3dPolylineVertex
 10
172.5045282102517
 20
548.452496381769
 30
0.0
 70
    32
  0
VERTEX
  5
E1
330
C1
100
AcDbEntity
  8
0
  6
________________
 62
     7
370
     9
100
AcDbVertex
100
AcDb3dPolylineVertex
 10
172.4635378254306
 20
548.4646452123683
 30
0.0
 70
    32
  0
VERTEX
  5
E2
330
C1
100
AcDbEntity
  8
0
  6
________________
 62
     7
370
     9
100
AcDbVertex
100
AcDb3dPolylineVertex
 10
172.4221063241309
 20
548.4750224514241
 30
0.0
 70
    32
  0
VERTEX
  5
E3
330
C1
100
AcDbEntity
  8
0
  6
________________
 62
     7
370
     9
100
AcDbVertex
100
AcDb3dPolylineVertex
 10
172.3714983575724
 20
548.4851835143766
 30
0.0
 70
    32
  0
VERTEX
  5
E4
330
C1
100
AcDbEntity
  8
0
  6
________________
 62
     7
370
     9
100
AcDbVertex
100
AcDb3dPolylineVertex
 10
172.3204363572287
 20
548.4927210503749
 30
0.0
 70
    32
  0
VERTEX
  5
E5
330
C1
100
AcDbEntity
  8
0
  6
________________
 62
     7
370
     9
100
AcDbVertex
100
AcDb3dPolylineVertex
 10
172.2684988325987
 20
548.4976502784696
 30
0.0
 70
    32
  0
VERTEX
  5
E6
330
C1
100
AcDbEntity
  8
0
  6
________________
 62
     7
370
     9
100
AcDbVertex
100
AcDb3dPolylineVertex
 10
172.2163761813258
 20
548.4998659013513
 30
0.0
 70
    32
  0
VERTEX
  5
E7
330
C1
100
AcDbEntity
  8
0
  6
________________
 62
     7
370
     9
100
AcDbVertex
100
AcDb3dPolylineVertex
 10
172.2
 20
548.5
 30
0.0
 70
    32
  0
SEQEND
  5
E8
330
C1
100
AcDbEntity
  8
0
  6
________________
 62
     7
370
     9
  0
LINE
  5
E9
330
1F
100
AcDbEntity
  8
0
  6
________________
 62
     7
370
     9
100
AcDbLine
 10
156.7559237301261
 20
505.4737497586548
 30
0.0
 11
166.4548003330907
 21
505.4737497586548
 31
0.0
  0
LINE
  5
EA
330
1F
100
AcDbEntity
  8
0
  6
________________
 62
     7
370
     9
100
AcDbLine
 10
88.54519966690738
 20
505.4737497586548
 30
0.0
 11
98.24407626987065
 21
505.4737497586548
 31
0.0
  0
LINE
  5
EB
330
1F
100
AcDbEntity
  8
0
  6
________________
 62
     7
370
     9
100
AcDbLine
 10
166.4285500917524
 20
505.4999999999999
 30
0.0
 11
156.7821739714745
 21
505.4999999999999
 31
0.0
  0
LINE
  5
EC
330
1F
100
AcDbEntity
  8
0
  6
________________
 62
     7
370
     9
100
AcDbLine
 10
88.57144990824764
 20
505.4999999999999
 30
0.0
 11
98.21782602852552
 21
505.4999999999999
 31
0.0
  0
POLYLINE
  5
ED
330
1F
100
AcDbEntity
  8
0
  6
________________
 62
     7
370
     9
100
AcDb3dPolyline
 66
     1
 10
0.0
 20
0.0
 30
0.0
 70
     9
  0
VERTEX
  5
EE
330
ED
100
AcDbEntity
  8
0
  6
________________
 62
     7
370
     9
100
AcDbVertex
100
AcDb3dPolylineVertex
 10
74.89556294065675
 20
519.3210081685047
 30
0.0
 70
    32
  0
VERTEX
  5
EF
330
ED
100
AcDbEntity
  8
0
  6
________________
 62
     7
370
     9
100
AcDbVertex
100
AcDb3dPolylineVertex
 10
74.89556294065686
 20
519.3210081685113
 30
0.0
 70
    32
  0
VERTEX
  5
F0
330
ED
100
AcDbEntity
  8
0
  6
________________
 62
     7
370
     9
100
AcDbVertex
100
AcDb3dPolylineVertex
 10
74.89556294065686
 20
519.3210081685056
 30
0.0
 70
    32
  0
VERTEX
  5
F1
330
ED
100
AcDbEntity
  8
0
  6
________________
 62
     7
370
     9
100
AcDbVertex
100
AcDb3dPolylineVertex
 10
74.89556294065679
 20
519.3210081685
 30
0.0
 70
    32
  0
SEQEND
  5
F2
330
ED
100
AcDbEntity
  8
0
  6
________________
 62
     7
370
     9
  0
POLYLINE
  5
F3
330
1F
100
AcDbEntity
  8
0
  6
________________
 62
     7
370
     9
100
AcDb3dPolyline
 66
     1
 10
0.0
 20
0.0
 30
0.0
 70
     8
  0
VERTEX
  5
F4
330
F3
100
AcDbEntity
  8
0
  6
________________
 62
     7
370
     9
100
AcDbVertex
100
AcDb3dPolylineVertex
 10
80.6177482373742
 20
535.2159673260393
 30
0.0
 70
    32
  0
VERTEX
  5
F5
330
F3
100
AcDbEntity
  8
0
  6
________________
 62
     7
370
     9
100
AcDbVertex
100
AcDb3dPolylineVertex
 10
80.61774823737414
 20
535.2159673260393
 30
0.0
 70
    32
  0
VERTEX
  5
F6
330
F3
100
AcDbEntity
  8
0
  6
________________
 62
     7
370
     9
100
AcDbVertex
100
AcDb3dPolylineVertex
 10
80.61774823737305
 20
535.21596732604
 30
0.0
 70
    32
  0
VERTEX
  5
F7
330
F3
100
AcDbEntity
  8
0
  6
________________
 62
     7
370
     9
100
AcDbVertex
100
AcDb3dPolylineVertex
 10
80.61774823737254
 20
535.2159673260401
 30
0.0
 70
    32
  0
VERTEX
  5
F8
330
F3
100
AcDbEntity
  8
0
  6
________________
 62
     7
370
     9
100
AcDbVertex
100
AcDb3dPolylineVertex
 10
80.61774823737264
 20
535.2159673260393
 30
0.0
 70
    32
  0
VERTEX
  5
F9
330
F3
100
AcDbEntity
  8
0
  6
________________
 62
     7
370
     9
100
AcDbVertex
100
AcDb3dPolylineVertex
 10
80.617748237373
 20
535.2159673260384
 30
0.0
 70
    32
  0
SEQEND
  5
FA
330
F3
100
AcDbEntity
  8
0
  6
________________
 62
     7
370
     9
  0
POLYLINE
  5
FB
330
1F
100
AcDbEntity
  8
0
  6
________________
 62
     7
370
     9
100
AcDb3dPolyline
 66
     1
 10
0.0
 20
0.0
 30
0.0
 70
     8
  0
VERTEX
  5
FC
330
FB
100
AcDbEntity
  8
0
  6
________________
 62
     7
370
     9
100
AcDbVertex
100
AcDb3dPolylineVertex
 10
75.1
 20
516.6658867569577
 30
0.0
 70
    32
  0
VERTEX
  5
FD
330
FB
100
AcDbEntity
  8
0
  6
________________
 62
     7
370
     9
100
AcDbVertex
100
AcDb3dPolylineVertex
 10
75.06456593305788
 20
516.687335566236
 30
0.0
 70
    32
  0
VERTEX
  5
FE
330
FB
100
AcDbEntity
  8
0
  6
________________
 62
     7
370
     9
100
AcDbVertex
100
AcDb3dPolylineVertex
 10
75.03005007661298
 20
516.7102327314184
 30
0.0
 70
    32
  0
VERTEX
  5
FF
330
FB
100
AcDbEntity
  8
0
  6
________________
 62
     7
370
     9
100
AcDbVertex
100
AcDb3dPolylineVertex
 10
74.99628302802921
 20
516.7347139038038
 30
0.0
 70
    32
  0
VERTEX
  5
100
330
FB
100
AcDbEntity
  8
0
  6
________________
 62
     7
370
     9
100
AcDbVertex
100
AcDb3dPolylineVertex
 10
74.96356571417817
 20
516.7605812335037
 30
0.0
 70
    32
  0
VERTEX
  5
101
330
FB
100
AcDbEntity
  8
0
  6
________________
 62
     7
370
     9
100
AcDbVertex
100
AcDb3dPolylineVertex
 10
74.93128088514852
 20
516.7883975877377
 30
0.0
 70
    32
  0
VERTEX
  5
102
330
FB
100
AcDbEntity
  8
0
  6
________________
 62
     7
370
     9
100
AcDbVertex
100
AcDb3dPolylineVertex
 10
74.90020993961662
 20
516.817563596928
 30
0.0
 70
    32
  0
VERTEX
  5
103
330
FB
100
AcDbEntity
  8
0
  6
________________
 62
     7
370
     9
100
AcDbVertex
100
AcDb3dPolylineVertex
 10
74.8701959836188
 20
516.8482563644985
 30
0.0
 70
    32
  0
VERTEX
  5
104
330
FB
100
AcDbEntity
  8
0
  6
________________
 62
     7
370
     9
100
AcDbVertex
100
AcDb3dPolylineVertex
 10
74.8415263529238
 20
516.8802084506837
 30
0.0
 70
    32
  0
VERTEX
  5
105
330
FB
100
AcDbEntity
  8
0
  6
________________
 62
     7
370
     9
100
AcDbVertex
100
AcDb3dPolylineVertex
 10
74.81518942290718
 20
516.9121770389662
 30
0.0
 70
    32
  0
VERTEX
  5
106
330
FB
100
AcDbEntity
  8
0
  6
________________
 62
     7
370
     9
100
AcDbVertex
100
AcDb3dPolylineVertex
 10
74.79019835665112
 20
516.9452084047701
 30
0.0
 70
    32
  0
VERTEX
  5
107
330
FB
100
AcDbEntity
  8
0
  6
________________
 62
     7
370
     9
100
AcDbVertex
100
AcDb3dPolylineVertex
 10
74.76643820228969
 20
516.9794866257852
 30
0.0
 70
    32
  0
VERTEX
  5
108
330
FB
100
AcDbEntity
  8
0
  6
________________
 62
     7
370
     9
100
AcDbVertex
100
AcDb3dPolylineVertex
 10
74.7441274336626
 20
517.0147253966845
 30
0.0
 70
    32
  0
VERTEX
  5
109
330
FB
100
AcDbEntity
  8
0
  6
________________
 62
     7
370
     9
100
AcDbVertex
100
AcDb3dPolylineVertex
 10
74.7228699081805
 20
517.0516601683497
 30
0.0
 70
    32
  0
VERTEX
  5
10A
330
FB
100
AcDbEntity
  8
0
  6
________________
 62
     7
370
     9
100
AcDbVertex
100
AcDb3dPolylineVertex
 10
74.70320458144808
 20
517.0894667110649
 30
0.0
 70
    32
  0
VERTEX
  5
10B
330
FB
100
AcDbEntity
  8
0
  6
________________
 62
     7
370
     9
100
AcDbVertex
100
AcDb3dPolylineVertex
 10
74.68504202602773
 20
517.1283640774975
 30
0.0
 70
    32
  0
VERTEX
  5
10C
330
FB
100
AcDbEntity
  8
0
  6
________________
 62
     7
370
     9
100
AcDbVertex
100
AcDb3dPolylineVertex
 10
74.66856485616552
 20
517.1680047940415
 30
0.0
 70
    32
  0
VERTEX
  5
10D
330
FB
100
AcDbEntity
  8
0
  6
________________
 62
     7
370
     9
100
AcDbVertex
100
AcDb3dPolylineVertex
 10
74.65296076996981
 20
517.2107959518929
 30
0.0
 70
    32
  0
VERTEX
  5
10E
330
FB
100
AcDbEntity
  8
0
  6
________________
 62
     7
370
     9
100
AcDbVertex
100
AcDb3dPolylineVertex
 10
74.63932036673279
 20
517.2542529432268
 30
0.0
 70
    32
  0
VERTEX
  5
10F
330
FB
100
AcDbEntity
  8
0
  6
________________
 62
     7
370
     9
100
AcDbVertex
100
AcDb3dPolylineVertex
 10
74.62758445195584
 20
517.2986593189287
 30
0.0
 70
    32
  0
VERTEX
  5
110
330
FB
100
AcDbEntity
  8
0
  6
________________
 62
     7
370
     9
100
AcDbVertex
100
AcDb3dPolylineVertex
 10
74.6178989216163
 20
517.3435575193456
 30
0.0
 70
    32
  0
VERTEX
  5
111
330
FB
100
AcDbEntity
  8
0
  6
________________
 62
     7
370
     9
100
AcDbVertex
100
AcDb3dPolylineVertex
 10
74.61011215283214
 20
517.3900643081059
 30
0.0
 70
    32
  0
VERTEX
  5
112
330
FB
100
AcDbEntity
  8
0
  6
________________
 62
     7
370
     9
100
AcDbVertex
100
AcDb3dPolylineVertex
 10
74.60452519388838
 20
517.4368863227858
 30
0.0
 70
    32
  0
VERTEX
  5
113
330
FB
100
AcDbEntity
  8
0
  6
________________
 62
     7
370
     9
100
AcDbVertex
100
AcDb3dPolylineVertex
 10
74.60113257903306
 20
517.4843454310878
 30
0.0
 70
    32
  0
VERTEX
  5
114
330
FB
100
AcDbEntity
  8
0
  6
________________
 62
     7
370
     9
100
AcDbVertex
100
AcDb3dPolylineVertex
 10
74.6
 20
517.531912163802
 30
0.0
 70
    32
  0
SEQEND
  5
115
330
FB
100
AcDbEntity
  8
0
  6
________________
 62
     7
370
     9
  0
LINE
  5
116
330
1F
100
AcDbEntity
  8
0
  6
________________
 62
     7
370
     9
100
AcDbLine
 10
79.31481036666973
 20
499.8287181803822
 30
0.0
 11
78.31349270379121
 21
505.4999999999999
 31
0.0
  0
LINE
  5
117
330
1F
100
AcDbEntity
  8
0
  6
________________
 62
     7
370
     9
100
AcDbLine
 10
78.31349270379123
 20
505.4999999999999
 30
0.0
 11
78.31349270379121
 21
516.5
 31
0.0
  0
LINE
  5
118
330
1F
100
AcDbEntity
  8
0
  6
________________
 62
     7
370
     9
100
AcDbLine
 10
78.25000000000001
 20
505.4999999999999
 30
0.0
 11
78.31349270379123
 21
505.4999999999999
 31
0.0
  0
LINE
  5
119
330
1F
100
AcDbEntity
  8
0
  6
________________
 62
     7
370
     9
100
AcDbLine
 10
175.6851896333303
 20
499.8287181803822
 30
0.0
 11
176.6865072962088
 21
505.4999999999999
 31
0.0
  0
LINE
  5
11A
330
1F
100
AcDbEntity
  8
0
  6
________________
 62
     7
370
     9
100
AcDbLine
 10
176.6865072962088
 20
505.4999999999999
 30
0.0
 11
176.6865072962088
 21
510.4999999999999
 31
0.0
  0
LINE
  5
11B
330
1F
100
AcDbEntity
  8
0
  6
________________
 62
     7
370
     9
100
AcDbLine
 10
176.75
 20
505.4999999999999
 30
0.0
 11
176.6865072962088
 21
505.4999999999999
 31
0.0
  0
LINE
  5
11C
330
1F
100
AcDbEntity
  8
0
  6
________________
 62
     7
370
     9
100
AcDbLine
 10
178.3562556682369
 20
518.5
 30
0.0
 11
178.0937896776593
 21
518.5
 31
0.0
  0
LINE
  5
11D
330
1F
100
AcDbEntity
  8
0
  6
________________
 62
     7
370
     9
100
AcDbLine
 10
176.0732636876993
 20
519.674034087279
 30
0.0
 11
176.5018123470785
 21
518.5
 31
0.0
  0
LINE
  5
11E
330
1F
100
AcDbEntity
  8
0
  6
________________
 62
     7
370
     9
100
AcDbLine
 10
76.50000000000026
 20
518.5
 30
0.0
 11
76.2375340094222
 21
518.5
 31
0.0
  0
LINE
  5
11F
330
1F
100
AcDbEntity
  8
0
  6
________________
 62
     7
370
     9
100
AcDbLine
 10
85.77245367239979
 20
638.0
 30
0.0
 11
85.80299770966744
 21
634.5
 31
0.0
  0
LINE
  5
120
330
1F
100
AcDbEntity
  8
0
  6
________________
 62
     7
370
     9
100
AcDbLine
 10
83.84374433176298
 20
635.0
 30
0.0
 11
84.10621032234073
 21
638.0
 31
0.0
  0
LINE
  5
121
330
1F
100
AcDbEntity
  8
0
  6
________________
 62
     7
370
     9
100
AcDbLine
 10
171.3
 20
632.0
 30
0.0
 11
171.5624659905778
 21
635.0
 31
0.0
  0
ARC
  5
122
330
1F
100
AcDbEntity
  8
0
  6
________________
 62
     7
370
     9
100
AcDbCircle
 10
127.5
 20
635.0
 30
0.0
 40
41.7
100
AcDbArc
 50
180.6870162170636
 51
355.8744374514519
  0
ARC
  5
123
330
1F
100
AcDbEntity
  8
0
  6
________________
 62
     7
370
     9
100
AcDbCircle
 10
-127.5
 20
637.5
 30
0.0
 40
46.20000000000003
210
0.0
220
0.0
230
-1.0
100
AcDbArc
 50
188.4371176253245
 51
351.5628823746754
  0
LINE
  5
124
330
1F
100
AcDbEntity
  8
0
  6
________________
 62
     7
370
     9
100
AcDbLine
 10
82.8
 20
630.7955238832553
 30
0.0
 11
81.8
 21
630.721357067967
 31
0.0
  0
LINE
  5
125
330
1F
100
AcDbEntity
  8
0
  6
________________
 62
     7
370
     9
100
AcDbLine
 10
173.2
 20
630.721357067967
 30
0.0
 11
172.2
 21
630.7955238832553
 31
0.0
  0
LINE
  5
126
330
1F
100
AcDbEntity
  8
0
  6
________________
 62
     7
370
     9
100
AcDbLine
 10
82.30000000000001
 20
634.4999999999999
 30
0.0
 11
82.30000000000001
 21
635.0000000000069
 31
0.0
  0
LINE
  5
127
330
1F
100
AcDbEntity
  8
0
  6
________________
 62
     7
370
     9
100
AcDbLine
 10
81.8
 20
630.721357067967
 30
0.0
 11
81.80000000000001
 21
634.4999999999999
 31
0.0
  0
LINE
  5
128
330
1F
100
AcDbEntity
  8
0
  6
________________
 62
     7
370
     9
100
AcDbLine
 10
173.2
 20
635.0
 30
0.0
 11
173.2
 21
630.721357067967
 31
0.0
  0
ARC
  5
129
330
1F
100
AcDbEntity
  8
0
  6
________________
 62
     7
370
     9
100
AcDbCircle
 10
-127.5
 20
637.5
 30
0.0
 40
53.5
210
0.0
220
0.0
230
-1.0
100
AcDbArc
 50
188.5890095223596
 51
351.4109904776403
  0
LINE
  5
12A
330
1F
100
AcDbEntity
  8
0
  6
________________
 62
     7
370
     9
100
AcDbLine
 10
74.59999999999998
 20
629.5100933844502
 30
0.0
 11
74.59999999999998
 21
634.5
 31
0.0
  0
LINE
  5
12B
330
1F
100
AcDbEntity
  8
0
  6
________________
 62
     7
370
     9
100
AcDbLine
 10
75.09999999999998
 20
634.5
 30
0.0
 11
75.09999999999998
 21
635.0
 31
0.0
  0
LINE
  5
12C
330
1F
100
AcDbEntity
  8
0
  6
________________
 62
     7
370
     9
100
AcDbLine
 10
169.2275463276002
 20
632.0
 30
0.0
 11
169.1970022903325
 21
635.5
 31
0.0
  0
LINE
  5
12D
330
1F
100
AcDbEntity
  8
0
  6
________________
 62
     7
370
     9
100
AcDbLine
 10
171.156255668237
 20
635.0
 30
0.0
 11
170.8937896776592
 21
632.0
 31
0.0
  0
LINE
  5
12E
330
1F
100
AcDbEntity
  8
0
  6
________________
 62
     7
370
     9
100
AcDbLine
 10
83.69999999999996
 20
638.0
 30
0.0
 11
83.4375340094222
 21
635.0
 31
0.0
  0
ARC
  5
12F
330
1F
100
AcDbEntity
  8
0
  6
________________
 62
     7
370
     9
100
AcDbCircle
 10
127.5
 20
635.0
 30
0.0
 40
41.7
100
AcDbArc
 50
0.6870162170635441
 51
175.8744374514519
  0
ARC
  5
130
330
1F
100
AcDbEntity
  8
0
  6
________________
 62
     7
370
     9
100
AcDbCircle
 10
-127.5
 20
632.5
 30
0.0
 40
46.19999999999998
210
0.0
220
0.0
230
-1.0
100
AcDbArc
 50
8.4371176253246
 51
171.5628823746754
  0
LINE
  5
131
330
1F
100
AcDbEntity
  8
0
  6
________________
 62
     7
370
     9
100
AcDbLine
 10
172.2
 20
639.2044761167447
 30
0.0
 11
173.2
 21
639.278642932033
 31
0.0
  0
LINE
  5
132
330
1F
100
AcDbEntity
  8
0
  6
________________
 62
     7
370
     9
100
AcDbLine
 10
81.79999999999995
 20
639.278642932033
 30
0.0
 11
82.79999999999998
 21
639.2044761167447
 31
0.0
  0
LINE
  5
133
330
1F
100
AcDbEntity
  8
0
  6
________________
 62
     7
370
     9
100
AcDbLine
 10
172.7
 20
635.5
 30
0.0
 11
172.7
 21
634.9999999999931
 31
0.0
  0
LINE
  5
134
330
1F
100
AcDbEntity
  8
0
  6
________________
 62
     7
370
     9
100
AcDbLine
 10
173.2
 20
639.278642932033
 30
0.0
 11
173.2
 21
635.5
 31
0.0
  0
LINE
  5
135
330
1F
100
AcDbEntity
  8
0
  6
________________
 62
     7
370
     9
100
AcDbLine
 10
81.79999999999998
 20
635.0
 30
0.0
 11
81.79999999999995
 21
639.278642932033
 31
0.0
  0
ARC
  5
136
330
1F
100
AcDbEntity
  8
0
  6
________________
 62
     7
370
     9
100
AcDbCircle
 10
-127.5
 20
632.4999999999999
 30
0.0
 40
53.50000000000003
210
0.0
220
0.0
230
-1.0
100
AcDbArc
 50
8.589009522359735
 51
171.4109904776403
  0
LINE
  5
137
330
1F
100
AcDbEntity
  8
0
  6
________________
 62
     7
370
     9
100
AcDbLine
 10
180.4
 20
640.4899066155498
 30
0.0
 11
180.4
 21
635.4999999999999
 31
0.0
  0
LINE
  5
138
330
1F
100
AcDbEntity
  8
0
  6
________________
 62
     7
370
     9
100
AcDbLine
 10
179.9
 20
635.4999999999999
 30
0.0
 11
179.9
 21
635.0
 31
0.0
  0
INSERT
  5
13C
330
1F
100
AcDbEntity
  8
0
  6
________________
 62
     7
370
     9
100
AcDbBlockReference
  2
@1643
 10
0.0
 20
0.0
 30
0.0
  0
LINE
  5
13D
330
1F
100
AcDbEntity
  8
0
  6
________________
 62
     7
370
     9
100
AcDbLine
 10
257.0100933841942
 20
517.6274108271261
 30
0.0
 11
257.0598040385518
 21
519.32100816849
 31
0.0
  0
LINE
  5
13E
330
1F
100
AcDbEntity
  8
0
  6
________________
 62
     7
370
     9
100
AcDbLine
 10
257.0845509307981
 20
516.5343873696246
 30
0.0
 11
257.0100062530701
 21
517.5343801873671
 31
0.0
  0
LINE
  5
13F
330
1F
100
AcDbEntity
  8
0
  6
________________
 62
     7
370
     9
100
AcDbLine
 10
259.5
 20
516.5247682392154
 30
0.0
 11
262.5
 21
516.5262893924239
 31
0.0
  0
LINE
  5
140
330
1F
100
AcDbEntity
  8
0
  6
________________
 62
     7
370
     9
100
AcDbLine
 10
262.5
 20
516.5078239972669
 30
0.0
 11
259.5
 21
516.5109085847384
 31
0.0
  0
LINE
  5
141
330
1F
100
AcDbEntity
  8
0
  6
________________
 62
     7
370
     9
100
AcDbLine
 10
262.5
 20
510.4999999999999
 30
0.0
 11
259.9999999999999
 21
510.4999999999999
 31
0.0
  0
LINE
  5
142
330
1F
100
AcDbEntity
  8
0
  6
________________
 62
     7
370
     9
100
AcDbLine
 10
234.6889961047399
 20
502.5000000000001
 30
0.0
 11
234.6889961047399
 21
501.0278640450004
 31
0.0
  0
LINE
  5
143
330
1F
100
AcDbEntity
  8
0
  6
________________
 62
     7
370
     9
100
AcDbLine
 10
234.6889961047399
 20
502.5000000000001
 30
0.0
 11
239.416347723936
 21
502.5000000000001
 31
0.0
  0
LINE
  5
144
330
1F
100
AcDbEntity
  8
0
  6
________________
 62
     7
370
     9
100
AcDbLine
 10
239.4163477239361
 20
502.5000000000001
 30
0.0
 11
239.4163477239361
 21
506.5000000000001
 31
0.0
  0
LINE
  5
145
330
1F
100
AcDbEntity
  8
0
  6
________________
 62
     7
370
     9
100
AcDbLine
 10
220.2901448119044
 20
506.5000000000001
 30
0.0
 11
239.4163477239361
 21
506.5000000000001
 31
0.0
  0
LINE
  5
146
330
1F
100
AcDbEntity
  8
0
  6
________________
 62
     7
370
     9
100
AcDbLine
 10
220.2901448119044
 20
506.5000000000001
 30
0.0
 11
220.2901448119044
 21
502.5000000000001
 31
0.0
  0
LINE
  5
147
330
1F
100
AcDbEntity
  8
0
  6
________________
 62
     7
370
     9
100
AcDbLine
 10
220.2901448119044
 20
502.5000000000001
 30
0.0
 11
223.0805110321672
 21
502.5000000000001
 31
0.0
  0
LINE
  5
148
330
1F
100
AcDbEntity
  8
0
  6
________________
 62
     7
370
     9
100
AcDbLine
 10
258.2213570679671
 20
547.5
 30
0.0
 11
258.2955238832553
 21
548.5
 31
0.0
  0
POLYLINE
  5
149
330
1F
100
AcDbEntity
  8
0
  6
________________
 62
     7
370
     9
100
AcDb3dPolyline
 66
     1
 10
0.0
 20
0.0
 30
0.0
 70
     8
  0
VERTEX
  5
14A
330
149
100
AcDbEntity
  8
0
  6
________________
 62
     7
370
     9
100
AcDbVertex
100
AcDb3dPolylineVertex
 10
234.4151521384603
 20
501.6986844382504
 30
0.0
 70
    32
  0
VERTEX
  5
14B
330
149
100
AcDbEntity
  8
0
  6
________________
 62
     7
370
     9
100
AcDbVertex
100
AcDb3dPolylineVertex
 10
234.4522344318804
 20
501.6538295362197
 30
0.0
 70
    32
  0
VERTEX
  5
14C
330
149
100
AcDbEntity
  8
0
  6
________________
 62
     7
370
     9
100
AcDbVertex
100
AcDb3dPolylineVertex
 10
234.4873903411055
 20
501.6074188006793
 30
0.0
 70
    32
  0
VERTEX
  5
14D
330
149
100
AcDbEntity
  8
0
  6
________________
 62
     7
370
     9
100
AcDbVertex
100
AcDb3dPolylineVertex
 10
234.5204031966048
 20
501.5594985838493
 30
0.0
 70
    32
  0
VERTEX
  5
14E
330
149
100
AcDbEntity
  8
0
  6
________________
 62
     7
370
     9
100
AcDbVertex
100
AcDb3dPolylineVertex
 10
234.5441059426469
 20
501.5217992659202
 30
0.0
 70
    32
  0
VERTEX
  5
14F
330
149
100
AcDbEntity
  8
0
  6
________________
 62
     7
370
     9
100
AcDbVertex
100
AcDb3dPolylineVertex
 10
234.5663742421567
 20
501.4831957518199
 30
0.0
 70
    32
  0
VERTEX
  5
150
330
149
100
AcDbEntity
  8
0
  6
________________
 62
     7
370
     9
100
AcDbVertex
100
AcDb3dPolylineVertex
 10
234.587094634981
 20
501.4437456730323
 30
0.0
 70
    32
  0
VERTEX
  5
151
330
149
100
AcDbEntity
  8
0
  6
________________
 62
     7
370
     9
100
AcDbVertex
100
AcDb3dPolylineVertex
 10
234.606153660967
 20
501.4035066610418
 30
0.0
 70
    32
  0
VERTEX
  5
152
330
149
100
AcDbEntity
  8
0
  6
________________
 62
     7
370
     9
100
AcDbVertex
100
AcDb3dPolylineVertex
 10
234.6258398396698
 20
501.3564297652541
 30
0.0
 70
    32
  0
VERTEX
  5
153
330
149
100
AcDbEntity
  8
0
  6
________________
 62
     7
370
     9
100
AcDbVertex
100
AcDb3dPolylineVertex
 10
234.6431051362091
 20
501.3083783534649
 30
0.0
 70
    32
  0
VERTEX
  5
154
330
149
100
AcDbEntity
  8
0
  6
________________
 62
     7
370
     9
100
AcDbVertex
100
AcDb3dPolylineVertex
 10
234.6577871928639
 20
501.2595151945427
 30
0.0
 70
    32
  0
VERTEX
  5
155
330
149
100
AcDbEntity
  8
0
  6
________________
 62
     7
370
     9
100
AcDbVertex
100
AcDb3dPolylineVertex
 10
234.6672538061531
 20
501.2213545863792
 30
0.0
 70
    32
  0
VERTEX
  5
156
330
149
100
AcDbEntity
  8
0
  6
________________
 62
     7
370
     9
100
AcDbVertex
100
AcDb3dPolylineVertex
 10
234.6750708975914
 20
501.182783881245
 30
0.0
 70
    32
  0
VERTEX
  5
157
330
149
100
AcDbEntity
  8
0
  6
________________
 62
     7
370
     9
100
AcDbVertex
100
AcDb3dPolylineVertex
 10
234.6811911697428
 20
501.1439100710121
 30
0.0
 70
    32
  0
VERTEX
  5
158
330
149
100
AcDbEntity
  8
0
  6
________________
 62
     7
370
     9
100
AcDbVertex
100
AcDb3dPolylineVertex
 10
234.6855673251712
 20
501.1048401475524
 30
0.0
 70
    32
  0
VERTEX
  5
159
330
149
100
AcDbEntity
  8
0
  6
________________
 62
     7
370
     9
100
AcDbVertex
100
AcDb3dPolylineVertex
 10
234.6881359130133
 20
501.0664282411632
 30
0.0
 70
    32
  0
VERTEX
  5
15A
330
149
100
AcDbEntity
  8
0
  6
________________
 62
     7
370
     9
100
AcDbVertex
100
AcDb3dPolylineVertex
 10
234.6889961047399
 20
501.0278640450004
 30
0.0
 70
    32
  0
SEQEND
  5
15B
330
149
100
AcDbEntity
  8
0
  6
________________
 62
     7
370
     9
  0
LINE
  5
15C
330
1F
100
AcDbEntity
  8
0
  6
________________
 62
     7
370
     9
100
AcDbLine
 10
234.4151521384682
 20
501.6986844382494
 30
0.0
 11
231.656935623948
 21
505.0
 31
0.0
  0
LINE
  5
15D
330
1F
100
AcDbEntity
  8
0
  6
________________
 62
     7
370
     9
100
AcDbLine
 10
234.4606691810249
 20
504.9999999999999
 30
0.0
 11
231.656935623948
 21
505.0
 31
0.0
  0
LINE
  5
15E
330
1F
100
AcDbEntity
  8
0
  6
________________
 62
     7
370
     9
100
AcDbLine
 10
234.4606691810249
 20
504.9999999999999
 30
0.0
 11
236.6782404159266
 21
502.498973308399
 31
0.0
  0
LINE
  5
15F
330
1F
100
AcDbEntity
  8
0
  6
________________
 62
     7
370
     9
100
AcDbLine
 10
221.5428071772626
 20
505.0
 30
0.0
 11
223.5775681230086
 21
501.6986844382504
 31
0.0
  0
ELLIPSE
  5
160
330
1F
100
AcDbEntity
  8
0
  6
________________
 62
     7
370
     9
100
AcDbEllipse
 10
262.5
 20
499.996446034284
 30
0.0
 11
3.494449305383187E-14
 21
47.55724001151691
 31
0.0
210
0.0
220
0.0
230
1.0
 40
0.8660254037844383
 41
1.45842992592503
 42
1.465390056278894
  0
ELLIPSE
  5
161
330
1F
100
AcDbEntity
  8
0
  6
________________
 62
     7
370
     9
100
AcDbEllipse
 10
262.5
 20
590.9440781185864
 30
0.0
 11
-6.835811101045360E-14
 21
93.03105605366817
 31
0.0
210
0.0
220
0.0
230
-1.0
 40
0.8660254037844386
 41
-2.748741626785125
 42
-2.739603226795655
  0
POLYLINE
  5
162
330
1F
100
AcDbEntity
  8
0
  6
________________
 62
     7
370
     9
100
AcDb3dPolyline
 66
     1
 10
0.0
 20
0.0
 30
0.0
 70
     8
  0
VERTEX
  5
163
330
162
100
AcDbEntity
  8
0
  6
________________
 62
     7
370
     9
100
AcDbVertex
100
AcDb3dPolylineVertex
 10
230.9385343029213
 20
505.4737497586548
 30
0.0
 70
    32
  0
VERTEX
  5
164
330
162
100
AcDbEntity
  8
0
  6
________________
 62
     7
370
     9
100
AcDbVertex
100
AcDb3dPolylineVertex
 10
230.9018392839783
 20
505.3771092801915
 30
0.0
 70
    32
  0
VERTEX
  5
165
330
162
100
AcDbEntity
  8
0
  6
________________
 62
     7
370
     9
100
AcDbVertex
100
AcDb3dPolylineVertex
 10
230.9780640675193
 20
505.3290436295892
 30
0.0
 70
    32
  0
SEQEND
  5
166
330
162
100
AcDbEntity
  8
0
  6
________________
 62
     7
370
     9
  0
LINE
  5
167
330
1F
100
AcDbEntity
  8
0
  6
________________
 62
     7
370
     9
100
AcDbLine
 10
230.9385343029215
 20
505.4737497586547
 30
0.0
 11
233.3514819266346
 21
505.4999999999999
 31
0.0
  0
ELLIPSE
  5
168
330
1F
100
AcDbEntity
  8
0
  6
________________
 62
     7
370
     9
100
AcDbEllipse
 10
262.5
 20
589.8260441298366
 30
0.0
 11
-6.671507491566095E-14
 21
90.79498807616837
 31
0.0
210
0.0
220
0.0
230
1.0
 40
0.8660254037844385
 41
2.761828773093901
 42
2.77697200493304
  0
LINE
  5
169
330
1F
100
AcDbEntity
  8
0
  6
________________
 62
     7
370
     9
100
AcDbLine
 10
223.7746986909621
 20
501.0278640450004
 30
0.0
 11
223.5775681230086
 21
501.6986844382504
 31
0.0
  0
LINE
  5
16A
330
1F
100
AcDbEntity
  8
0
  6
________________
 62
     7
370
     9
100
AcDbLine
 10
221.573958653449
 20
505.3290436295892
 30
0.0
 11
221.7852175170244
 21
505.4737497586547
 31
0.0
  0
LINE
  5
16B
330
1F
100
AcDbEntity
  8
0
  6
________________
 62
     7
370
     9
100
AcDbLine
 10
221.7852175170306
 20
505.4737497586548
 30
0.0
 11
230.9385343029272
 21
505.4737497586548
 31
0.0
  0
LINE
  5
16C
330
1F
100
AcDbEntity
  8
0
  6
________________
 62
     7
370
     9
100
AcDbLine
 10
223.6718864014271
 20
505.4999999999999
 30
0.0
 11
221.7852175170262
 21
505.4737497586548
 31
0.0
  0
LINE
  5
16D
330
1F
100
AcDbEntity
  8
0
  6
________________
 62
     7
370
     9
100
AcDbLine
 10
233.3514819266346
 20
505.4999999999999
 30
0.0
 11
223.6718864014271
 21
505.4999999999999
 31
0.0
  0
LINE
  5
16E
330
1F
100
AcDbEntity
  8
0
  6
________________
 62
     7
370
     9
100
AcDbLine
 10
221.1219230720682
 20
502.5000000000001
 30
0.0
 11
221.1219230720682
 21
506.5000000000001
 31
0.0
  0
LINE
  5
16F
330
1F
100
AcDbEntity
  8
0
  6
________________
 62
     7
370
     9
100
AcDbLine
 10
266.9798207491168
 20
535.178454905062
 30
0.0
 11
267.9396980790023
 21
519.3304062333017
 31
0.0
  0
LINE
  5
170
330
1F
100
AcDbEntity
  8
0
  6
________________
 62
     7
370
     9
100
AcDbLine
 10
267.9899066155522
 20
517.6274108271259
 30
0.0
 11
267.9401959615523
 21
519.3210081684907
 31
0.0
  0
LINE
  5
171
330
1F
100
AcDbEntity
  8
0
  6
________________
 62
     7
370
     9
100
AcDbLine
 10
267.9401959615523
 20
519.3210081684907
 30
0.0
 11
267.9396980790022
 21
519.3304062333018
 31
0.0
  0
LINE
  5
172
330
1F
100
AcDbEntity
  8
0
  6
________________
 62
     7
370
     9
100
AcDbLine
 10
259.5
 20
516.507589682712
 30
0.0
 11
262.5
 21
516.5065609669565
 31
0.0
  0
LINE
  5
173
330
1F
100
AcDbEntity
  8
0
  6
________________
 62
     7
370
     9
100
AcDbLine
 10
262.4999999999985
 20
516.5227444486457
 30
0.0
 11
259.5
 21
516.5212294616733
 31
0.0
  0
LINE
  5
174
330
1F
100
AcDbEntity
  8
0
  6
________________
 62
     7
370
     9
100
AcDbLine
 10
267.9154490692019
 20
516.5343873696246
 30
0.0
 11
267.9899937469299
 21
517.5343801873671
 31
0.0
  0
LINE
  5
175
330
1F
100
AcDbEntity
  8
0
  6
________________
 62
     7
370
     9
100
AcDbLine
 10
262.5
 20
516.6658657420377
 30
0.0
 11
263.0
 21
516.6658867569575
 31
0.0
  0
LINE
  5
176
330
1F
100
AcDbEntity
  8
0
  6
________________
 62
     7
370
     9
100
AcDbLine
 10
301.9309706770867
 20
502.5000000000001
 30
0.0
 11
304.7098551880956
 21
502.5000000000001
 31
0.0
  0
LINE
  5
177
330
1F
100
AcDbEntity
  8
0
  6
________________
 62
     7
370
     9
100
AcDbLine
 10
304.7098551880956
 20
502.5000000000001
 30
0.0
 11
304.7098551880956
 21
506.5000000000001
 31
0.0
  0
LINE
  5
178
330
1F
100
AcDbEntity
  8
0
  6
________________
 62
     7
370
     9
100
AcDbLine
 10
285.5836522760638
 20
506.5000000000001
 30
0.0
 11
304.7098551880957
 21
506.5000000000001
 31
0.0
  0
LINE
  5
179
330
1F
100
AcDbEntity
  8
0
  6
________________
 62
     7
370
     9
100
AcDbLine
 10
285.5836522760638
 20
506.5000000000001
 30
0.0
 11
285.5836522760638
 21
502.5000000000001
 31
0.0
  0
LINE
  5
17A
330
1F
100
AcDbEntity
  8
0
  6
________________
 62
     7
370
     9
100
AcDbLine
 10
285.5836522760638
 20
502.5000000000001
 30
0.0
 11
290.3110038952601
 21
502.5000000000001
 31
0.0
  0
LINE
  5
17B
330
1F
100
AcDbEntity
  8
0
  6
________________
 62
     7
370
     9
100
AcDbLine
 10
290.31100389526
 20
501.0278640450003
 30
0.0
 11
290.31100389526
 21
502.5000000000001
 31
0.0
  0
LINE
  5
17C
330
1F
100
AcDbEntity
  8
0
  6
________________
 62
     7
370
     9
100
AcDbLine
 10
266.7044761167446
 20
548.5
 30
0.0
 11
266.7786429320329
 21
547.5
 31
0.0
  0
LINE
  5
17D
330
1F
100
AcDbEntity
  8
0
  6
________________
 62
     7
370
     9
100
AcDbLine
 10
263.0
 20
548.3660254037844
 30
0.0
 11
262.4999999999932
 21
548.3660254037844
 31
0.0
  0
LINE
  5
17E
330
1F
100
AcDbEntity
  8
0
  6
________________
 62
     7
370
     9
100
AcDbLine
 10
290.5393308189751
 20
504.9999999999999
 30
0.0
 11
293.343064376052
 21
505.0
 31
0.0
  0
LINE
  5
17F
330
1F
100
AcDbEntity
  8
0
  6
________________
 62
     7
370
     9
100
AcDbLine
 10
290.5848478615354
 20
501.6986844382536
 30
0.0
 11
293.343064376052
 21
505.0
 31
0.0
  0
POLYLINE
  5
180
330
1F
100
AcDbEntity
  8
0
  6
________________
 62
     7
370
     9
100
AcDb3dPolyline
 66
     1
 10
0.0
 20
0.0
 30
0.0
 70
     8
  0
VERTEX
  5
181
330
180
100
AcDbEntity
  8
0
  6
________________
 62
     7
370
     9
100
AcDbVertex
100
AcDb3dPolylineVertex
 10
290.31100389526
 20
501.0278640450003
 30
0.0
 70
    32
  0
VERTEX
  5
182
330
180
100
AcDbEntity
  8
0
  6
________________
 62
     7
370
     9
100
AcDbVertex
100
AcDb3dPolylineVertex
 10
290.3120555649529
 20
501.0704826089766
 30
0.0
 70
    32
  0
VERTEX
  5
183
330
180
100
AcDbEntity
  8
0
  6
________________
 62
     7
370
     9
100
AcDbVertex
100
AcDb3dPolylineVertex
 10
290.3151985517976
 20
501.1129983030198
 30
0.0
 70
    32
  0
VERTEX
  5
184
330
180
100
AcDbEntity
  8
0
  6
________________
 62
     7
370
     9
100
AcDbVertex
100
AcDb3dPolylineVertex
 10
290.3204976227859
 20
501.1558738781607
 30
0.0
 70
    32
  0
VERTEX
  5
185
330
180
100
AcDbEntity
  8
0
  6
________________
 62
     7
370
     9
100
AcDbVertex
100
AcDb3dPolylineVertex
 10
290.3278818640281
 20
501.1984404387426
 30
0.0
 70
    32
  0
VERTEX
  5
186
330
180
100
AcDbEntity
  8
0
  6
________________
 62
     7
370
     9
100
AcDbVertex
100
AcDb3dPolylineVertex
 10
290.3374144303385
 20
501.2410569247311
 30
0.0
 70
    32
  0
VERTEX
  5
187
330
180
100
AcDbEntity
  8
0
  6
________________
 62
     7
370
     9
100
AcDbVertex
100
AcDb3dPolylineVertex
 10
290.3491681642844
 20
501.2838695808109
 30
0.0
 70
    32
  0
VERTEX
  5
188
330
180
100
AcDbEntity
  8
0
  6
________________
 62
     7
370
     9
100
AcDbVertex
100
AcDb3dPolylineVertex
 10
290.3629544401599
 20
501.3261762283868
 30
0.0
 70
    32
  0
VERTEX
  5
189
330
180
100
AcDbEntity
  8
0
  6
________________
 62
     7
370
     9
100
AcDbVertex
100
AcDb3dPolylineVertex
 10
290.3787335707729
 20
501.3679898209165
 30
0.0
 70
    32
  0
VERTEX
  5
18A
330
180
100
AcDbEntity
  8
0
  6
________________
 62
     7
370
     9
100
AcDbVertex
100
AcDb3dPolylineVertex
 10
290.3954876270251
 20
501.4071513458871
 30
0.0
 70
    32
  0
VERTEX
  5
18B
330
180
100
AcDbEntity
  8
0
  6
________________
 62
     7
370
     9
100
AcDbVertex
100
AcDb3dPolylineVertex
 10
290.4138284184517
 20
501.4455962536348
 30
0.0
 70
    32
  0
VERTEX
  5
18C
330
180
100
AcDbEntity
  8
0
  6
________________
 62
     7
370
     9
100
AcDbVertex
100
AcDb3dPolylineVertex
 10
290.4338445141821
 20
501.4836029338437
 30
0.0
 70
    32
  0
VERTEX
  5
18D
330
180
100
AcDbEntity
  8
0
  6
________________
 62
     7
370
     9
100
AcDbVertex
100
AcDb3dPolylineVertex
 10
290.4552992519785
 20
501.520817406125
 30
0.0
 70
    32
  0
VERTEX
  5
18E
330
180
100
AcDbEntity
  8
0
  6
________________
 62
     7
370
     9
100
AcDbVertex
100
AcDb3dPolylineVertex
 10
290.4783765520752
 20
501.5576313952986
 30
0.0
 70
    32
  0
VERTEX
  5
18F
330
180
100
AcDbEntity
  8
0
  6
________________
 62
     7
370
     9
100
AcDbVertex
100
AcDb3dPolylineVertex
 10
290.5027518565225
 20
501.5936000353707
 30
0.0
 70
    32
  0
VERTEX
  5
190
330
180
100
AcDbEntity
  8
0
  6
________________
 62
     7
370
     9
100
AcDbVertex
100
AcDb3dPolylineVertex
 10
290.5285319127922
 20
501.6289650544574
 30
0.0
 70
    32
  0
VERTEX
  5
191
330
180
100
AcDbEntity
  8
0
  6
________________
 62
     7
370
     9
100
AcDbVertex
100
AcDb3dPolylineVertex
 10
290.5554648321842
 20
501.6634610447256
 30
0.0
 70
    32
  0
VERTEX
  5
192
330
180
100
AcDbEntity
  8
0
  6
________________
 62
     7
370
     9
100
AcDbVertex
100
AcDb3dPolylineVertex
 10
290.5848478615355
 20
501.6986844382536
 30
0.0
 70
    32
  0
SEQEND
  5
193
330
180
100
AcDbEntity
  8
0
  6
________________
 62
     7
370
     9
  0
LINE
  5
194
330
1F
100
AcDbEntity
  8
0
  6
________________
 62
     7
370
     9
100
AcDbLine
 10
290.5393308189751
 20
504.9999999999999
 30
0.0
 11
288.3217595840734
 21
502.4989733083991
 31
0.0
  0
ELLIPSE
  5
195
330
1F
100
AcDbEntity
  8
0
  6
________________
 62
     7
370
     9
100
AcDbEllipse
 10
262.5
 20
589.8260441298366
 30
0.0
 11
-2.223835830522032E-14
 21
90.79498807616837
 31
0.0
210
0.0
220
0.0
230
-1.0
 40
0.8660254037844385
 41
2.761828773093901
 42
2.77697200493304
  0
LINE
  5
196
330
1F
100
AcDbEntity
  8
0
  6
________________
 62
     7
370
     9
100
AcDbLine
 10
294.0614656970744
 20
505.4737497586547
 30
0.0
 11
291.6485180733654
 21
505.4999999999999
 31
0.0
  0
POLYLINE
  5
197
330
1F
100
AcDbEntity
  8
0
  6
________________
 62
     7
370
     9
100
AcDb3dPolyline
 66
     1
 10
0.0
 20
0.0
 30
0.0
 70
     8
  0
VERTEX
  5
198
330
197
100
AcDbEntity
  8
0
  6
________________
 62
     7
370
     9
100
AcDbVertex
100
AcDb3dPolylineVertex
 10
294.0219359324807
 20
505.3290436295892
 30
0.0
 70
    32
  0
VERTEX
  5
199
330
197
100
AcDbEntity
  8
0
  6
________________
 62
     7
370
     9
100
AcDbVertex
100
AcDb3dPolylineVertex
 10
294.1088098175046
 20
505.3867447915541
 30
0.0
 70
    32
  0
VERTEX
  5
19A
330
197
100
AcDbEntity
  8
0
  6
________________
 62
     7
370
     9
100
AcDbVertex
100
AcDb3dPolylineVertex
 10
294.0614656970728
 20
505.4737497586548
 30
0.0
 70
    32
  0
SEQEND
  5
19B
330
197
100
AcDbEntity
  8
0
  6
________________
 62
     7
370
     9
  0
ELLIPSE
  5
19C
330
1F
100
AcDbEntity
  8
0
  6
________________
 62
     7
370
     9
100
AcDbEllipse
 10
262.5
 20
590.9440781185864
 30
0.0
 11
-2.278603700348453E-14
 21
93.03105605366817
 31
0.0
210
0.0
220
0.0
230
1.0
 40
0.8660254037844386
 41
-2.748741626785125
 42
-2.739603226795656
  0
LINE
  5
19D
330
1F
100
AcDbEntity
  8
0
  6
________________
 62
     7
370
     9
100
AcDbLine
 10
301.4224318769914
 20
501.6986844382503
 30
0.0
 11
301.2253013090378
 21
501.0278640450003
 31
0.0
  0
LINE
  5
19E
330
1F
100
AcDbEntity
  8
0
  6
________________
 62
     7
370
     9
100
AcDbLine
 10
303.4571928227374
 20
505.0
 30
0.0
 11
301.4224318769914
 21
501.6986844382503
 31
0.0
  0
ELLIPSE
  5
19F
330
1F
100
AcDbEntity
  8
0
  6
________________
 62
     7
370
     9
100
AcDbEllipse
 10
262.5
 20
499.996446034284
 30
0.0
 11
1.164816435127729E-14
 21
47.55724001151691
 31
0.0
210
0.0
220
0.0
230
-1.0
 40
0.8660254037844383
 41
1.458429925925029
 42
1.465390056278893
  0
LINE
  5
1A0
330
1F
100
AcDbEntity
  8
0
  6
________________
 62
     7
370
     9
100
AcDbLine
 10
294.0614656970703
 20
505.4737497586548
 30
0.0
 11
303.2147824829669
 21
505.4737497586548
 31
0.0
  0
LINE
  5
1A1
330
1F
100
AcDbEntity
  8
0
  6
________________
 62
     7
370
     9
100
AcDbLine
 10
303.2147824829669
 20
505.4737497586548
 30
0.0
 11
303.4260413465519
 21
505.32904362959
 31
0.0
  0
LINE
  5
1A2
330
1F
100
AcDbEntity
  8
0
  6
________________
 62
     7
370
     9
100
AcDbLine
 10
301.3281135985729
 20
505.4999999999999
 30
0.0
 11
303.2147824829669
 21
505.4737497586548
 31
0.0
  0
LINE
  5
1A3
330
1F
100
AcDbEntity
  8
0
  6
________________
 62
     7
370
     9
100
AcDbLine
 10
291.6485180733654
 20
505.4999999999999
 30
0.0
 11
301.3281135985731
 21
505.4999999999999
 31
0.0
  0
LINE
  5
1A4
330
1F
100
AcDbEntity
  8
0
  6
________________
 62
     7
370
     9
100
AcDbLine
 10
303.8780769279318
 20
506.5000000000001
 30
0.0
 11
303.8780769279318
 21
502.5000000000001
 31
0.0
  0
ARC
  5
1A5
330
1F
100
AcDbEntity
  8
0
  6
________________
 62
     7
370
     9
100
AcDbCircle
 10
216.5
 20
517.6160217410254
 30
0.0
 40
4.999999999999989
100
AcDbArc
 50
159.9479178539012
 51
180.0000000000002
  0
LINE
  5
1A6
330
1F
100
AcDbEntity
  8
0
  6
________________
 62
     7
370
     9
100
AcDbLine
 10
217.587626692054
 20
535.1784292932986
 30
0.0
 11
211.8044002052858
 21
519.3339731651665
 31
0.0
  0
ARC
  5
1A7
330
1F
100
AcDbEntity
  8
0
  6
________________
 62
     7
370
     9
100
AcDbCircle
 10
212.5
 20
517.5153100970196
 30
0.0
 40
1.000000000000001
100
AcDbArc
 50
180.0
 51
269.4999999999999
  0
LINE
  5
1A8
330
1F
100
AcDbEntity
  8
0
  6
________________
 62
     7
370
     9
100
AcDbLine
 10
212.5059372372505
 20
516.5152202051493
 30
0.0
 11
214.25
 21
516.5
 31
0.0
  0
LINE
  5
1A9
330
1F
100
AcDbEntity
  8
0
  6
________________
 62
     7
370
     9
100
AcDbLine
 10
211.5
 20
517.6160026143643
 30
0.0
 11
211.5
 21
517.5153125720301
 31
0.0
  0
ARC
  5
1AA
330
1F
100
AcDbEntity
  8
0
  6
________________
 62
     7
370
     9
100
AcDbCircle
 10
-198.8000000000001
 20
542.0359130358985
 30
0.0
 40
20.00000000000002
210
0.0
220
0.0
230
-1.0
100
AcDbArc
 50
180.0
 51
200.0520821460983
  0
LINE
  5
1AB
330
1F
100
AcDbEntity
  8
0
  6
________________
 62
     7
370
     9
100
AcDbLine
 10
214.25
 20
516.5
 30
0.0
 11
214.25
 21
496.5
 31
0.0
  0
LINE
  5
1AC
330
1F
100
AcDbEntity
  8
0
  6
________________
 62
     7
370
     9
100
AcDbLine
 10
218.8
 20
547.5
 30
0.0
 11
218.8
 21
542.0359130358984
 31
0.0
  0
ARC
  5
1AD
330
1F
100
AcDbEntity
  8
0
  6
________________
 62
     7
370
     9
100
AcDbCircle
 10
219.8
 20
547.5
 30
0.0
 40
1.000000000000001
100
AcDbArc
 50
89.99999999999962
 51
180.0
  0
LINE
  5
1AE
330
1F
100
AcDbEntity
  8
0
  6
________________
 62
     7
370
     9
100
AcDbLine
 10
313.1955997947142
 20
519.3339731651665
 30
0.0
 11
307.412373307946
 21
535.1784292932986
 31
0.0
  0
ARC
  5
1AF
330
1F
100
AcDbEntity
  8
0
  6
________________
 62
     7
370
     9
100
AcDbCircle
 10
308.5000000000001
 20
517.6160217410253
 30
0.0
 40
4.999999999999948
100
AcDbArc
 50
0.0000000000007951
 51
20.0520821461002
  0
LINE
  5
1B0
330
1F
100
AcDbEntity
  8
0
  6
________________
 62
     7
370
     9
100
AcDbLine
 10
310.7499999999999
 20
516.5
 30
0.0
 11
312.4940627627495
 21
516.5152202051493
 31
0.0
  0
ARC
  5
1B1
330
1F
100
AcDbEntity
  8
0
  6
________________
 62
     7
370
     9
100
AcDbCircle
 10
312.5
 20
517.5153100970196
 30
0.0
 40
1.000000000000003
100
AcDbArc
 50
270.5000000000001
 51
0.0
  0
LINE
  5
1B2
330
1F
100
AcDbEntity
  8
0
  6
________________
 62
     7
370
     9
100
AcDbLine
 10
313.5
 20
517.5153125720301
 30
0.0
 11
313.5
 21
517.6160026143643
 31
0.0
  0
ARC
  5
1B3
330
1F
100
AcDbEntity
  8
0
  6
________________
 62
     7
370
     9
100
AcDbCircle
 10
-326.2
 20
542.0359130358984
 30
0.0
 40
20.00000000000002
210
0.0
220
0.0
230
-1.0
100
AcDbArc
 50
339.9479178539013
 51
359.9999999999998
  0
LINE
  5
1B4
330
1F
100
AcDbEntity
  8
0
  6
________________
 62
     7
370
     9
100
AcDbLine
 10
310.7499999999999
 20
496.5
 30
0.0
 11
310.7499999999999
 21
516.5
 31
0.0
  0
LINE
  5
1B5
330
1F
100
AcDbEntity
  8
0
  6
________________
 62
     7
370
     9
100
AcDbLine
 10
306.2
 20
542.0359130358984
 30
0.0
 11
306.2
 21
547.5
 31
0.0
  0
ARC
  5
1B6
330
1F
100
AcDbEntity
  8
0
  6
________________
 62
     7
370
     9
100
AcDbCircle
 10
305.2
 20
547.5
 30
0.0
 40
1.000000000000001
100
AcDbArc
 50
0.0
 51
90.00000000000043
  0
INSERT
  5
1BA
330
1F
100
AcDbEntity
  8
0
  6
________________
 62
     7
370
     9
100
AcDbBlockReference
  2
@1800
 10
0.0
 20
0.0
 30
0.0
  0
MTEXT
  5
1BB
330
1F
100
AcDbEntity
  8
0
 62
     7
100
AcDbMText
 10
202.7272727272727
 20
571.9772727272727
 30
0.0
 40
5.0
 41
0.0
 46
0.0
 71
     1
 72
     1
  1
{\FＭＳ ゴシック;GUAI-100-80}
 73
     1
 44
1.0
  0
LINE
  5
1BC
330
1F
100
AcDbEntity
  8
0
  6
________________
 62
     7
370
     9
100
AcDbLine
 10
262.4999999999921
 20
548.5
 30
0.0
 11
262.5000000002452
 21
516.5227444486457
 31
0.0
  0
LINE
  5
1BD
330
1F
100
AcDbEntity
  8
0
  6
________________
 62
     7
370
     9
100
AcDbLine
 10
263.0
 20
516.6658867569578
 30
0.0
 11
263.0
 21
548.3660254037844
 31
0.0
  0
LINE
  5
1BE
330
1F
100
AcDbEntity
  8
0
  6
________________
 62
     7
370
     9
100
AcDbLine
 10
219.8
 20
548.5
 30
0.0
 11
305.2
 21
548.5
 31
0.0
  0
LINE
  5
1BF
330
1F
100
AcDbEntity
  8
0
  6
________________
 62
     7
370
     9
100
AcDbLine
 10
266.7786429320329
 20
547.5
 30
0.0
 11
266.7786429320329
 21
541.9903566914958
 31
0.0
  0
LINE
  5
1C0
330
1F
100
AcDbEntity
  8
0
  6
________________
 62
     7
370
     9
100
AcDbLine
 10
262.5
 20
496.5
 30
0.0
 11
262.5
 21
516.5078239972669
 31
0.0
  0
LINE
  5
1C1
330
1F
100
AcDbEntity
  8
0
  6
________________
 62
     7
370
     9
100
AcDbLine
 10
310.7499999999999
 20
496.5
 30
0.0
 11
214.2500000000001
 21
496.5
 31
0.0
  0
LINE
  5
1C2
330
1F
100
AcDbEntity
  8
0
  6
________________
 62
     7
370
     9
100
AcDbLine
 10
259.9999999999999
 20
499.8287181803823
 30
0.0
 11
265.0000000000001
 21
499.8287181803823
 31
0.0
  0
LINE
  5
1C3
330
1F
100
AcDbEntity
  8
0
  6
________________
 62
     7
370
     9
100
AcDbLine
 10
265.0
 20
499.8287181803822
 30
0.0
 11
265.0
 21
516.5
 31
0.0
  0
LINE
  5
1C4
330
1F
100
AcDbEntity
  8
0
  6
________________
 62
     7
370
     9
100
AcDbLine
 10
214.25
 20
516.5
 30
0.0
 11
310.7499999999999
 21
516.5
 31
0.0
  0
LINE
  5
1C5
330
1F
100
AcDbEntity
  8
0
  6
________________
 62
     7
370
     9
100
AcDbLine
 10
260.0000000000002
 20
505.4999999999999
 30
0.0
 11
264.9999999999999
 21
505.4999999999999
 31
0.0
  0
LINE
  5
1C6
330
1F
100
AcDbEntity
  8
0
  6
________________
 62
     7
370
     9
100
AcDbLine
 10
266.7789958377384
 20
541.9903566914959
 30
0.0
 11
266.9789385485765
 21
535.1784290108402
 31
0.0
  0
LINE
  5
1C7
330
1F
100
AcDbEntity
  8
0
  6
________________
 62
     7
370
     9
100
AcDbLine
 10
259.5
 20
516.507589682712
 30
0.0
 11
259.5
 21
516.524819295641
 31
0.0
  0
LINE
  5
1C8
330
1F
100
AcDbEntity
  8
0
  6
________________
 62
     7
370
     9
100
AcDbLine
 10
267.9899937421752
 20
517.5344180858119
 30
0.0
 11
267.9899937421752
 21
517.6274108271258
 31
0.0
  0
LINE
  5
1C9
330
1F
100
AcDbEntity
  8
0
  6
________________
 62
     7
370
     9
100
AcDbLine
 10
258.2213570679671
 20
547.5
 30
0.0
 11
258.2213570679671
 21
541.9903566914963
 31
0.0
  0
LINE
  5
1CA
330
1F
100
AcDbEntity
  8
0
  6
________________
 62
     7
370
     9
100
AcDbLine
 10
260.0000000000001
 20
499.8287181803822
 30
0.0
 11
260.0
 21
510.4999999999999
 31
0.0
  0
LINE
  5
1CB
330
1F
100
AcDbEntity
  8
0
  6
________________
 62
     7
370
     9
100
AcDbLine
 10
258.0210614706468
 20
535.1784297005182
 30
0.0
 11
258.2210041705765
 21
541.9903566914963
 31
0.0
  0
LINE
  5
1CC
330
1F
100
AcDbEntity
  8
0
  6
________________
 62
     7
370
     9
100
AcDbLine
 10
257.0100062578248
 20
517.5344180858119
 30
0.0
 11
257.0100062578248
 21
517.6274108271261
 31
0.0
  0
LINE
  5
1CD
330
1F
100
AcDbEntity
  8
0
  6
________________
 62
     7
370
     9
100
AcDbLine
 10
258.0201792926155
 20
535.1784555940807
 30
0.0
 11
257.0597329640581
 21
519.3210124732973
 31
0.0
  0
LINE
  5
1CE
330
1F
100
AcDbEntity
  8
0
  6
________________
 62
     7
370
     9
100
AcDbLine
 10
74.6000000000015
 20
635.0
 30
0.0
 11
74.59999999999997
 21
640.4899066158058
 31
0.0
  0
LINE
  5
1CF
330
1F
100
AcDbEntity
  8
0
  6
________________
 62
     7
370
     9
100
AcDbLine
 10
83.84374433176298
 20
635.0
 30
0.0
 11
74.59999999999998
 21
635.0
 31
0.0
  0
LINE
  5
1D0
330
1F
100
AcDbEntity
  8
0
  6
________________
 62
     7
370
     9
100
AcDbLine
 10
180.4
 20
635.4999999999999
 30
0.0
 11
172.7
 21
635.5000000000344
 31
0.0
  0
LINE
  5
1D1
330
1F
100
AcDbEntity
  8
0
  6
________________
 62
     7
370
     9
100
AcDbLine
 10
180.4
 20
640.4899066155522
 30
0.0
 11
173.2000090526686
 21
639.2789420135955
 31
0.0
  0
LINE
  5
1D2
330
1F
100
AcDbEntity
  8
0
  6
________________
 62
     7
370
     9
100
AcDbLine
 10
74.59999999999997
 20
640.4899066158058
 30
0.0
 11
81.79999094730728
 21
639.2789420051377
 31
0.0
  0
LINE
  5
1D3
330
1F
100
AcDbEntity
  8
0
  6
________________
 62
     7
370
     9
100
AcDbLine
 10
180.4
 20
634.9999999999998
 30
0.0
 11
171.156255668237
 21
634.9999999999918
 31
0.0
  0
LINE
  5
1D4
330
1F
100
AcDbEntity
  8
0
  6
________________
 62
     7
370
     9
100
AcDbLine
 10
85.90805366420079
 20
638.0
 30
0.0
 11
83.69999999999996
 21
638.0
 31
0.0
  0
LINE
  5
1D5
330
1F
100
AcDbEntity
  8
0
  6
________________
 62
     7
370
     9
100
AcDbLine
 10
171.3
 20
632.0
 30
0.0
 11
169.0919463357992
 21
632.0
 31
0.0
  0
LINE
  5
1D6
330
1F
100
AcDbEntity
  8
0
  6
________________
 62
     7
370
     9
100
AcDbLine
 10
180.4
 20
635.0
 30
0.0
 11
180.4
 21
629.5100933841942
 31
0.0
  0
LINE
  5
1D7
330
1F
100
AcDbEntity
  8
0
  6
________________
 62
     7
370
     9
100
AcDbLine
 10
74.6
 20
634.5
 30
0.0
 11
82.30000000000001
 21
634.4999999999654
 31
0.0
  0
LINE
  5
1D8
330
1F
100
AcDbEntity
  8
0
  6
________________
 62
     7
370
     9
100
AcDbLine
 10
74.59999999999997
 20
629.5100933844478
 30
0.0
 11
81.79999094733141
 21
630.7210579864045
 31
0.0
  0
LINE
  5
1D9
330
1F
100
AcDbEntity
  8
0
  6
________________
 62
     7
370
     9
100
AcDbLine
 10
180.4
 20
629.5100933841942
 30
0.0
 11
173.2000090526927
 21
630.7210579948622
 31
0.0
  0
LINE
  5
1DA
330
1F
100
AcDbEntity
  8
0
  6
________________
 62
     7
370
     9
100
AcDbLine
 10
75.59127346450161
 20
516.5319292227576
 30
0.0
 11
79.25000000000001
 21
516.5
 31
0.0
  0
LINE
  5
1DB
330
1F
100
AcDbEntity
  8
0
  6
________________
 62
     7
370
     9
100
AcDbLine
 10
175.75
 20
496.5
 30
0.0
 11
79.25
 21
496.5
 31
0.0
  0
LINE
  5
1DC
330
1F
100
AcDbEntity
  8
0
  6
________________
 62
     7
370
     9
100
AcDbLine
 10
78.25
 20
505.4999999999999
 30
0.0
 11
78.25000000000001
 21
516.5
 31
0.0
  0
LINE
  5
1DD
330
1F
100
AcDbEntity
  8
0
  6
________________
 62
     7
370
     9
100
AcDbLine
 10
79.24999999999999
 20
496.5
 30
0.0
 11
79.24999999999993
 21
499.828718180383
 31
0.0
  0
LINE
  5
1DE
330
1F
100
AcDbEntity
  8
0
  6
________________
 62
     7
370
     9
100
AcDbLine
 10
79.25000000000009
 20
499.8287181803822
 30
0.0
 11
78.24999999999999
 21
505.4999999999999
 31
0.0
  0
LINE
  5
1DF
330
1F
100
AcDbEntity
  8
0
  6
________________
 62
     7
370
     9
100
AcDbLine
 10
175.75
 20
496.5
 30
0.0
 11
175.75
 21
499.828718180383
 31
0.0
  0
LINE
  5
1E0
330
1F
100
AcDbEntity
  8
0
  6
________________
 62
     7
370
     9
100
AcDbLine
 10
175.75
 20
499.8287181803822
 30
0.0
 11
176.75
 21
505.4999999999999
 31
0.0
  0
LINE
  5
1E1
330
1F
100
AcDbEntity
  8
0
  6
________________
 62
     7
370
     9
100
AcDbLine
 10
176.75
 20
505.4999999999999
 30
0.0
 11
176.75
 21
516.5
 31
0.0
  0
LINE
  5
1E2
330
1F
100
AcDbEntity
  8
0
  6
________________
 62
     7
370
     9
100
AcDbLine
 10
179.4087199639837
 20
516.5326836143219
 30
0.0
 11
175.7499929232103
 21
516.5008123957315
 31
0.0
  0
LINE
  5
1E3
330
1F
100
AcDbEntity
  8
0
  6
________________
 62
     7
370
     9
100
AcDbLine
 10
176.75
 20
510.4999999999999
 30
0.0
 11
175.6851896333303
 21
510.4999999999999
 31
0.0
  0
LINE
  5
1E4
330
1F
100
AcDbEntity
  8
0
  6
________________
 62
     7
370
     9
100
AcDbLine
 10
78.25
 20
516.5
 30
0.0
 11
175.75
 21
516.5
 31
0.0
  0
LINE
  5
1E5
330
1F
100
AcDbEntity
  8
0
  6
________________
 62
     7
370
     9
100
AcDbLine
 10
74.6767299347479
 20
518.5
 30
0.0
 11
74.89812617902524
 21
519.3306248149041
 31
0.0
  0
LINE
  5
1E6
330
1F
100
AcDbEntity
  8
0
  6
________________
 62
     7
370
     9
100
AcDbLine
 10
98.71782602852548
 20
505.0
 30
0.0
 11
98.71782602852548
 21
501.0278640450003
 31
0.0
  0
LINE
  5
1E7
330
1F
100
AcDbEntity
  8
0
  6
________________
 62
     7
370
     9
100
AcDbLine
 10
88.07144990824762
 20
501.0278640450003
 30
0.0
 11
88.07144990824762
 21
504.9999999999999
 31
0.0
  0
LINE
  5
1E8
330
1F
100
AcDbEntity
  8
0
  6
________________
 62
     7
370
     9
100
AcDbLine
 10
156.2821739714745
 20
501.0278640450004
 30
0.0
 11
156.2821739714745
 21
505.0
 31
0.0
  0
LINE
  5
1E9
330
1F
100
AcDbEntity
  8
0
  6
________________
 62
     7
370
     9
100
AcDbLine
 10
166.9285500917224
 20
505.0
 30
0.0
 11
166.9285500917524
 21
501.0278640450004
 31
0.0
  0
LINE
  5
1EA
330
1F
100
AcDbEntity
  8
0
  6
________________
 62
     7
370
     9
100
AcDbLine
 10
98.21782602852548
 20
505.4999999999999
 30
0.0
 11
98.71782602852544
 21
505.0
 31
0.0
  0
LINE
  5
1EB
330
1F
100
AcDbEntity
  8
0
  6
________________
 62
     7
370
     9
100
AcDbLine
 10
88.07144990824763
 20
505.0
 30
0.0
 11
88.57144990824762
 21
505.4999999999999
 31
0.0
  0
LINE
  5
1EC
330
1F
100
AcDbEntity
  8
0
  6
________________
 62
     7
370
     9
100
AcDbLine
 10
156.7821739714745
 20
505.4999999999999
 30
0.0
 11
156.2821739714745
 21
505.0
 31
0.0
  0
LINE
  5
1ED
330
1F
100
AcDbEntity
  8
0
  6
________________
 62
     7
370
     9
100
AcDbLine
 10
166.4548003330858
 20
505.4737497586548
 30
0.0
 11
166.9285500917657
 21
505.0000000000134
 31
0.0
  0
LINE
  5
1EE
330
1F
100
AcDbEntity
  8
0
  6
________________
 62
     7
370
     9
100
AcDbLine
 10
173.2
 20
547.5
 30
0.0
 11
173.2
 21
541.9903566914963
 31
0.0
  0
LINE
  5
1EF
330
1F
100
AcDbEntity
  8
0
  6
________________
 62
     7
370
     9
100
AcDbLine
 10
81.80000000000001
 20
547.5
 30
0.0
 11
81.80000000000001
 21
541.9903566914958
 31
0.0
  0
LINE
  5
1F0
330
1F
100
AcDbEntity
  8
0
  6
________________
 62
     7
370
     9
100
AcDbLine
 10
74.89894624398278
 20
519.330406233304
 30
0.0
 11
80.61774823737416
 21
535.2159673260393
 31
0.0
  0
LINE
  5
1F1
330
1F
100
AcDbEntity
  8
0
  6
________________
 62
     7
370
     9
100
AcDbLine
 10
174.3822517626261
 20
535.2159673260386
 30
0.0
 11
180.1044370593421
 21
519.3210081684894
 31
0.0
  0
LINE
  5
1F2
330
1F
100
AcDbEntity
  8
0
  6
________________
 62
     7
370
     9
100
AcDbLine
 10
180.4
 20
517.5344180858119
 30
0.0
 11
180.4
 21
517.6274108271261
 31
0.0
  0
LINE
  5
1F3
330
1F
100
AcDbEntity
  8
0
  6
________________
 62
     7
370
     9
100
AcDbLine
 10
74.6
 20
517.5344180858119
 30
0.0
 11
74.6
 21
517.6274108271257
 31
0.0
  0
ARC
  5
1F4
330
1F
100
AcDbEntity
  8
0
  6
________________
 62
     7
370
     9
100
AcDbCircle
 10
75.6
 20
517.531891145822
 30
0.0
 40
1.000000000000003
100
AcDbArc
 50
239.811306330075
 51
269.4999999999995
  0
ARC
  5
1F5
330
1F
100
AcDbEntity
  8
0
  6
________________
 62
     7
370
     9
100
AcDbCircle
 10
179.4
 20
517.531891145822
 30
0.0
 40
1.000000000000003
100
AcDbArc
 50
270.5000000000005
 51
0.0
  0
ARC
  5
1F6
330
1F
100
AcDbEntity
  8
0
  6
________________
 62
     7
370
     9
100
AcDbCircle
 10
-79.60000000000001
 20
517.6274108271399
 30
0.0
 40
4.999999999999997
210
0.0
220
0.0
230
-1.0
100
AcDbArc
 50
359.9999999998383
 51
19.79887635438511
  0
ENDSEC
  0
SECTION
  2
OBJECTS
  0
DICTIONARY
  5
C
330
0
100
AcDbDictionary
281
     1
  3
ACAD_GROUP
350
D
  3
ACAD_LAYOUT
350
1A
  3
ACAD_MLEADERSTYLE
350
1FA
  3
ACAD_MLINESTYLE
350
17
  3
ACAD_PLOTSETTINGS
350
19
  3
ACAD_PLOTSTYLENAME
350
E
  3
ACAD_TABLESTYLE
350
1F9
  3
ACAD_VISUALSTYLE
350
2A
  0
DICTIONARY
  5
D
102
{ACAD_REACTORS
330
C
102
}
330
C
100
AcDbDictionary
281
     1
  0
DICTIONARY
  5
1A
102
{ACAD_REACTORS
330
C
102
}
330
C
100
AcDbDictionary
281
     1
  3
Layout1
350
1E
  3
Layout2
350
26
  3
Model
350
22
  0
DICTIONARY
  5
1FA
102
{ACAD_REACTORS
330
C
102
}
330
C
100
AcDbDictionary
281
     1
  0
DICTIONARY
  5
17
102
{ACAD_REACTORS
330
C
102
}
330
C
100
AcDbDictionary
281
     1
  3
Standard
350
18
  0
DICTIONARY
  5
19
102
{ACAD_REACTORS
330
C
102
}
330
C
100
AcDbDictionary
281
     1
  0
ACDBDICTIONARYWDFLT
  5
E
102
{ACAD_REACTORS
330
C
102
}
330
C
100
AcDbDictionary
281
     1
  3
Normal
350
F
100
AcDbDictionaryWithDefault
340
F
  0
DICTIONARY
  5
1F9
102
{ACAD_REACTORS
330
C
102
}
330
C
100
AcDbDictionary
281
     1
  0
DICTIONARY
  5
2A
102
{ACAD_REACTORS
330
C
102
}
330
C
100
AcDbDictionary
281
     1
  3
2dWireframe
350
2F
  3
3D Hidden
350
31
  3
3dWireframe
350
30
  3
Basic
350
32
  3
Brighten
350
36
  3
ColorChange
350
3A
  3
Conceptual
350
34
  3
Dim
350
35
  3
Facepattern
350
39
  3
Flat
350
2B
  3
FlatWithEdges
350
2C
  3
Gouraud
350
2D
  3
GouraudWithEdges
350
2E
  3
Linepattern
350
38
  3
Realistic
350
33
  3
Thicken
350
37
  0
LAYOUT
  5
1E
102
{ACAD_REACTORS
330
1A
102
}
330
1A
100
AcDbPlotSettings
  1

  2
none_device
  4

  6

 40
0.0
 41
0.0
 42
0.0
 43
0.0
 44
0.0
 45
0.0
 46
0.0
 47
0.0
 48
0.0
 49
0.0
140
0.0
141
0.0
142
1.0
143
1.0
 70
   688
 72
     0
 73
     0
 74
     5
  7

 75
    16
 76
     0
 77
     2
 78
   300
147
1.0
148
0.0
149
0.0
100
AcDbLayout
  1
Layout1
 70
     1
 71
     1
 10
0.0
 20
0.0
 11
12.0
 21
9.0
 12
0.0
 22
0.0
 32
0.0
 14
1.000000000000000E+20
 24
1.000000000000000E+20
 34
1.000000000000000E+20
 15
-1.000000000000000E+20
 25
-1.000000000000000E+20
 35
-1.000000000000000E+20
146
0.0
 13
0.0
 23
0.0
 33
0.0
 16
1.0
 26
0.0
 36
0.0
 17
0.0
 27
1.0
 37
0.0
 76
     0
330
1B
  0
LAYOUT
  5
26
102
{ACAD_REACTORS
330
1A
102
}
330
1A
100
AcDbPlotSettings
  1

  2
none_device
  4

  6

 40
0.0
 41
0.0
 42
0.0
 43
0.0
 44
0.0
 45
0.0
 46
0.0
 47
0.0
 48
0.0
 49
0.0
140
0.0
141
0.0
142
1.0
143
1.0
 70
   688
 72
     0
 73
     0
 74
     5
  7

 75
    16
 76
     0
 77
     2
 78
   300
147
1.0
148
0.0
149
0.0
100
AcDbLayout
  1
Layout2
 70
     1
 71
     2
 10
0.0
 20
0.0
 11
0.0
 21
0.0
 12
0.0
 22
0.0
 32
0.0
 14
0.0
 24
0.0
 34
0.0
 15
0.0
 25
0.0
 35
0.0
146
0.0
 13
0.0
 23
0.0
 33
0.0
 16
1.0
 26
0.0
 36
0.0
 17
0.0
 27
1.0
 37
0.0
 76
     0
330
23
  0
LAYOUT
  5
22
102
{ACAD_REACTORS
330
1A
102
}
330
1A
100
AcDbPlotSettings
  1

  2
none_device
  4

  6

 40
0.0
 41
0.0
 42
0.0
 43
0.0
 44
0.0
 45
0.0
 46
0.0
 47
0.0
 48
0.0
 49
0.0
140
0.0
141
0.0
142
1.0
143
1.0
 70
  1712
 72
     0
 73
     0
 74
     0
  7

 75
     0
 76
     0
 77
     2
 78
   300
147
1.0
148
0.0
149
0.0
100
AcDbLayout
  1
Model
 70
     1
 71
     0
 10
0.0
 20
0.0
 11
12.0
 21
9.0
 12
0.0
 22
0.0
 32
0.0
 14
74.59999999999997
 24
496.5
 34
0.0
 15
313.5000000000001
 25
685.9999999999999
 35
0.0
146
0.0
 13
0.0
 23
0.0
 33
0.0
 16
1.0
 26
0.0
 36
0.0
 17
0.0
 27
1.0
 37
0.0
 76
     0
330
1F
331
29
  0
MLINESTYLE
  5
18
102
{ACAD_REACTORS
330
17
102
}
330
17
100
AcDbMlineStyle
  2
Standard
 70
     0
  3

 62
   256
 51
90.0
 52
90.0
 71
     2
 49
0.5
 62
   256
  6
BYLAYER
 49
-0.5
 62
   256
  6
BYLAYER
  0
ACDBPLACEHOLDER
  5
F
102
{ACAD_REACTORS
330
E
102
}
330
E
  0
VISUALSTYLE
  5
2F
102
{ACAD_REACTORS
330
2A
102
}
330
2A
100
AcDbVisualStyle
  2
2dWireframe
 70
     4
 71
     0
 72
     2
 73
     0
 90
        0
 40
-0.6
 41
-30.0
 62
     5
 63
     7
421
 16777215
 74
     1
 91
        4
 64
     7
 65
   257
 75
     1
175
     1
 42
1.0
 92
        0
 66
   257
 43
1.0
 76
     1
 77
     6
 78
     2
 67
     7
 79
     5
170
     0
171
     0
290
     0
174
     0
 93
        1
 44
0.0
173
     0
291
     0
 45
0.0
  0
VISUALSTYLE
  5
31
102
{ACAD_REACTORS
330
2A
102
}
330
2A
100
AcDbVisualStyle
  2
3D Hidden
 70
     6
 71
     1
 72
     2
 73
     2
 90
        0
 40
-0.6
 41
-30.0
 62
     5
 63
     7
421
 16777215
 74
     2
 91
        2
 64
     7
 65
   257
 75
     2
175
     1
 42
40.0
 92
        0
 66
   257
 43
1.0
 76
     1
 77
     6
 78
     2
 67
     7
 79
     3
170
     0
171
     0
290
     0
174
     0
 93
        1
 44
0.0
173
     0
291
     0
 45
0.0
  0
VISUALSTYLE
  5
30
102
{ACAD_REACTORS
330
2A
102
}
330
2A
100
AcDbVisualStyle
  2
3dWireframe
 70
     5
 71
     0
 72
     2
 73
     0
 90
        0
 40
-0.6
 41
-30.0
 62
     5
 63
     7
421
 16777215
 74
     1
 91
        4
 64
     7
 65
   257
 75
     1
175
     1
 42
1.0
 92
        0
 66
   257
 43
1.0
 76
     1
 77
     6
 78
     2
 67
     7
 79
     5
170
     0
171
     0
290
     0
174
     0
 93
        1
 44
0.0
173
     0
291
     0
 45
0.0
  0
VISUALSTYLE
  5
32
102
{ACAD_REACTORS
330
2A
102
}
330
2A
100
AcDbVisualStyle
  2
Basic
 70
     7
 71
     1
 72
     0
 73
     1
 90
        0
 40
-0.6
 41
-30.0
 62
     5
 63
     7
421
 16777215
 74
     0
 91
        4
 64
     7
 65
   257
 75
     1
175
     1
 42
1.0
 92
        8
 66
     7
 43
1.0
 76
     1
 77
     6
 78
     2
 67
     7
 79
     5
170
     0
171
     0
290
     0
174
     0
 93
        1
 44
0.0
173
     0
291
     1
 45
0.0
  0
VISUALSTYLE
  5
36
102
{ACAD_REACTORS
330
2A
102
}
330
2A
100
AcDbVisualStyle
  2
Brighten
 70
    12
 71
     2
 72
     2
 73
     0
 90
        0
 40
-0.6
 41
-30.0
 62
     5
 63
     7
421
 16777215
 74
     1
 91
        4
 64
     7
 65
   257
 75
     1
175
     1
 42
1.0
 92
        8
 66
     7
 43
1.0
 76
     1
 77
     6
 78
     2
 67
     7
 79
     5
170
     0
171
     0
290
     0
174
     0
 93
        1
 44
50.0
173
     0
291
     1
 45
0.0
  0
VISUALSTYLE
  5
3A
102
{ACAD_REACTORS
330
2A
102
}
330
2A
100
AcDbVisualStyle
  2
ColorChange
 70
    16
 71
     2
 72
     2
 73
     3
 90
        0
 40
-0.6
 41
-30.0
 62
     5
 63
     8
421
  8421504
 74
     1
 91
        4
 64
     7
 65
   257
 75
     1
175
     1
 42
1.0
 92
        8
 66
     8
424
  8421504
 43
1.0
 76
     1
 77
     6
 78
     2
 67
     7
 79
     5
170
     0
171
     0
290
     0
174
     0
 93
        1
 44
0.0
173
     0
291
     1
 45
0.0
  0
VISUALSTYLE
  5
34
102
{ACAD_REACTORS
330
2A
102
}
330
2A
100
AcDbVisualStyle
  2
Conceptual
 70
     9
 71
     3
 72
     2
 73
     0
 90
        0
 40
-0.6
 41
-30.0
 62
     5
 63
     7
421
 16777215
 74
     2
 91
        2
 64
     7
 65
   257
 75
     1
175
     1
 42
40.0
 92
        8
 66
     7
 43
1.0
 76
     1
 77
     6
 78
     2
 67
     7
 79
     3
170
     0
171
     0
290
     0
174
     0
 93
        1
 44
0.0
173
     0
291
     0
 45
0.0
  0
VISUALSTYLE
  5
35
102
{ACAD_REACTORS
330
2A
102
}
330
2A
100
AcDbVisualStyle
  2
Dim
 70
    11
 71
     2
 72
     2
 73
     0
 90
        0
 40
-0.6
 41
-30.0
 62
     5
 63
     7
421
 16777215
 74
     1
 91
        4
 64
     7
 65
   257
 75
     1
175
     1
 42
1.0
 92
        8
 66
     7
 43
1.0
 76
     1
 77
     6
 78
     2
 67
     7
 79
     5
170
     0
171
     0
290
     0
174
     0
 93
        1
 44
-50.0
173
     0
291
     1
 45
0.0
  0
VISUALSTYLE
  5
39
102
{ACAD_REACTORS
330
2A
102
}
330
2A
100
AcDbVisualStyle
  2
Facepattern
 70
    15
 71
     2
 72
     2
 73
     0
 90
        0
 40
-0.6
 41
-30.0
 62
     5
 63
     7
421
 16777215
 74
     1
 91
        4
 64
     7
 65
   257
 75
     1
175
     1
 42
1.0
 92
        8
 66
     7
 43
1.0
 76
     1
 77
     6
 78
     2
 67
     7
 79
     5
170
     0
171
     0
290
     0
174
     0
 93
        1
 44
0.0
173
     0
291
     1
 45
0.0
  0
VISUALSTYLE
  5
2B
102
{ACAD_REACTORS
330
2A
102
}
330
2A
100
AcDbVisualStyle
  2
Flat
 70
     0
 71
     2
 72
     1
 73
     1
 90
        2
 40
-0.6
 41
30.0
 62
     5
 63
     7
421
 16777215
 74
     0
 91
        4
 64
     7
 65
   257
 75
     1
175
     1
 42
1.0
 92
        8
 66
     7
 43
1.0
 76
     1
 77
     6
 78
     2
 67
     7
 79
     5
170
     0
171
     0
290
     0
174
     0
 93
       13
 44
0.0
173
     0
291
     1
 45
0.0
  0
VISUALSTYLE
  5
2C
102
{ACAD_REACTORS
330
2A
102
}
330
2A
100
AcDbVisualStyle
  2
FlatWithEdges
 70
     1
 71
     2
 72
     1
 73
     1
 90
        2
 40
-0.6
 41
30.0
 62
     5
 63
     7
421
 16777215
 74
     1
 91
        4
 64
     7
 65
   257
 75
     1
175
     1
 42
1.0
 92
        0
 66
   257
 43
1.0
 76
     1
 77
     6
 78
     2
 67
     7
 79
     5
170
     0
171
     0
290
     0
174
     0
 93
       13
 44
0.0
173
     0
291
     1
 45
0.0
  0
VISUALSTYLE
  5
2D
102
{ACAD_REACTORS
330
2A
102
}
330
2A
100
AcDbVisualStyle
  2
Gouraud
 70
     2
 71
     2
 72
     2
 73
     1
 90
        2
 40
-0.6
 41
30.0
 62
     5
 63
     7
421
 16777215
 74
     0
 91
        4
 64
     7
 65
   257
 75
     1
175
     1
 42
1.0
 92
        0
 66
     7
 43
1.0
 76
     1
 77
     6
 78
     2
 67
     7
 79
     5
170
     0
171
     0
290
     0
174
     0
 93
       13
 44
0.0
173
     0
291
     1
 45
0.0
  0
VISUALSTYLE
  5
2E
102
{ACAD_REACTORS
330
2A
102
}
330
2A
100
AcDbVisualStyle
  2
GouraudWithEdges
 70
     3
 71
     2
 72
     2
 73
     1
 90
        2
 40
-0.6
 41
30.0
 62
     5
 63
     7
421
 16777215
 74
     1
 91
        4
 64
     7
 65
   257
 75
     1
175
     1
 42
1.0
 92
        0
 66
   257
 43
1.0
 76
     1
 77
     6
 78
     2
 67
     7
 79
     5
170
     0
171
     0
290
     0
174
     0
 93
       13
 44
0.0
173
     0
291
     1
 45
0.0
  0
VISUALSTYLE
  5
38
102
{ACAD_REACTORS
330
2A
102
}
330
2A
100
AcDbVisualStyle
  2
Linepattern
 70
    14
 71
     2
 72
     2
 73
     0
 90
        0
 40
-0.6
 41
-30.0
 62
     5
 63
     7
421
 16777215
 74
     1
 91
        4
 64
     7
 65
   257
 75
     7
175
     7
 42
1.0
 92
        8
 66
     7
 43
1.0
 76
     1
 77
     6
 78
     2
 67
     7
 79
     5
170
     0
171
     0
290
     0
174
     0
 93
        1
 44
0.0
173
     0
291
     1
 45
0.0
  0
VISUALSTYLE
  5
33
102
{ACAD_REACTORS
330
2A
102
}
330
2A
100
AcDbVisualStyle
  2
Realistic
 70
     8
 71
     2
 72
     2
 73
     0
 90
        0
 40
-0.6
 41
-30.0
 62
     5
 63
     7
421
 16777215
 74
     1
 91
        0
 64
     7
 65
   257
 75
     1
175
     1
 42
1.0
 92
        8
 66
     8
424
  7895160
 43
1.0
 76
     1
 77
     6
 78
     2
 67
     7
 79
     5
170
     0
171
     0
290
     0
174
     0
 93
       13
 44
0.0
173
     0
291
     0
 45
0.0
  0
VISUALSTYLE
  5
37
102
{ACAD_REACTORS
330
2A
102
}
330
2A
100
AcDbVisualStyle
  2
Thicken
 70
    13
 71
     2
 72
     2
 73
     0
 90
        0
 40
-0.6
 41
-30.0
 62
     5
 63
     7
421
 16777215
 74
     1
 91
        4
 64
     7
 65
   257
 75
     1
175
     1
 42
1.0
 92
       12
 66
     7
 43
1.0
 76
     1
 77
     6
 78
     2
 67
     7
 79
     5
170
     0
171
     0
290
     0
174
     0
 93
        1
 44
0.0
173
     0
291
     1
 45
0.0
  0
ENDSEC
  0
EOF
