  0
SECTION
  2
HEADER
  9
$ACADVER
  1
AC1006
  9
$DWGCODEPAGE
  3
ansi_932
  9
$INSBASE
 10
0.0
 20
0.0
 30
0.0
  9
$EXTMIN
 10
99.6
 20
160.1189561249369
  9
$EXTMAX
 10
304.4818181818182
 20
369.1
  9
$LIMMIN
 10
0.0
 20
0.0
  9
$LIMMAX
 10
12.0
 20
9.0
  9
$ORTHOMODE
 70
     0
  9
$REGENMODE
 70
     1
  9
$FILLMODE
 70
     1
  9
$QTEXTMODE
 70
     0
  9
$MIRRTEXT
 70
     1
  9
$DRAGMODE
 70
     2
  9
$LTSCALE
 40
1.0
  9
$OSMODE
 70
    37
  9
$ATTMODE
 70
     1
  9
$TEXTSIZE
 40
0.2
  9
$TRACEWID
 40
0.05
  9
$TEXTSTYLE
  7
STANDARD
  9
$CLAYER
  8
0
  9
$CELTYPE
  6
BYLAYER
  9
$CECOLOR
 62
   256
  9
$DIMSCALE
 40
1.0
  9
$DIMASZ
 40
3.0
  9
$DIMEXO
 40
0.0625
  9
$DIMDLI
 40
0.38
  9
$DIMRND
 40
0.0
  9
$DIMDLE
 40
0.0
  9
$DIMEXE
 40
0.18
  9
$DIMTP
 40
0.0
  9
$DIMTM
 40
0.0
  9
$DIMTXT
 40
3.0
  9
$DIMCEN
 40
0.09
  9
$DIMTSZ
 40
0.0
  9
$DIMTOL
 70
     0
  9
$DIMLIM
 70
     0
  9
$DIMTIH
 70
     1
  9
$DIMTOH
 70
     1
  9
$DIMSE1
 70
     0
  9
$DIMSE2
 70
     0
  9
$DIMTAD
 70
     1
  9
$DIMZIN
 70
     0
  9
$DIMBLK
  1

  9
$DIMASO
 70
     1
  9
$DIMSHO
 70
     1
  9
$DIMPOST
  1

  9
$DIMAPOST
  1

  9
$DIMALT
 70
     0
  9
$DIMALTD
 70
     2
  9
$DIMALTF
 40
25.4
  9
$DIMLFAC
 40
1.0
  9
$DIMTOFL
 70
     0
  9
$DIMTVP
 40
0.0
  9
$DIMTIX
 70
     0
  9
$DIMSOXD
 70
     0
  9
$DIMSAH
 70
     0
  9
$DIMBLK1
  1

  9
$DIMBLK2
  1

  9
$LUNITS
 70
     2
  9
$LUPREC
 70
     4
  9
$SKETCHINC
 40
0.1
  9
$FILLETRAD
 40
0.5
  9
$AUNITS
 70
     0
  9
$AUPREC
 70
     0
  9
$MENU
  1
.
  9
$ELEVATION
 40
0.0
  9
$THICKNESS
 40
0.0
  9
$LIMCHECK
 70
     0
  9
$CHAMFERA
 40
0.5
  9
$CHAMFERB
 40
0.5
  9
$SKPOLY
 70
     0
  9
$TDCREATE
 40
2459311.710241921
  9
$TDUPDATE
 40
2459311.710241933
  9
$TDINDWG
 40
0.0000000116
  9
$TDUSRTIMER
 40
0.0000000116
  9
$USRTIMER
 70
     1
  9
$ANGBASE
 50
0.0
  9
$ANGDIR
 70
     0
  9
$PDMODE
 70
     0
  9
$PDSIZE
 40
0.0
  9
$PLINEWID
 40
0.0
  9
$COORDS
 70
     1
  9
$SPLFRAME
 70
     0
  9
$SPLINETYPE
 70
     6
  9
$SPLINESEGS
 70
     8
  9
$ATTDIA
 70
     0
  9
$ATTREQ
 70
     1
  9
$HANDLING
 70
     1
  9
$HANDSEED
  5
2AD
  9
$SURFTAB1
 70
     6
  9
$SURFTAB2
 70
     6
  9
$SURFTYPE
 70
     6
  9
$SURFU
 70
     6
  9
$SURFV
 70
     6
  9
$UCSNAME
  2

  9
$UCSORG
 10
0.0
 20
0.0
 30
0.0
  9
$UCSXDIR
 10
1.0
 20
0.0
 30
0.0
  9
$UCSYDIR
 10
0.0
 20
1.0
 30
0.0
  9
$USERI1
 70
     0
  9
$USERI2
 70
     0
  9
$USERI3
 70
     0
  9
$USERI4
 70
     0
  9
$USERI5
 70
     0
  9
$USERR1
 40
0.0
  9
$USERR2
 40
0.0
  9
$USERR3
 40
0.0
  9
$USERR4
 40
0.0
  9
$USERR5
 40
0.0
  9
$WORLDVIEW
 70
     1
  0
ENDSEC
  0
SECTION
  2
TABLES
  0
TABLE
  2
VPORT
 70
     1
  0
VPORT
  2
*ACTIVE
 70
     0
 10
0.0
 20
0.0
 11
1.0
 21
1.0
 12
202.0409090909091
 22
264.6094780624684
 13
0.0
 23
0.0
 14
0.5
 24
0.5
 15
0.5
 25
0.5
 16
0.0
 26
0.0
 36
1.0
 17
0.0
 27
0.0
 37
0.0
 40
208.9810438750631
 41
1.6
 42
50.0
 43
0.0
 44
0.0
 50
0.0
 51
0.0
 71
     0
 72
   100
 73
     1
 74
     3
 75
     0
 76
     0
 77
     0
 78
     0
  0
ENDTAB
  0
TABLE
  2
LTYPE
 70
     2
  0
LTYPE
  2
CONTINUOUS
 70
     0
  3
Solid line
 72
    65
 73
     0
 40
0.0
  0
LTYPE
  2
________________
 70
     0
  3

 72
    65
 73
     0
 40
0.0
  0
ENDTAB
  0
TABLE
  2
LAYER
 70
     1
  0
LAYER
  2
0
 70
     0
 62
     7
  6
CONTINUOUS
  0
ENDTAB
  0
TABLE
  2
STYLE
 70
     2
  0
STYLE
  2
STANDARD
 70
     0
 40
0.0
 41
1.0
 50
0.0
 71
     0
 42
0.2
  3
txt
  4

  0
STYLE
  2
EXPLODED0
 70
     0
 40
0.2
 41
1.0
 50
0.0
 71
     0
 42
0.2
  3
ＭＳ ゴシック
  4

  0
ENDTAB
  0
TABLE
  2
VIEW
 70
     0
  0
ENDTAB
  0
TABLE
  2
UCS
 70
     0
  0
ENDTAB
  0
ENDSEC
  0
SECTION
  2
BLOCKS
  0
BLOCK
  8
0
  2
_1423
 70
     0
 10
0.0
 20
0.0
 30
0.0
  0
ENDBLK
  8
0
  0
BLOCK
  8
0
  2
_2657
 70
     0
 10
0.0
 20
0.0
 30
0.0
  0
ENDBLK
  8
0
  0
BLOCK
  8
0
  2
_2791
 70
     0
 10
0.0
 20
0.0
 30
0.0
  0
ENDBLK
  8
0
  0
ENDSEC
  0
SECTION
  2
ENTITIES
  0
INSERT
  5
3C
  8
0
  6
________________
 62
     7
  2
_1423
 10
0.0
 20
0.0
 30
0.0
  0
ARC
  5
3E
  8
0
  6
________________
 62
     7
 10
-160.0004289567594
 20
310.0165105544884
 30
0.0
 40
49.15359084158329
 50
253.4196214965877
 51
286.628370116505
210
0.0
220
0.0
230
-1.0
  0
ARC
  5
3F
  8
0
  6
________________
 62
     7
 10
-159.8185340088941
 20
311.7495995860647
 30
0.0
 40
50.86748186471069
 50
245.9306949624644
 51
253.7803135143986
210
0.0
220
0.0
230
-1.0
  0
ARC
  5
40
  8
0
  6
________________
 62
     7
 10
-160.1698545276272
 20
311.7150863053642
 30
0.0
 40
50.830752745817
 50
286.2634629296213
 51
294.1115556550687
210
0.0
220
0.0
230
-1.0
  0
ARC
  5
41
  8
0
  6
________________
 62
     7
 10
-160.2479021886406
 20
312.9117351795947
 30
0.0
 40
51.95655921629
 50
293.6530310733301
 51
350.7724577350909
210
0.0
220
0.0
230
-1.0
  0
ARC
  5
42
  8
0
  6
________________
 62
     7
 10
-159.756304783249
 20
312.9073962836441
 30
0.0
 40
51.95165798517925
 50
189.2235558331701
 51
246.3780760404129
210
0.0
220
0.0
230
-1.0
  0
LINE
  5
43
  8
0
  6
________________
 62
     7
 10
99.6
 20
300.4039008653373
 30
0.0
 11
99.7051794531593
 21
300.5027201470933
 31
0.0
  0
LINE
  5
44
  8
0
  6
________________
 62
     7
 10
220.4
 20
300.4039006757113
 30
0.0
 11
220.2948397167227
 21
300.502702890088
 31
0.0
  0
LINE
  5
45
  8
0
  6
________________
 62
     7
 10
99.6
 20
300.4039008653376
 30
0.0
 11
99.6
 21
309.5
 31
0.0
  0
LINE
  5
46
  8
0
  6
________________
 62
     7
 10
220.4
 20
310.0
 30
0.0
 11
220.4
 21
300.4039006757114
 31
0.0
  0
LINE
  5
47
  8
0
  6
________________
 62
     7
 10
220.2780076100366
 20
300.5148656168545
 30
0.0
 11
220.2948397167227
 21
300.502702890088
 31
0.0
  0
LINE
  5
48
  8
0
  6
________________
 62
     7
 10
211.0203337752207
 20
310.0000000000042
 30
0.0
 11
211.0362512193566
 21
304.58022023657
 31
0.0
  0
POLYLINE
  5
49
  8
0
  6
________________
 62
     7
 66
     1
 10
0.0
 20
0.0
 30
0.0
  0
VERTEX
  5
1BF
  8
0
  6
________________
 62
     7
 10
211.0362512193563
 20
304.58022023657
 30
0.0
  0
VERTEX
  5
1C0
  8
0
  6
________________
 62
     7
 10
211.3205991664369
 20
304.4970970783887
 30
0.0
  0
VERTEX
  5
1C1
  8
0
  6
________________
 62
     7
 10
211.6014088920237
 20
304.4137756996556
 30
0.0
  0
VERTEX
  5
1C2
  8
0
  6
________________
 62
     7
 10
211.8786533017668
 20
304.330264600948
 30
0.0
  0
VERTEX
  5
1C3
  8
0
  6
________________
 62
     7
 10
212.1523053013167
 20
304.2465722828434
 30
0.0
  0
VERTEX
  5
1C4
  8
0
  6
________________
 62
     7
 10
212.4223377963237
 20
304.1627072459189
 30
0.0
  0
VERTEX
  5
1C5
  8
0
  6
________________
 62
     7
 10
212.6887236924381
 20
304.078677990752
 30
0.0
  0
VERTEX
  5
1C6
  8
0
  6
________________
 62
     7
 10
212.9514358953103
 20
303.99449301792
 30
0.0
  0
VERTEX
  5
1C7
  8
0
  6
________________
 62
     7
 10
213.2104473105906
 20
303.9101608280002
 30
0.0
  0
VERTEX
  5
1C8
  8
0
  6
________________
 62
     7
 10
213.4657308439294
 20
303.82568992157
 30
0.0
  0
VERTEX
  5
1C9
  8
0
  6
________________
 62
     7
 10
213.7172594009769
 20
303.7410887992067
 30
0.0
  0
VERTEX
  5
1CA
  8
0
  6
________________
 62
     7
 10
213.9650058873837
 20
303.6563659614876
 30
0.0
  0
VERTEX
  5
1CB
  8
0
  6
________________
 62
     7
 10
214.2089433297324
 20
303.5715299125282
 30
0.0
  0
VERTEX
  5
1CC
  8
0
  6
________________
 62
     7
 10
214.44904717876
 20
303.4865892273676
 30
0.0
  0
VERTEX
  5
1CD
  8
0
  6
________________
 62
     7
 10
214.6852951260547
 20
303.4015525466053
 30
0.0
  0
VERTEX
  5
1CE
  8
0
  6
________________
 62
     7
 10
214.9176649474056
 20
303.3164285133045
 30
0.0
  0
VERTEX
  5
1CF
  8
0
  6
________________
 62
     7
 10
215.1461344186015
 20
303.2312257705283
 30
0.0
  0
VERTEX
  5
1D0
  8
0
  6
________________
 62
     7
 10
215.3706813154316
 20
303.1459529613397
 30
0.0
  0
VERTEX
  5
1D1
  8
0
  6
________________
 62
     7
 10
215.591283413685
 20
303.0606187288021
 30
0.0
  0
VERTEX
  5
1D2
  8
0
  6
________________
 62
     7
 10
215.8079184891506
 20
302.9752317159784
 30
0.0
  0
VERTEX
  5
1D3
  8
0
  6
________________
 62
     7
 10
216.0205643176174
 20
302.8898005659318
 30
0.0
  0
VERTEX
  5
1D4
  8
0
  6
________________
 62
     7
 10
216.2291986748746
 20
302.8043339217255
 30
0.0
  0
VERTEX
  5
1D5
  8
0
  6
________________
 62
     7
 10
216.4337993367111
 20
302.7188404264223
 30
0.0
  0
VERTEX
  5
1D6
  8
0
  6
________________
 62
     7
 10
216.634344078916
 20
302.6333287230858
 30
0.0
  0
VERTEX
  5
1D7
  8
0
  6
________________
 62
     7
 10
216.8308106772783
 20
302.5478074547787
 30
0.0
  0
VERTEX
  5
1D8
  8
0
  6
________________
 62
     7
 10
217.0231775302393
 20
302.4622852645643
 30
0.0
  0
VERTEX
  5
1D9
  8
0
  6
________________
 62
     7
 10
217.2114264733063
 20
302.3767707955056
 30
0.0
  0
VERTEX
  5
1DA
  8
0
  6
________________
 62
     7
 10
217.3955405214689
 20
302.2912726906661
 30
0.0
  0
VERTEX
  5
1DB
  8
0
  6
________________
 62
     7
 10
217.5755026907762
 20
302.2057995931085
 30
0.0
  0
VERTEX
  5
1DC
  8
0
  6
________________
 62
     7
 10
217.7512959972772
 20
302.120360145896
 30
0.0
  0
VERTEX
  5
1DD
  8
0
  6
________________
 62
     7
 10
217.9229034570212
 20
302.0349629920918
 30
0.0
  0
VERTEX
  5
1DE
  8
0
  6
________________
 62
     7
 10
218.0903080860574
 20
301.9496167747591
 30
0.0
  0
VERTEX
  5
1DF
  8
0
  6
________________
 62
     7
 10
218.2534929004348
 20
301.8643301369609
 30
0.0
  0
VERTEX
  5
1E0
  8
0
  6
________________
 62
     7
 10
218.4124409162027
 20
301.7791117217603
 30
0.0
  0
VERTEX
  5
1E1
  8
0
  6
________________
 62
     7
 10
218.5671351494103
 20
301.6939701722205
 30
0.0
  0
VERTEX
  5
1E2
  8
0
  6
________________
 62
     7
 10
218.7175586161066
 20
301.6089141314046
 30
0.0
  0
VERTEX
  5
1E3
  8
0
  6
________________
 62
     7
 10
218.8636943323409
 20
301.5239522423756
 30
0.0
  0
VERTEX
  5
1E4
  8
0
  6
________________
 62
     7
 10
219.0055253296852
 20
301.4390931477959
 30
0.0
  0
VERTEX
  5
1E5
  8
0
  6
________________
 62
     7
 10
219.1430364016864
 20
301.3543454448175
 30
0.0
  0
VERTEX
  5
1E6
  8
0
  6
________________
 62
     7
 10
219.2762157030787
 20
301.2697176437766
 30
0.0
  0
VERTEX
  5
1E7
  8
0
  6
________________
 62
     7
 10
219.4050517664184
 20
301.1852182452505
 30
0.0
  0
VERTEX
  5
1E8
  8
0
  6
________________
 62
     7
 10
219.5295331242623
 20
301.1008557498164
 30
0.0
  0
VERTEX
  5
1E9
  8
0
  6
________________
 62
     7
 10
219.6496483091668
 20
301.0166386580519
 30
0.0
  0
VERTEX
  5
1EA
  8
0
  6
________________
 62
     7
 10
219.7653858536887
 20
300.9325754705342
 30
0.0
  0
VERTEX
  5
1EB
  8
0
  6
________________
 62
     7
 10
219.8767342903843
 20
300.8486746878406
 30
0.0
  0
VERTEX
  5
1EC
  8
0
  6
________________
 62
     7
 10
219.9836821518103
 20
300.7649448105485
 30
0.0
  0
VERTEX
  5
1ED
  8
0
  6
________________
 62
     7
 10
220.0862179705233
 20
300.6813943392352
 30
0.0
  0
VERTEX
  5
1EE
  8
0
  6
________________
 62
     7
 10
220.1843302790799
 20
300.5980317744782
 30
0.0
  0
VERTEX
  5
1EF
  8
0
  6
________________
 62
     7
 10
220.2780076100366
 20
300.5148656168545
 30
0.0
  0
SEQEND
  5
1F0
  8
0
  6
________________
 62
     7
  0
LINE
  5
4A
  8
0
  6
________________
 62
     7
 10
99.7051794531593
 20
300.5027201470933
 30
0.0
 11
99.72201273784698
 21
300.5148840977674
 31
0.0
  0
LINE
  5
4B
  8
0
  6
________________
 62
     7
 10
108.9636974455152
 20
304.5802053404122
 30
0.0
 11
108.9707184314351
 21
309.5000000000001
 31
0.0
  0
POLYLINE
  5
4C
  8
0
  6
________________
 62
     7
 66
     1
 10
0.0
 20
0.0
 30
0.0
  0
VERTEX
  5
1F1
  8
0
  6
________________
 62
     7
 10
108.9636974455165
 20
304.5802053404124
 30
0.0
  0
VERTEX
  5
1F2
  8
0
  6
________________
 62
     7
 10
108.6793524969715
 20
304.4970828427503
 30
0.0
  0
VERTEX
  5
1F3
  8
0
  6
________________
 62
     7
 10
108.3985457153027
 20
304.4137621293099
 30
0.0
  0
VERTEX
  5
1F4
  8
0
  6
________________
 62
     7
 10
108.1213041941793
 20
304.330251700455
 30
0.0
  0
VERTEX
  5
1F5
  8
0
  6
________________
 62
     7
 10
107.8476550272703
 20
304.2465600565494
 30
0.0
  0
VERTEX
  5
1F6
  8
0
  6
________________
 62
     7
 10
107.5776253082448
 20
304.1626956979569
 30
0.0
  0
VERTEX
  5
1F7
  8
0
  6
________________
 62
     7
 10
107.3112421307719
 20
304.0786671250413
 30
0.0
  0
VERTEX
  5
1F8
  8
0
  6
________________
 62
     7
 10
107.0485325885206
 20
303.9944828381664
 30
0.0
  0
VERTEX
  5
1F9
  8
0
  6
________________
 62
     7
 10
106.78952377516
 20
303.9101513376962
 30
0.0
  0
VERTEX
  5
1FA
  8
0
  6
________________
 62
     7
 10
106.5342427843592
 20
303.8256811239942
 30
0.0
  0
VERTEX
  5
1FB
  8
0
  6
________________
 62
     7
 10
106.2827167097872
 20
303.7410806974244
 30
0.0
  0
VERTEX
  5
1FC
  8
0
  6
________________
 62
     7
 10
106.0349726451131
 20
303.6563585583505
 30
0.0
  0
VERTEX
  5
1FD
  8
0
  6
________________
 62
     7
 10
105.7910375630194
 20
303.5715232106761
 30
0.0
  0
VERTEX
  5
1FE
  8
0
  6
________________
 62
     7
 10
105.5509360118483
 20
303.4865832292337
 30
0.0
  0
VERTEX
  5
1FF
  8
0
  6
________________
 62
     7
 10
105.3146902994065
 20
303.4015472544072
 30
0.0
  0
VERTEX
  5
200
  8
0
  6
________________
 62
     7
 10
105.0823226493467
 20
303.3164239290426
 30
0.0
  0
VERTEX
  5
201
  8
0
  6
________________
 62
     7
 10
104.8538552853216
 20
303.231221895986
 30
0.0
  0
VERTEX
  5
202
  8
0
  6
________________
 62
     7
 10
104.6293104309839
 20
303.1459497980833
 30
0.0
  0
VERTEX
  5
203
  8
0
  6
________________
 62
     7
 10
104.4087103099863
 20
303.0606162781805
 30
0.0
  0
VERTEX
  5
204
  8
0
  6
________________
 62
     7
 10
104.1920771459816
 20
302.9752299791238
 30
0.0
  0
VERTEX
  5
205
  8
0
  6
________________
 62
     7
 10
103.9794331626224
 20
302.889799543759
 30
0.0
  0
VERTEX
  5
206
  8
0
  6
________________
 62
     7
 10
103.7708005835614
 20
302.8043336149321
 30
0.0
  0
VERTEX
  5
207
  8
0
  6
________________
 62
     7
 10
103.5662016324513
 20
302.7188408354893
 30
0.0
  0
VERTEX
  5
208
  8
0
  6
________________
 62
     7
 10
103.3656585329449
 20
302.6333298482764
 30
0.0
  0
VERTEX
  5
209
  8
0
  6
________________
 62
     7
 10
103.1691935086949
 20
302.5478092961396
 30
0.0
  0
VERTEX
  5
20A
  8
0
  6
________________
 62
     7
 10
102.9768281607643
 20
302.4622878219249
 30
0.0
  0
VERTEX
  5
20B
  8
0
  6
________________
 62
     7
 10
102.7885806532592
 20
302.3767740684782
 30
0.0
  0
VERTEX
  5
20C
  8
0
  6
________________
 62
     7
 10
102.6044679707644
 20
302.2912766786456
 30
0.0
  0
VERTEX
  5
20D
  8
0
  6
________________
 62
     7
 10
102.4245070968041
 20
302.205804295273
 30
0.0
  0
VERTEX
  5
20E
  8
0
  6
________________
 62
     7
 10
102.2487150149024
 20
302.1203655612065
 30
0.0
  0
VERTEX
  5
20F
  8
0
  6
________________
 62
     7
 10
102.0771087085836
 20
302.0349691192921
 30
0.0
  0
VERTEX
  5
210
  8
0
  6
________________
 62
     7
 10
101.9097051613719
 20
301.9496236123758
 30
0.0
  0
VERTEX
  5
211
  8
0
  6
________________
 62
     7
 10
101.7465213567915
 20
301.8643376833036
 30
0.0
  0
VERTEX
  5
212
  8
0
  6
________________
 62
     7
 10
101.5875742783666
 20
301.7791199749216
 30
0.0
  0
VERTEX
  5
213
  8
0
  6
________________
 62
     7
 10
101.4328809096214
 20
301.6939791300757
 30
0.0
  0
VERTEX
  5
214
  8
0
  6
________________
 62
     7
 10
101.2824582340802
 20
301.608923791612
 30
0.0
  0
VERTEX
  5
215
  8
0
  6
________________
 62
     7
 10
101.1363232352671
 20
301.5239626023764
 30
0.0
  0
VERTEX
  5
216
  8
0
  6
________________
 62
     7
 10
100.9944928812072
 20
301.4391042048147
 30
0.0
  0
VERTEX
  5
217
  8
0
  6
________________
 62
     7
 10
100.85698237846
 20
301.3543571958757
 30
0.0
  0
VERTEX
  5
218
  8
0
  6
________________
 62
     7
 10
100.7238035721896
 20
301.2697300856867
 30
0.0
  0
VERTEX
  5
219
  8
0
  6
________________
 62
     7
 10
100.5949679295513
 20
301.1852313746116
 30
0.0
  0
VERTEX
  5
21A
  8
0
  6
________________
 62
     7
 10
100.4704869177006
 20
301.1008695630142
 30
0.0
  0
VERTEX
  5
21B
  8
0
  6
________________
 62
     7
 10
100.3503720037927
 20
301.0166531512583
 30
0.0
  0
VERTEX
  5
21C
  8
0
  6
________________
 62
     7
 10
100.2346346549831
 20
300.9325906397077
 30
0.0
  0
VERTEX
  5
21D
  8
0
  6
________________
 62
     7
 10
100.1232863384271
 20
300.8486905287261
 30
0.0
  0
VERTEX
  5
21E
  8
0
  6
________________
 62
     7
 10
100.0163385212801
 20
300.7649613186776
 30
0.0
  0
VERTEX
  5
21F
  8
0
  6
________________
 62
     7
 10
99.91380267069755
 20
300.6814115099257
 30
0.0
  0
VERTEX
  5
220
  8
0
  6
________________
 62
     7
 10
99.81569025383472
 20
300.5980496028344
 30
0.0
  0
VERTEX
  5
221
  8
0
  6
________________
 62
     7
 10
99.72201273784698
 20
300.5148840977674
 30
0.0
  0
SEQEND
  5
222
  8
0
  6
________________
 62
     7
  0
LINE
  5
4D
  8
0
  6
________________
 62
     7
 10
209.4452292207932
 20
309.9999977413763
 30
0.0
 11
209.176967574267
 21
306.9999983735887
 31
0.0
  0
LINE
  5
4E
  8
0
  6
________________
 62
     7
 10
109.6971076696434
 20
310.0000000000001
 30
0.0
 11
109.6966496052541
 21
309.4999747564718
 31
0.0
  0
LINE
  5
4F
  8
0
  6
________________
 62
     7
 10
110.5547707792068
 20
310.0000022586237
 30
0.0
 11
110.823032425733
 21
313.0000016264113
 31
0.0
  0
POLYLINE
  5
50
  8
0
  6
________________
 62
     7
 10
0.0
 20
0.0
 30
0.0
 66
     1
 70
     8
  0
VERTEX
  5
51
  8
0
  6
________________
 62
     7
 10
174.0655025603451
 20
357.0815261686907
 30
0.0
 70
    32
  0
VERTEX
  5
52
  8
0
  6
________________
 62
     7
 10
171.792647505196
 20
357.6409802593096
 30
0.0
 70
    32
  0
VERTEX
  5
53
  8
0
  6
________________
 62
     7
 10
169.5698854428864
 20
358.0900235885494
 30
0.0
 70
    32
  0
VERTEX
  5
54
  8
0
  6
________________
 62
     7
 10
167.4062286676279
 20
358.4377616518797
 30
0.0
 70
    32
  0
SEQEND
  5
55
  8
0
  6
________________
 62
     7
  0
LINE
  5
56
  8
0
  6
________________
 62
     7
 10
209.1075115257576
 20
306.999996906573
 30
0.0
 11
209.1042830922159
 21
306.9497544201813
 31
0.0
  0
ARC
  5
57
  8
0
  6
________________
 62
     7
 10
-159.9965283516969
 20
310.0022571875234
 30
0.0
 40
49.20253396726235
 50
183.5568882105311
 51
245.2787393959258
210
0.0
220
0.0
230
-1.0
  0
ARC
  5
58
  8
0
  6
________________
 62
     7
 10
-160.0118005980689
 20
310.0071935267555
 30
0.0
 40
49.21039282641138
 50
294.7734453628615
 51
359.9332647714224
210
0.0
220
0.0
230
-1.0
  0
LINE
  5
59
  8
0
  6
________________
 62
     7
 10
110.8014411520799
 20
309.9498757609616
 30
0.0
 11
110.8009065592182
 21
310.0000001229026
 31
0.0
  0
POLYLINE
  5
5A
  8
0
  6
________________
 62
     7
 10
0.0
 20
0.0
 30
0.0
 66
     1
 70
     8
  0
VERTEX
  5
5B
  8
0
  6
________________
 62
     7
 10
145.9344974396549
 20
262.9184738313092
 30
0.0
 70
    32
  0
VERTEX
  5
5C
  8
0
  6
________________
 62
     7
 10
148.207352494804
 20
262.3590197406904
 30
0.0
 70
    32
  0
VERTEX
  5
5D
  8
0
  6
________________
 62
     7
 10
150.4301145571136
 20
261.9099764114506
 30
0.0
 70
    32
  0
VERTEX
  5
5E
  8
0
  6
________________
 62
     7
 10
152.5937713323721
 20
261.5622383481203
 30
0.0
 70
    32
  0
SEQEND
  5
5F
  8
0
  6
________________
 62
     7
  0
POLYLINE
  5
60
  8
0
  6
________________
 62
     7
 10
0.0
 20
0.0
 30
0.0
 66
     1
 70
     8
  0
VERTEX
  5
61
  8
0
  6
________________
 62
     7
 10
174.0269056896226
 20
262.906708569294
 30
0.0
 70
    32
  0
VERTEX
  5
62
  8
0
  6
________________
 62
     7
 10
171.7184768933623
 20
262.341528516853
 30
0.0
 70
    32
  0
VERTEX
  5
63
  8
0
  6
________________
 62
     7
 10
169.4814719006216
 20
261.8928410334524
 30
0.0
 70
    32
  0
VERTEX
  5
64
  8
0
  6
________________
 62
     7
 10
167.314740587711
 20
261.5484911772523
 30
0.0
 70
    32
  0
SEQEND
  5
65
  8
0
  6
________________
 62
     7
  0
LINE
  5
66
  8
0
  6
________________
 62
     7
 10
209.1097401557502
 20
307.0000000053914
 30
0.0
 11
209.3779891286017
 21
310.0
 31
0.0
  0
POLYLINE
  5
67
  8
0
  6
________________
 62
     7
 10
0.0
 20
0.0
 30
0.0
 66
     1
 70
     8
  0
VERTEX
  5
68
  8
0
  6
________________
 62
     7
 10
208.9080785581055
 20
307.0000247077404
 30
0.0
 70
    32
  0
VERTEX
  5
69
  8
0
  6
________________
 62
     7
 10
208.9080808223013
 20
307.0000616207601
 30
0.0
 70
    32
  0
VERTEX
  5
6A
  8
0
  6
________________
 62
     7
 10
208.9080829798971
 20
307.0000967963132
 30
0.0
 70
    32
  0
SEQEND
  5
6B
  8
0
  6
________________
 62
     7
  0
LINE
  5
6C
  8
0
  6
________________
 62
     7
 10
110.8688167601604
 20
309.9999990533173
 30
0.0
 11
110.9396732338444
 21
312.6466680059909
 31
0.0
  0
LINE
  5
6D
  8
0
  6
________________
 62
     7
 10
111.0919227099836
 20
312.9999959656261
 30
0.0
 11
111.0888911011676
 21
312.9501569935433
 31
0.0
  0
LINE
  5
6E
  8
0
  6
________________
 62
     7
 10
111.0888911011676
 20
312.9501569935433
 30
0.0
 11
111.0000000000001
 21
309.9999990380209
 31
0.0
  0
ARC
  5
6F
  8
0
  6
________________
 62
     7
 10
-159.9963940328622
 20
312.5021398914689
 30
0.0
 40
61.60395605817361
 50
191.3290895722997
 51
230.0432964458521
210
0.0
220
0.0
230
-1.0
  0
LINE
  5
70
  8
0
  6
________________
 62
     7
 10
100.1
 20
309.5
 30
0.0
 11
100.1
 21
310.0000000000051
 31
0.0
  0
LINE
  5
71
  8
0
  6
________________
 62
     7
 10
108.9796662247793
 20
309.9999999999958
 30
0.0
 11
108.9637487806434
 21
315.41977976343
 31
0.0
  0
ARC
  5
72
  8
0
  6
________________
 62
     7
 10
-160.243695216751
 20
307.092603716356
 30
0.0
 40
51.9516579851792
 50
9.223555833170103
 51
66.37807604041294
210
0.0
220
0.0
230
-1.0
  0
LINE
  5
73
  8
0
  6
________________
 62
     7
 10
110.8924884742424
 20
313.0000030934269
 30
0.0
 11
110.8957169077841
 21
313.0502455798187
 31
0.0
  0
ARC
  5
74
  8
0
  6
________________
 62
     7
 10
-160.0034716483032
 20
309.9977428124765
 30
0.0
 40
49.20253396726237
 50
3.55688821053105
 51
65.2787393959257
210
0.0
220
0.0
230
-1.0
  0
LINE
  5
75
  8
0
  6
________________
 62
     7
 10
211.0363025544848
 20
315.4197946595878
 30
0.0
 11
211.0292815685649
 21
310.4999999999999
 31
0.0
  0
LINE
  5
76
  8
0
  6
________________
 62
     7
 10
210.3028923303567
 20
309.9999999999999
 30
0.0
 11
210.3033503947459
 21
310.5000252435282
 31
0.0
  0
ARC
  5
77
  8
0
  6
________________
 62
     7
 10
-159.9881994019311
 20
309.9928064732445
 30
0.0
 40
49.21039282641134
 50
114.7734453628615
 51
179.9332647714224
210
0.0
220
0.0
230
-1.0
  0
LINE
  5
78
  8
0
  6
________________
 62
     7
 10
209.1985588479201
 20
310.0501242390384
 30
0.0
 11
209.1990934407818
 21
309.9999998770974
 31
0.0
  0
ARC
  5
79
  8
0
  6
________________
 62
     7
 10
-159.7520978113594
 20
307.0882648204052
 30
0.0
 40
51.95655921629007
 50
113.65303107333
 51
170.7724577350908
210
0.0
220
0.0
230
-1.0
  0
ARC
  5
7A
  8
0
  6
________________
 62
     7
 10
-160.1814659911059
 20
308.2504004139353
 30
0.0
 40
50.86748186471064
 50
65.93069496246436
 51
73.78031351439864
210
0.0
220
0.0
230
-1.0
  0
POLYLINE
  5
7B
  8
0
  6
________________
 62
     7
 66
     1
 10
0.0
 20
0.0
 30
0.0
  0
VERTEX
  5
223
  8
0
  6
________________
 62
     7
 10
108.9637487806437
 20
315.41977976343
 30
0.0
  0
VERTEX
  5
224
  8
0
  6
________________
 62
     7
 10
108.679400833563
 20
315.5029029216113
 30
0.0
  0
VERTEX
  5
225
  8
0
  6
________________
 62
     7
 10
108.3985911079763
 20
315.5862243003443
 30
0.0
  0
VERTEX
  5
226
  8
0
  6
________________
 62
     7
 10
108.1213466982332
 20
315.6697353990519
 30
0.0
  0
VERTEX
  5
227
  8
0
  6
________________
 62
     7
 10
107.8476946986833
 20
315.7534277171566
 30
0.0
  0
VERTEX
  5
228
  8
0
  6
________________
 62
     7
 10
107.5776622036763
 20
315.837292754081
 30
0.0
  0
VERTEX
  5
229
  8
0
  6
________________
 62
     7
 10
107.3112763075619
 20
315.9213220092479
 30
0.0
  0
VERTEX
  5
22A
  8
0
  6
________________
 62
     7
 10
107.0485641046897
 20
316.0055069820799
 30
0.0
  0
VERTEX
  5
22B
  8
0
  6
________________
 62
     7
 10
106.7895526894094
 20
316.0898391719998
 30
0.0
  0
VERTEX
  5
22C
  8
0
  6
________________
 62
     7
 10
106.5342691560706
 20
316.1743100784299
 30
0.0
  0
VERTEX
  5
22D
  8
0
  6
________________
 62
     7
 10
106.2827405990231
 20
316.2589112007932
 30
0.0
  0
VERTEX
  5
22E
  8
0
  6
________________
 62
     7
 10
106.0349941126163
 20
316.3436340385123
 30
0.0
  0
VERTEX
  5
22F
  8
0
  6
________________
 62
     7
 10
105.7910566702676
 20
316.4284700874717
 30
0.0
  0
VERTEX
  5
230
  8
0
  6
________________
 62
     7
 10
105.55095282124
 20
316.5134107726324
 30
0.0
  0
VERTEX
  5
231
  8
0
  6
________________
 62
     7
 10
105.3147048739453
 20
316.5984474533947
 30
0.0
  0
VERTEX
  5
232
  8
0
  6
________________
 62
     7
 10
105.0823350525944
 20
316.6835714866955
 30
0.0
  0
VERTEX
  5
233
  8
0
  6
________________
 62
     7
 10
104.8538655813985
 20
316.7687742294717
 30
0.0
  0
VERTEX
  5
234
  8
0
  6
________________
 62
     7
 10
104.6293186845684
 20
316.8540470386602
 30
0.0
  0
VERTEX
  5
235
  8
0
  6
________________
 62
     7
 10
104.408716586315
 20
316.9393812711979
 30
0.0
  0
VERTEX
  5
236
  8
0
  6
________________
 62
     7
 10
104.1920815108494
 20
317.0247682840215
 30
0.0
  0
VERTEX
  5
237
  8
0
  6
________________
 62
     7
 10
103.9794356823826
 20
317.1101994340681
 30
0.0
  0
VERTEX
  5
238
  8
0
  6
________________
 62
     7
 10
103.7708013251254
 20
317.1956660782745
 30
0.0
  0
VERTEX
  5
239
  8
0
  6
________________
 62
     7
 10
103.5662006632889
 20
317.2811595735776
 30
0.0
  0
VERTEX
  5
23A
  8
0
  6
________________
 62
     7
 10
103.365655921084
 20
317.3666712769142
 30
0.0
  0
VERTEX
  5
23B
  8
0
  6
________________
 62
     7
 10
103.1691893227217
 20
317.4521925452212
 30
0.0
  0
VERTEX
  5
23C
  8
0
  6
________________
 62
     7
 10
102.9768224697608
 20
317.5377147354357
 30
0.0
  0
VERTEX
  5
23D
  8
0
  6
________________
 62
     7
 10
102.7885735266936
 20
317.6232292044943
 30
0.0
  0
VERTEX
  5
23E
  8
0
  6
________________
 62
     7
 10
102.6044594785311
 20
317.7087273093339
 30
0.0
  0
VERTEX
  5
23F
  8
0
  6
________________
 62
     7
 10
102.4244973092238
 20
317.7942004068915
 30
0.0
  0
VERTEX
  5
240
  8
0
  6
________________
 62
     7
 10
102.2487040027228
 20
317.879639854104
 30
0.0
  0
VERTEX
  5
241
  8
0
  6
________________
 62
     7
 10
102.0770965429788
 20
317.9650370079081
 30
0.0
  0
VERTEX
  5
242
  8
0
  6
________________
 62
     7
 10
101.9096919139426
 20
318.0503832252408
 30
0.0
  0
VERTEX
  5
243
  8
0
  6
________________
 62
     7
 10
101.7465070995652
 20
318.1356698630391
 30
0.0
  0
VERTEX
  5
244
  8
0
  6
________________
 62
     7
 10
101.5875590837973
 20
318.2208882782397
 30
0.0
  0
VERTEX
  5
245
  8
0
  6
________________
 62
     7
 10
101.4328648505897
 20
318.3060298277794
 30
0.0
  0
VERTEX
  5
246
  8
0
  6
________________
 62
     7
 10
101.2824413838934
 20
318.3910858685953
 30
0.0
  0
VERTEX
  5
247
  8
0
  6
________________
 62
     7
 10
101.1363056676591
 20
318.4760477576243
 30
0.0
  0
VERTEX
  5
248
  8
0
  6
________________
 62
     7
 10
100.9944746703148
 20
318.560906852204
 30
0.0
  0
VERTEX
  5
249
  8
0
  6
________________
 62
     7
 10
100.8569635983136
 20
318.6456545551824
 30
0.0
  0
VERTEX
  5
24A
  8
0
  6
________________
 62
     7
 10
100.7237842969213
 20
318.7302823562233
 30
0.0
  0
VERTEX
  5
24B
  8
0
  6
________________
 62
     7
 10
100.5949482335816
 20
318.8147817547494
 30
0.0
  0
VERTEX
  5
24C
  8
0
  6
________________
 62
     7
 10
100.4704668757377
 20
318.8991442501835
 30
0.0
  0
VERTEX
  5
24D
  8
0
  6
________________
 62
     7
 10
100.3503516908332
 20
318.983361341948
 30
0.0
  0
VERTEX
  5
24E
  8
0
  6
________________
 62
     7
 10
100.2346141463113
 20
319.0674245294658
 30
0.0
  0
VERTEX
  5
24F
  8
0
  6
________________
 62
     7
 10
100.1232657096157
 20
319.1513253121593
 30
0.0
  0
VERTEX
  5
250
  8
0
  6
________________
 62
     7
 10
100.0163178481897
 20
319.2350551894514
 30
0.0
  0
VERTEX
  5
251
  8
0
  6
________________
 62
     7
 10
99.91378202947665
 20
319.3186056607647
 30
0.0
  0
VERTEX
  5
252
  8
0
  6
________________
 62
     7
 10
99.8156697209201
 20
319.4019682255218
 30
0.0
  0
VERTEX
  5
253
  8
0
  6
________________
 62
     7
 10
99.7219923899634
 20
319.4851343831455
 30
0.0
  0
SEQEND
  5
254
  8
0
  6
________________
 62
     7
  0
POLYLINE
  5
7C
  8
0
  6
________________
 62
     7
 66
     1
 10
0.0
 20
0.0
 30
0.0
  0
VERTEX
  5
255
  8
0
  6
________________
 62
     7
 10
211.0363025544835
 20
315.4197946595876
 30
0.0
  0
VERTEX
  5
256
  8
0
  6
________________
 62
     7
 10
211.3206475030285
 20
315.5029171572497
 30
0.0
  0
VERTEX
  5
257
  8
0
  6
________________
 62
     7
 10
211.6014542846973
 20
315.5862378706901
 30
0.0
  0
VERTEX
  5
258
  8
0
  6
________________
 62
     7
 10
211.8786958058207
 20
315.669748299545
 30
0.0
  0
VERTEX
  5
259
  8
0
  6
________________
 62
     7
 10
212.1523449727297
 20
315.7534399434506
 30
0.0
  0
VERTEX
  5
25A
  8
0
  6
________________
 62
     7
 10
212.4223746917552
 20
315.8373043020431
 30
0.0
  0
VERTEX
  5
25B
  8
0
  6
________________
 62
     7
 10
212.6887578692281
 20
315.9213328749587
 30
0.0
  0
VERTEX
  5
25C
  8
0
  6
________________
 62
     7
 10
212.9514674114794
 20
316.0055171618336
 30
0.0
  0
VERTEX
  5
25D
  8
0
  6
________________
 62
     7
 10
213.21047622484
 20
316.0898486623038
 30
0.0
  0
VERTEX
  5
25E
  8
0
  6
________________
 62
     7
 10
213.4657572156408
 20
316.1743188760059
 30
0.0
  0
VERTEX
  5
25F
  8
0
  6
________________
 62
     7
 10
213.7172832902128
 20
316.2589193025756
 30
0.0
  0
VERTEX
  5
260
  8
0
  6
________________
 62
     7
 10
213.9650273548869
 20
316.3436414416495
 30
0.0
  0
VERTEX
  5
261
  8
0
  6
________________
 62
     7
 10
214.2089624369806
 20
316.4284767893239
 30
0.0
  0
VERTEX
  5
262
  8
0
  6
________________
 62
     7
 10
214.4490639881517
 20
316.5134167707663
 30
0.0
  0
VERTEX
  5
263
  8
0
  6
________________
 62
     7
 10
214.6853097005935
 20
316.5984527455928
 30
0.0
  0
VERTEX
  5
264
  8
0
  6
________________
 62
     7
 10
214.9176773506533
 20
316.6835760709574
 30
0.0
  0
VERTEX
  5
265
  8
0
  6
________________
 62
     7
 10
215.1461447146784
 20
316.7687781040141
 30
0.0
  0
VERTEX
  5
266
  8
0
  6
________________
 62
     7
 10
215.3706895690161
 20
316.8540502019168
 30
0.0
  0
VERTEX
  5
267
  8
0
  6
________________
 62
     7
 10
215.5912896900136
 20
316.9393837218195
 30
0.0
  0
VERTEX
  5
268
  8
0
  6
________________
 62
     7
 10
215.8079228540184
 20
317.0247700208762
 30
0.0
  0
VERTEX
  5
269
  8
0
  6
________________
 62
     7
 10
216.0205668373776
 20
317.1102004562411
 30
0.0
  0
VERTEX
  5
26A
  8
0
  6
________________
 62
     7
 10
216.2291994164386
 20
317.1956663850679
 30
0.0
  0
VERTEX
  5
26B
  8
0
  6
________________
 62
     7
 10
216.4337983675487
 20
317.2811591645108
 30
0.0
  0
VERTEX
  5
26C
  8
0
  6
________________
 62
     7
 10
216.634341467055
 20
317.3666701517236
 30
0.0
  0
VERTEX
  5
26D
  8
0
  6
________________
 62
     7
 10
216.8308064913051
 20
317.4521907038604
 30
0.0
  0
VERTEX
  5
26E
  8
0
  6
________________
 62
     7
 10
217.0231718392357
 20
317.5377121780751
 30
0.0
  0
VERTEX
  5
26F
  8
0
  6
________________
 62
     7
 10
217.2114193467408
 20
317.6232259315218
 30
0.0
  0
VERTEX
  5
270
  8
0
  6
________________
 62
     7
 10
217.3955320292356
 20
317.7087233213544
 30
0.0
  0
VERTEX
  5
271
  8
0
  6
________________
 62
     7
 10
217.5754929031959
 20
317.794195704727
 30
0.0
  0
VERTEX
  5
272
  8
0
  6
________________
 62
     7
 10
217.7512849850976
 20
317.8796344387935
 30
0.0
  0
VERTEX
  5
273
  8
0
  6
________________
 62
     7
 10
217.9228912914164
 20
317.9650308807079
 30
0.0
  0
VERTEX
  5
274
  8
0
  6
________________
 62
     7
 10
218.0902948386281
 20
318.0503763876242
 30
0.0
  0
VERTEX
  5
275
  8
0
  6
________________
 62
     7
 10
218.2534786432085
 20
318.1356623166964
 30
0.0
  0
VERTEX
  5
276
  8
0
  6
________________
 62
     7
 10
218.4124257216334
 20
318.2208800250784
 30
0.0
  0
VERTEX
  5
277
  8
0
  6
________________
 62
     7
 10
218.5671190903786
 20
318.3060208699243
 30
0.0
  0
VERTEX
  5
278
  8
0
  6
________________
 62
     7
 10
218.7175417659198
 20
318.391076208388
 30
0.0
  0
VERTEX
  5
279
  8
0
  6
________________
 62
     7
 10
218.8636767647329
 20
318.4760373976236
 30
0.0
  0
VERTEX
  5
27A
  8
0
  6
________________
 62
     7
 10
219.0055071187928
 20
318.5608957951853
 30
0.0
  0
VERTEX
  5
27B
  8
0
  6
________________
 62
     7
 10
219.14301762154
 20
318.6456428041243
 30
0.0
  0
VERTEX
  5
27C
  8
0
  6
________________
 62
     7
 10
219.2761964278104
 20
318.7302699143133
 30
0.0
  0
VERTEX
  5
27D
  8
0
  6
________________
 62
     7
 10
219.4050320704487
 20
318.8147686253884
 30
0.0
  0
VERTEX
  5
27E
  8
0
  6
________________
 62
     7
 10
219.5295130822995
 20
318.8991304369857
 30
0.0
  0
VERTEX
  5
27F
  8
0
  6
________________
 62
     7
 10
219.6496279962073
 20
318.9833468487417
 30
0.0
  0
VERTEX
  5
280
  8
0
  6
________________
 62
     7
 10
219.7653653450169
 20
319.0674093602923
 30
0.0
  0
VERTEX
  5
281
  8
0
  6
________________
 62
     7
 10
219.8767136615729
 20
319.1513094712738
 30
0.0
  0
VERTEX
  5
282
  8
0
  6
________________
 62
     7
 10
219.9836614787199
 20
319.2350386813224
 30
0.0
  0
VERTEX
  5
283
  8
0
  6
________________
 62
     7
 10
220.0861973293025
 20
319.3185884900743
 30
0.0
  0
VERTEX
  5
284
  8
0
  6
________________
 62
     7
 10
220.1843097461653
 20
319.4019503971656
 30
0.0
  0
VERTEX
  5
285
  8
0
  6
________________
 62
     7
 10
220.277987262153
 20
319.4851159022326
 30
0.0
  0
SEQEND
  5
286
  8
0
  6
________________
 62
     7
  0
ARC
  5
7D
  8
0
  6
________________
 62
     7
 10
-159.8301454723728
 20
308.2849136946358
 30
0.0
 40
50.83075274581702
 50
106.2634629296212
 51
114.1115556550686
210
0.0
220
0.0
230
-1.0
  0
ARC
  5
7E
  8
0
  6
________________
 62
     7
 10
-159.9995710432406
 20
309.9834894455116
 30
0.0
 40
49.15359084158332
 50
73.4196214965877
 51
106.628370116505
210
0.0
220
0.0
230
-1.0
  0
POLYLINE
  5
7F
  8
0
  6
________________
 62
     7
 10
0.0
 20
0.0
 30
0.0
 66
     1
 70
     8
  0
VERTEX
  5
80
  8
0
  6
________________
 62
     7
 10
145.9730943103774
 20
357.093291430706
 30
0.0
 70
    32
  0
VERTEX
  5
81
  8
0
  6
________________
 62
     7
 10
148.2815231066377
 20
357.658471483147
 30
0.0
 70
    32
  0
VERTEX
  5
82
  8
0
  6
________________
 62
     7
 10
150.5185280993784
 20
358.1071589665476
 30
0.0
 70
    32
  0
VERTEX
  5
83
  8
0
  6
________________
 62
     7
 10
152.685259412289
 20
358.4515088227477
 30
0.0
 70
    32
  0
SEQEND
  5
84
  8
0
  6
________________
 62
     7
  0
LINE
  5
85
  8
0
  6
________________
 62
     7
 10
110.8902598442498
 20
312.9999999946086
 30
0.0
 11
110.6220108713983
 21
310.0
 31
0.0
  0
POLYLINE
  5
86
  8
0
  6
________________
 62
     7
 10
0.0
 20
0.0
 30
0.0
 66
     1
 70
     8
  0
VERTEX
  5
87
  8
0
  6
________________
 62
     7
 10
111.0919214193151
 20
312.9999749241512
 30
0.0
 70
    32
  0
VERTEX
  5
88
  8
0
  6
________________
 62
     7
 10
111.0919191776986
 20
312.9999383792399
 30
0.0
 70
    32
  0
VERTEX
  5
89
  8
0
  6
________________
 62
     7
 10
111.091917020117
 20
312.9999032039174
 30
0.0
 70
    32
  0
SEQEND
  5
8A
  8
0
  6
________________
 62
     7
  0
LINE
  5
8B
  8
0
  6
________________
 62
     7
 10
99.72199238996339
 20
319.4851343831455
 30
0.0
 11
99.70516028327731
 21
319.497297109912
 31
0.0
  0
LINE
  5
8C
  8
0
  6
________________
 62
     7
 10
220.2948205468407
 20
319.4972798529068
 30
0.0
 11
220.277987262153
 21
319.4851159022327
 31
0.0
  0
LINE
  5
8D
  8
0
  6
________________
 62
     7
 10
209.1311832398396
 20
310.0000009466827
 30
0.0
 11
209.0430487362208
 21
307.0500000861759
 31
0.0
  0
LINE
  5
8E
  8
0
  6
________________
 62
     7
 10
209.0430487362208
 20
307.0500000861759
 30
0.0
 11
209.0400191300936
 21
307.0000000005481
 31
0.0
  0
LINE
  5
8F
  8
0
  6
________________
 62
     7
 10
208.9080772900164
 20
307.0000040343739
 30
0.0
 11
208.9999999999999
 21
310.000000961979
 31
0.0
  0
LINE
  5
90
  8
0
  6
________________
 62
     7
 10
99.60000000000002
 20
319.5960993242887
 30
0.0
 11
99.70516028327728
 21
319.497297109912
 31
0.0
  0
ARC
  5
91
  8
0
  6
________________
 62
     7
 10
-160.0036059671378
 20
307.4978601085311
 30
0.0
 40
61.60395605817361
 50
11.32908957229967
 51
50.0432964458521
210
0.0
220
0.0
230
-1.0
  0
LINE
  5
92
  8
0
  6
________________
 62
     7
 10
220.4
 20
319.5960991346627
 30
0.0
 11
220.2948205468407
 21
319.4972798529067
 31
0.0
  0
LINE
  5
93
  8
0
  6
________________
 62
     7
 10
220.4
 20
319.5960991346624
 30
0.0
 11
220.4
 21
310.5
 31
0.0
  0
LINE
  5
94
  8
0
  6
________________
 62
     7
 10
99.60000000000002
 20
310.0
 30
0.0
 11
99.60000000000002
 21
319.5960993242886
 31
0.0
  0
LINE
  5
95
  8
0
  6
________________
 62
     7
 10
219.9
 20
310.5
 30
0.0
 11
219.9
 21
309.9999999999949
 31
0.0
  0
LINE
  5
96
  8
0
  6
________________
 62
     7
 10
215.75
 20
180.1189561249369
 30
0.0
 11
104.25
 21
180.1189561249369
 31
0.0
  0
POLYLINE
  5
97
  8
0
  6
________________
 62
     7
 10
0.0
 20
0.0
 30
0.0
 66
     1
 70
     8
  0
VERTEX
  5
98
  8
0
  6
________________
 62
     7
 10
100.5913829737657
 20
180.1574731155511
 30
0.0
 70
    32
  0
VERTEX
  5
99
  8
0
  6
________________
 62
     7
 10
100.5772414117048
 20
180.1576969475673
 30
0.0
 70
    32
  0
VERTEX
  5
9A
  8
0
  6
________________
 62
     7
 10
100.5265551243967
 20
180.1601529909811
 30
0.0
 70
    32
  0
VERTEX
  5
9B
  8
0
  6
________________
 62
     7
 10
100.4759918841299
 20
180.1651838230394
 30
0.0
 70
    32
  0
VERTEX
  5
9C
  8
0
  6
________________
 62
     7
 10
100.425744382616
 20
180.1727658101536
 30
0.0
 70
    32
  0
VERTEX
  5
9D
  8
0
  6
________________
 62
     7
 10
100.3760053115665
 20
180.1828753187357
 30
0.0
 70
    32
  0
VERTEX
  5
9E
  8
0
  6
________________
 62
     7
 10
100.3357721311836
 20
180.1930143577494
 30
0.0
 70
    32
  0
VERTEX
  5
9F
  8
0
  6
________________
 62
     7
 10
100.2959557625599
 20
180.2048249427441
 30
0.0
 70
    32
  0
VERTEX
  5
A0
  8
0
  6
________________
 62
     7
 10
100.256657659566
 20
180.2182753186075
 30
0.0
 70
    32
  0
VERTEX
  5
A1
  8
0
  6
________________
 62
     7
 10
100.2179792760727
 20
180.2333337302276
 30
0.0
 70
    32
  0
VERTEX
  5
A2
  8
0
  6
________________
 62
     7
 10
100.1788727553294
 20
180.2504954016685
 30
0.0
 70
    32
  0
VERTEX
  5
A3
  8
0
  6
________________
 62
     7
 10
100.1404934253691
 20
180.2693312324792
 30
0.0
 70
    32
  0
VERTEX
  5
A4
  8
0
  6
________________
 62
     7
 10
100.1029449297383
 20
180.2897886389238
 30
0.0
 70
    32
  0
VERTEX
  5
A5
  8
0
  6
________________
 62
     7
 10
100.0663309119836
 20
180.3118150372666
 30
0.0
 70
    32
  0
VERTEX
  5
A6
  8
0
  6
________________
 62
     7
 10
100.0318294253403
 20
180.3346063615186
 30
0.0
 70
    32
  0
VERTEX
  5
A7
  8
0
  6
________________
 62
     7
 10
99.99826443392945
 20
180.3588297392958
 30
0.0
 70
    32
  0
VERTEX
  5
A8
  8
0
  6
________________
 62
     7
 10
99.96572104286628
 20
180.3844222926959
 30
0.0
 70
    32
  0
VERTEX
  5
A9
  8
0
  6
________________
 62
     7
 10
99.93428435726584
 20
180.4113211438163
 30
0.0
 70
    32
  0
VERTEX
  5
AA
  8
0
  6
________________
 62
     7
 10
99.9031321428487
 20
180.4403365914538
 30
0.0
 70
    32
  0
VERTEX
  5
AB
  8
0
  6
________________
 62
     7
 10
99.87320953007844
 20
180.470685462079
 30
0.0
 70
    32
  0
VERTEX
  5
AC
  8
0
  6
________________
 62
     7
 10
99.84459691094676
 20
180.5022843315028
 30
0.0
 70
    32
  0
VERTEX
  5
AD
  8
0
  6
________________
 62
     7
 10
99.81737467744549
 20
180.5350497755358
 30
0.0
 70
    32
  0
VERTEX
  5
AE
  8
0
  6
________________
 62
     7
 10
99.79232954336184
 20
180.5679177555963
 30
0.0
 70
    32
  0
VERTEX
  5
AF
  8
0
  6
________________
 62
     7
 10
99.76863864907021
 20
180.6018279385076
 30
0.0
 70
    32
  0
VERTEX
  5
B0
  8
0
  6
________________
 62
     7
 10
99.74636185498002
 20
180.6366925017913
 30
0.0
 70
    32
  0
VERTEX
  5
B1
  8
0
  6
________________
 62
     7
 10
99.72555902150079
 20
180.6724236229689
 30
0.0
 70
    32
  0
VERTEX
  5
B2
  8
0
  6
________________
 62
     7
 10
99.70571849282085
 20
180.7100617969512
 30
0.0
 70
    32
  0
VERTEX
  5
B3
  8
0
  6
________________
 62
     7
 10
99.68747715916828
 20
180.7485513191052
 30
0.0
 70
    32
  0
VERTEX
  5
B4
  8
0
  6
________________
 62
     7
 10
99.67088337552862
 20
180.7877863944473
 30
0.0
 70
    32
  0
VERTEX
  5
B5
  8
0
  6
________________
 62
     7
 10
99.65598549688731
 20
180.8276612279939
 30
0.0
 70
    32
  0
VERTEX
  5
B6
  8
0
  6
________________
 62
     7
 10
99.6431495358588
 20
180.8669977365957
 30
0.0
 70
    32
  0
VERTEX
  5
B7
  8
0
  6
________________
 62
     7
 10
99.6319408374969
 20
180.9068704594174
 30
0.0
 70
    32
  0
VERTEX
  5
B8
  8
0
  6
________________
 62
     7
 10
99.62238677608705
 20
180.9471757623856
 30
0.0
 70
    32
  0
VERTEX
  5
B9
  8
0
  6
________________
 62
     7
 10
99.61451472591465
 20
180.9878100114267
 30
0.0
 70
    32
  0
VERTEX
  5
BA
  8
0
  6
________________
 62
     7
 10
99.60818310084694
 20
181.0299329512633
 30
0.0
 70
    32
  0
VERTEX
  5
BB
  8
0
  6
________________
 62
     7
 10
99.6036466470812
 20
181.0723283528842
 30
0.0
 70
    32
  0
VERTEX
  5
BC
  8
0
  6
________________
 62
     7
 10
99.60091555257533
 20
181.1148796203944
 30
0.0
 70
    32
  0
VERTEX
  5
BD
  8
0
  6
________________
 62
     7
 10
99.60000000528721
 20
181.1574701578989
 30
0.0
 70
    32
  0
SEQEND
  5
BE
  8
0
  6
________________
 62
     7
  0
POLYLINE
  5
BF
  8
0
  6
________________
 62
     7
 10
0.0
 20
0.0
 30
0.0
 66
     1
 70
     8
  0
VERTEX
  5
C0
  8
0
  6
________________
 62
     7
 10
219.4086170262343
 20
180.1574731155512
 30
0.0
 70
    32
  0
VERTEX
  5
C1
  8
0
  6
________________
 62
     7
 10
219.4227585882957
 20
180.1576969475674
 30
0.0
 70
    32
  0
VERTEX
  5
C2
  8
0
  6
________________
 62
     7
 10
219.4734448756032
 20
180.1601529909812
 30
0.0
 70
    32
  0
VERTEX
  5
C3
  8
0
  6
________________
 62
     7
 10
219.5240081158699
 20
180.1651838230394
 30
0.0
 70
    32
  0
VERTEX
  5
C4
  8
0
  6
________________
 62
     7
 10
219.574255617384
 20
180.1727658101537
 30
0.0
 70
    32
  0
VERTEX
  5
C5
  8
0
  6
________________
 62
     7
 10
219.6239946884334
 20
180.1828753187357
 30
0.0
 70
    32
  0
VERTEX
  5
C6
  8
0
  6
________________
 62
     7
 10
219.6642278688171
 20
180.1930143577493
 30
0.0
 70
    32
  0
VERTEX
  5
C7
  8
0
  6
________________
 62
     7
 10
219.7040442374426
 20
180.2048249427434
 30
0.0
 70
    32
  0
VERTEX
  5
C8
  8
0
  6
________________
 62
     7
 10
219.743342340438
 20
180.2182753186064
 30
0.0
 70
    32
  0
VERTEX
  5
C9
  8
0
  6
________________
 62
     7
 10
219.7820207239319
 20
180.2333337302263
 30
0.0
 70
    32
  0
VERTEX
  5
CA
  8
0
  6
________________
 62
     7
 10
219.8211272446743
 20
180.2504954016673
 30
0.0
 70
    32
  0
VERTEX
  5
CB
  8
0
  6
________________
 62
     7
 10
219.859506574633
 20
180.2693312324785
 30
0.0
 70
    32
  0
VERTEX
  5
CC
  8
0
  6
________________
 62
     7
 10
219.8970550702624
 20
180.2897886389236
 30
0.0
 70
    32
  0
VERTEX
  5
CD
  8
0
  6
________________
 62
     7
 10
219.9336690880164
 20
180.3118150372667
 30
0.0
 70
    32
  0
VERTEX
  5
CE
  8
0
  6
________________
 62
     7
 10
219.9681705746597
 20
180.3346063615186
 30
0.0
 70
    32
  0
VERTEX
  5
CF
  8
0
  6
________________
 62
     7
 10
220.0017355660705
 20
180.3588297392958
 30
0.0
 70
    32
  0
VERTEX
  5
D0
  8
0
  6
________________
 62
     7
 10
220.0342789571337
 20
180.3844222926959
 30
0.0
 70
    32
  0
VERTEX
  5
D1
  8
0
  6
________________
 62
     7
 10
220.0657156427341
 20
180.4113211438163
 30
0.0
 70
    32
  0
VERTEX
  5
D2
  8
0
  6
________________
 62
     7
 10
220.0968678571513
 20
180.4403365914539
 30
0.0
 70
    32
  0
VERTEX
  5
D3
  8
0
  6
________________
 62
     7
 10
220.1267904699215
 20
180.470685462079
 30
0.0
 70
    32
  0
VERTEX
  5
D4
  8
0
  6
________________
 62
     7
 10
220.1554030890532
 20
180.5022843315028
 30
0.0
 70
    32
  0
VERTEX
  5
D5
  8
0
  6
________________
 62
     7
 10
220.1826253225545
 20
180.5350497755359
 30
0.0
 70
    32
  0
VERTEX
  5
D6
  8
0
  6
________________
 62
     7
 10
220.2076704566381
 20
180.5679177555963
 30
0.0
 70
    32
  0
VERTEX
  5
D7
  8
0
  6
________________
 62
     7
 10
220.2313613509298
 20
180.6018279385077
 30
0.0
 70
    32
  0
VERTEX
  5
D8
  8
0
  6
________________
 62
     7
 10
220.25363814502
 20
180.6366925017913
 30
0.0
 70
    32
  0
VERTEX
  5
D9
  8
0
  6
________________
 62
     7
 10
220.2744409784992
 20
180.6724236229689
 30
0.0
 70
    32
  0
VERTEX
  5
DA
  8
0
  6
________________
 62
     7
 10
220.2942815071791
 20
180.7100617969512
 30
0.0
 70
    32
  0
VERTEX
  5
DB
  8
0
  6
________________
 62
     7
 10
220.3125228408317
 20
180.7485513191052
 30
0.0
 70
    32
  0
VERTEX
  5
DC
  8
0
  6
________________
 62
     7
 10
220.3291166244713
 20
180.7877863944473
 30
0.0
 70
    32
  0
VERTEX
  5
DD
  8
0
  6
________________
 62
     7
 10
220.3440145031127
 20
180.827661227994
 30
0.0
 70
    32
  0
VERTEX
  5
DE
  8
0
  6
________________
 62
     7
 10
220.3568504641412
 20
180.8669977365957
 30
0.0
 70
    32
  0
VERTEX
  5
DF
  8
0
  6
________________
 62
     7
 10
220.3680591625031
 20
180.9068704594174
 30
0.0
 70
    32
  0
VERTEX
  5
E0
  8
0
  6
________________
 62
     7
 10
220.3776132239129
 20
180.9471757623857
 30
0.0
 70
    32
  0
VERTEX
  5
E1
  8
0
  6
________________
 62
     7
 10
220.3854852740853
 20
180.9878100114268
 30
0.0
 70
    32
  0
VERTEX
  5
E2
  8
0
  6
________________
 62
     7
 10
220.391816899153
 20
181.0299329512633
 30
0.0
 70
    32
  0
VERTEX
  5
E3
  8
0
  6
________________
 62
     7
 10
220.3963533529188
 20
181.0723283528842
 30
0.0
 70
    32
  0
VERTEX
  5
E4
  8
0
  6
________________
 62
     7
 10
220.3990844474247
 20
181.1148796203944
 30
0.0
 70
    32
  0
VERTEX
  5
E5
  8
0
  6
________________
 62
     7
 10
220.3999999947128
 20
181.157470157899
 30
0.0
 70
    32
  0
SEQEND
  5
E6
  8
0
  6
________________
 62
     7
  0
LINE
  5
E7
  8
0
  6
________________
 62
     7
 10
180.5643975435408
 20
201.909062451155
 30
0.0
 11
174.0268919813971
 21
201.8527157307535
 31
0.0
  0
ARC
  5
E8
  8
0
  6
________________
 62
     7
 10
183.3218522293536
 20
-1844.479695670267
 30
0.0
 40
2046.390586991839
 50
89.22401586031854
 51
90.07695480582544
  0
ARC
  5
E9
  8
0
  6
________________
 62
     7
 10
-177.7866696044833
 20
173.803772061155
 30
0.0
 40
43.41693106508932
 50
139.980054473099
 51
168.1479712232889
210
0.0
220
0.0
230
-1.0
  0
ARC
  5
EA
  8
0
  6
________________
 62
     7
 10
142.2133300132854
 20
173.803772252703
 30
0.0
 40
43.41693063758422
 50
139.9801597097062
 51
168.1478407145692
  0
ARC
  5
EB
  8
0
  6
________________
 62
     7
 10
137.1100695245709
 20
-1914.635120785326
 30
0.0
 40
2116.545430571393
 50
89.93792707137449
 51
90.76195664923443
  0
LINE
  5
EC
  8
0
  6
________________
 62
     7
 10
145.9344688282395
 20
201.8527065092505
 30
0.0
 11
139.4047521216538
 21
201.9090708484521
 31
0.0
  0
ARC
  5
ED
  8
0
  6
________________
 62
     7
 10
-159.9749503351994
 20
1270.067452374416
 30
0.0
 40
1068.307110602625
 50
269.2463394227743
 51
270.7530436209896
210
0.0
220
0.0
230
-1.0
  0
LINE
  5
EE
  8
0
  6
________________
 62
     7
 10
132.875
 20
166.1189561249369
 30
0.0
 11
132.875
 21
170.1189561249369
 31
0.0
  0
LINE
  5
EF
  8
0
  6
________________
 62
     7
 10
110.8328025532617
 20
170.1189561249369
 30
0.0
 11
132.875
 21
170.1189561249369
 31
0.0
  0
LINE
  5
F0
  8
0
  6
________________
 62
     7
 10
110.8328025532617
 20
170.1189561249369
 30
0.0
 11
110.8328025532617
 21
166.1189561249369
 31
0.0
  0
LINE
  5
F1
  8
0
  6
________________
 62
     7
 10
110.8328025532617
 20
166.1189561249369
 30
0.0
 11
114.246014064651
 21
166.1189561249369
 31
0.0
  0
LINE
  5
F2
  8
0
  6
________________
 62
     7
 10
126.600364963583
 20
166.1189561249369
 30
0.0
 11
132.8749999999999
 21
166.1189561249369
 31
0.0
  0
LINE
  5
F3
  8
0
  6
________________
 62
     7
 10
209.1671974467383
 20
166.1189561249369
 30
0.0
 11
209.1671974467383
 21
170.1189561249369
 31
0.0
  0
LINE
  5
F4
  8
0
  6
________________
 62
     7
 10
187.125
 20
170.1189561249369
 30
0.0
 11
209.1671974467383
 21
170.1189561249369
 31
0.0
  0
LINE
  5
F5
  8
0
  6
________________
 62
     7
 10
187.125
 20
170.1189561249369
 30
0.0
 11
187.125
 21
166.1189561249369
 31
0.0
  0
LINE
  5
F6
  8
0
  6
________________
 62
     7
 10
187.125
 20
166.1189561249369
 30
0.0
 11
193.3996350364169
 21
166.1189561249369
 31
0.0
  0
LINE
  5
F7
  8
0
  6
________________
 62
     7
 10
205.753985935349
 20
166.1189561249369
 30
0.0
 11
209.1671974467383
 21
166.1189561249369
 31
0.0
  0
LINE
  5
F8
  8
0
  6
________________
 62
     7
 10
193.8830580493603
 20
169.1023791378836
 30
0.0
 11
205.2705629223969
 21
169.1023791378836
 31
0.0
  0
LINE
  5
F9
  8
0
  6
________________
 62
     7
 10
114.7294370776051
 20
169.1023791378835
 30
0.0
 11
126.1169419506398
 21
169.1023791378836
 31
0.0
  0
LINE
  5
FA
  8
0
  6
________________
 62
     7
 10
205.253985935349
 20
169.1189561249369
 30
0.0
 11
193.8996350364169
 21
169.1189561249369
 31
0.0
  0
LINE
  5
FB
  8
0
  6
________________
 62
     7
 10
114.7460140646509
 20
169.1189561249369
 30
0.0
 11
126.100364963583
 21
169.1189561249369
 31
0.0
  0
LINE
  5
FC
  8
0
  6
________________
 62
     7
 10
108.9636974455152
 20
201.7231526200613
 30
0.0
 11
108.9707184314351
 21
201.7487294890862
 31
0.0
  0
LINE
  5
FD
  8
0
  6
________________
 62
     7
 10
109.6971076696434
 20
201.8127452058757
 30
0.0
 11
109.6966496052541
 21
201.8122365704925
 31
0.0
  0
LINE
  5
FE
  8
0
  6
________________
 62
     7
 10
99.6
 20
181.6193842869972
 30
0.0
 11
99.7051794531593
 21
182.640546262153
 31
0.0
  0
LINE
  5
FF
  8
0
  6
________________
 62
     7
 10
99.7051794531593
 20
182.640546262153
 30
0.0
 11
99.72201273784698
 21
182.7210488653706
 31
0.0
  0
LINE
  5
100
  8
0
  6
________________
 62
     7
 10
209.4452292207932
 20
201.8964330462406
 30
0.0
 11
209.176967574267
 21
201.9030227676462
 31
0.0
  0
LINE
  5
101
  8
0
  6
________________
 62
     7
 10
211.0203337752207
 20
201.7589129242994
 30
0.0
 11
211.0362512193566
 21
201.7232137738152
 31
0.0
  0
LINE
  5
102
  8
0
  6
________________
 62
     7
 10
209.1075115267758
 20
201.9090868795066
 30
0.0
 11
209.1769675742608
 21
201.9030227675879
 31
0.0
  0
LINE
  5
103
  8
0
  6
________________
 62
     7
 10
220.4
 20
181.6194293206128
 30
0.0
 11
220.2948397167227
 21
182.6404527529468
 31
0.0
  0
LINE
  5
104
  8
0
  6
________________
 62
     7
 10
220.2780076100366
 20
182.7209519745885
 30
0.0
 11
220.2948397167227
 21
182.6404527529468
 31
0.0
  0
LINE
  5
105
  8
0
  6
________________
 62
     7
 10
99.6
 20
181.6785313741829
 30
0.0
 11
99.61943512317869
 21
182.1189561249369
 31
0.0
  0
LINE
  5
106
  8
0
  6
________________
 62
     7
 10
99.61943512317869
 20
182.1189561249369
 30
0.0
 11
99.68240590360743
 21
182.5825613577423
 31
0.0
  0
LINE
  5
107
  8
0
  6
________________
 62
     7
 10
220.3805648965478
 20
182.1189561249369
 30
0.0
 11
220.4
 21
181.6785318096203
 31
0.0
  0
LINE
  5
108
  8
0
  6
________________
 62
     7
 10
220.3175941847167
 20
182.5825608772899
 30
0.0
 11
220.3805648965478
 21
182.1189561249368
 31
0.0
  0
POLYLINE
  5
109
  8
0
  6
________________
 62
     7
 10
0.0
 20
0.0
 30
0.0
 66
     1
 70
     8
  0
VERTEX
  5
10A
  8
0
  6
________________
 62
     7
 10
100.1
 20
180.2848402289339
 30
0.0
 70
    32
  0
VERTEX
  5
10B
  8
0
  6
________________
 62
     7
 10
100.0733384892962
 20
180.3007906829982
 30
0.0
 70
    32
  0
VERTEX
  5
10C
  8
0
  6
________________
 62
     7
 10
100.0471852177134
 20
180.3175614767593
 30
0.0
 70
    32
  0
VERTEX
  5
10D
  8
0
  6
________________
 62
     7
 10
100.0214671560392
 20
180.3352066894916
 30
0.0
 70
    32
  0
VERTEX
  5
10E
  8
0
  6
________________
 62
     7
 10
99.99631173831871
 20
180.3536451598173
 30
0.0
 70
    32
  0
VERTEX
  5
10F
  8
0
  6
________________
 62
     7
 10
99.96327356666937
 20
180.3797758527942
 30
0.0
 70
    32
  0
VERTEX
  5
110
  8
0
  6
________________
 62
     7
 10
99.93130940058151
 20
180.4073248592847
 30
0.0
 70
    32
  0
VERTEX
  5
111
  8
0
  6
________________
 62
     7
 10
99.90015385387103
 20
180.4365720158044
 30
0.0
 70
    32
  0
VERTEX
  5
112
  8
0
  6
________________
 62
     7
 10
99.87022273606446
 20
180.4671806582085
 30
0.0
 70
    32
  0
VERTEX
  5
113
  8
0
  6
________________
 62
     7
 10
99.8415263529399
 20
180.4991619224618
 30
0.0
 70
    32
  0
VERTEX
  5
114
  8
0
  6
________________
 62
     7
 10
99.81509633212232
 20
180.5312484244721
 30
0.0
 70
    32
  0
VERTEX
  5
115
  8
0
  6
________________
 62
     7
 10
99.79002211020132
 20
180.5644052187491
 30
0.0
 70
    32
  0
VERTEX
  5
116
  8
0
  6
________________
 62
     7
 10
99.76618756707481
 20
180.5988184806793
 30
0.0
 70
    32
  0
VERTEX
  5
117
  8
0
  6
________________
 62
     7
 10
99.74381352287983
 20
180.6341987038144
 30
0.0
 70
    32
  0
VERTEX
  5
118
  8
0
  6
________________
 62
     7
 10
99.72265046514326
 20
180.6710146352984
 30
0.0
 70
    32
  0
VERTEX
  5
119
  8
0
  6
________________
 62
     7
 10
99.7030688091691
 20
180.7086954868427
 30
0.0
 70
    32
  0
VERTEX
  5
11A
  8
0
  6
________________
 62
     7
 10
99.68498009403675
 20
180.7474579807043
 30
0.0
 70
    32
  0
VERTEX
  5
11B
  8
0
  6
________________
 62
     7
 10
99.66856485614659
 20
180.7869582656465
 30
0.0
 70
    32
  0
VERTEX
  5
11C
  8
0
  6
________________
 62
     7
 10
99.65297544470677
 20
180.8297044726636
 30
0.0
 70
    32
  0
VERTEX
  5
11D
  8
0
  6
________________
 62
     7
 10
99.63929369834264
 20
180.8732987019165
 30
0.0
 70
    32
  0
VERTEX
  5
11E
  8
0
  6
________________
 62
     7
 10
99.6275952220102
 20
180.9175655106731
 30
0.0
 70
    32
  0
VERTEX
  5
11F
  8
0
  6
________________
 62
     7
 10
99.61780283452512
 20
180.9630126917089
 30
0.0
 70
    32
  0
VERTEX
  5
120
  8
0
  6
________________
 62
     7
 10
99.6101189848798
 20
181.0089657548103
 30
0.0
 70
    32
  0
VERTEX
  5
121
  8
0
  6
________________
 62
     7
 10
99.6045150584339
 20
181.0559460313689
 30
0.0
 70
    32
  0
VERTEX
  5
122
  8
0
  6
________________
 62
     7
 10
99.60113450458712
 20
181.1032450293688
 30
0.0
 70
    32
  0
VERTEX
  5
123
  8
0
  6
________________
 62
     7
 10
99.6
 20
181.1508656350543
 30
0.0
 70
    32
  0
SEQEND
  5
124
  8
0
  6
________________
 62
     7
  0
ARC
  5
125
  8
0
  6
________________
 62
     7
 10
-180.9768341967002
 20
175.3509703485159
 30
0.0
 40
39.99989122498424
 50
138.6848448473514
 51
169.5842067101774
210
0.0
220
0.0
230
-1.0
  0
ARC
  5
126
  8
0
  6
________________
 62
     7
 10
139.0231629222185
 20
175.3509712927108
 30
0.0
 40
39.9998882206696
 50
138.7042607443511
 51
169.5842065945272
  0
LINE
  5
127
  8
0
  6
________________
 62
     7
 10
216.5283316045698
 20
180.1264427453776
 30
0.0
 11
216.5021510011975
 21
180.125520047283
 31
0.0
  0
LINE
  5
128
  8
0
  6
________________
 62
     7
 10
216.5021510011975
 20
180.125520047283
 30
0.0
 11
216.5021510011975
 21
180.1262145928335
 31
0.0
  0
LINE
  5
129
  8
0
  6
________________
 62
     7
 10
174.0655025603451
 20
201.8526105721377
 30
0.0
 11
167.4062286676279
 21
201.7271338040295
 31
0.0
  0
LINE
  5
12A
  8
0
  6
________________
 62
     7
 10
209.1990934407725
 20
201.9093095560168
 30
0.0
 11
209.3076784260735
 21
201.8998101457169
 31
0.0
  0
LINE
  5
12B
  8
0
  6
________________
 62
     7
 10
110.5547707792068
 20
201.8964330462406
 30
0.0
 11
110.823032425733
 21
201.9030227676462
 31
0.0
  0
INSERT
  5
12F
  8
0
  6
________________
 62
     7
  2
_2657
 10
0.0
 20
0.0
 30
0.0
  0
LINE
  5
130
  8
0
  6
________________
 62
     7
 10
270.8805706793872
 20
300.4039006757113
 30
0.0
 11
269.8595472470532
 21
300.5027028900881
 31
0.0
  0
LINE
  5
131
  8
0
  6
________________
 62
     7
 10
270.8805706793872
 20
300.4039006757114
 30
0.0
 11
270.9633699047542
 21
300.4004132301967
 31
0.0
  0
LINE
  5
132
  8
0
  6
________________
 62
     7
 10
269.7790480254116
 20
300.5148656168545
 30
0.0
 11
269.8595472470532
 21
300.502702890088
 31
0.0
  0
LINE
  5
133
  8
0
  6
________________
 62
     7
 10
272.3425268844489
 20
300.4986218560737
 30
0.0
 11
271.3425298421011
 21
300.4004132038034
 31
0.0
  0
LINE
  5
134
  8
0
  6
________________
 62
     7
 10
272.3563741318895
 20
307.0
 30
0.0
 11
272.3547544826392
 21
310.0
 31
0.0
  0
LINE
  5
135
  8
0
  6
________________
 62
     7
 10
272.3767892302194
 20
310.0
 30
0.0
 11
272.3738041531649
 21
307.0
 31
0.0
  0
LINE
  5
136
  8
0
  6
________________
 62
     7
 10
250.590937548845
 20
265.3049028225107
 30
0.0
 11
250.6472842692465
 21
262.9067569683189
 31
0.0
  0
LINE
  5
137
  8
0
  6
________________
 62
     7
 10
250.7767862261848
 20
304.58022023657
 30
0.0
 11
250.5909544786635
 21
265.3087952132036
 31
0.0
  0
ARC
  5
138
  8
0
  6
________________
 62
     7
 10
342.9132778352906
 20
688.8013645392493
 30
0.0
 40
395.1139339675267
 50
256.5150654341388
 51
259.3332379194599
  0
LINE
  5
139
  8
0
  6
________________
 62
     7
 10
250.6472381793346
 20
262.906708569294
 30
0.0
 11
250.7396571829195
 21
260.8629027192022
 31
0.0
  0
LINE
  5
13A
  8
0
  6
________________
 62
     7
 10
250.7410870757006
 20
310.0000000000042
 30
0.0
 11
250.7767862261848
 21
304.58022023657
 31
0.0
  0
LINE
  5
13B
  8
0
  6
________________
 62
     7
 10
286.3810438750632
 20
283.7197946120383
 30
0.0
 11
282.3810438750632
 21
283.7197946120383
 31
0.0
  0
LINE
  5
13C
  8
0
  6
________________
 62
     7
 10
282.3810438750632
 20
261.2937696490479
 30
0.0
 11
282.3810438750632
 21
283.7197946120382
 31
0.0
  0
LINE
  5
13D
  8
0
  6
________________
 62
     7
 10
282.3810438750632
 20
261.293769649048
 30
0.0
 11
286.3810438750632
 21
261.293769649048
 31
0.0
  0
LINE
  5
13E
  8
0
  6
________________
 62
     7
 10
286.3810438750632
 20
261.2937696490479
 30
0.0
 11
286.3810438750632
 21
265.3622706734072
 31
0.0
  0
LINE
  5
13F
  8
0
  6
________________
 62
     7
 10
286.3810438750632
 20
278.1466599706109
 30
0.0
 11
286.7351458413128
 21
278.1466599706109
 31
0.0
  0
LINE
  5
140
  8
0
  6
________________
 62
     7
 10
286.3810438750632
 20
278.1466599706108
 30
0.0
 11
286.3810438750632
 21
283.7197946120383
 31
0.0
  0
LINE
  5
141
  8
0
  6
________________
 62
     7
 10
250.5909131204934
 20
306.999998963083
 30
0.0
 11
250.5969772324121
 21
306.999998363093
 31
0.0
  0
LINE
  5
142
  8
0
  6
________________
 62
     7
 10
250.6035669537594
 20
309.9999977413763
 30
0.0
 11
250.5969772323538
 21
306.9999983735887
 31
0.0
  0
LINE
  5
143
  8
0
  6
________________
 62
     7
 10
286.0643254480631
 20
277.8703034409966
 30
0.0
 11
286.3969779665927
 21
278.0791216723092
 31
0.0
  0
LINE
  5
144
  8
0
  6
________________
 62
     7
 10
286.3969779665927
 20
278.0791216723092
 30
0.0
 11
286.7351458413128
 21
278.1466599706109
 31
0.0
  0
LINE
  5
145
  8
0
  6
________________
 62
     7
 10
286.7351458413128
 20
265.3622706734074
 30
0.0
 11
286.3809741474185
 21
265.3093115935714
 31
0.0
  0
LINE
  5
146
  8
0
  6
________________
 62
     7
 10
286.3809741474185
 20
265.3093115935714
 30
0.0
 11
286.0643254480629
 21
265.1646455419396
 31
0.0
  0
LINE
  5
147
  8
0
  6
________________
 62
     7
 10
286.0643254480631
 20
277.8703034409966
 30
0.0
 11
283.8810438750631
 21
276.0062833595989
 31
0.0
  0
LINE
  5
148
  8
0
  6
________________
 62
     7
 10
283.8810438750631
 20
263.8105598709602
 30
0.0
 11
286.0643254480629
 21
265.1646455419396
 31
0.0
  0
LINE
  5
149
  8
0
  6
________________
 62
     7
 10
283.5423269911813
 20
263.8474361019327
 30
0.0
 11
283.8810438750631
 21
263.8105598709603
 31
0.0
  0
LINE
  5
14A
  8
0
  6
________________
 62
     7
 10
283.8810438750631
 20
276.0062833595989
 30
0.0
 11
283.5423269911821
 21
275.2755290660051
 31
0.0
  0
LINE
  5
14B
  8
0
  6
________________
 62
     7
 10
283.8810438750575
 20
277.9162518350691
 30
0.0
 11
283.8810438750631
 21
276.0062833595989
 31
0.0
  0
LINE
  5
14C
  8
0
  6
________________
 62
     7
 10
283.8810438750575
 20
277.9162518350691
 30
0.0
 11
286.3849740516683
 21
280.1502132022835
 31
0.0
  0
POLYLINE
  5
14D
  8
0
  6
________________
 62
     7
 10
0.0
 20
0.0
 30
0.0
 66
     1
 70
     8
  0
VERTEX
  5
14E
  8
0
  6
________________
 62
     7
 10
283.3976208621164
 20
275.2308735939515
 30
0.0
 70
    32
  0
VERTEX
  5
14F
  8
0
  6
________________
 62
     7
 10
283.4912419681814
 20
275.1918051062562
 30
0.0
 70
    32
  0
VERTEX
  5
150
  8
0
  6
________________
 62
     7
 10
283.5423269911821
 20
275.275529066005
 30
0.0
 70
    32
  0
SEQEND
  5
151
  8
0
  6
________________
 62
     7
  0
LINE
  5
152
  8
0
  6
________________
 62
     7
 10
283.3976208621166
 20
275.2308735939516
 30
0.0
 11
283.3810438750632
 21
276.7904476806542
 31
0.0
  0
LINE
  5
153
  8
0
  6
________________
 62
     7
 10
283.3810438750631
 20
276.7904476806542
 30
0.0
 11
283.8810438750609
 21
277.9162518350688
 31
0.0
  0
LINE
  5
154
  8
0
  6
________________
 62
     7
 10
283.5423269911821
 20
263.8474361019336
 30
0.0
 11
283.3976208621166
 21
264.0624946740201
 31
0.0
  0
LINE
  5
155
  8
0
  6
________________
 62
     7
 10
283.3976208621165
 20
264.0624946740264
 30
0.0
 11
283.3976208621165
 21
275.2308735939558
 31
0.0
  0
LINE
  5
156
  8
0
  6
________________
 62
     7
 10
283.3810438750632
 20
265.2606174306588
 30
0.0
 11
283.3976208621165
 21
264.0624946740218
 31
0.0
  0
LINE
  5
157
  8
0
  6
________________
 62
     7
 10
283.3810438750632
 20
276.7904476806542
 30
0.0
 11
283.3810438750632
 21
265.2606174306588
 31
0.0
  0
LINE
  5
158
  8
0
  6
________________
 62
     7
 10
286.3810438750632
 20
262.1119990883874
 30
0.0
 11
282.3810438750632
 21
262.1119990883874
 31
0.0
  0
ARC
  5
159
  8
0
  6
________________
 62
     7
 10
-270.874926137585
 20
255.9000000000049
 30
0.0
 40
4.99999999999956
 50
270.0
 51
281.6735907704245
210
0.0
220
0.0
230
-1.0
  0
LINE
  5
15A
  8
0
  6
________________
 62
     7
 10
270.9634192955781
 20
319.5995867698033
 30
0.0
 11
270.8806157130028
 21
319.5960991346624
 31
0.0
  0
LINE
  5
15B
  8
0
  6
________________
 62
     7
 10
270.8806157130027
 20
319.5960991346627
 30
0.0
 11
269.859453737847
 21
319.4972798529068
 31
0.0
  0
LINE
  5
15C
  8
0
  6
________________
 62
     7
 10
269.859453737847
 20
319.4972798529068
 30
0.0
 11
269.7789511346294
 21
319.4851159022327
 31
0.0
  0
LINE
  5
15D
  8
0
  6
________________
 62
     7
 10
272.3735572546224
 20
307.0
 30
0.0
 11
272.374479952717
 21
310.0
 31
0.0
  0
LINE
  5
15E
  8
0
  6
________________
 62
     7
 10
272.3582994264176
 20
309.9999999999949
 30
0.0
 11
272.3599143910439
 21
307.0
 31
0.0
  0
LINE
  5
15F
  8
0
  6
________________
 62
     7
 10
272.3425268844489
 20
319.5013781439263
 30
0.0
 11
271.3425298421011
 21
319.5995867961966
 31
0.0
  0
LINE
  5
160
  8
0
  6
________________
 62
     7
 10
272.2151781330256
 20
309.9999999999947
 30
0.0
 11
272.2151597710662
 21
310.5
 31
0.0
  0
LINE
  5
161
  8
0
  6
________________
 62
     7
 10
250.7396571827907
 20
359.1370972822974
 30
0.0
 11
250.6473894277042
 21
357.0815261656346
 31
0.0
  0
ARC
  5
162
  8
0
  6
________________
 62
     7
 10
-342.9132763407429
 20
-68.8014015301957
 30
0.0
 40
395.1139698152383
 50
76.51507602292727
 51
79.3332248218448
210
0.0
220
0.0
230
-1.0
  0
LINE
  5
163
  8
0
  6
________________
 62
     7
 10
250.5909323145108
 20
354.6800463597232
 30
0.0
 11
250.7768473799386
 21
315.4197946595873
 31
0.0
  0
LINE
  5
164
  8
0
  6
________________
 62
     7
 10
250.7768473799387
 20
315.4197946595878
 30
0.0
 11
250.7512705109138
 21
310.4999999999999
 31
0.0
  0
LINE
  5
165
  8
0
  6
________________
 62
     7
 10
286.3810438750632
 20
358.706230350952
 30
0.0
 11
282.3810438750632
 21
358.706230350952
 31
0.0
  0
LINE
  5
166
  8
0
  6
________________
 62
     7
 10
282.3810438750632
 20
336.2802053879618
 30
0.0
 11
282.3810438750632
 21
358.7062303509521
 31
0.0
  0
LINE
  5
167
  8
0
  6
________________
 62
     7
 10
282.3810438750632
 20
336.2802053879617
 30
0.0
 11
286.3810438750632
 21
336.2802053879617
 31
0.0
  0
LINE
  5
168
  8
0
  6
________________
 62
     7
 10
286.3810438750632
 20
336.2802053879618
 30
0.0
 11
286.3810438750632
 21
341.8533400293891
 31
0.0
  0
LINE
  5
169
  8
0
  6
________________
 62
     7
 10
286.7351458413128
 20
341.8533400293891
 30
0.0
 11
286.3810438750632
 21
341.8533400293891
 31
0.0
  0
LINE
  5
16A
  8
0
  6
________________
 62
     7
 10
286.3810438750632
 20
354.6377293265927
 30
0.0
 11
286.3810438750632
 21
358.7062303509521
 31
0.0
  0
LINE
  5
16B
  8
0
  6
________________
 62
     7
 10
250.6872547941244
 20
309.9999999999999
 30
0.0
 11
250.6877634295076
 21
310.5000252435282
 31
0.0
  0
LINE
  5
16C
  8
0
  6
________________
 62
     7
 10
283.8810438750575
 20
342.0837481649309
 30
0.0
 11
283.8810438750631
 21
343.9937166404011
 31
0.0
  0
LINE
  5
16D
  8
0
  6
________________
 62
     7
 10
286.0643254480597
 20
342.1296965590064
 30
0.0
 11
283.8810438750631
 21
343.9937166404011
 31
0.0
  0
LINE
  5
16E
  8
0
  6
________________
 62
     7
 10
286.7351458413128
 20
341.8533400293891
 30
0.0
 11
286.417436611495
 21
341.9128664942689
 31
0.0
  0
LINE
  5
16F
  8
0
  6
________________
 62
     7
 10
286.417436611495
 20
341.9128664942689
 30
0.0
 11
286.0643254480597
 21
342.1296965590064
 31
0.0
  0
LINE
  5
170
  8
0
  6
________________
 62
     7
 10
283.8810438750575
 20
342.0837481649309
 30
0.0
 11
286.3849740516683
 21
339.8497867977165
 31
0.0
  0
LINE
  5
171
  8
0
  6
________________
 62
     7
 10
286.0643254480628
 20
354.8353544580604
 30
0.0
 11
286.3809567373045
 21
354.6906936878414
 31
0.0
  0
LINE
  5
172
  8
0
  6
________________
 62
     7
 10
286.3809567373045
 20
354.6906936878414
 30
0.0
 11
286.7351458413128
 21
354.6377293265926
 31
0.0
  0
LINE
  5
173
  8
0
  6
________________
 62
     7
 10
283.3976208621166
 20
344.7691264060524
 30
0.0
 11
283.3810438750632
 21
343.2095523193458
 31
0.0
  0
POLYLINE
  5
174
  8
0
  6
________________
 62
     7
 10
0.0
 20
0.0
 30
0.0
 66
     1
 70
     8
  0
VERTEX
  5
175
  8
0
  6
________________
 62
     7
 10
283.5423269911821
 20
344.724470933995
 30
0.0
 70
    32
  0
VERTEX
  5
176
  8
0
  6
________________
 62
     7
 10
283.4882298209679
 20
344.8117289486745
 30
0.0
 70
    32
  0
VERTEX
  5
177
  8
0
  6
________________
 62
     7
 10
283.3976208621166
 20
344.7691264060495
 30
0.0
 70
    32
  0
SEQEND
  5
178
  8
0
  6
________________
 62
     7
  0
LINE
  5
179
  8
0
  6
________________
 62
     7
 10
283.8810438750632
 20
343.9937166404011
 30
0.0
 11
283.5423269911821
 21
344.7244709339949
 31
0.0
  0
LINE
  5
17A
  8
0
  6
________________
 62
     7
 10
283.3810438750631
 20
343.2095523193458
 30
0.0
 11
283.8810438750609
 21
342.0837481649311
 31
0.0
  0
LINE
  5
17B
  8
0
  6
________________
 62
     7
 10
283.8810438750631
 20
356.1894401290397
 30
0.0
 11
286.0643254480628
 21
354.8353544580604
 31
0.0
  0
LINE
  5
17C
  8
0
  6
________________
 62
     7
 10
283.5423269911813
 20
356.1525638980673
 30
0.0
 11
283.8810438750631
 21
356.1894401290397
 31
0.0
  0
LINE
  5
17D
  8
0
  6
________________
 62
     7
 10
283.3976208621165
 20
344.7691264060466
 30
0.0
 11
283.3976208621165
 21
355.9375053259735
 31
0.0
  0
LINE
  5
17E
  8
0
  6
________________
 62
     7
 10
283.3976208621164
 20
355.937505325978
 30
0.0
 11
283.5423269911811
 21
356.1525638980673
 31
0.0
  0
LINE
  5
17F
  8
0
  6
________________
 62
     7
 10
283.3810438750632
 20
354.7393825693412
 30
0.0
 11
283.3976208621165
 21
355.9375053259781
 31
0.0
  0
LINE
  5
180
  8
0
  6
________________
 62
     7
 10
283.3810438750632
 20
343.2095523193458
 30
0.0
 11
283.3810438750632
 21
354.7393825693412
 31
0.0
  0
LINE
  5
181
  8
0
  6
________________
 62
     7
 10
282.3810438750632
 20
357.8880009116126
 30
0.0
 11
286.3810438750632
 21
357.8880009116126
 31
0.0
  0
ARC
  5
182
  8
0
  6
________________
 62
     7
 10
270.874926137585
 20
364.0999999999951
 30
0.0
 40
4.99999999999956
 50
90.0
 51
101.6735907704246
  0
ARC
  5
183
  8
0
  6
________________
 62
     7
 10
271.3604976573691
 20
251.9
 30
0.0
 40
1.000000000000001
 50
270.0
 51
359.4999999999999
  0
LINE
  5
184
  8
0
  6
________________
 62
     7
 10
272.3605793331564
 20
251.9049957673947
 30
0.0
 11
272.3810438750632
 21
254.25
 31
0.0
  0
LINE
  5
185
  8
0
  6
________________
 62
     7
 10
270.874926142638
 20
250.9
 30
0.0
 11
271.3604928707662
 21
250.9
 31
0.0
  0
ARC
  5
186
  8
0
  6
________________
 62
     7
 10
277.9562604528936
 20
290.1766363395441
 30
0.0
 40
40.00047263795953
 50
227.1315444847385
 51
258.3125631369331
  0
LINE
  5
187
  8
0
  6
________________
 62
     7
 10
272.3810438750632
 20
254.25
 30
0.0
 11
292.3810438750631
 21
254.25
 31
0.0
  0
LINE
  5
188
  8
0
  6
________________
 62
     7
 10
272.3810438750632
 20
365.75
 30
0.0
 11
272.3605793331564
 21
368.0950042326053
 31
0.0
  0
ARC
  5
189
  8
0
  6
________________
 62
     7
 10
271.3604976573691
 20
368.1
 30
0.0
 40
1.000000000000003
 50
0.5000000000000777
 51
89.99999999999999
  0
LINE
  5
18A
  8
0
  6
________________
 62
     7
 10
271.3604928707662
 20
369.1
 30
0.0
 11
270.874926142638
 21
369.1
 31
0.0
  0
ARC
  5
18B
  8
0
  6
________________
 62
     7
 10
277.9564322875601
 20
329.8230302847032
 30
0.0
 40
40.00083387354788
 50
101.6924746768975
 51
132.8677929187809
  0
LINE
  5
18C
  8
0
  6
________________
 62
     7
 10
292.3810438750631
 20
365.75
 30
0.0
 11
272.3810438750632
 21
365.75
 31
0.0
  0
INSERT
  5
190
  8
0
  6
________________
 62
     7
  2
_2791
 10
0.0
 20
0.0
 30
0.0
  0
TEXT
  5
191
  8
0
 62
     7
 10
259.9611818181818
 20
176.7681818181818
 30
0.0
 40
7.0
  1
GUAI-120100
  7
EXPLODED0
  0
LINE
  5
192
  8
0
  6
________________
 62
     7
 10
250.5906904439832
 20
310.0000000000002
 30
0.0
 11
272.3582994264176
 21
309.999999999952
 31
0.0
  0
LINE
  5
193
  8
0
  6
________________
 62
     7
 10
250.5909271611558
 20
354.6744545774818
 30
0.0
 11
250.590453638834
 21
265.3089849958528
 31
0.0
  0
LINE
  5
194
  8
0
  6
________________
 62
     7
 10
292.3810438750631
 20
310.0
 30
0.0
 11
272.374479952717
 21
310.0
 31
0.0
  0
LINE
  5
195
  8
0
  6
________________
 62
     7
 10
292.3810438750631
 20
365.75
 30
0.0
 11
292.3810438750631
 21
254.2500000000001
 31
0.0
  0
LINE
  5
196
  8
0
  6
________________
 62
     7
 10
272.3738041531649
 20
307.0
 30
0.0
 11
272.356319312151
 21
307.0
 31
0.0
  0
LINE
  5
197
  8
0
  6
________________
 62
     7
 10
250.6475660453698
 20
357.0932364164771
 30
0.0
 11
250.590929151548
 21
354.6807750054879
 31
0.0
  0
LINE
  5
198
  8
0
  6
________________
 62
     7
 10
250.6877634295079
 20
310.4999999999999
 30
0.0
 11
272.2151597710661
 21
310.4999999999941
 31
0.0
  0
LINE
  5
199
  8
0
  6
________________
 62
     7
 10
271.3425298420917
 20
319.5995867698033
 30
0.0
 11
270.9634192955781
 21
319.5995867698033
 31
0.0
  0
LINE
  5
19A
  8
0
  6
________________
 62
     7
 10
272.3810438750632
 20
365.7499999999999
 30
0.0
 11
272.3810438750632
 21
254.25
 31
0.0
  0
LINE
  5
19B
  8
0
  6
________________
 62
     7
 10
271.3425298421011
 20
300.4004132301967
 30
0.0
 11
270.9633699047542
 21
300.4004132301967
 31
0.0
  0
LINE
  5
19C
  8
0
  6
________________
 62
     7
 10
100.5912734645016
 20
180.1508853476947
 30
0.0
 11
104.25
 21
180.1189561249369
 31
0.0
  0
LINE
  5
19D
  8
0
  6
________________
 62
     7
 10
110.8009065590369
 20
201.9090869426298
 30
0.0
 11
139.4267671169112
 21
201.9090636334022
 31
0.0
  0
LINE
  5
19E
  8
0
  6
________________
 62
     7
 10
215.75
 20
160.1189561249369
 30
0.0
 11
104.25
 21
160.1189561249369
 31
0.0
  0
LINE
  5
19F
  8
0
  6
________________
 62
     7
 10
215.75
 20
160.1189561249369
 30
0.0
 11
215.75
 21
180.1189561249369
 31
0.0
  0
LINE
  5
1A0
  8
0
  6
________________
 62
     7
 10
104.25
 20
160.1189561249369
 30
0.0
 11
104.25
 21
180.1189561249369
 31
0.0
  0
LINE
  5
1A1
  8
0
  6
________________
 62
     7
 10
110.5547709759664
 20
201.8964328929615
 30
0.0
 11
108.9796662247782
 21
201.7589129242994
 31
0.0
  0
LINE
  5
1A2
  8
0
  6
________________
 62
     7
 10
180.573232883015
 20
201.9090725435742
 30
0.0
 11
209.1990934407818
 21
201.9093095561313
 31
0.0
  0
LINE
  5
1A3
  8
0
  6
________________
 62
     7
 10
220.4
 20
181.6785318096203
 30
0.0
 11
220.4
 21
181.157470157899
 31
0.0
  0
LINE
  5
1A4
  8
0
  6
________________
 62
     7
 10
99.6
 20
181.1574701579083
 30
0.0
 11
99.6
 21
181.6785313741829
 31
0.0
  0
LINE
  5
1A5
  8
0
  6
________________
 62
     7
 10
209.4452290224376
 20
201.896432874682
 30
0.0
 11
211.0203337752218
 21
201.7589129242994
 31
0.0
  0
LINE
  5
1A6
  8
0
  6
________________
 62
     7
 10
110.8009065592275
 20
201.9093095560168
 30
0.0
 11
108.9706777532973
 21
201.7491944690005
 31
0.0
  0
LINE
  5
1A7
  8
0
  6
________________
 62
     7
 10
126.600364963583
 20
168.6189561249369
 30
0.0
 11
126.600364963583
 21
165.7648541586872
 31
0.0
  0
LINE
  5
1A8
  8
0
  6
________________
 62
     7
 10
114.246014064651
 20
165.7648541586872
 30
0.0
 11
114.246014064651
 21
168.6189561249369
 31
0.0
  0
LINE
  5
1A9
  8
0
  6
________________
 62
     7
 10
193.3996350364169
 20
165.7648541586872
 30
0.0
 11
193.3996350364169
 21
168.6189561249369
 31
0.0
  0
LINE
  5
1AA
  8
0
  6
________________
 62
     7
 10
205.7539859353494
 20
168.6189561249369
 30
0.0
 11
205.753985935349
 21
165.7648541586872
 31
0.0
  0
LINE
  5
1AB
  8
0
  6
________________
 62
     7
 10
126.100364963583
 20
169.1189561249369
 30
0.0
 11
126.600364963583
 21
168.6189561249369
 31
0.0
  0
LINE
  5
1AC
  8
0
  6
________________
 62
     7
 10
114.246014064651
 20
168.6189561249369
 30
0.0
 11
114.746014064651
 21
169.1189561249369
 31
0.0
  0
LINE
  5
1AD
  8
0
  6
________________
 62
     7
 10
193.8996350364169
 20
169.1189561249369
 30
0.0
 11
193.3996350364169
 21
168.6189561249369
 31
0.0
  0
LINE
  5
1AE
  8
0
  6
________________
 62
     7
 10
205.2705629223935
 20
169.1023791378836
 30
0.0
 11
205.7539859353593
 21
168.6189561249473
 31
0.0
  0
LINE
  5
1AF
  8
0
  6
________________
 62
     7
 10
215.75
 20
180.1189561249369
 30
0.0
 11
219.4087265354984
 21
180.1508853476947
 31
0.0
  0
LINE
  5
1B0
  8
0
  6
________________
 62
     7
 10
220.4
 20
310.5000000000016
 30
0.0
 11
210.3033503947455
 21
310.4999999991716
 31
0.0
  0
LINE
  5
1B1
  8
0
  6
________________
 62
     7
 10
208.9078706893071
 20
307.0000000000002
 30
0.0
 11
209.1769675742608
 21
307.0000000000002
 31
0.0
  0
LINE
  5
1B2
  8
0
  6
________________
 62
     7
 10
111.0921293106929
 20
312.9999953161009
 30
0.0
 11
110.823032425779
 21
313.0000030266899
 31
0.0
  0
LINE
  5
1B3
  8
0
  6
________________
 62
     7
 10
111.0001595807293
 20
309.9999867503658
 30
0.0
 11
99.61943511695975
 21
310.0003855095325
 31
0.0
  0
LINE
  5
1B4
  8
0
  6
________________
 62
     7
 10
220.3805648965478
 20
310.0000000000002
 30
0.0
 11
208.9998404188065
 21
310.0000000000002
 31
0.0
  0
LINE
  5
1B5
  8
0
  6
________________
 62
     7
 10
110.9387018252118
 20
312.6467265177354
 30
0.0
 11
110.9599808699064
 21
312.9999999994519
 31
0.0
  0
LINE
  5
1B6
  8
0
  6
________________
 62
     7
 10
99.6
 20
309.5
 30
0.0
 11
109.6966496052545
 21
309.4999999999932
 31
0.0
  0
ARC
  5
1B7
  8
0
  6
________________
 62
     7
 10
100.6
 20
181.1508472707589
 30
0.0
 40
1.000000000000018
 50
239.999999999999
 51
269.4999999999995
  0
ARC
  5
1B8
  8
0
  6
________________
 62
     7
 10
219.4
 20
181.1508472707589
 30
0.0
 40
1.000000000000003
 50
270.4999999999989
 51
0.0000000000015776
  0
ARC
  5
1B9
  8
0
  6
________________
 62
     7
 10
-159.9999999999999
 20
307.5000000000005
 30
0.0
 40
61.5999999999995
 50
50.04458915883885
 51
168.6722031406877
210
0.0
220
0.0
230
-1.0
  0
CIRCLE
  5
1BA
  8
0
  6
________________
 62
     7
 10
160.0
 20
309.9999999999997
 30
0.0
 40
49.00000000000021
  0
ARC
  5
1BB
  8
0
  6
________________
 62
     7
 10
-160.0000000000001
 20
312.4999999999995
 30
0.0
 40
61.5999999999995
 50
230.0445891588388
 51
348.6722031406877
210
0.0
220
0.0
230
-1.0
  0
ENDSEC
  0
EOF
