  0
SECTION
  2
HEADER
  9
$ACADVER
  1
AC1014
  9
$ACADMAINTVER
 70
     9
  9
$DWGCODEPAGE
  3
ANSI_932
  9
$INSBASE
 10
0.0
 20
0.0
 30
0.0
  9
$EXTMIN
 10
45.1893086639819
 20
157.6704545454546
 30
0.0
  9
$EXTMAX
 10
155.0921770425634
 20
239.372607613862
 30
0.0
  9
$LIMMIN
 10
0.0
 20
0.0
  9
$LIMMAX
 10
12.0
 20
9.0
  9
$ORTHOMODE
 70
     0
  9
$REGENMODE
 70
     1
  9
$FILLMODE
 70
     1
  9
$QTEXTMODE
 70
     0
  9
$MIRRTEXT
 70
     1
  9
$DRAGMODE
 70
     2
  9
$LTSCALE
 40
1.0
  9
$OSMODE
 70
    37
  9
$ATTMODE
 70
     1
  9
$TEXTSIZE
 40
0.2
  9
$TRACEWID
 40
0.05
  9
$TEXTSTYLE
  7
STANDARD
  9
$CLAYER
  8
0
  9
$CELTYPE
  6
BYLAYER
  9
$CECOLOR
 62
   256
  9
$CELTSCALE
 40
1.0
  9
$DELOBJ
 70
     1
  9
$DISPSILH
 70
     0
  9
$DIMSCALE
 40
1.0
  9
$DIMASZ
 40
3.0
  9
$DIMEXO
 40
0.0625
  9
$DIMDLI
 40
0.38
  9
$DIMRND
 40
0.0
  9
$DIMDLE
 40
0.0
  9
$DIMEXE
 40
1.5
  9
$DIMTP
 40
0.0
  9
$DIMTM
 40
0.0
  9
$DIMTXT
 40
3.0
  9
$DIMCEN
 40
0.09
  9
$DIMTSZ
 40
0.0
  9
$DIMTOL
 70
     0
  9
$DIMLIM
 70
     0
  9
$DIMTIH
 70
     1
  9
$DIMTOH
 70
     1
  9
$DIMSE1
 70
     0
  9
$DIMSE2
 70
     0
  9
$DIMTAD
 70
     1
  9
$DIMZIN
 70
     0
  9
$DIMBLK
  1

  9
$DIMASO
 70
     1
  9
$DIMSHO
 70
     1
  9
$DIMPOST
  1

  9
$DIMAPOST
  1

  9
$DIMALT
 70
     0
  9
$DIMALTD
 70
     2
  9
$DIMALTF
 40
25.4
  9
$DIMLFAC
 40
1.0
  9
$DIMTOFL
 70
     0
  9
$DIMTVP
 40
0.0
  9
$DIMTIX
 70
     0
  9
$DIMSOXD
 70
     0
  9
$DIMSAH
 70
     0
  9
$DIMBLK1
  1

  9
$DIMBLK2
  1

  9
$DIMSTYLE
  2
STANDARD
  9
$DIMCLRD
 70
     0
  9
$DIMCLRE
 70
     0
  9
$DIMCLRT
 70
     0
  9
$DIMTFAC
 40
1.0
  9
$DIMGAP
 40
1.5
  9
$DIMJUST
 70
     0
  9
$DIMSD1
 70
     0
  9
$DIMSD2
 70
     0
  9
$DIMTOLJ
 70
     1
  9
$DIMTZIN
 70
     0
  9
$DIMALTZ
 70
     0
  9
$DIMALTTZ
 70
     0
  9
$DIMFIT
 70
     3
  9
$DIMUPT
 70
     0
  9
$DIMUNIT
 70
     2
  9
$DIMDEC
 70
     2
  9
$DIMTDEC
 70
     4
  9
$DIMALTU
 70
     2
  9
$DIMALTTD
 70
     2
  9
$DIMTXSTY
  7
ＭＳ_ゴシック
  9
$DIMAUNIT
 70
     0
  9
$LUNITS
 70
     2
  9
$LUPREC
 70
     4
  9
$SKETCHINC
 40
0.1
  9
$FILLETRAD
 40
0.5
  9
$AUNITS
 70
     0
  9
$AUPREC
 70
     0
  9
$MENU
  1
.
  9
$ELEVATION
 40
0.0
  9
$PELEVATION
 40
0.0
  9
$THICKNESS
 40
0.0
  9
$LIMCHECK
 70
     0
  9
$CHAMFERA
 40
0.0
  9
$CHAMFERB
 40
0.0
  9
$CHAMFERC
 40
0.0
  9
$CHAMFERD
 40
0.0
  9
$SKPOLY
 70
     0
  9
$TDCREATE
 40
2459311.449935787
  9
$TDUPDATE
 40
2459311.449935984
  9
$TDINDWG
 40
0.0000000116
  9
$TDUSRTIMER
 40
0.0000000116
  9
$USRTIMER
 70
     1
  9
$ANGBASE
 50
0.0
  9
$ANGDIR
 70
     0
  9
$PDMODE
 70
     0
  9
$PDSIZE
 40
0.0
  9
$PLINEWID
 40
0.0
  9
$COORDS
 70
     1
  9
$SPLFRAME
 70
     0
  9
$SPLINETYPE
 70
     6
  9
$SPLINESEGS
 70
     8
  9
$ATTDIA
 70
     0
  9
$ATTREQ
 70
     1
  9
$HANDLING
 70
     1
  9
$HANDSEED
  5
105
  9
$SURFTAB1
 70
     6
  9
$SURFTAB2
 70
     6
  9
$SURFTYPE
 70
     6
  9
$SURFU
 70
     6
  9
$SURFV
 70
     6
  9
$UCSNAME
  2

  9
$UCSORG
 10
0.0
 20
0.0
 30
0.0
  9
$UCSXDIR
 10
1.0
 20
0.0
 30
0.0
  9
$UCSYDIR
 10
0.0
 20
1.0
 30
0.0
  9
$PUCSNAME
  2

  9
$PUCSORG
 10
0.0
 20
0.0
 30
0.0
  9
$PUCSXDIR
 10
1.0
 20
0.0
 30
0.0
  9
$PUCSYDIR
 10
0.0
 20
1.0
 30
0.0
  9
$USERI1
 70
     0
  9
$USERI2
 70
     0
  9
$USERI3
 70
     0
  9
$USERI4
 70
     0
  9
$USERI5
 70
     0
  9
$USERR1
 40
0.0
  9
$USERR2
 40
0.0
  9
$USERR3
 40
0.0
  9
$USERR4
 40
0.0
  9
$USERR5
 40
0.0
  9
$WORLDVIEW
 70
     1
  9
$SHADEDGE
 70
     3
  9
$SHADEDIF
 70
    70
  9
$TILEMODE
 70
     1
  9
$MAXACTVP
 70
    64
  9
$PINSBASE
 10
0.0
 20
0.0
 30
0.0
  9
$PLIMCHECK
 70
     0
  9
$PEXTMIN
 10
1.000000000000000E+20
 20
1.000000000000000E+20
 30
1.000000000000000E+20
  9
$PEXTMAX
 10
-1.000000000000000E+20
 20
-1.000000000000000E+20
 30
-1.000000000000000E+20
  9
$PLIMMIN
 10
0.0
 20
0.0
  9
$PLIMMAX
 10
12.0
 20
9.0
  9
$UNITMODE
 70
     0
  9
$VISRETAIN
 70
     1
  9
$PLINEGEN
 70
     0
  9
$PSLTSCALE
 70
     1
  9
$TREEDEPTH
 70
  3020
  9
$PICKSTYLE
 70
     1
  9
$CMLSTYLE
  2
STANDARD
  9
$CMLJUST
 70
     0
  9
$CMLSCALE
 40
1.0
  9
$PROXYGRAPHICS
 70
     1
  9
$MEASUREMENT
 70
     1
  0
ENDSEC
  0
SECTION
  2
CLASSES
  0
CLASS
  1
ACDBDICTIONARYWDFLT
  2
AcDbDictionaryWithDefault
  3
ObjectDBX Classes
 90
        0
280
     0
281
     0
  0
CLASS
  1
VISUALSTYLE
  2
AcDbVisualStyle
  3
ObjectDBX Classes
 90
     4095
280
     0
281
     0
  0
CLASS
  1
MATERIAL
  2
AcDbMaterial
  3
ObjectDBX Classes
 90
     1153
280
     0
281
     0
  0
CLASS
  1
SCALE
  2
AcDbScale
  3
ObjectDBX Classes
 90
     1153
280
     0
281
     0
  0
CLASS
  1
TABLESTYLE
  2
AcDbTableStyle
  3
ObjectDBX Classes
 90
     4095
280
     0
281
     0
  0
CLASS
  1
MLEADERSTYLE
  2
AcDbMLeaderStyle
  3
ACDB_MLEADERSTYLE_CLASS
 90
     4095
280
     0
281
     0
  0
CLASS
  1
SUN
  2
AcDbSun
  3
SCENEOE
 90
     1153
280
     0
281
     0
  0
CLASS
  1
DICTIONARYVAR
  2
AcDbDictionaryVar
  3
ObjectDBX Classes
 90
        0
280
     0
281
     0
  0
CLASS
  1
XRECORD
  2
AcDbXrecord
  3
ObjectDBX Classes
 90
        0
280
     0
281
     0
  0
CLASS
  1
LWPOLYLINE
  2
AcDbPolyline
  3
ObjectDBX Classes
 90
        0
280
     0
281
     1
  0
CLASS
  1
HATCH
  2
AcDbHatch
  3
ObjectDBX Classes
 90
        0
280
     0
281
     1
  0
CLASS
  1
ACDBPLACEHOLDER
  2
AcDbPlaceHolder
  3
ObjectDBX Classes
 90
        0
280
     0
281
     0
  0
CLASS
  1
LAYOUT
  2
AcDbLayout
  3
ObjectDBX Classes
 90
        0
280
     0
281
     0
  0
ENDSEC
  0
SECTION
  2
TABLES
  0
TABLE
  2
VPORT
  5
8
102
{ACAD_XDICTIONARY
360
FA
102
}
330
0
100
AcDbSymbolTable
 70
     1
  0
VPORT
  5
29
330
8
100
AcDbSymbolTableRecord
100
AcDbViewportTableRecord
  2
*ACTIVE
 70
     0
 10
0.0
 20
0.0
 11
1.0
 21
1.0
 12
100.1407428532726
 22
198.5215310796583
 13
0.0
 23
0.0
 14
0.5
 24
0.5
 15
0.5
 25
0.5
 16
0.0
 26
0.0
 36
1.0
 17
0.0
 27
0.0
 37
0.0
 40
81.7021530684074
 41
1.6
 42
50.0
 43
0.0
 44
0.0
 50
0.0
 51
0.0
 71
     0
 72
   100
 73
     1
 74
     3
 75
     0
 76
     0
 77
     0
 78
     0
  0
ENDTAB
  0
TABLE
  2
LTYPE
  5
5
330
0
100
AcDbSymbolTable
 70
     3
  0
LTYPE
  5
14
330
5
100
AcDbSymbolTableRecord
100
AcDbLinetypeTableRecord
  2
BYBLOCK
 70
     0
  3

 72
    65
 73
     0
 40
0.0
  0
LTYPE
  5
15
330
5
100
AcDbSymbolTableRecord
100
AcDbLinetypeTableRecord
  2
BYLAYER
 70
     0
  3

 72
    65
 73
     0
 40
0.0
  0
LTYPE
  5
16
330
5
100
AcDbSymbolTableRecord
100
AcDbLinetypeTableRecord
  2
CONTINUOUS
 70
     0
  3
Solid line
 72
    65
 73
     0
 40
0.0
  0
LTYPE
  5
98
330
5
100
AcDbSymbolTableRecord
100
AcDbLinetypeTableRecord
  2
________________
 70
     0
  3

 72
    65
 73
     4
 40
6.0
 49
2.25
 74
     0
 49
-1.5
 74
     0
 49
0.7499999999999999
 74
     0
 49
-1.5
 74
     0
  0
LTYPE
  5
9D
330
5
100
AcDbSymbolTableRecord
100
AcDbLinetypeTableRecord
  2
________________0
 70
     0
  3

 72
    65
 73
     2
 40
6.0
 49
3.0
 74
     0
 49
-3.0
 74
     0
  0
ENDTAB
  0
TABLE
  2
LAYER
  5
2
330
0
100
AcDbSymbolTable
 70
     1
  0
LAYER
  5
10
330
2
100
AcDbSymbolTableRecord
100
AcDbLayerTableRecord
  2
0
 70
     0
 62
     7
  6
CONTINUOUS
  0
ENDTAB
  0
TABLE
  2
STYLE
  5
3
330
0
100
AcDbSymbolTable
 70
     2
  0
STYLE
  5
11
330
3
100
AcDbSymbolTableRecord
100
AcDbTextStyleTableRecord
  2
STANDARD
 70
     0
 40
0.0
 41
1.0
 50
0.0
 71
     0
 42
0.2
  3
txt
  4

  0
STYLE
  5
6E
330
3
100
AcDbSymbolTableRecord
100
AcDbTextStyleTableRecord
  2
ＭＳ_ゴシック
 70
     0
 40
0.0
 41
1.0
 50
0.0
 71
     0
 42
0.2
  3
ＭＳ ゴシック.shx
  4

  0
ENDTAB
  0
TABLE
  2
VIEW
  5
6
330
0
100
AcDbSymbolTable
 70
     0
  0
ENDTAB
  0
TABLE
  2
UCS
  5
7
330
0
100
AcDbSymbolTable
 70
     0
  0
ENDTAB
  0
TABLE
  2
APPID
  5
9
330
0
100
AcDbSymbolTable
 70
     2
  0
APPID
  5
12
330
9
100
AcDbSymbolTableRecord
100
AcDbRegAppTableRecord
  2
ACAD
 70
     0
  0
APPID
  5
104
330
9
100
AcDbSymbolTableRecord
100
AcDbRegAppTableRecord
  2
ACAD_MLEADERVER
 70
     0
  0
ENDTAB
  0
TABLE
  2
DIMSTYLE
  5
A
330
0
100
AcDbSymbolTable
 70
     1
  0
DIMSTYLE
105
27
330
A
100
AcDbSymbolTableRecord
100
AcDbDimStyleTableRecord
  2
STANDARD
 70
     0
  3

  4

  5

  6

  7

 40
1.0
 41
0.18
 42
0.0625
 43
0.38
 44
0.18
 45
0.0
 46
0.0
 47
0.0
 48
0.0
140
0.18
141
0.09
142
0.0
143
25.4
144
1.0
145
0.0
146
1.0
147
0.09
 71
     0
 72
     0
 73
     1
 74
     1
 75
     0
 76
     0
 77
     0
 78
     0
170
     0
171
     2
172
     0
173
     0
174
     0
175
     0
176
     0
177
     0
178
     0
270
     2
271
     4
272
     4
273
     2
274
     2
340
11
275
     0
280
     0
281
     0
282
     0
283
     1
284
     0
285
     0
286
     0
287
     3
288
     0
  0
ENDTAB
  0
TABLE
  2
BLOCK_RECORD
  5
1
330
0
100
AcDbSymbolTable
 70
     0
  0
BLOCK_RECORD
  5
1F
330
1
100
AcDbSymbolTableRecord
100
AcDbBlockTableRecord
  2
*MODEL_SPACE
  0
BLOCK_RECORD
  5
1B
330
1
100
AcDbSymbolTableRecord
100
AcDbBlockTableRecord
  2
*PAPER_SPACE
  0
ENDTAB
  0
ENDSEC
  0
SECTION
  2
BLOCKS
  0
BLOCK
  5
20
330
1F
100
AcDbEntity
  8
0
100
AcDbBlockBegin
  2
*MODEL_SPACE
 70
     0
 10
0.0
 20
0.0
 30
0.0
  3
*MODEL_SPACE
  1

  0
ENDBLK
  5
21
330
1F
100
AcDbEntity
  8
0
100
AcDbBlockEnd
  0
BLOCK
  5
1C
330
1B
100
AcDbEntity
 67
     1
  8
0
100
AcDbBlockBegin
  2
*PAPER_SPACE
 70
     0
 10
0.0
 20
0.0
 30
0.0
  3
*PAPER_SPACE
  1

  0
ENDBLK
  5
1D
330
1B
100
AcDbEntity
 67
     1
  8
0
100
AcDbBlockEnd
  0
ENDSEC
  0
SECTION
  2
ENTITIES
  0
LINE
  5
6F
330
1F
100
AcDbEntity
  8
0
  6
CONTINUOUS
 62
   253
100
AcDbLine
 10
86.84692564508609
 20
236.3323720396633
 30
0.0
 11
86.84686389936945
 21
236.3050349543339
 31
0.0
  0
LINE
  5
70
330
1F
100
AcDbEntity
  8
0
  6
CONTINUOUS
 62
     7
100
AcDbLine
 10
67.092478314991
 20
195.374906245074
 30
0.0
 11
68.80982440097017
 21
195.374906245074
 31
0.0
  0
LINE
  5
71
330
1F
100
AcDbEntity
  8
0
  6
CONTINUOUS
 62
     7
100
AcDbLine
 10
148.357018272283
 20
163.3749062450738
 30
0.0
 11
142.3906755151592
 21
163.3749062450738
 31
0.0
  0
LINE
  5
72
330
1F
100
AcDbEntity
  8
0
  6
CONTINUOUS
 62
     7
100
AcDbLine
 10
94.23344933392345
 20
214.0908899089177
 30
0.0
 11
93.6335537906909
 21
233.4832844800746
 31
0.0
  0
LINE
  5
73
330
1F
100
AcDbEntity
  8
0
  6
CONTINUOUS
 62
   253
100
AcDbLine
 10
66.90037519882495
 20
226.0749062450739
 30
0.0
 11
67.092478314991
 21
195.374906245074
 31
0.0
  0
LINE
  5
74
330
1F
100
AcDbEntity
  8
0
  6
CONTINUOUS
 62
     7
100
AcDbLine
 10
131.5734718716249
 20
236.1691106710098
 30
0.0
 11
154.7714765501415
 21
236.3715565908486
 31
0.0
  0
LINE
  5
75
330
1F
100
AcDbEntity
  8
0
  6
CONTINUOUS
 62
     7
100
AcDbLine
 10
71.10000000000001
 20
226.3749062450739
 30
0.0
 11
71.27455880229789
 21
166.3661796111209
 31
0.0
  0
LINE
  5
76
330
1F
100
AcDbEntity
  8
0
  6
CONTINUOUS
 62
     7
100
AcDbLine
 10
45.7665506660766
 20
214.0908899089177
 30
0.0
 11
46.36644620930913
 21
233.4832844800746
 31
0.0
  0
LINE
  5
77
330
1F
100
AcDbEntity
  8
0
  6
CONTINUOUS
 62
     7
100
AcDbLine
 10
128.6014789970627
 20
233.2739233919248
 30
0.0
 11
128.360560009558
 21
226.3749062450739
 31
0.0
  0
LINE
  5
78
330
1F
100
AcDbEntity
  8
0
  6
CONTINUOUS
 62
     7
100
AcDbLine
 10
154.5717814021943
 20
214.0908899089177
 30
0.0
 11
155.0694287711478
 21
233.4832844800746
 31
0.0
  0
LINE
  5
79
330
1F
100
AcDbEntity
  8
0
  6
CONTINUOUS
 62
   253
100
AcDbLine
 10
73.09962480117508
 20
226.0749062450739
 30
0.0
 11
72.90752168500903
 21
195.374906245074
 31
0.0
  0
ARC
  5
7A
330
1F
100
AcDbEntity
  8
0
  6
CONTINUOUS
 62
     7
100
AcDbCircle
 10
-126.1605217705396
 20
226.0749062450739
 30
0.0
 40
0.3000000000000099
210
0.0
220
0.0
230
-1.0
100
AcDbArc
 50
1.999999999999912
 51
90.00000000000001
  0
LINE
  5
7B
330
1F
100
AcDbEntity
  8
0
  6
CONTINUOUS
 62
     7
100
AcDbLine
 10
73.49664058703148
 20
226.3749062450739
 30
0.0
 11
67.1958175247286
 21
226.3749062450739
 31
0.0
  0
LINE
  5
7C
330
1F
100
AcDbEntity
  8
0
  6
CONTINUOUS
 62
     7
100
AcDbLine
 10
125.0113445803203
 20
195.374906245074
 30
0.0
 11
154.0816861218827
 21
195.374906245074
 31
0.0
  0
LINE
  5
7D
330
1F
100
AcDbEntity
  8
0
  6
CONTINUOUS
 62
     7
100
AcDbLine
 10
128.5225346771089
 20
226.0853760940847
 30
0.0
 11
128.4662074048459
 21
226.3749062450739
 31
0.0
  0
ARC
  5
7E
330
1F
100
AcDbEntity
  8
0
  6
CONTINUOUS
 62
     7
100
AcDbCircle
 10
131.5996514781201
 20
233.1692249018173
 30
0.0
 40
2.999999999999981
100
AcDbArc
 50
90.49999999999997
 51
178.0000000000001
  0
LINE
  5
7F
330
1F
100
AcDbEntity
  8
0
  6
CONTINUOUS
 62
     2
100
AcDbLine
 10
100.0
 20
157.6704545454546
 30
0.0
 11
110.2818181818182
 21
157.6704545454546
 31
0.0
  0
LINE
  5
80
330
1F
100
AcDbEntity
  8
0
  6
CONTINUOUS
 62
     7
100
AcDbLine
 10
67.04272564426236
 20
195.3749062450739
 30
0.0
 11
45.1893086639819
 21
195.3749062450739
 31
0.0
  0
LINE
  5
81
330
1F
100
AcDbEntity
  8
0
  6
CONTINUOUS
 62
     7
100
AcDbLine
 10
148.7271540929192
 20
167.374906245074
 30
0.0
 11
144.999660861043
 21
167.374906245074
 31
0.0
  0
LINE
  5
82
330
1F
100
AcDbEntity
  8
0
  6
CONTINUOUS
 62
   253
100
AcDbLine
 10
65.72359522613611
 20
195.3749062450739
 30
0.0
 11
65.53823464092628
 21
226.0853760940847
 31
0.0
  0
LINE
  5
83
330
1F
100
AcDbEntity
  8
0
  6
CONTINUOUS
 62
     7
100
AcDbLine
 10
68.9
 20
226.3749062450739
 30
0.0
 11
68.72544119770214
 21
166.3661796111209
 31
0.0
  0
LINE
  5
84
330
1F
100
AcDbEntity
  8
0
  6
CONTINUOUS
 62
     7
100
AcDbLine
 10
142.0892237784731
 20
195.374906245074
 30
0.0
 11
142.2427912176265
 21
166.3661796111209
 31
0.0
  0
ARC
  5
85
330
1F
100
AcDbEntity
  8
0
  6
CONTINUOUS
 62
     7
100
AcDbCircle
 10
90.5
 20
192.3749062450739
 30
0.0
 40
3.000000000000002
100
AcDbArc
 50
101.1128951230193
 51
180.0
  0
LINE
  5
86
330
1F
100
AcDbEntity
  8
0
  6
CONTINUOUS
 62
     7
100
AcDbLine
 10
125.8607045224339
 20
226.0853760940847
 30
0.0
 11
124.8015393043708
 21
195.7548526411748
 31
0.0
  0
LINE
  5
87
330
1F
100
AcDbEntity
  8
0
  6
CONTINUOUS
 62
     7
100
AcDbLine
 10
147.1786633674919
 20
195.3749062450739
 30
0.0
 11
147.1786633674919
 21
167.374906245074
 31
0.0
  0
LINE
  5
88
330
1F
100
AcDbEntity
  8
0
  6
CONTINUOUS
 62
   253
100
AcDbLine
 10
53.15307435491394
 20
236.3323720396633
 30
0.0
 11
53.15313610063058
 21
236.3050349543339
 31
0.0
  0
LINE
  5
89
330
1F
100
AcDbEntity
  8
0
  6
CONTINUOUS
 62
     7
100
AcDbLine
 10
72.9572645901003
 20
195.3749062450739
 30
0.0
 11
94.81069133601811
 21
195.3749062450739
 31
0.0
  0
LINE
  5
8A
330
1F
100
AcDbEntity
  8
0
  6
CONTINUOUS
 62
     7
100
AcDbLine
 10
128.4662074048459
 20
226.3749062450739
 30
0.0
 11
126.1605217705396
 21
226.3749062450739
 31
0.0
  0
ARC
  5
8B
330
1F
100
AcDbEntity
  8
0
  6
CONTINUOUS
 62
     7
100
AcDbCircle
 10
150.4087762816223
 20
192.6836460455945
 30
0.0
 40
5.85138690324679
100
AcDbArc
 50
155.6786512224124
 51
183.0245317941867
  0
LINE
  5
8C
330
1F
100
AcDbEntity
  8
0
  6
CONTINUOUS
 62
   253
100
AcDbLine
 10
74.2764047738639
 20
195.3749062450739
 30
0.0
 11
74.46176535907374
 21
226.0853760940847
 31
0.0
  0
LINE
  5
8D
330
1F
100
AcDbEntity
  8
0
  6
CONTINUOUS
 62
     7
100
AcDbLine
 10
72.90752168500903
 20
195.374906245074
 30
0.0
 11
71.19017559902984
 21
195.374906245074
 31
0.0
  0
ARC
  5
8E
330
1F
100
AcDbEntity
  8
0
  6
CONTINUOUS
 62
     7
100
AcDbCircle
 10
-72.18727093955096
 20
196.374906245074
 30
0.0
 40
1.0
210
0.0
220
0.0
230
-1.0
100
AcDbArc
 50
321.6799509800503
 51
359.8333333333326
  0
LINE
  5
8F
330
1F
100
AcDbEntity
  8
0
  6
CONTINUOUS
 62
     7
100
AcDbLine
 10
49.45854596989121
 20
236.3715565908487
 30
0.0
 11
52.35962102785815
 21
236.3639892590521
 31
0.0
  0
ARC
  5
90
330
1F
100
AcDbEntity
  8
0
  6
CONTINUOUS
 62
     7
100
AcDbCircle
 10
90.62105816689362
 20
233.3574865546958
 30
0.0
 40
3.01512105916618
100
AcDbArc
 50
2.391208455697658
 51
91.51287826115367
  0
LINE
  5
91
330
1F
100
AcDbEntity
  8
0
  6
CONTINUOUS
 62
     7
100
AcDbLine
 10
91.50000000000009
 20
167.374906245074
 30
0.0
 11
91.50000000000009
 21
164.374906245074
 31
0.0
  0
LINE
  5
92
330
1F
100
AcDbEntity
  8
0
  6
CONTINUOUS
 62
     7
100
AcDbLine
 10
54.49444228704374
 20
236.3355088843182
 30
0.0
 11
54.49451845162449
 21
236.3017880408896
 31
0.0
  0
ARC
  5
93
330
1F
100
AcDbEntity
  8
0
  6
CONTINUOUS
 62
     7
100
AcDbCircle
 10
-143.9405647708099
 20
164.3235401083535
 30
0.0
 40
2.08017932704288
210
0.0
220
0.0
230
-1.0
100
AcDbArc
 50
178.5850440984238
 51
200.9413385729086
  0
LINE
  5
94
330
1F
100
AcDbEntity
  8
0
  6
CONTINUOUS
 62
     7
100
AcDbLine
 10
53.15307435491394
 20
236.3323720396633
 30
0.0
 11
54.49444228704374
 21
236.3355088843182
 31
0.0
  0
ARC
  5
95
330
1F
100
AcDbEntity
  8
0
  6
CONTINUOUS
 62
     7
100
AcDbCircle
 10
147.1606742391154
 20
168.340660431641
 30
0.0
 40
2.464580085105486
100
AcDbArc
 50
179.2038385226188
 51
198.2281865218101
  0
ARC
  5
96
330
1F
100
AcDbEntity
  8
0
  6
CONTINUOUS
 62
     7
100
AcDbCircle
 10
146.7803053662913
 20
164.3243248078471
 30
0.0
 40
1.947505698621663
100
AcDbArc
 50
337.8830622442341
 51
1.488277442808737
  0
LINE
  5
97
330
1F
100
AcDbEntity
  8
0
  6
________________
 62
     2
100
AcDbLine
 10
70.0
 20
160.3749062450738
 30
0.0
 11
70.0
 21
239.372607613862
 31
0.0
  0
LINE
  5
99
330
1F
100
AcDbEntity
  8
0
  6
CONTINUOUS
 62
     7
100
AcDbLine
 10
66.50335941296855
 20
226.3749062450739
 30
0.0
 11
67.14608322824898
 21
226.3749062450739
 31
0.0
  0
LINE
  5
9A
330
1F
100
AcDbEntity
  8
0
  6
CONTINUOUS
 62
     7
100
AcDbLine
 10
86.84692564508609
 20
236.3323720396633
 30
0.0
 11
85.5055577129563
 21
236.3355088843182
 31
0.0
  0
LINE
  5
9B
330
1F
100
AcDbEntity
  8
0
  6
CONTINUOUS
 62
     7
100
AcDbLine
 10
51.95140875456103
 20
236.3187040494621
 30
0.0
 11
53.15307435491396
 21
236.3323720396633
 31
0.0
  0
LINE
  5
9C
330
1F
100
AcDbEntity
  8
0
  6
________________0
 62
   253
100
AcDbLine
 10
144.7836857222099
 20
163.3749062450738
 30
0.0
 11
144.7574961541546
 21
168.3752265966249
 31
0.0
  0
LINE
  5
9E
330
1F
100
AcDbEntity
  8
0
  6
CONTINUOUS
 62
     7
100
AcDbLine
 10
48.49999999999982
 20
167.3749062450739
 30
0.0
 11
51.49999999999994
 21
167.3749062450739
 31
0.0
  0
LINE
  5
9F
330
1F
100
AcDbEntity
  8
0
  6
CONTINUOUS
 62
     7
100
AcDbLine
 10
85.5055577129563
 20
236.3355088843182
 30
0.0
 11
85.50548154837554
 21
236.3017880408896
 31
0.0
  0
LINE
  5
A0
330
1F
100
AcDbEntity
  8
0
  6
CONTINUOUS
 62
     7
100
AcDbLine
 10
88.04859124543901
 20
236.3187040494621
 30
0.0
 11
86.84692564508607
 21
236.3323720396633
 31
0.0
  0
LINE
  5
A1
330
1F
100
AcDbEntity
  8
0
  6
CONTINUOUS
 62
     7
100
AcDbLine
 10
85.83942619686263
 20
236.346382685027
 30
0.0
 11
87.64037897214189
 21
236.3639892590521
 31
0.0
  0
ARC
  5
A2
330
1F
100
AcDbEntity
  8
0
  6
CONTINUOUS
 62
     7
100
AcDbCircle
 10
-49.37894183310646
 20
233.3574865546958
 30
0.0
 40
3.015121059166229
210
0.0
220
0.0
230
-1.0
100
AcDbArc
 50
2.391208455698148
 51
91.51287826115299
  0
LINE
  5
A3
330
1F
100
AcDbEntity
  8
0
  6
CONTINUOUS
 62
     7
100
AcDbLine
 10
54.16057380313739
 20
236.346382685027
 30
0.0
 11
52.35962102785815
 21
236.3639892590521
 31
0.0
  0
LINE
  5
A4
330
1F
100
AcDbEntity
  8
0
  6
CONTINUOUS
 62
     7
100
AcDbLine
 10
86.87942099424053
 20
236.3051173775048
 30
0.0
 11
88.04859124543901
 21
236.3187040494621
 31
0.0
  0
LINE
  5
A5
330
1F
100
AcDbEntity
  8
0
  6
CONTINUOUS
 62
     7
100
AcDbLine
 10
144.5655401553766
 20
192.3749062450739
 30
0.0
 11
144.6963320915716
 21
168.374906245074
 31
0.0
  0
LINE
  5
A6
330
1F
100
AcDbEntity
  8
0
  6
CONTINUOUS
 62
     7
100
AcDbLine
 10
49.50000000000004
 20
195.374906245074
 30
0.0
 11
50.02783341175212
 21
195.3281065243368
 31
0.0
  0
LINE
  5
A7
330
1F
100
AcDbEntity
  8
0
  6
CONTINUOUS
 62
     7
100
AcDbLine
 10
49.49999999999989
 20
163.3749062450738
 30
0.0
 11
65.7254538900857
 21
163.3749062450738
 31
0.0
  0
ARC
  5
A8
330
1F
100
AcDbEntity
  8
0
  6
CONTINUOUS
 62
     7
100
AcDbCircle
 10
-66.69459355225938
 20
223.9840962734857
 30
0.0
 40
2.398445916896182
210
0.0
220
0.0
230
-1.0
100
AcDbArc
 50
61.1754958050011
 51
85.42680879813865
  0
ARC
  5
A9
330
1F
100
AcDbEntity
  8
0
  6
CONTINUOUS
 62
     7
100
AcDbCircle
 10
65.72541033932515
 20
166.3749499227031
 30
0.0
 40
3.000043677945289
100
AcDbArc
 50
270.000831746148
 51
359.8325015871843
  0
LINE
  5
AA
330
1F
100
AcDbEntity
  8
0
  6
CONTINUOUS
 62
     7
100
AcDbLine
 10
52.50000000000004
 20
192.3749062450739
 30
0.0
 11
52.50000000000004
 21
168.374906245074
 31
0.0
  0
LINE
  5
AB
330
1F
100
AcDbEntity
  8
0
  6
CONTINUOUS
 62
     7
100
AcDbLine
 10
90.5
 20
195.374906245074
 30
0.0
 11
89.97216658824792
 21
195.3281065243368
 31
0.0
  0
LINE
  5
AC
330
1F
100
AcDbEntity
  8
0
  6
CONTINUOUS
 62
     7
100
AcDbLine
 10
53.12057900575949
 20
236.3051173775048
 30
0.0
 11
51.95140875456103
 21
236.3187040494621
 31
0.0
  0
LINE
  5
AD
330
1F
100
AcDbEntity
  8
0
  6
CONTINUOUS
 62
     7
100
AcDbLine
 10
85.83942619686263
 20
236.346382685027
 30
0.0
 11
85.5055577129563
 21
236.3355088843182
 31
0.0
  0
LINE
  5
AE
330
1F
100
AcDbEntity
  8
0
  6
CONTINUOUS
 62
     7
100
AcDbLine
 10
54.16057380313739
 20
236.346382685027
 30
0.0
 11
54.49444228704374
 21
236.3355088843182
 31
0.0
  0
LINE
  5
AF
330
1F
100
AcDbEntity
  8
0
  6
CONTINUOUS
 62
     7
100
AcDbLine
 10
87.49999999999999
 20
192.3749062450739
 30
0.0
 11
87.49999999999999
 21
168.374906245074
 31
0.0
  0
LINE
  5
B0
330
1F
100
AcDbEntity
  8
0
  6
CONTINUOUS
 62
     7
100
AcDbLine
 10
146.0034000284902
 20
167.374906245074
 30
0.0
 11
146.0201098058248
 21
164.374906245074
 31
0.0
  0
LINE
  5
B1
330
1F
100
AcDbEntity
  8
0
  6
CONTINUOUS
 62
     7
100
AcDbLine
 10
90.50000000000014
 20
163.3749062450738
 30
0.0
 11
74.27454610991433
 21
163.3749062450738
 31
0.0
  0
ARC
  5
B2
330
1F
100
AcDbEntity
  8
0
  6
CONTINUOUS
 62
     7
100
AcDbCircle
 10
-49.50000000000003
 20
192.3749062450739
 30
0.0
 40
3.000000000000006
210
0.0
220
0.0
230
-1.0
100
AcDbArc
 50
100.1336251359158
 51
180.0
  0
LINE
  5
B3
330
1F
100
AcDbEntity
  8
0
  6
CONTINUOUS
 62
     7
100
AcDbLine
 10
45.1893086639819
 20
195.3749062450739
 30
0.0
 11
45.7665506660766
 21
214.0908899089177
 31
0.0
  0
LINE
  5
B4
330
1F
100
AcDbEntity
  8
0
  6
CONTINUOUS
 62
     7
100
AcDbLine
 10
89.97216658824792
 20
195.3281065243368
 30
0.0
 11
89.92177155894444
 21
195.3186541741525
 31
0.0
  0
ARC
  5
B5
330
1F
100
AcDbEntity
  8
0
  6
CONTINUOUS
 62
     7
100
AcDbCircle
 10
-74.27458966067489
 20
166.3749499227031
 30
0.0
 40
3.000043677945289
210
0.0
220
0.0
230
-1.0
100
AcDbArc
 50
270.0008317461482
 51
359.8325015871843
  0
ARC
  5
B6
330
1F
100
AcDbEntity
  8
0
  6
CONTINUOUS
 62
     7
100
AcDbCircle
 10
67.81272906044904
 20
196.374906245074
 30
0.0
 40
1.0
100
AcDbArc
 50
321.6799509800508
 51
359.8333333333325
  0
LINE
  5
B7
330
1F
100
AcDbEntity
  8
0
  6
CONTINUOUS
 62
     7
100
AcDbLine
 10
94.81069133601811
 20
195.3749062450739
 30
0.0
 11
94.23344933392345
 21
214.0908899089177
 31
0.0
  0
LINE
  5
B8
330
1F
100
AcDbEntity
  8
0
  6
CONTINUOUS
 62
     7
100
AcDbLine
 10
154.0816861218827
 20
195.3749062450739
 30
0.0
 11
154.5717814021943
 21
214.0908899089177
 31
0.0
  0
LINE
  5
B9
330
1F
100
AcDbEntity
  8
0
  6
CONTINUOUS
 62
     7
100
AcDbLine
 10
142.3906755151594
 20
163.3749062450739
 30
0.0
 11
142.3438401204836
 21
163.4695081095635
 31
0.0
  0
ARC
  5
BA
330
1F
100
AcDbEntity
  8
0
  6
CONTINUOUS
 62
     7
100
AcDbCircle
 10
139.6299008551918
 20
234.3217131454801
 30
0.0
 40
15.46227618737159
100
AcDbArc
 50
356.8916610038287
 51
6.58213702377418
  0
LINE
  5
BB
330
1F
100
AcDbEntity
  8
0
  6
CONTINUOUS
 62
     7
100
AcDbLine
 10
91.50000000000021
 20
167.3749062450739
 30
0.0
 11
88.50000000000009
 21
167.3749062450739
 31
0.0
  0
ARC
  5
BC
330
1F
100
AcDbEntity
  8
0
  6
CONTINUOUS
 62
     7
100
AcDbCircle
 10
73.30540644774065
 20
223.9840962734857
 30
0.0
 40
2.398445916896182
100
AcDbArc
 50
61.1754958050011
 51
85.42680879813865
  0
ARC
  5
BD
330
1F
100
AcDbEntity
  8
0
  6
CONTINUOUS
 62
     7
100
AcDbCircle
 10
-172.6633858215027
 20
165.977288214646
 30
0.0
 40
30.42308026107202
210
0.0
220
0.0
230
-1.0
100
AcDbArc
 50
355.2717334520016
 51
0.7324190176201455
  0
LINE
  5
BE
330
1F
100
AcDbEntity
  8
0
  6
CONTINUOUS
 62
     7
100
AcDbLine
 10
48.49999999999995
 20
167.374906245074
 30
0.0
 11
48.49999999999995
 21
164.374906245074
 31
0.0
  0
LINE
  5
BF
330
1F
100
AcDbEntity
  8
0
  6
CONTINUOUS
 62
     7
100
AcDbLine
 10
90.54145403010881
 20
236.3715565908487
 30
0.0
 11
87.64037897214189
 21
236.3639892590521
 31
0.0
  0
LINE
  5
C0
330
1F
100
AcDbEntity
  8
0
  6
CONTINUOUS
 62
     7
100
AcDbLine
 10
148.7271540929192
 20
167.374906245074
 30
0.0
 11
148.7271540929192
 21
164.374906245074
 31
0.0
  0
LWPOLYLINE
  5
C1
330
1F
100
AcDbEntity
  8
0
  6
CONTINUOUS
 62
   253
100
AcDbPolyline
 90
        9
 70
     0
 43
0.0
 10
-72.80418247527143
 20
226.3749062450739
 10
-72.86182041376917
 20
226.3691418291949
 10
-72.91724335861417
 20
226.3520701048273
 10
-72.96832143711758
 20
226.3243471287647
 10
-73.01309174736744
 20
226.2870382794299
 10
-73.04983379144831
 20
226.2415773149798
 10
-73.07713559321135
 20
226.1897112747835
 10
-73.09394795972584
 20
226.1334333416788
 10
-73.09962480117508
 20
226.0749062450739
210
0.0
220
0.0
230
-1.0
  0
LWPOLYLINE
  5
C2
330
1F
100
AcDbEntity
  8
0
  6
CONTINUOUS
 62
     7
100
AcDbPolyline
 90
       38
 70
     0
 43
0.0
 10
-68.89709957131565
 20
225.3778151230583
 10
-68.89808684248884
 20
225.4193507279128
 10
-68.90080091237522
 20
225.460845063181
 10
-68.90523250141844
 20
225.5021909633662
 10
-68.91137233006224
 20
225.5432812629716
 10
-68.91947373596842
 20
225.5852594706429
 10
-68.92937100199867
 20
225.6268908312516
 10
-68.94103456409856
 20
225.6680619594576
 10
-68.95443485821353
 20
225.7086594699207
 10
-68.96911427472253
 20
225.7475246023272
 10
-68.98540931449382
 20
225.7857793048228
 10
-69.003275784701
 20
225.823325580306
 10
-69.02266949251768
 20
225.8600654316753
 10
-69.04420773582767
 20
225.896993615142
 10
-69.06732572230263
 20
225.9330003413486
 10
-69.09195808311775
 20
225.9679884357876
 10
-69.11803944944825
 20
226.0018607239515
 10
-69.14475842768404
 20
226.0336797015437
 10
-69.172800398694
 20
226.0643878737942
 10
-69.20209123625426
 20
226.0939073524814
 10
-69.23255681414102
 20
226.1221602493835
 10
-69.26510932660345
 20
226.1498811861551
 10
-69.29884813666503
 20
226.1762095023425
 10
-69.33367936048232
 20
226.2010750623395
 10
-69.3695091142119
 20
226.2244077305399
 10
-69.40525556045391
 20
226.2455881166955
 10
-69.44188296021075
 20
226.2652824331787
 10
-69.47929554619881
 20
226.2834416724498
 10
-69.51739755113447
 20
226.3000168269695
 10
-69.55729349320958
 20
226.3153992941499
 10
-69.59784801651149
 20
226.3290748086994
 10
-69.63894923254243
 20
226.3410082365044
 10
-69.68048525280473
 20
226.3511644434516
 10
-69.7232691581333
 20
226.3596752241562
 10
-69.76644597590143
 20
226.3663183951255
 10
-69.80989184977693
 20
226.3710803559048
 10
-69.85348292342756
 20
226.3739475060392
 10
-69.89709534052115
 20
226.3749062450739
210
0.0
220
0.0
230
-1.0
  0
LWPOLYLINE
  5
C3
330
1F
100
AcDbEntity
  8
0
  6
CONTINUOUS
 62
     7
100
AcDbPolyline
 90
       38
 70
     0
 43
0.0
 10
87.49999999999999
 20
168.374906245074
 10
87.50081771168233
 20
168.3345599226278
 10
87.50326405008747
 20
168.2942519227571
 10
87.50732882025252
 20
168.2540882154015
 10
87.51300182721464
 20
168.2141747705007
 10
87.52052000957065
 20
168.1733836037367
 10
87.52972429999315
 20
168.132931893309
 10
87.5405827322105
 20
168.092929433553
 10
87.55306333995111
 20
168.0534860188039
 10
87.56672673342919
 20
168.015748074954
 10
87.58188763755228
 20
167.9786004768488
 10
87.5985001887209
 20
167.9421341830119
 10
87.61651852333554
 20
167.9064401519671
 10
87.63649117800564
 20
167.870579174356
 10
87.65790324878658
 20
167.8355908527684
 10
87.6806906566012
 20
167.8015603981268
 10
87.70478932237232
 20
167.7685730213537
 10
87.72991263028817
 20
167.736972500667
 10
87.75626654131105
 20
167.7064379304399
 10
87.78377893209792
 20
167.6770370732762
 10
87.81237767930571
 20
167.6488376917796
 10
87.84285126561954
 20
167.6211493882719
 10
87.87440829367934
 20
167.5947626213992
 10
87.9069637437613
 20
167.5697343166036
 10
87.94043259614152
 20
167.5461213993275
 10
87.97516055641577
 20
167.523708486439
 10
88.01075533337155
 20
167.50276572703
 10
88.0471252312558
 20
167.4833354467041
 10
88.08417855431551
 20
167.4654599710649
 10
88.12290773824463
 20
167.4487338770231
 10
88.16228706159367
 20
167.4336629293273
 10
88.20221553530543
 20
167.4202763570405
 10
88.24259217032262
 20
167.4086033892256
 10
88.2932559052524
 20
167.3965237314294
 10
88.34452170073945
 20
167.3870949453293
 10
88.39619641172935
 20
167.3803362737121
 10
88.44808689316766
 20
167.3762669593646
 10
88.49999999999999
 20
167.374906245074
  0
LWPOLYLINE
  5
C4
330
1F
100
AcDbEntity
  8
0
  6
CONTINUOUS
 62
     7
100
AcDbPolyline
 90
       39
 70
     0
 43
0.0
 10
48.49999999999995
 20
164.374906245074
 10
48.50079024673866
 20
164.3352469051464
 10
48.50315437034114
 20
164.2956198769498
 10
48.50708244588694
 20
164.2561303140571
 10
48.51256454845564
 20
164.2168833700413
 10
48.51983128486422
 20
164.1767605468258
 10
48.52872657777887
 20
164.1369683100408
 10
48.53921812165754
 20
164.0976147060962
 10
48.55127361095823
 20
164.0588077814019
 10
48.56446304794276
 20
164.0216862298298
 10
48.57909206233957
 20
163.9851403262455
 10
48.59511490855869
 20
163.9492576551519
 10
48.61248584101023
 20
163.9141258010523
 10
48.63172369126239
 20
163.8788316748512
 10
48.65233702580419
 20
163.8443816884645
 10
48.67426361628996
 20
163.8108556019047
 10
48.69744123437405
 20
163.7783331751847
 10
48.72179918481815
 20
163.7468951377793
 10
48.74734818261059
 20
163.7164950015002
 10
48.77401852119126
 20
163.6871960396878
 10
48.80174049400011
 20
163.6590615256823
 10
48.83125099500643
 20
163.6314216791788
 10
48.86180774824079
 20
163.6050355419878
 10
48.89333105542157
 20
163.5799551172092
 10
48.92574121826714
 20
163.556232407943
 10
48.9599989545611
 20
163.5332451883289
 10
48.99513120204879
 20
163.5117158683393
 10
49.03104909872265
 20
163.49168515764
 10
49.0676637825751
 20
163.4731937658973
 10
49.10593161384294
 20
163.4558282107724
 10
49.1448655648133
 20
163.4400964127
 10
49.18436906285445
 20
163.4260272135478
 10
49.22434553533465
 20
163.4136494551837
 10
49.26937192807876
 20
163.4018760971958
 10
49.31494334098146
 20
163.3922084512966
 10
49.36092581433385
 20
163.3846620803106
 10
49.407185388427
 20
163.379252547062
 10
49.45358810355201
 20
163.375995414375
 10
49.49999999999997
 20
163.3749062450739
  0
LWPOLYLINE
  5
C5
330
1F
100
AcDbEntity
  8
0
  6
CONTINUOUS
 62
     7
100
AcDbPolyline
 90
        4
 70
     0
 43
0.0
 10
154.9902582379451
 20
236.0941143327554
 10
154.9437693116755
 20
236.2258578413588
 10
154.8766624723514
 20
236.3264071583449
 10
154.7714765501415
 20
236.3715565908487
  0
LWPOLYLINE
  5
C6
330
1F
100
AcDbEntity
  8
0
  6
CONTINUOUS
 62
     7
100
AcDbPolyline
 90
        4
 70
     0
 43
0.0
 10
-145.8833416940639
 20
163.5800592013165
 10
-145.835078220255
 20
163.4917671422157
 10
-145.767621160227
 20
163.4136494551837
 10
-145.6723171221124
 20
163.3749062450739
210
0.0
220
0.0
230
-1.0
  0
LWPOLYLINE
  5
C7
330
1F
100
AcDbEntity
  8
0
  6
CONTINUOUS
 62
     7
100
AcDbPolyline
 90
       27
 70
     0
 43
0.0
 10
-72.18727093955096
 20
195.374906245074
 10
-72.155609683492
 20
195.3754077891364
 10
-72.12350269715346
 20
195.3769415105961
 10
-72.09080238712959
 20
195.3795704767169
 10
-72.05775519987982
 20
195.3833288788652
 10
-72.0237524082448
 20
195.3883663375238
 10
-71.98952012714498
 20
195.3946539223566
 10
-71.95487680077852
 20
195.4022849845022
 10
-71.9201551530586
 20
195.4112418031614
 10
-71.88655652313093
 20
195.4211924462373
 10
-71.85304034092104
 20
195.4324149151725
 10
-71.81943223254693
 20
195.4450171238337
 10
-71.78606992595526
 20
195.4589162087254
 10
-71.75224639298284
 20
195.4744882130617
 10
-71.71885142125997
 20
195.4914000736841
 10
-71.68570455210039
 20
195.5097876716565
 10
-71.65315982970654
 20
195.5294919547164
 10
-71.62383573375404
 20
195.5487463992007
 10
-71.59514392829736
 20
195.5690615934544
 10
-71.5669592314435
 20
195.5905512564071
 10
-71.53952063544865
 20
195.6130535404549
 10
-71.51236676375476
 20
195.6370012812991
 10
-71.48608390770548
 20
195.6619288636854
 10
-71.46056070412413
 20
195.6879625291587
 10
-71.43600231034914
 20
195.7149096944942
 10
-71.41910211003027
 20
195.7346589105596
 10
-71.40271149101207
 20
195.7548526411748
210
0.0
220
0.0
230
-1.0
  0
LWPOLYLINE
  5
C8
330
1F
100
AcDbEntity
  8
0
  6
CONTINUOUS
 62
     7
100
AcDbPolyline
 90
       38
 70
     0
 43
0.0
 10
-52.50000000000004
 20
168.374906245074
 10
-52.49918228831769
 20
168.3345599226278
 10
-52.49673594991256
 20
168.2942519227571
 10
-52.4926711797475
 20
168.2540882154015
 10
-52.48699817278539
 20
168.2141747705007
 10
-52.47947999042938
 20
168.1733836037367
 10
-52.47027570000689
 20
168.132931893309
 10
-52.45941726778955
 20
168.092929433553
 10
-52.44693666004893
 20
168.0534860188039
 10
-52.43327326657085
 20
168.015748074954
 10
-52.41811236244774
 20
167.9786004768488
 10
-52.40149981127912
 20
167.9421341830119
 10
-52.38348147666449
 20
167.9064401519671
 10
-52.36350882199439
 20
167.870579174356
 10
-52.34209675121344
 20
167.8355908527684
 10
-52.31930934339884
 20
167.8015603981268
 10
-52.29521067762771
 20
167.7685730213537
 10
-52.27008736971187
 20
167.736972500667
 10
-52.24373345868899
 20
167.7064379304399
 10
-52.21622106790212
 20
167.6770370732762
 10
-52.18762232069431
 20
167.6488376917796
 10
-52.15714873438048
 20
167.6211493882719
 10
-52.12559170632068
 20
167.5947626213992
 10
-52.09303625623873
 20
167.5697343166036
 10
-52.0595674038585
 20
167.5461213993275
 10
-52.02483944358427
 20
167.523708486439
 10
-51.98924466662849
 20
167.50276572703
 10
-51.95287476874422
 20
167.4833354467041
 10
-51.91582144568452
 20
167.4654599710649
 10
-51.8770922617554
 20
167.4487338770231
 10
-51.83771293840636
 20
167.4336629293273
 10
-51.79778446469462
 20
167.4202763570405
 10
-51.7574078296774
 20
167.4086033892256
 10
-51.70674409474763
 20
167.3965237314294
 10
-51.65547829926058
 20
167.3870949453293
 10
-51.60380358827069
 20
167.3803362737121
 10
-51.55191310683237
 20
167.3762669593646
 10
-51.50000000000006
 20
167.374906245074
210
0.0
220
0.0
230
-1.0
  0
LWPOLYLINE
  5
C9
330
1F
100
AcDbEntity
  8
0
  6
CONTINUOUS
 62
   253
100
AcDbPolyline
 90
        9
 70
     0
 43
0.0
 10
67.1958175247286
 20
226.3749062450739
 10
67.13817958623086
 20
226.3691418291949
 10
67.08275664138586
 20
226.3520701048273
 10
67.03167856288245
 20
226.3243471287647
 10
66.98690825263259
 20
226.2870382794299
 10
66.95016620855172
 20
226.2415773149798
 10
66.92286440678868
 20
226.1897112747835
 10
66.90605204027419
 20
226.1334333416788
 10
66.90037519882495
 20
226.0749062450739
  0
LWPOLYLINE
  5
CA
330
1F
100
AcDbEntity
  8
0
  6
CONTINUOUS
 62
     7
100
AcDbPolyline
 90
       27
 70
     0
 43
0.0
 10
67.81272906044904
 20
195.374906245074
 10
67.84439031650801
 20
195.3754077891364
 10
67.87649730284657
 20
195.3769415105961
 10
67.90919761287044
 20
195.3795704767169
 10
67.9422448001202
 20
195.3833288788652
 10
67.97624759175521
 20
195.3883663375238
 10
68.01047987285503
 20
195.3946539223566
 10
68.04512319922149
 20
195.4022849845022
 10
68.07984484694141
 20
195.4112418031614
 10
68.1134434768691
 20
195.4211924462373
 10
68.14695965907897
 20
195.4324149151725
 10
68.1805677674531
 20
195.4450171238337
 10
68.21393007404475
 20
195.4589162087254
 10
68.24775360701717
 20
195.4744882130617
 10
68.28114857874006
 20
195.4914000736841
 10
68.31429544789962
 20
195.5097876716565
 10
68.34684017029349
 20
195.5294919547164
 10
68.37616426624598
 20
195.5487463992007
 10
68.40485607170265
 20
195.5690615934544
 10
68.43304076855652
 20
195.5905512564071
 10
68.46047936455136
 20
195.6130535404549
 10
68.48763323624526
 20
195.6370012812991
 10
68.51391609229454
 20
195.6619288636854
 10
68.53943929587588
 20
195.6879625291587
 10
68.56399768965089
 20
195.7149096944942
 10
68.58089788996976
 20
195.7346589105596
 10
68.59728850898796
 20
195.7548526411748
  0
LWPOLYLINE
  5
CB
330
1F
100
AcDbEntity
  8
0
  6
CONTINUOUS
 62
     7
100
AcDbPolyline
 90
       39
 70
     0
 43
0.0
 10
-91.50000000000009
 20
164.374906245074
 10
-91.49921776448429
 20
164.3353703433402
 10
-91.49687421480326
 20
164.2959011828277
 10
-91.49293951442822
 20
164.2562878077947
 10
-91.48743545154439
 20
164.2168833700413
 10
-91.48019819565445
 20
164.1768894420706
 10
-91.47135176812365
 20
164.1372599899736
 10
-91.46083215749468
 20
164.0977768125328
 10
-91.44872638904181
 20
164.0588077814019
 10
-91.43558048653634
 20
164.0217937235677
 10
-91.42101618348889
 20
163.9853819329293
 10
-91.40478162389176
 20
163.9490377871135
 10
-91.38713314470357
 20
163.9134047664253
 10
-91.36812503671976
 20
163.8785670159711
 10
-91.34781159073582
 20
163.8446086808572
 10
-91.32582459702463
 20
163.8109797905802
 10
-91.30255876562599
 20
163.7783331751847
 10
-91.278272251993
 20
163.7469797575402
 10
-91.25282182613115
 20
163.7166818926677
 10
-91.22608079836068
 20
163.6872972960501
 10
-91.19825950599991
 20
163.6590615256823
 10
-91.16883387073382
 20
163.6314947613572
 10
-91.13839202481974
 20
163.6051948558853
 10
-91.1067844514808
 20
163.5800402005163
 10
-91.0742587817329
 20
163.556232407943
 10
-91.04009914710406
 20
163.5333052188868
 10
-91.00509779248776
 20
163.5118441267858
 10
-90.96908223404701
 20
163.4917520984337
 10
-90.93233621742493
 20
163.4731937658973
 10
-90.89417824547041
 20
163.4558725807112
 10
-90.85538905401796
 20
163.4401877739372
 10
-90.81577595089304
 20
163.4260727937574
 10
-90.77565446466538
 20
163.4136494551837
 10
-90.73096175244135
 20
163.40194526587
 10
-90.68579777974371
 20
163.3923200763415
 10
-90.64029305822052
 20
163.384796221988
 10
-90.59369880646231
 20
163.3793075700318
 10
-90.54688843799742
 20
163.3760080212291
 10
-90.50000000000006
 20
163.3749062450739
210
0.0
220
0.0
230
-1.0
  0
LWPOLYLINE
  5
CC
330
1F
100
AcDbEntity
  8
0
  6
CONTINUOUS
 62
     7
100
AcDbPolyline
 90
        5
 70
     0
 43
0.0
 10
145.4951590807308
 20
195.3749062450739
 10
145.3645485014289
 20
195.3500469311086
 10
145.236283504768
 20
195.273644675646
 10
145.1536361555465
 20
195.1934652561408
 10
145.0767006654963
 20
195.0935627071002
  0
LWPOLYLINE
  5
CD
330
1F
100
AcDbEntity
  8
0
  6
CONTINUOUS
 62
     7
100
AcDbPolyline
 90
        4
 70
     0
 43
0.0
 10
-86.87942099424053
 20
236.3051173775048
 10
-75.6936525698666
 20
236.286503757894
 10
-64.30634743013333
 20
236.286503757894
 10
-53.12057900575939
 20
236.3051173775048
210
0.0
220
0.0
230
-1.0
  0
LWPOLYLINE
  5
CE
330
1F
100
AcDbEntity
  8
0
  6
CONTINUOUS
 62
     7
100
AcDbPolyline
 90
       38
 70
     0
 43
0.0
 10
71.10290042868438
 20
225.3778151230583
 10
71.10191315751119
 20
225.4193507279128
 10
71.09919908762481
 20
225.460845063181
 10
71.09476749858158
 20
225.5021909633662
 10
71.0886276699378
 20
225.5432812629716
 10
71.08052626403162
 20
225.5852594706429
 10
71.07062899800134
 20
225.6268908312516
 10
71.05896543590148
 20
225.6680619594576
 10
71.04556514178648
 20
225.7086594699207
 10
71.03088572527749
 20
225.7475246023272
 10
71.0145906855062
 20
225.7857793048228
 10
70.99672421529903
 20
225.823325580306
 10
70.97733050748235
 20
225.8600654316753
 10
70.95579226417236
 20
225.896993615142
 10
70.9326742776974
 20
225.9330003413486
 10
70.90804191688228
 20
225.9679884357876
 10
70.88196055055178
 20
226.0018607239515
 10
70.85524157231599
 20
226.0336797015437
 10
70.82719960130603
 20
226.0643878737942
 10
70.79790876374577
 20
226.0939073524814
 10
70.76744318585901
 20
226.1221602493835
 10
70.73489067339658
 20
226.1498811861551
 10
70.701151863335
 20
226.1762095023425
 10
70.6663206395177
 20
226.2010750623395
 10
70.63049088578813
 20
226.2244077305399
 10
70.59474443954612
 20
226.2455881166955
 10
70.55811703978927
 20
226.2652824331787
 10
70.5207044538012
 20
226.2834416724498
 10
70.48260244886556
 20
226.3000168269695
 10
70.44270650679043
 20
226.3153992941499
 10
70.40215198348855
 20
226.3290748086994
 10
70.36105076745758
 20
226.3410082365044
 10
70.3195147471953
 20
226.3511644434516
 10
70.27673084186672
 20
226.3596752241562
 10
70.23355402409858
 20
226.3663183951255
 10
70.1901081502231
 20
226.3710803559048
 10
70.14651707657247
 20
226.3739475060392
 10
70.1029046594789
 20
226.3749062450739
  0
LWPOLYLINE
  5
CF
330
1F
100
AcDbEntity
  8
0
  6
CONTINUOUS
 62
     7
100
AcDbPolyline
 90
        4
 70
     0
 43
0.0
 10
148.357018272283
 20
163.3749062450739
 10
148.4521380961924
 20
163.4099033464257
 10
148.5280955444797
 20
163.4916808196043
 10
148.5845084758494
 20
163.5910925215799
  0
LWPOLYLINE
  5
D0
330
1F
100
AcDbEntity
  8
0
  6
CONTINUOUS
 62
     7
100
AcDbPolyline
 90
        4
 70
     0
 43
0.0
 10
144.8197710115018
 20
167.5697343166036
 10
144.8731124155356
 20
167.4654599710649
 10
144.95209668679
 20
167.3870949453293
 10
144.9996608610433
 20
167.374906245074
  0
MTEXT
  5
D1
330
1F
100
AcDbEntity
  8
0
 62
     7
100
AcDbMText
 10
100.0515454545454
 20
161.015909090909
 30
0.0
 40
3.0
 41
0.0
 71
     1
 72
     1
  1
{\fＭＳ ゴシック;GUBK-A}
  0
ENDSEC
  0
SECTION
  2
OBJECTS
  0
DICTIONARY
  5
C
330
0
100
AcDbDictionary
  3
ACAD_GROUP
350
D
  3
ACAD_LAYOUT
350
1A
  3
ACAD_MATERIAL
350
43
  3
ACAD_MLEADERSTYLE
350
6B
  3
ACAD_MLINESTYLE
350
17
  3
ACAD_PLOTSETTINGS
350
19
  3
ACAD_SCALELIST
350
47
  3
ACAD_VISUALSTYLE
350
2A
  3
ACDBHEADERROUNDTRIPXREC
350
D2
  3
ACDBVARIABLEDICTIONARY
350
F3
  0
DICTIONARY
  5
FA
330
8
100
AcDbDictionary
280
     1
  3
ACAD_XREC_ROUNDTRIP
360
FB
  0
DICTIONARY
  5
D
102
{ACAD_REACTORS
330
C
102
}
330
C
100
AcDbDictionary
  0
DICTIONARY
  5
1A
102
{ACAD_REACTORS
330
C
102
}
330
C
100
AcDbDictionary
  0
DICTIONARY
  5
43
102
{ACAD_REACTORS
330
C
102
}
330
C
100
AcDbDictionary
  3
BYBLOCK
350
45
  3
BYLAYER
350
44
  3
GLOBAL
350
46
  0
DICTIONARY
  5
6B
102
{ACAD_REACTORS
330
C
102
}
330
C
100
AcDbDictionary
  3
STANDARD
350
6C
  0
DICTIONARY
  5
17
102
{ACAD_REACTORS
330
C
102
}
330
C
100
AcDbDictionary
  3
STANDARD
350
18
  0
DICTIONARY
  5
19
102
{ACAD_REACTORS
330
C
102
}
330
C
100
AcDbDictionary
  0
DICTIONARY
  5
47
102
{ACAD_REACTORS
330
C
102
}
330
C
100
AcDbDictionary
  3
A0
350
48
  3
A1
350
49
  3
A2
350
4A
  3
A3
350
4B
  3
A4
350
4C
  3
A5
350
4D
  3
A6
350
4E
  3
A7
350
4F
  3
A8
350
50
  3
A9
350
51
  3
B0
350
52
  3
B1
350
53
  3
B2
350
54
  3
B3
350
55
  3
B4
350
56
  3
B5
350
57
  3
B6
350
58
  3
B7
350
59
  3
B8
350
5A
  3
B9
350
5B
  3
C0
350
5C
  3
C1
350
5D
  3
C2
350
5E
  3
C3
350
5F
  3
C4
350
60
  3
C5
350
61
  3
C6
350
62
  3
C7
350
63
  3
C8
350
64
  3
C9
350
65
  3
D0
350
66
  3
D1
350
67
  3
D2
350
68
  0
DICTIONARY
  5
2A
102
{ACAD_REACTORS
330
C
102
}
330
C
100
AcDbDictionary
  3
2DWIREFRAME
350
2F
  3
BASIC
350
32
  3
BRIGHTEN
350
36
  3
COLORCHANGE
350
3A
  3
CONCEPTUAL
350
34
  3
DIM
350
35
  3
EDGECOLOROFF
350
3D
  3
FACEPATTERN
350
39
  3
FLAT
350
2B
  3
FLATWITHEDGES
350
2C
  3
GOURAUD
350
2D
  3
GOURAUDWITHEDGES
350
2E
  3
HIDDEN
350
31
  3
JITTEROFF
350
3B
  3
LINEPATTERN
350
38
  3
OVERHANGOFF
350
3C
  3
REALISTIC
350
33
  3
SHADED
350
42
  3
SHADED_WITH_EDGES
350
41
  3
SHADES_OF_GRAY
350
3E
  3
SKETCHY
350
3F
  3
THICKEN
350
37
  3
WIREFRAME
350
30
  3
X-RAY
350
40
  0
DICTIONARY
  5
D2
102
{ACAD_REACTORS
330
C
102
}
330
C
100
AcDbDictionary
  3
CEPSNID
350
DC
  3
CEPSNTYPE
350
DB
  3
DIMSTYLEDATA
350
F2
  3
FINGERPRINTGUID
350
DD
  3
HYPERLINKBASE
350
D5
  3
INSUNITS
350
DA
  3
LAYOUTDICT
350
D7
  3
LWETCUNION
350
D9
  3
PLOTSETDICT
350
D8
  3
PSVPSCALE
350
DF
  3
PUCSBASE
350
E2
  3
PUCSORGBACK
350
E8
  3
PUCSORGBOTTOM
350
E4
  3
PUCSORGFRONT
350
E7
  3
PUCSORGLEFT
350
E5
  3
PUCSORGRIGHT
350
E6
  3
PUCSORGTOP
350
E3
  3
PUCSORTHOREF
350
E0
  3
PUCSORTHOVIEW
350
E1
  3
STYLESHEET
350
D6
  3
TSTACKALIGN
350
D3
  3
TSTACKSIZE
350
D4
  3
UCSBASE
350
EB
  3
UCSORGBACK
350
F1
  3
UCSORGBOTTOM
350
ED
  3
UCSORGFRONT
350
F0
  3
UCSORGLEFT
350
EE
  3
UCSORGRIGHT
350
EF
  3
UCSORGTOP
350
EC
  3
UCSORTHOREF
350
E9
  3
UCSORTHOVIEW
350
EA
  3
VERSIONGUID
350
DE
  0
DICTIONARY
  5
F3
102
{ACAD_REACTORS
330
C
102
}
330
C
100
AcDbDictionary
  3
CANNOSCALE
350
FC
  3
CMLEADERSTYLE
350
F5
  3
CTABLESTYLE
350
F4
  3
DIMASSOC
350
F8
  3
HIDETEXT
350
F9
  3
MSLTSCALE
350
FD
  0
XRECORD
  5
FB
102
{ACAD_REACTORS
330
FA
102
}
330
FA
100
AcDbXrecord
102
VTR_0.000_0.000_1.000_1.000_VISUALSTYLE
340
2F
102
VTR_0.000_0.000_1.000_1.000_GRIDDISPLAY
 70
     3
102
VTR_0.000_0.000_1.000_1.000_GRIDMAJOR
 70
     5
102
VTR_0.000_0.000_1.000_1.000_DEFAULTLIGHTING
280
     1
102
VTR_0.000_0.000_1.000_1.000_DEFAULTLIGHTINGTYPE
 70
     1
102
VTR_0.000_0.000_1.000_1.000_BRIGHTNESS
141
0.0
102
VTR_0.000_0.000_1.000_1.000_CONTRAST
142
0.0
  0
MATERIAL
  5
45
102
{ACAD_REACTORS
330
43
102
}
102
{ACAD_XDICTIONARY
360
100
102
}
330
43
100
AcDbMaterial
  1
BYBLOCK
  0
MATERIAL
  5
44
102
{ACAD_REACTORS
330
43
102
}
102
{ACAD_XDICTIONARY
360
FE
102
}
330
43
100
AcDbMaterial
  1
BYLAYER
  0
MATERIAL
  5
46
102
{ACAD_REACTORS
330
43
102
}
102
{ACAD_XDICTIONARY
360
102
102
}
330
43
100
AcDbMaterial
  1
GLOBAL
  0
ACAD_PROXY_OBJECT
  5
6C
102
{ACAD_REACTORS
330
6B
102
}
330
6B
100
AcDbProxyObject
 90
      499
 91
      505
 93
      610
310
40901902A4063FBFFFFFE056BD1B81E855B9FC0AD7A3703D0AD73F4214DD185B99185C9900AD7A3703D0AC73F90141901A02B5E8DC0F42B1CFC02B5E8DC0F42B1CFE5764000000000000300FC0
340
14
340
0
340
11
340
0
 94
        0
1001
ACAD_MLEADERVER
1070
     2
  0
MLINESTYLE
  5
18
102
{ACAD_REACTORS
330
17
102
}
330
17
100
AcDbMlineStyle
  2
Standard
 70
     0
  3

 62
   256
 51
90.0
 52
90.0
 71
     2
 49
0.5
 62
   256
  6
BYLAYER
 49
-0.5
 62
   256
  6
BYLAYER
  0
ACAD_PROXY_OBJECT
  5
48
102
{ACAD_REACTORS
330
47
102
}
330
47
100
AcDbProxyObject
 90
      499
 91
      503
 93
       41
310
903313A31580
  0
ACAD_PROXY_OBJECT
  5
49
102
{ACAD_REACTORS
330
47
102
}
330
47
100
AcDbProxyObject
 90
      499
 91
      503
 93
      105
310
903313A324000000000000004000
  0
ACAD_PROXY_OBJECT
  5
4A
102
{ACAD_REACTORS
330
47
102
}
330
47
100
AcDbProxyObject
 90
      499
 91
      503
 93
      105
310
903313A344000000000000104000
  0
ACAD_PROXY_OBJECT
  5
4B
102
{ACAD_REACTORS
330
47
102
}
330
47
100
AcDbProxyObject
 90
      499
 91
      503
 93
      105
310
903313A354000000000000144000
  0
ACAD_PROXY_OBJECT
  5
4C
102
{ACAD_REACTORS
330
47
102
}
330
47
100
AcDbProxyObject
 90
      499
 91
      503
 93
      105
310
903313A384000000000000204000
  0
ACAD_PROXY_OBJECT
  5
4D
102
{ACAD_REACTORS
330
47
102
}
330
47
100
AcDbProxyObject
 90
      499
 91
      503
 93
      113
310
904313A31304000000000000244000
  0
ACAD_PROXY_OBJECT
  5
4E
102
{ACAD_REACTORS
330
47
102
}
330
47
100
AcDbProxyObject
 90
      499
 91
      503
 93
      113
310
904313A31364000000000000304000
  0
ACAD_PROXY_OBJECT
  5
4F
102
{ACAD_REACTORS
330
47
102
}
330
47
100
AcDbProxyObject
 90
      499
 91
      503
 93
      113
310
904313A32304000000000000344000
  0
ACAD_PROXY_OBJECT
  5
50
102
{ACAD_REACTORS
330
47
102
}
330
47
100
AcDbProxyObject
 90
      499
 91
      503
 93
      113
310
904313A333040000000000003E4000
  0
ACAD_PROXY_OBJECT
  5
51
102
{ACAD_REACTORS
330
47
102
}
330
47
100
AcDbProxyObject
 90
      499
 91
      503
 93
      113
310
904313A34304000000000000444000
  0
ACAD_PROXY_OBJECT
  5
52
102
{ACAD_REACTORS
330
47
102
}
330
47
100
AcDbProxyObject
 90
      499
 91
      503
 93
      113
310
904313A35304000000000000494000
  0
ACAD_PROXY_OBJECT
  5
53
102
{ACAD_REACTORS
330
47
102
}
330
47
100
AcDbProxyObject
 90
      499
 91
      503
 93
      121
310
905313A3130304000000000000594000
  0
ACAD_PROXY_OBJECT
  5
54
102
{ACAD_REACTORS
330
47
102
}
330
47
100
AcDbProxyObject
 90
      499
 91
      503
 93
      105
310
903323A310000000000000010100
  0
ACAD_PROXY_OBJECT
  5
55
102
{ACAD_REACTORS
330
47
102
}
330
47
100
AcDbProxyObject
 90
      499
 91
      503
 93
      105
310
903343A310000000000000410100
  0
ACAD_PROXY_OBJECT
  5
56
102
{ACAD_REACTORS
330
47
102
}
330
47
100
AcDbProxyObject
 90
      499
 91
      503
 93
      105
310
903383A310000000000000810100
  0
ACAD_PROXY_OBJECT
  5
57
102
{ACAD_REACTORS
330
47
102
}
330
47
100
AcDbProxyObject
 90
      499
 91
      503
 93
      113
310
90431303A310000000000000910100
  0
ACAD_PROXY_OBJECT
  5
58
102
{ACAD_REACTORS
330
47
102
}
330
47
100
AcDbProxyObject
 90
      499
 91
      503
 93
      121
310
9053130303A310000000000001650100
  0
ACAD_PROXY_OBJECT
  5
59
102
{ACAD_REACTORS
330
47
102
}
330
47
100
AcDbProxyObject
 90
      499
 91
      503
 93
      257
310
90E312F31323822203D2031272D3022000000000000200FC000000000000284000
  0
ACAD_PROXY_OBJECT
  5
5A
102
{ACAD_REACTORS
330
47
102
}
330
47
100
AcDbProxyObject
 90
      499
 91
      503
 93
      249
310
90D312F363422203D2031272D3022000000000000240FC000000000000284000
  0
ACAD_PROXY_OBJECT
  5
5B
102
{ACAD_REACTORS
330
47
102
}
330
47
100
AcDbProxyObject
 90
      499
 91
      503
 93
      249
310
90D312F333222203D2031272D3022000000000000280FC000000000000284000
  0
ACAD_PROXY_OBJECT
  5
5C
102
{ACAD_REACTORS
330
47
102
}
330
47
100
AcDbProxyObject
 90
      499
 91
      503
 93
      249
310
90D312F313622203D2031272D30220000000000002C0FC000000000000284000
  0
ACAD_PROXY_OBJECT
  5
5D
102
{ACAD_REACTORS
330
47
102
}
330
47
100
AcDbProxyObject
 90
      499
 91
      503
 93
      249
310
90D332F333222203D2031272D30220000000000002E0FC000000000000284000
  0
ACAD_PROXY_OBJECT
  5
5E
102
{ACAD_REACTORS
330
47
102
}
330
47
100
AcDbProxyObject
 90
      499
 91
      503
 93
      241
310
90C312F3822203D2031272D3022000000000000300FC000000000000284000
  0
ACAD_PROXY_OBJECT
  5
5F
102
{ACAD_REACTORS
330
47
102
}
330
47
100
AcDbProxyObject
 90
      499
 91
      503
 93
      249
310
90D332F313622203D2031272D3022000000000000320FC000000000000284000
  0
ACAD_PROXY_OBJECT
  5
60
102
{ACAD_REACTORS
330
47
102
}
330
47
100
AcDbProxyObject
 90
      499
 91
      503
 93
      241
310
90C312F3422203D2031272D3022000000000000340FC000000000000284000
  0
ACAD_PROXY_OBJECT
  5
61
102
{ACAD_REACTORS
330
47
102
}
330
47
100
AcDbProxyObject
 90
      499
 91
      503
 93
      241
310
90C332F3822203D2031272D3022000000000000360FC000000000000284000
  0
ACAD_PROXY_OBJECT
  5
62
102
{ACAD_REACTORS
330
47
102
}
330
47
100
AcDbProxyObject
 90
      499
 91
      503
 93
      241
310
90C312F3222203D2031272D3022000000000000380FC000000000000284000
  0
ACAD_PROXY_OBJECT
  5
63
102
{ACAD_REACTORS
330
47
102
}
330
47
100
AcDbProxyObject
 90
      499
 91
      503
 93
      241
310
90C332F3422203D2031272D30220000000000003A0FC000000000000284000
  0
ACAD_PROXY_OBJECT
  5
64
102
{ACAD_REACTORS
330
47
102
}
330
47
100
AcDbProxyObject
 90
      499
 91
      503
 93
      161
310
90A3122203D2031272D30224000000000000284000
  0
ACAD_PROXY_OBJECT
  5
65
102
{ACAD_REACTORS
330
47
102
}
330
47
100
AcDbProxyObject
 90
      499
 91
      503
 93
      257
310
90E312D312F3222203D2031272D30220000000000003E0FC000000000000284000
  0
ACAD_PROXY_OBJECT
  5
66
102
{ACAD_REACTORS
330
47
102
}
330
47
100
AcDbProxyObject
 90
      499
 91
      503
 93
      225
310
90A3322203D2031272D302200000000000002100000000000000284000
  0
ACAD_PROXY_OBJECT
  5
67
102
{ACAD_REACTORS
330
47
102
}
330
47
100
AcDbProxyObject
 90
      499
 91
      503
 93
      225
310
90A3622203D2031272D302200000000000006100000000000000284000
  0
ACAD_PROXY_OBJECT
  5
68
102
{ACAD_REACTORS
330
47
102
}
330
47
100
AcDbProxyObject
 90
      499
 91
      503
 93
      249
310
90D31272D3022203D2031272D30220000000000000A100000000000000284000
  0
ACAD_PROXY_OBJECT
  5
2F
102
{ACAD_REACTORS
330
2A
102
}
330
2A
100
AcDbProxyObject
 90
      499
 91
      501
 93
      436
310
42CC9915DA5C99599C985B595049028333333333333E33F0000000000000F90107901411070040501600405405064090741402480A0340
1001
ACAD
1000
AcDbSavedByObjectVersion
1070
     0
  0
ACAD_PROXY_OBJECT
  5
32
102
{ACAD_REACTORS
330
2A
102
}
330
2A
100
AcDbProxyObject
 90
      499
 91
      501
 93
      388
310
4150985CDA58D07406404333333333333E33F0000000000000F90107A41107004050150841D405064090741402480A0350
1001
ACAD
1000
AcDbSavedByObjectVersion
1070
     0
  0
ACAD_PROXY_OBJECT
  5
36
102
{ACAD_REACTORS
330
2A
102
}
330
2A
100
AcDbProxyObject
 90
      499
 91
      501
 93
      428
310
42109C9A59DA1D195B90C409028333333333333E33F0000000000000F9010790141107004050150841D405064090741402480A029950
1001
ACAD
1000
AcDbSavedByObjectVersion
1070
     0
  0
ACAD_PROXY_OBJECT
  5
3A
102
{ACAD_REACTORS
330
2A
102
}
330
2A
100
AcDbProxyObject
 90
      499
 91
      501
 93
      452
310
42D0DBDB1BDC90DA185B99D95104090240C333333333333E33F0000000000000F90108901411070040501508421405064090741402480A0350
1001
ACAD
1000
AcDbSavedByObjectVersion
1070
     0
  0
ACAD_PROXY_OBJECT
  5
34
102
{ACAD_REACTORS
330
2A
102
}
330
2A
100
AcDbProxyObject
 90
      499
 91
      501
 93
      500
310
4290DBDB98D95C1D1D585B10940D028333333333333E33F0000000000000F90107902409070040501000000000018199010841D405064090740C02480A0340
1001
ACAD
1000
AcDbSavedByObjectVersion
1070
     0
  0
ACAD_PROXY_OBJECT
  5
35
102
{ACAD_REACTORS
330
2A
102
}
330
2A
100
AcDbProxyObject
 90
      499
 91
      501
 93
      412
310
40D11A5B50B409028333333333333E33F0000000000000F9010790141107004050150841D405064090741402480A02677FFFFFD0
1001
ACAD
1000
AcDbSavedByObjectVersion
1070
     0
  0
ACAD_PROXY_OBJECT
  5
3D
102
{ACAD_REACTORS
330
2A
102
}
330
2A
100
AcDbProxyObject
 90
      499
 91
      501
 93
      452
310
43115919D950DBDB1BDC93D999916409028333333333333E33F0000000000000F9010790141107004050150841D405064090741402480A0350
1001
ACAD
1000
AcDbSavedByObjectVersion
1070
     0
  0
ACAD_PROXY_OBJECT
  5
39
102
{ACAD_REACTORS
330
2A
102
}
330
2A
100
AcDbProxyObject
 90
      499
 91
      501
 93
      444
310
42D19858D95C185D1D195C9B90F409028333333333333E33F0000000000000F9010790141107004050150841D405064090741402480A0350
1001
ACAD
1000
AcDbSavedByObjectVersion
1070
     0
  0
ACAD_PROXY_OBJECT
  5
2B
102
{ACAD_REACTORS
330
2A
102
}
330
2A
100
AcDbProxyObject
 90
      499
 91
      501
 93
      380
310
41119B185D240901404333333333333E33F0000000000000F9010740A907004050150841D405064090741402480A1B50
1001
ACAD
1000
AcDbSavedByObjectVersion
1070
     0
  0
ACAD_PROXY_OBJECT
  5
2C
102
{ACAD_REACTORS
330
2A
102
}
330
2A
100
AcDbProxyObject
 90
      499
 91
      501
 93
      468
310
43519B185D15DA5D1A115919D95CD0140901404333333333333E33F0000000000000F90107409019070040501600405405064090741402480A1B50
1001
ACAD
1000
AcDbSavedByObjectVersion
1070
     0
  0
ACAD_PROXY_OBJECT
  5
2D
102
{ACAD_REACTORS
330
2A
102
}
330
2A
100
AcDbProxyObject
 90
      499
 91
      501
 93
      404
310
41D1DBDD5C985D5910240902404333333333333E33F0000000000000F9010740A9070040501641D405064090741402480A1B50
1001
ACAD
1000
AcDbSavedByObjectVersion
1070
     0
  0
ACAD_PROXY_OBJECT
  5
2E
102
{ACAD_REACTORS
330
2A
102
}
330
2A
100
AcDbProxyObject
 90
      499
 91
      501
 93
      492
310
4411DBDD5C985D5915DA5D1A115919D95CD0340902404333333333333E33F0000000000000F90107409019070040501600405405064090741402480A1B50
1001
ACAD
1000
AcDbSavedByObjectVersion
1070
     0
  0
ACAD_PROXY_OBJECT
  5
31
102
{ACAD_REACTORS
330
2A
102
}
330
2A
100
AcDbProxyObject
 90
      499
 91
      501
 93
      476
310
41921A5919195B90640502408333333333333E33F0000000000000F901079024090700405020000000000001110200405405064090740C02480A0340
1001
ACAD
1000
AcDbSavedByObjectVersion
1070
     0
  0
ACAD_PROXY_OBJECT
  5
3B
102
{ACAD_REACTORS
330
2A
102
}
330
2A
100
AcDbProxyObject
 90
      499
 91
      501
 93
      428
310
42529A5D1D195C93D999914409028333333333333E33F0000000000000F9010790141107004050150A41D405064090741402480A0350
1001
ACAD
1000
AcDbSavedByObjectVersion
1070
     0
  0
ACAD_PROXY_OBJECT
  5
38
102
{ACAD_REACTORS
330
2A
102
}
330
2A
100
AcDbProxyObject
 90
      499
 91
      501
 93
      444
310
42D31A5B995C185D1D195C9B90E409028333333333333E33F0000000000000F9010790141107004050750841D405064090741402483A0350
1001
ACAD
1000
AcDbSavedByObjectVersion
1070
     0
  0
ACAD_PROXY_OBJECT
  5
3C
102
{ACAD_REACTORS
330
2A
102
}
330
2A
100
AcDbProxyObject
 90
      499
 91
      501
 93
      444
310
42D3DD995C9A185B99D3D999915409028333333333333E33F0000000000000F9010790141107004050150941D405064090741402480A0350
1001
ACAD
1000
AcDbSavedByObjectVersion
1070
     0
  0
ACAD_PROXY_OBJECT
  5
33
102
{ACAD_REACTORS
330
2A
102
}
330
2A
100
AcDbProxyObject
 90
      499
 91
      501
 93
      428
310
425499585B1A5CDD1A58D08409038333333333333E33F0000000000000F9010740A907004050150800405405064090740C02480A1B40
1001
ACAD
1000
AcDbSavedByObjectVersion
1070
     0
  0
ACAD_PROXY_OBJECT
  5
42
102
{ACAD_REACTORS
330
2A
102
}
330
2A
100
AcDbProxyObject
 90
      499
 91
      501
 93
      420
310
4194DA1859195911B40902404333333333333E33F0000000000000F9010740A41107004050150800405405064090840C02480A0B40
1001
ACAD
1000
AcDbSavedByObjectVersion
1070
     0
  0
ACAD_PROXY_OBJECT
  5
41
102
{ACAD_REACTORS
330
2A
102
}
330
2A
100
AcDbProxyObject
 90
      499
 91
      501
 93
      516
310
4454DA18591959081DDA5D1A08195919D95CD1A40902404333333333333E33F0000000000000F901074090142907004050250800405405064090740C02480A0B40
1001
ACAD
1000
AcDbSavedByObjectVersion
1070
     0
  0
ACAD_PROXY_OBJECT
  5
3E
102
{ACAD_REACTORS
330
2A
102
}
330
2A
100
AcDbProxyObject
 90
      499
 91
      501
 93
      532
310
4394DA1859195CC81BD98811DC985E5174090240C333333333333E33F0000000000000F901079024090741D01000000000000111010841D405064090740C02480A0340
1001
ACAD
1000
AcDbSavedByObjectVersion
1070
     0
  0
ACAD_PROXY_OBJECT
  5
3F
102
{ACAD_REACTORS
330
2A
102
}
330
2A
100
AcDbProxyObject
 90
      499
 91
      501
 93
      476
310
41D4DAD95D18DA1E51840502408333333333333E33F0000000000000F901079024090741D01000000000000111010B41D405064090741802480A0340
1001
ACAD
1000
AcDbSavedByObjectVersion
1070
     0
  0
ACAD_PROXY_OBJECT
  5
37
102
{ACAD_REACTORS
330
2A
102
}
330
2A
100
AcDbProxyObject
 90
      499
 91
      501
 93
      412
310
41D51A1A58DAD95B90D409028333333333333E33F0000000000000F9010790141107004050150C41D405064090741402480A0350
1001
ACAD
1000
AcDbSavedByObjectVersion
1070
     0
  0
ACAD_PROXY_OBJECT
  5
30
102
{ACAD_REACTORS
330
2A
102
}
330
2A
100
AcDbProxyObject
 90
      499
 91
      501
 93
      420
310
4255DA5C99599C985B595059028333333333333E33F0000000000000F90107901411070040501600405405064090740C02480A0340
1001
ACAD
1000
AcDbSavedByObjectVersion
1070
     0
  0
ACAD_PROXY_OBJECT
  5
40
102
{ACAD_REACTORS
330
2A
102
}
330
2A
100
AcDbProxyObject
 90
      499
 91
      501
 93
      404
310
41560B54985E51940902404000000000000E03F0000000000000F9010740501907004050150841D405064090740C02480A1B40
1001
ACAD
1000
AcDbSavedByObjectVersion
1070
     0
  0
XRECORD
  5
DC
102
{ACAD_REACTORS
330
D2
102
}
330
D2
100
AcDbXrecord
340
0
  0
XRECORD
  5
DB
102
{ACAD_REACTORS
330
D2
102
}
330
D2
100
AcDbXrecord
 90
        0
  0
XRECORD
  5
F2
102
{ACAD_REACTORS
330
D2
102
}
330
D2
100
AcDbXrecord
1000
DSTYLE
1002
{
1070
   179
 70
     2
1070
   171
 70
     2
1070
   143
 40
25.4
1070
   274
 70
     2
1070
    41
 40
3.0
1070
   141
 40
0.09
1070
    43
 40
0.38
1070
   278
 70
    46
1070
    44
 40
1.5
1070
    42
 40
0.0625
1070
   147
 40
1.5
1070
   272
 70
     4
1070
    73
 70
     1
1070
   172
 70
     0
1070
    74
 70
     1
1070
   283
 70
     1
1070
   340
340
6E
1070
   140
 40
3.0
1070
   284
 70
     0
1070
    78
 70
     0
1002
}
  0
XRECORD
  5
DD
102
{ACAD_REACTORS
330
D2
102
}
330
D2
100
AcDbXrecord
  1
{6C5F9A95-B56D-42B1-A055-703FAA62906E}
  0
XRECORD
  5
D5
102
{ACAD_REACTORS
330
D2
102
}
330
D2
100
AcDbXrecord
  1

  0
XRECORD
  5
DA
102
{ACAD_REACTORS
330
D2
102
}
330
D2
100
AcDbXrecord
 90
        4
  0
XRECORD
  5
D7
102
{ACAD_REACTORS
330
D2
102
}
330
D2
100
AcDbXrecord
340
1A
  0
XRECORD
  5
D9
102
{ACAD_REACTORS
330
D2
102
}
330
D2
100
AcDbXrecord
 90
    10269
  0
XRECORD
  5
D8
102
{ACAD_REACTORS
330
D2
102
}
330
D2
100
AcDbXrecord
340
19
  0
XRECORD
  5
DF
102
{ACAD_REACTORS
330
D2
102
}
330
D2
100
AcDbXrecord
 40
0.0
  0
XRECORD
  5
E2
102
{ACAD_REACTORS
330
D2
102
}
330
D2
100
AcDbXrecord
340
0
  0
XRECORD
  5
E8
102
{ACAD_REACTORS
330
D2
102
}
330
D2
100
AcDbXrecord
 10
0.0
 20
0.0
 30
0.0
  0
XRECORD
  5
E4
102
{ACAD_REACTORS
330
D2
102
}
330
D2
100
AcDbXrecord
 10
0.0
 20
0.0
 30
0.0
  0
XRECORD
  5
E7
102
{ACAD_REACTORS
330
D2
102
}
330
D2
100
AcDbXrecord
 10
0.0
 20
0.0
 30
0.0
  0
XRECORD
  5
E5
102
{ACAD_REACTORS
330
D2
102
}
330
D2
100
AcDbXrecord
 10
0.0
 20
0.0
 30
0.0
  0
XRECORD
  5
E6
102
{ACAD_REACTORS
330
D2
102
}
330
D2
100
AcDbXrecord
 10
0.0
 20
0.0
 30
0.0
  0
XRECORD
  5
E3
102
{ACAD_REACTORS
330
D2
102
}
330
D2
100
AcDbXrecord
 10
0.0
 20
0.0
 30
0.0
  0
XRECORD
  5
E0
102
{ACAD_REACTORS
330
D2
102
}
330
D2
100
AcDbXrecord
340
0
  0
XRECORD
  5
E1
102
{ACAD_REACTORS
330
D2
102
}
330
D2
100
AcDbXrecord
 70
     0
  0
XRECORD
  5
D6
102
{ACAD_REACTORS
330
D2
102
}
330
D2
100
AcDbXrecord
  1

  0
XRECORD
  5
D3
102
{ACAD_REACTORS
330
D2
102
}
330
D2
100
AcDbXrecord
 90
        1
  0
XRECORD
  5
D4
102
{ACAD_REACTORS
330
D2
102
}
330
D2
100
AcDbXrecord
 90
       70
  0
XRECORD
  5
EB
102
{ACAD_REACTORS
330
D2
102
}
330
D2
100
AcDbXrecord
340
0
  0
XRECORD
  5
F1
102
{ACAD_REACTORS
330
D2
102
}
330
D2
100
AcDbXrecord
 10
0.0
 20
0.0
 30
0.0
  0
XRECORD
  5
ED
102
{ACAD_REACTORS
330
D2
102
}
330
D2
100
AcDbXrecord
 10
0.0
 20
0.0
 30
0.0
  0
XRECORD
  5
F0
102
{ACAD_REACTORS
330
D2
102
}
330
D2
100
AcDbXrecord
 10
0.0
 20
0.0
 30
0.0
  0
XRECORD
  5
EE
102
{ACAD_REACTORS
330
D2
102
}
330
D2
100
AcDbXrecord
 10
0.0
 20
0.0
 30
0.0
  0
XRECORD
  5
EF
102
{ACAD_REACTORS
330
D2
102
}
330
D2
100
AcDbXrecord
 10
0.0
 20
0.0
 30
0.0
  0
XRECORD
  5
EC
102
{ACAD_REACTORS
330
D2
102
}
330
D2
100
AcDbXrecord
 10
0.0
 20
0.0
 30
0.0
  0
XRECORD
  5
E9
102
{ACAD_REACTORS
330
D2
102
}
330
D2
100
AcDbXrecord
340
0
  0
XRECORD
  5
EA
102
{ACAD_REACTORS
330
D2
102
}
330
D2
100
AcDbXrecord
 70
     0
  0
XRECORD
  5
DE
102
{ACAD_REACTORS
330
D2
102
}
330
D2
100
AcDbXrecord
  1
{FAEB1C32-E019-11D5-929B-00C0DF256EC4}
  0
DICTIONARYVAR
  5
FC
102
{ACAD_REACTORS
330
F3
102
}
330
F3
100
DictionaryVariables
280
     0
  1
1:1
  0
DICTIONARYVAR
  5
F5
102
{ACAD_REACTORS
330
F3
102
}
330
F3
100
DictionaryVariables
280
     0
  1
Standard
  0
DICTIONARYVAR
  5
F4
102
{ACAD_REACTORS
330
F3
102
}
330
F3
100
DictionaryVariables
280
     0
  1
Standard
  0
DICTIONARYVAR
  5
F8
102
{ACAD_REACTORS
330
F3
102
}
330
F3
100
DictionaryVariables
280
     0
  1
2
  0
DICTIONARYVAR
  5
F9
102
{ACAD_REACTORS
330
F3
102
}
330
F3
100
DictionaryVariables
280
     0
  1
1
  0
DICTIONARYVAR
  5
FD
102
{ACAD_REACTORS
330
F3
102
}
330
F3
100
DictionaryVariables
280
     0
  1
1
  0
DICTIONARY
  5
100
330
45
100
AcDbDictionary
280
     1
  3
ACAD_XREC_ROUNDTRIP
360
101
  0
DICTIONARY
  5
FE
330
44
100
AcDbDictionary
280
     1
  3
ACAD_XREC_ROUNDTRIP
360
FF
  0
DICTIONARY
  5
102
330
46
100
AcDbDictionary
280
     1
  3
ACAD_XREC_ROUNDTRIP
360
103
  0
XRECORD
  5
101
102
{ACAD_REACTORS
330
100
102
}
330
100
100
AcDbXrecord
102
MATERIAL
148
0.0
149
0.0
149
0.0
 93
        0
 94
      127
282
     0
 72
     1
 77
     1
171
     1
175
     1
179
     1
273
     0
  0
XRECORD
  5
FF
102
{ACAD_REACTORS
330
FE
102
}
330
FE
100
AcDbXrecord
102
MATERIAL
148
0.0
149
0.0
149
0.0
 93
        0
 94
      127
282
     0
 72
     1
 77
     1
171
     1
175
     1
179
     1
273
     0
  0
XRECORD
  5
103
102
{ACAD_REACTORS
330
102
102
}
330
102
100
AcDbXrecord
102
MATERIAL
148
0.0
149
0.0
149
0.0
 93
        0
 94
      127
282
     0
 72
     1
 77
     1
171
     1
175
     1
179
     1
273
     0
  0
ENDSEC
  0
EOF
