  0
SECTION
  2
HEADER
  9
$ACADVER
  1
AC1006
  9
$DWGCODEPAGE
  3
ansi_932
  9
$INSBASE
 10
0.0
 20
0.0
 30
0.0
  9
$EXTMIN
 10
247.9545212830525
 20
335.2954545454546
  9
$EXTMAX
 10
352.0849678858305
 20
520.1612738988648
  9
$LIMMIN
 10
0.0
 20
0.0
  9
$LIMMAX
 10
12.0
 20
9.0
  9
$ORTHOMODE
 70
     0
  9
$REGENMODE
 70
     1
  9
$FILLMODE
 70
     1
  9
$QTEXTMODE
 70
     0
  9
$MIRRTEXT
 70
     1
  9
$DRAGMODE
 70
     2
  9
$LTSCALE
 40
1.0
  9
$OSMODE
 70
    37
  9
$ATTMODE
 70
     1
  9
$TEXTSIZE
 40
0.2
  9
$TRACEWID
 40
0.05
  9
$TEXTSTYLE
  7
STANDARD
  9
$CLAYER
  8
0
  9
$CELTYPE
  6
BYLAYER
  9
$CECOLOR
 62
   256
  9
$DIMSCALE
 40
1.0
  9
$DIMASZ
 40
3.0
  9
$DIMEXO
 40
0.0625
  9
$DIMDLI
 40
0.38
  9
$DIMRND
 40
0.0
  9
$DIMDLE
 40
0.0
  9
$DIMEXE
 40
0.18
  9
$DIMTP
 40
0.0
  9
$DIMTM
 40
0.0
  9
$DIMTXT
 40
3.0
  9
$DIMCEN
 40
0.09
  9
$DIMTSZ
 40
0.0
  9
$DIMTOL
 70
     0
  9
$DIMLIM
 70
     0
  9
$DIMTIH
 70
     1
  9
$DIMTOH
 70
     1
  9
$DIMSE1
 70
     0
  9
$DIMSE2
 70
     0
  9
$DIMTAD
 70
     1
  9
$DIMZIN
 70
     0
  9
$DIMBLK
  1

  9
$DIMASO
 70
     1
  9
$DIMSHO
 70
     1
  9
$DIMPOST
  1

  9
$DIMAPOST
  1

  9
$DIMALT
 70
     0
  9
$DIMALTD
 70
     2
  9
$DIMALTF
 40
25.4
  9
$DIMLFAC
 40
1.0
  9
$DIMTOFL
 70
     0
  9
$DIMTVP
 40
0.0
  9
$DIMTIX
 70
     0
  9
$DIMSOXD
 70
     0
  9
$DIMSAH
 70
     0
  9
$DIMBLK1
  1

  9
$DIMBLK2
  1

  9
$LUNITS
 70
     2
  9
$LUPREC
 70
     4
  9
$SKETCHINC
 40
0.1
  9
$FILLETRAD
 40
0.5
  9
$AUNITS
 70
     0
  9
$AUPREC
 70
     0
  9
$MENU
  1
.
  9
$ELEVATION
 40
0.0
  9
$THICKNESS
 40
0.0
  9
$LIMCHECK
 70
     0
  9
$CHAMFERA
 40
0.5
  9
$CHAMFERB
 40
0.5
  9
$SKPOLY
 70
     0
  9
$TDCREATE
 40
2459991.70138235
  9
$TDUPDATE
 40
2459991.701382361
  9
$TDINDWG
 40
0.0000000116
  9
$TDUSRTIMER
 40
0.0000000116
  9
$USRTIMER
 70
     1
  9
$ANGBASE
 50
0.0
  9
$ANGDIR
 70
     0
  9
$PDMODE
 70
     0
  9
$PDSIZE
 40
0.0
  9
$PLINEWID
 40
0.0
  9
$COORDS
 70
     1
  9
$SPLFRAME
 70
     0
  9
$SPLINETYPE
 70
     6
  9
$SPLINESEGS
 70
     8
  9
$ATTDIA
 70
     0
  9
$ATTREQ
 70
     1
  9
$HANDLING
 70
     1
  9
$HANDSEED
  5
258
  9
$SURFTAB1
 70
     6
  9
$SURFTAB2
 70
     6
  9
$SURFTYPE
 70
     6
  9
$SURFU
 70
     6
  9
$SURFV
 70
     6
  9
$UCSNAME
  2

  9
$UCSORG
 10
0.0
 20
0.0
 30
0.0
  9
$UCSXDIR
 10
1.0
 20
0.0
 30
0.0
  9
$UCSYDIR
 10
0.0
 20
1.0
 30
0.0
  9
$USERI1
 70
     0
  9
$USERI2
 70
     0
  9
$USERI3
 70
     0
  9
$USERI4
 70
     0
  9
$USERI5
 70
     0
  9
$USERR1
 40
0.0
  9
$USERR2
 40
0.0
  9
$USERR3
 40
0.0
  9
$USERR4
 40
0.0
  9
$USERR5
 40
0.0
  9
$WORLDVIEW
 70
     1
  0
ENDSEC
  0
SECTION
  2
TABLES
  0
TABLE
  2
VPORT
 70
     1
  0
VPORT
  2
*ACTIVE
 70
     0
 10
0.0
 20
0.0
 11
1.0
 21
1.0
 12
300.0197445844415
 22
427.7283642221597
 13
0.0
 23
0.0
 14
0.5
 24
0.5
 15
0.5
 25
0.5
 16
0.0
 26
0.0
 36
1.0
 17
0.0
 27
0.0
 37
0.0
 40
184.8658193534102
 41
1.6
 42
50.0
 43
0.0
 44
0.0
 50
0.0
 51
0.0
 71
     0
 72
   100
 73
     1
 74
     3
 75
     0
 76
     0
 77
     0
 78
     0
  0
ENDTAB
  0
TABLE
  2
LTYPE
 70
     3
  0
LTYPE
  2
CONTINUOUS
 70
     0
  3
Solid line
 72
    65
 73
     0
 40
0.0
  0
LTYPE
  2
________________
 70
     0
  3

 72
    65
 73
     0
 40
0.0
  0
LTYPE
  2
________________0
 70
     0
  3

 72
    65
 73
     4
 40
7.2
 49
2.7
 49
-1.8
 49
0.8999999999999999
 49
-1.8
  0
ENDTAB
  0
TABLE
  2
LAYER
 70
     2
  0
LAYER
  2
0
 70
     0
 62
     7
  6
CONTINUOUS
  0
LAYER
  2
1
 70
     0
 62
     7
  6
CONTINUOUS
  0
ENDTAB
  0
TABLE
  2
STYLE
 70
     2
  0
STYLE
  2
STANDARD
 70
     0
 40
0.0
 41
1.0
 50
0.0
 71
     0
 42
0.2
  3
txt
  4

  0
STYLE
  2
EXPLODED0
 70
     0
 40
0.2
 41
1.0
 50
0.0
 71
     0
 42
0.2
  3
ＭＳ ゴシック
  4

  0
ENDTAB
  0
TABLE
  2
VIEW
 70
     0
  0
ENDTAB
  0
TABLE
  2
UCS
 70
     0
  0
ENDTAB
  0
ENDSEC
  0
SECTION
  2
BLOCKS
  0
BLOCK
  8
0
  2
_7165
 70
     0
 10
0.0
 20
0.0
 30
0.0
  0
ARC
  5
3D
  8
1
  6
________________
 62
     7
 10
-324.2334493339247
 20
334.5830685675831
 30
0.0
 40
18.5
 50
50.41029995962805
 51
90.0
210
0.0
220
0.0
230
-1.0
  0
ARC
  5
3F
  8
1
  6
________________
 62
     7
 10
-312.6348538588291
 20
348.6084948714461
 30
0.0
 40
0.3000000000000349
 50
285.0000000000002
 51
50.41029995962776
210
0.0
220
0.0
230
-1.0
  0
LINE
  5
40
  8
1
  6
________________
 62
     7
 10
316.8343539726591
 20
347.1726593532078
 30
0.0
 11
312.5572081452983
 21
348.3187171235593
 31
0.0
  0
ARC
  5
41
  8
1
  6
________________
 62
     7
 10
316.6272987365771
 20
346.3999186921766
 30
0.0
 40
0.8000000000000019
 50
286.3119288866351
 51
75.00000000000006
  0
ARC
  5
42
  8
1
  6
________________
 62
     7
 10
300.0
 20
403.2169314324168
 30
0.0
 40
59.99999999999999
 50
274.1453585877458
 51
286.3119288866351
  0
ARC
  5
43
  8
1
  6
________________
 62
     7
 10
304.2830078620847
 20
344.1219371972591
 30
0.0
 40
0.7499999999999777
 50
184.9999999999998
 51
274.1453585877459
  0
ARC
  5
44
  8
1
  6
________________
 62
     7
 10
304.2830078620847
 20
344.1219371972591
 30
0.0
 40
0.749999999999995
 50
94.14535858774585
 51
184.9999999999993
  0
ARC
  5
45
  8
1
  6
________________
 62
     7
 10
-300.0
 20
403.2169314324168
 30
0.0
 40
58.50000000000001
 50
257.4010839067009
 51
265.8546414122541
210
0.0
220
0.0
230
-1.0
  0
ARC
  5
46
  8
1
  6
________________
 62
     7
 10
-312.6948621504437
 20
346.4183357193075
 30
0.0
 40
0.3000000000000206
 50
104.9999999999996
 51
257.4010839067012
210
0.0
220
0.0
230
-1.0
  0
LINE
  5
47
  8
1
  6
________________
 62
     7
 10
310.0873635565014
 20
347.4275957159427
 30
0.0
 11
312.7725078639744
 21
346.7081134671943
 31
0.0
  0
ARC
  5
48
  8
1
  6
________________
 62
     7
 10
-309.8285445113989
 20
346.4616698896536
 30
0.0
 40
1.000000000000025
 50
80.17529044838147
 51
105.0
210
0.0
220
0.0
230
-1.0
  0
ARC
  5
49
  8
1
  6
________________
 62
     7
 10
300.0
 20
403.2169314324168
 30
0.0
 40
56.59999999999997
 50
273.5433128520236
 51
279.8247095516184
  0
ARC
  5
4A
  8
1
  6
________________
 62
     7
 10
303.485692803571
 20
346.9247477327314
 30
0.0
 40
0.2000000000000232
 50
185.0000000000001
 51
273.5433128520236
  0
LINE
  5
4B
  8
1
  6
________________
 62
     7
 10
303.2859869520192
 20
346.9126534120012
 30
0.0
 11
303.2864538639527
 21
346.9073165841818
 31
0.0
  0
LINE
  5
4C
  8
1
  6
________________
 62
     7
 10
303.2159541300913
 20
346.9714179270514
 30
0.0
 11
303.2859869520192
 21
346.9126534120012
 31
0.0
  0
ARC
  5
4D
  8
1
  6
________________
 62
     7
 10
303.2480935105756
 20
347.0097201492073
 30
0.0
 40
0.0500000000000177
 50
140.0000000000034
 51
230.0000000000031
  0
LINE
  5
4E
  8
1
  6
________________
 62
     7
 10
303.2685558034697
 20
347.1118923516196
 30
0.0
 11
303.2097912884196
 21
347.0418595296917
 31
0.0
  0
LINE
  5
4F
  8
1
  6
________________
 62
     7
 10
303.2424090806454
 20
347.4107507610472
 30
0.0
 11
303.2685558034697
 21
347.1118923516196
 31
0.0
  0
LINE
  5
50
  8
1
  6
________________
 62
     7
 10
303.1723762587175
 20
347.4695152760972
 30
0.0
 11
303.2424090806454
 21
347.4107507610472
 31
0.0
  0
ARC
  5
51
  8
1
  6
________________
 62
     7
 10
303.2045156392018
 20
347.5078174982532
 30
0.0
 40
0.0499999999999821
 50
140.0000000000014
 51
230.0000000000001
  0
LINE
  5
52
  8
1
  6
________________
 62
     7
 10
303.2249779320959
 20
347.6099897006656
 30
0.0
 11
303.1662134170458
 21
347.5399568787375
 31
0.0
  0
ARC
  5
53
  8
1
  6
________________
 62
     7
 10
303.9680204909004
 20
347.5080693601774
 30
0.0
 40
0.7499999999999922
 50
94.07417247773446
 51
172.1896935566288
  0
ARC
  5
54
  8
1
  6
________________
 62
     7
 10
-300.0
 20
403.2169314324168
 30
0.0
 40
55.10000000000004
 50
259.3549156011073
 51
265.9258275222655
210
0.0
220
0.0
230
-1.0
  0
ARC
  5
55
  8
1
  6
________________
 62
     7
 10
-309.9936082773429
 20
350.0479762649601
 30
0.0
 40
1.000000000000034
 50
229.9999999999999
 51
259.3549156011071
210
0.0
220
0.0
230
-1.0
  0
LINE
  5
56
  8
1
  6
________________
 62
     7
 10
311.3776971401939
 20
349.9039574299626
 30
0.0
 11
310.6363958870294
 21
349.2819318218411
 31
0.0
  0
ARC
  5
57
  8
1
  6
________________
 62
     7
 10
324.2334493339247
 20
334.5830685675831
 30
0.0
 40
20.00000000000002
 50
90.0
 51
130.0
  0
LINE
  5
58
  8
1
  6
________________
 62
     7
 10
331.9256949806891
 20
354.5830685675832
 30
0.0
 11
324.2334493339247
 21
354.5830685675832
 31
0.0
  0
ARC
  5
59
  8
1
  6
________________
 62
     7
 10
-331.9256949806891
 20
357.5830685675831
 30
0.0
 40
3.000000000000003
 50
224.1571870602805
 51
270.0
210
0.0
220
0.0
230
-1.0
  0
ARC
  5
5A
  8
1
  6
________________
 62
     7
 10
-300.0000000000001
 20
388.583068567583
 30
0.0
 40
47.5
 50
115.2998247269681
 51
224.1571870602806
210
0.0
220
0.0
230
-1.0
  0
ARC
  5
5B
  8
1
  6
________________
 62
     7
 10
-320.0856895925558
 20
431.0750098458007
 30
0.0
 40
0.5000000000000014
 50
66.88471437389657
 51
115.2998247269679
210
0.0
220
0.0
230
-1.0
  0
ARC
  5
5C
  8
1
  6
________________
 62
     7
 10
318.4368431061628
 20
434.9378203853315
 30
0.0
 40
3.700000000000053
 50
240.5509668666102
 51
293.1152856261036
  0
ARC
  5
5D
  8
1
  6
________________
 62
     7
 10
-300.0000000000001
 20
402.2830685675831
 30
0.0
 40
33.79999999999999
 50
60.55096686660953
 51
119.4490331333906
210
0.0
220
0.0
230
-1.0
  0
ARC
  5
5E
  8
1
  6
________________
 62
     7
 10
281.5631568938373
 20
434.9378203853315
 30
0.0
 40
3.699999999999998
 50
246.8847143738967
 51
299.4490331333903
  0
ARC
  5
5F
  8
1
  6
________________
 62
     7
 10
-279.9143104074443
 20
431.0750098458007
 30
0.0
 40
0.5000000000000115
 50
64.70017527303204
 51
113.1152856261034
210
0.0
220
0.0
230
-1.0
  0
ARC
  5
60
  8
1
  6
________________
 62
     7
 10
-300.0000000000001
 20
388.583068567583
 30
0.0
 40
47.49999999999999
 50
315.8428129397194
 51
64.70017527303196
210
0.0
220
0.0
230
-1.0
  0
ARC
  5
61
  8
1
  6
________________
 62
     7
 10
-268.0743050193109
 20
357.5830685675831
 30
0.0
 40
2.999999999999947
 50
270.0
 51
315.8428129397195
210
0.0
220
0.0
230
-1.0
  0
LINE
  5
62
  8
1
  6
________________
 62
     7
 10
275.7665506660753
 20
354.5830685675832
 30
0.0
 11
268.0743050193109
 21
354.5830685675832
 31
0.0
  0
ARC
  5
63
  8
1
  6
________________
 62
     7
 10
275.7665506660753
 20
334.5830685675831
 30
0.0
 40
19.99999999999995
 50
50.0
 51
90.0
  0
LINE
  5
64
  8
1
  6
________________
 62
     7
 10
288.9641814145298
 20
349.6170872607865
 30
0.0
 11
288.622302859806
 21
349.9039574299626
 31
0.0
  0
ARC
  5
65
  8
1
  6
________________
 62
     7
 10
288.0
 20
348.468020596108
 30
0.0
 40
1.50000000000001
 50
284.9999999999999
 51
49.99999999999993
  0
LINE
  5
66
  8
1
  6
________________
 62
     7
 10
287.2274921360255
 20
346.7081134671943
 30
0.0
 11
288.3882285676538
 21
347.0191318566745
 31
0.0
  0
ARC
  5
67
  8
1
  6
________________
 62
     7
 10
-287.3051378495563
 20
346.4183357193075
 30
0.0
 40
0.2999999999999519
 50
282.5989160932988
 51
74.99999999999966
210
0.0
220
0.0
230
-1.0
  0
ARC
  5
68
  8
1
  6
________________
 62
     7
 10
-300.0
 20
403.2169314324168
 30
0.0
 40
58.49999999999996
 50
275.7671067904632
 51
282.598916093299
210
0.0
220
0.0
230
-1.0
  0
ARC
  5
69
  8
1
  6
________________
 62
     7
 10
-294.2221053290872
 20
346.007964188008
 30
0.0
 40
1.00000000000001
 50
185.0000000000001
 51
275.7671067904632
210
0.0
220
0.0
230
-1.0
  0
LINE
  5
6A
  8
1
  6
________________
 62
     7
 10
295.23112956225
 20
346.0674507021423
 30
0.0
 11
295.218300027179
 21
345.9208084452604
 31
0.0
  0
ARC
  5
6B
  8
1
  6
________________
 62
     7
 10
-294.4839835386812
 20
346.1328175092029
 30
0.0
 40
0.7500000000000265
 50
95.51933366422458
 51
184.9999999999999
210
0.0
220
0.0
230
-1.0
  0
ARC
  5
6C
  8
1
  6
________________
 62
     7
 10
300.0
 20
403.2169314324168
 30
0.0
 40
56.60000000000001
 50
264.4725738187145
 51
264.4806663357754
  0
ARC
  5
6D
  8
1
  6
________________
 62
     7
 10
294.6204042949677
 20
347.6266224743763
 30
0.0
 40
0.7500000000000377
 50
175.0000000000018
 51
264.4725738187146
  0
ARC
  5
6E
  8
1
  6
________________
 62
     7
 10
294.6204042949677
 20
347.6266224743763
 30
0.0
 40
0.7500000000000013
 50
84.47257381871455
 51
175.0000000000001
  0
ARC
  5
6F
  8
1
  6
________________
 62
     7
 10
-300.0
 20
403.2169314324168
 30
0.0
 40
55.10000000000001
 50
273.990723026741
 51
275.5274261812855
210
0.0
220
0.0
230
-1.0
  0
ARC
  5
70
  8
1
  6
________________
 62
     7
 10
296.1131218461216
 20
347.502349156168
 30
0.0
 40
0.7499999999999825
 50
355.0000000000002
 51
86.00927697325909
  0
LINE
  5
71
  8
1
  6
________________
 62
     7
 10
296.6307896293897
 20
344.814034060124
 30
0.0
 11
296.8602678696904
 21
347.4369823491072
 31
0.0
  0
ARC
  5
72
  8
1
  6
________________
 62
     7
 10
-300.0
 20
403.2169314324168
 30
0.0
 40
58.49999999999996
 50
268.6912642727396
 51
273.3016822854707
210
0.0
220
0.0
230
-1.0
  0
ARC
  5
73
  8
1
  6
________________
 62
     7
 10
-301.3247061535502
 20
345.2320613919766
 30
0.0
 40
0.5000000000000051
 50
174.9999999999999
 51
268.6912642727397
210
0.0
220
0.0
230
-1.0
  0
LINE
  5
74
  8
1
  6
________________
 62
     7
 10
301.6638160577733
 20
347.0928740731568
 30
0.0
 11
301.822803502596
 21
345.2756392633504
 31
0.0
  0
ARC
  5
75
  8
1
  6
________________
 62
     7
 10
302.660010755865
 20
347.1800298159044
 30
0.0
 40
0.9999999999999891
 50
92.71772826163617
 51
185.0000000000002
  0
ARC
  5
76
  8
1
  6
________________
 62
     7
 10
-300.0
 20
403.2169314324168
 30
0.0
 40
55.10000000000002
 50
267.1038260113905
 51
267.2822717383638
210
0.0
220
0.0
230
-1.0
  0
ARC
  5
77
  8
1
  6
________________
 62
     7
 10
302.7991541937591
 20
347.887692003345
 30
0.0
 40
0.2999999999999771
 50
5.000000000000138
 51
92.89617398860946
  0
LINE
  5
78
  8
1
  6
________________
 62
     7
 10
303.1076760794024
 20
347.8033846875961
 30
0.0
 11
303.0980126031866
 21
347.9138387261692
 31
0.0
  0
LINE
  5
79
  8
1
  6
________________
 62
     7
 10
303.1777089013304
 20
347.744620172546
 30
0.0
 11
303.1076760794024
 21
347.8033846875961
 31
0.0
  0
ARC
  5
7A
  8
1
  6
________________
 62
     7
 10
303.145569520846
 20
347.7063179503901
 30
0.0
 40
0.0500000000000177
 50
320.0000000000008
 51
49.99999999999965
  0
ARC
  5
7B
  8
1
  6
________________
 62
     7
 10
303.1891473922199
 20
347.2082206013442
 30
0.0
 40
0.0499999999999752
 50
320.0000000000008
 51
49.99999999999965
  0
LINE
  5
7C
  8
1
  6
________________
 62
     7
 10
303.1686850993258
 20
347.1060483989319
 30
0.0
 11
303.2274496143758
 21
347.1760812208598
 31
0.0
  0
ARC
  5
7D
  8
1
  6
________________
 62
     7
 10
-303.494411190398
 20
346.8250961153036
 30
0.0
 40
0.2999999999999628
 50
266.4541083864663
 51
354.9999999999999
210
0.0
220
0.0
230
-1.0
  0
ARC
  5
7E
  8
1
  6
________________
 62
     7
 10
309.7957138008152
 20
345.7457735257545
 30
0.0
 40
1.499999999999996
 50
75.00000000000006
 51
99.67286493115823
  0
ARC
  5
7F
  8
1
  6
________________
 62
     7
 10
311.8443073853754
 20
346.4391859456441
 30
0.0
 40
0.300000000000021
 50
281.7833856635021
 51
75.0
  0
ARC
  5
80
  8
1
  6
________________
 62
     7
 10
-303.8945658779467
 20
344.5460497565605
 30
0.0
 40
0.5000000000000051
 50
354.9999999999999
 51
86.20228463723855
210
0.0
220
0.0
230
-1.0
  0
ARC
  5
81
  8
1
  6
________________
 62
     7
 10
302.9568526937593
 20
343.7904472511411
 30
0.0
 40
0.5000000000000048
 50
272.8484872050763
 51
5.000000000000114
  0
ARC
  5
82
  8
1
  6
________________
 62
     7
 10
300.0
 20
403.2169314324168
 30
0.0
 40
60.00000000000001
 50
266.9337591039522
 51
272.8484872050763
  0
ARC
  5
83
  8
1
  6
________________
 62
     7
 10
300.0
 20
403.2169314324168
 30
0.0
 40
59.99999999999999
 50
253.6880711133649
 51
266.4512946272446
  0
ARC
  5
84
  8
1
  6
________________
 62
     7
 10
283.3727012634228
 20
346.3999186921766
 30
0.0
 40
0.7999999999999655
 50
104.9999999999999
 51
253.688071113365
  0
LINE
  5
85
  8
1
  6
________________
 62
     7
 10
287.4427918547017
 20
348.3187171235593
 30
0.0
 11
283.1656460273408
 21
347.1726593532078
 31
0.0
  0
ARC
  5
86
  8
1
  6
________________
 62
     7
 10
-287.3651461411708
 20
348.6084948714461
 30
0.0
 40
0.2999999999999841
 50
129.5897000403711
 51
254.9999999999994
210
0.0
220
0.0
230
-1.0
  0
ARC
  5
87
  8
1
  6
________________
 62
     7
 10
-275.7665506660753
 20
334.5830685675831
 30
0.0
 40
18.49999999999996
 50
90.0
 51
129.5897000403721
210
0.0
220
0.0
230
-1.0
  0
ARC
  5
88
  8
1
  6
________________
 62
     7
 10
267.8715079718951
 20
356.0830685675831
 30
0.0
 40
2.999999999999964
 50
225.3293532577922
 51
270.0000000000001
  0
ARC
  5
89
  8
1
  6
________________
 62
     7
 10
279.9168462229114
 20
431.8491861928775
 30
0.0
 40
1.000000000000005
 50
61.94139258240343
 51
114.8996629470474
  0
ARC
  5
8A
  8
1
  6
________________
 62
     7
 10
-281.5631568938373
 20
434.9378203853315
 30
0.0
 40
2.499999999999988
 50
240.5509668666091
 51
298.0586074175965
210
0.0
220
0.0
230
-1.0
  0
ARC
  5
8B
  8
1
  6
________________
 62
     7
 10
300.0000000000001
 20
402.2830685675831
 30
0.0
 40
34.99999999999997
 50
60.5509668666095
 51
119.4490331333904
  0
ARC
  5
8C
  8
1
  6
________________
 62
     7
 10
-318.4368431061628
 20
434.9378203853315
 30
0.0
 40
2.500000000000045
 50
241.9413925824043
 51
299.4490331333905
210
0.0
220
0.0
230
-1.0
  0
ARC
  5
8D
  8
1
  6
________________
 62
     7
 10
320.0831537770886
 20
431.8491861928775
 30
0.0
 40
0.9999999999999718
 50
65.10033705295253
 51
118.0586074175957
  0
ARC
  5
8E
  8
1
  6
________________
 62
     7
 10
300.0000000000001
 20
388.583068567583
 30
0.0
 40
48.69999999999996
 50
314.6706467422079
 51
65.10033705295257
  0
ARC
  5
8F
  8
1
  6
________________
 62
     7
 10
332.1284920281049
 20
356.0830685675831
 30
0.0
 40
3.000000000000003
 50
270.0
 51
314.6706467422079
  0
LINE
  5
90
  8
1
  6
________________
 62
     7
 10
303.125107227952
 20
347.6041457479778
 30
0.0
 11
303.183871743002
 21
347.6741785699057
 31
0.0
  0
LINE
  5
91
  8
1
  6
________________
 62
     7
 10
303.1512539507763
 20
347.3052873385502
 30
0.0
 11
303.125107227952
 21
347.6041457479778
 31
0.0
  0
LINE
  5
92
  8
1
  6
________________
 62
     7
 10
303.2212867727042
 20
347.2465228235001
 30
0.0
 11
303.1512539507763
 21
347.3052873385502
 31
0.0
  0
LINE
  5
93
  8
1
  6
________________
 62
     7
 10
267.8715079718951
 20
353.0830685675831
 30
0.0
 11
275.7665506660753
 21
353.0830685675831
 31
0.0
  0
LINE
  5
94
  8
1
  6
________________
 62
     7
 10
303.1955527809704
 20
346.7989493924793
 30
0.0
 11
303.1686850993258
 21
347.1060483989319
 31
0.0
  0
ARC
  5
95
  8
1
  6
________________
 62
     7
 10
-300.0
 20
403.2169314324168
 30
0.0
 40
56.80000000000001
 50
260.3271350688419
 51
266.4541083864663
210
0.0
220
0.0
230
-1.0
  0
LINE
  5
96
  8
1
  6
________________
 62
     7
 10
311.9219530989061
 20
346.7289636935308
 30
0.0
 11
310.1839423684689
 21
347.1946622651881
 31
0.0
  0
ARC
  5
97
  8
1
  6
________________
 62
     7
 10
300.0
 20
403.2169314324168
 30
0.0
 40
58.3
 50
273.7977153627614
 51
281.783385663502
  0
LINE
  5
98
  8
1
  6
________________
 62
     7
 10
303.4549500428052
 20
343.834025122515
 30
0.0
 11
303.3964685289008
 21
344.5024718851867
 31
0.0
  0
LINE
  5
99
  8
1
  6
________________
 62
     7
 10
324.2334493339247
 20
353.0830685675831
 30
0.0
 11
332.1284920281049
 21
353.0830685675831
 31
0.0
  0
LINE
  5
9A
  8
1
  6
________________
 62
     7
 10
296.5261467228243
 20
343.6179601649687
 30
0.0
 11
296.7905725007987
 21
343.3028297940932
 31
0.0
  0
LINE
  5
9B
  8
1
  6
________________
 62
     7
 10
296.2861799434182
 20
343.3319788935083
 30
0.0
 11
296.5261467228243
 21
343.6179601649687
 31
0.0
  0
ENDBLK
  8
0
  0
BLOCK
  8
0
  2
_11707
 70
     0
 10
0.0
 20
0.0
 30
0.0
  0
LINE
  5
A5
  8
1
  6
________________
 62
     7
 10
317.2077202324185
 20
470.3387261011351
 30
0.0
 11
317.2077202324185
 21
498.2756154305454
 31
0.0
  0
LINE
  5
A6
  8
1
  6
________________
 62
     7
 10
282.7922797675815
 20
470.3387261011351
 30
0.0
 11
282.7922797675815
 21
498.2756154305453
 31
0.0
  0
LINE
  5
A7
  8
1
  6
________________
 62
     7
 10
317.2077202324185
 20
470.3387261011351
 30
0.0
 11
282.7922797675815
 21
470.3387261011351
 31
0.0
  0
LINE
  5
A8
  8
1
  6
________________
 62
     7
 10
319.6127792996812
 20
470.3387261011351
 30
0.0
 11
319.6127792996812
 21
495.42426124334
 31
0.0
  0
LINE
  5
A9
  8
1
  6
________________
 62
     7
 10
320.5041842545957
 20
495.4806233395307
 30
0.0
 11
320.5041842545957
 21
470.3387261011352
 31
0.0
  0
LINE
  5
AA
  8
1
  6
________________
 62
     7
 10
320.5041842545957
 20
470.3387261011351
 30
0.0
 11
319.6127792996812
 21
470.3387261011351
 31
0.0
  0
LINE
  5
AB
  8
1
  6
________________
 62
     7
 10
279.4958157454042
 20
470.3387261011351
 30
0.0
 11
279.4958157454042
 21
495.4806233395305
 31
0.0
  0
LINE
  5
AC
  8
1
  6
________________
 62
     7
 10
280.3872207003187
 20
495.42426124334
 30
0.0
 11
280.3872207003187
 21
470.3387261011352
 31
0.0
  0
LINE
  5
AD
  8
1
  6
________________
 62
     7
 10
280.3872207003187
 20
470.3387261011351
 30
0.0
 11
279.4958157454042
 21
470.3387261011351
 31
0.0
  0
LINE
  5
AE
  8
1
  6
________________
 62
     7
 10
280.3872207003187
 20
470.3387261011351
 30
0.0
 11
282.7922797675814
 21
470.3387261011351
 31
0.0
  0
LINE
  5
AF
  8
1
  6
________________
 62
     7
 10
317.2077202324185
 20
470.3387261011351
 30
0.0
 11
319.6127792996812
 21
470.3387261011351
 31
0.0
  0
LINE
  5
B0
  8
1
  6
________________
 62
     7
 10
348.6999999999998
 20
470.3387261011351
 30
0.0
 11
320.5041842545956
 21
470.3387261011351
 31
0.0
  0
LINE
  5
B1
  8
1
  6
________________
 62
     7
 10
279.4958157454043
 20
470.3387261011351
 30
0.0
 11
251.3000000000001
 21
470.3387261011351
 31
0.0
  0
LINE
  5
B2
  8
1
  6
________________
 62
     7
 10
348.6999999999999
 20
470.3387261011351
 30
0.0
 11
348.6999999999999
 21
497.5260595259903
 31
0.0
  0
LINE
  5
B3
  8
1
  6
________________
 62
     7
 10
251.3
 20
497.5260595259903
 30
0.0
 11
251.3
 21
470.3387261011352
 31
0.0
  0
LINE
  5
B4
  8
1
  6
________________
 62
     7
 10
317.2077202324185
 20
503.2756154305455
 30
0.0
 11
317.2077202324185
 21
520.1612738988648
 31
0.0
  0
LINE
  5
B5
  8
1
  6
________________
 62
     7
 10
282.7922797675815
 20
503.2756154305453
 30
0.0
 11
282.7922797675815
 21
520.1612738988648
 31
0.0
  0
LINE
  5
B6
  8
1
  6
________________
 62
     7
 10
317.2077202324185
 20
520.1612738988648
 30
0.0
 11
282.7922797675815
 21
520.1612738988648
 31
0.0
  0
LINE
  5
B7
  8
1
  6
________________
 62
     7
 10
319.6127792996812
 20
500.42426124334
 30
0.0
 11
319.6127792996812
 21
520.1612738988648
 31
0.0
  0
LINE
  5
B8
  8
1
  6
________________
 62
     7
 10
320.5041842545957
 20
520.1612738988648
 30
0.0
 11
320.5041842545957
 21
500.4806233395306
 31
0.0
  0
LINE
  5
B9
  8
1
  6
________________
 62
     7
 10
319.6127792996812
 20
520.1612738988648
 30
0.0
 11
320.5041842545957
 21
520.1612738988648
 31
0.0
  0
LINE
  5
BA
  8
1
  6
________________
 62
     7
 10
279.4958157454042
 20
500.4806233395306
 30
0.0
 11
279.4958157454042
 21
520.1612738988648
 31
0.0
  0
LINE
  5
BB
  8
1
  6
________________
 62
     7
 10
280.3872207003187
 20
520.1612738988648
 30
0.0
 11
280.3872207003187
 21
500.4242612433398
 31
0.0
  0
LINE
  5
BC
  8
1
  6
________________
 62
     7
 10
279.4958157454042
 20
520.1612738988648
 30
0.0
 11
280.3872207003187
 21
520.1612738988648
 31
0.0
  0
LINE
  5
BD
  8
1
  6
________________
 62
     7
 10
280.3872207003187
 20
520.1612738988648
 30
0.0
 11
282.7922797675814
 21
520.1612738988648
 31
0.0
  0
LINE
  5
BE
  8
1
  6
________________
 62
     7
 10
317.2077202324185
 20
520.1612738988648
 30
0.0
 11
319.6127792996812
 21
520.1612738988648
 31
0.0
  0
LINE
  5
BF
  8
1
  6
________________
 62
     7
 10
348.6999999999998
 20
520.1612738988648
 30
0.0
 11
320.5041842545956
 21
520.1612738988648
 31
0.0
  0
LINE
  5
C0
  8
1
  6
________________
 62
     7
 10
279.4958157454043
 20
520.1612738988648
 30
0.0
 11
251.3000000000001
 21
520.1612738988648
 31
0.0
  0
LINE
  5
C1
  8
1
  6
________________
 62
     7
 10
348.6999999999999
 20
502.5260595259904
 30
0.0
 11
348.6999999999999
 21
520.1612738988648
 31
0.0
  0
LINE
  5
C2
  8
1
  6
________________
 62
     7
 10
251.3
 20
520.1612738988648
 30
0.0
 11
251.3
 21
502.5260595259901
 31
0.0
  0
POLYLINE
  5
C3
  8
1
  6
________________
 62
     7
 66
     1
 10
0.0
 20
0.0
 30
0.0
  0
VERTEX
  5
F1
  8
1
  6
________________
 62
     7
 10
349.9999999999999
 20
495.3387261011351
 30
0.0
  0
VERTEX
  5
F2
  8
1
  6
________________
 62
     7
 10
349.4318181818181
 20
496.3174747784806
 30
0.0
  0
VERTEX
  5
F3
  8
1
  6
________________
 62
     7
 10
348.8636363636363
 20
497.2639968577757
 30
0.0
  0
VERTEX
  5
F4
  8
1
  6
________________
 62
     7
 10
348.2954545454545
 20
498.1460657409696
 30
0.0
  0
VERTEX
  5
F5
  8
1
  6
________________
 62
     7
 10
347.7272727272727
 20
498.9314548300119
 30
0.0
  0
VERTEX
  5
F6
  8
1
  6
________________
 62
     7
 10
347.1590909090909
 20
499.5879375268523
 30
0.0
  0
VERTEX
  5
F7
  8
1
  6
________________
 62
     7
 10
346.5909090909091
 20
500.0832872334399
 30
0.0
  0
VERTEX
  5
F8
  8
1
  6
________________
 62
     7
 10
346.0227272727273
 20
500.3852773517244
 30
0.0
  0
VERTEX
  5
F9
  8
1
  6
________________
 62
     7
 10
345.4545454545456
 20
500.4616812836552
 30
0.0
  0
VERTEX
  5
FA
  8
1
  6
________________
 62
     7
 10
344.8863636363637
 20
500.2804128510285
 30
0.0
  0
VERTEX
  5
FB
  8
1
  6
________________
 62
     7
 10
344.3181818181819
 20
499.8391548831545
 30
0.0
  0
VERTEX
  5
FC
  8
1
  6
________________
 62
     7
 10
343.75
 20
499.2020087968622
 30
0.0
  0
VERTEX
  5
FD
  8
1
  6
________________
 62
     7
 10
343.1818181818182
 20
498.4420628791736
 30
0.0
  0
VERTEX
  5
FE
  8
1
  6
________________
 62
     7
 10
342.6136363636364
 20
497.6324054171108
 30
0.0
  0
VERTEX
  5
FF
  8
1
  6
________________
 62
     7
 10
342.0454545454546
 20
496.8461246976956
 30
0.0
  0
VERTEX
  5
100
  8
1
  6
________________
 62
     7
 10
341.4772727272727
 20
496.15630900795
 30
0.0
  0
VERTEX
  5
101
  8
1
  6
________________
 62
     7
 10
340.9090909090909
 20
495.636046634896
 30
0.0
  0
VERTEX
  5
102
  8
1
  6
________________
 62
     7
 10
340.3409090909091
 20
495.3584258655557
 30
0.0
  0
VERTEX
  5
103
  8
1
  6
________________
 62
     7
 10
339.7727272727273
 20
495.3948589823579
 30
0.0
  0
VERTEX
  5
104
  8
1
  6
________________
 62
     7
 10
339.2045454545455
 20
495.7516035891769
 30
0.0
  0
VERTEX
  5
105
  8
1
  6
________________
 62
     7
 10
338.6363636363637
 20
496.3502790579381
 30
0.0
  0
VERTEX
  5
106
  8
1
  6
________________
 62
     7
 10
338.0681818181819
 20
497.1068482450656
 30
0.0
  0
VERTEX
  5
107
  8
1
  6
________________
 62
     7
 10
337.5000000000001
 20
497.9372740069831
 30
0.0
  0
VERTEX
  5
108
  8
1
  6
________________
 62
     7
 10
336.9318181818182
 20
498.7575192001148
 30
0.0
  0
VERTEX
  5
109
  8
1
  6
________________
 62
     7
 10
336.3636363636364
 20
499.4835466808844
 30
0.0
  0
VERTEX
  5
10A
  8
1
  6
________________
 62
     7
 10
335.7954545454546
 20
500.0313193057159
 30
0.0
  0
VERTEX
  5
10B
  8
1
  6
________________
 62
     7
 10
335.2272727272728
 20
500.3167999310332
 30
0.0
  0
VERTEX
  5
10C
  8
1
  6
________________
 62
     7
 10
334.659090909091
 20
500.2621077021387
 30
0.0
  0
VERTEX
  5
10D
  8
1
  6
________________
 62
     7
 10
334.0909090909092
 20
499.8814780868095
 30
0.0
  0
VERTEX
  5
10E
  8
1
  6
________________
 62
     7
 10
333.5227272727274
 20
499.2600578802733
 30
0.0
  0
VERTEX
  5
10F
  8
1
  6
________________
 62
     7
 10
332.9545454545456
 20
498.4848179633511
 30
0.0
  0
VERTEX
  5
110
  8
1
  6
________________
 62
     7
 10
332.3863636363637
 20
497.6427292168638
 30
0.0
  0
VERTEX
  5
111
  8
1
  6
________________
 62
     7
 10
331.8181818181819
 20
496.8207625216324
 30
0.0
  0
VERTEX
  5
112
  8
1
  6
________________
 62
     7
 10
331.2500000000001
 20
496.1058887584779
 30
0.0
  0
VERTEX
  5
113
  8
1
  6
________________
 62
     7
 10
330.6818181818182
 20
495.5850788082215
 30
0.0
  0
VERTEX
  5
114
  8
1
  6
________________
 62
     7
 10
330.1136363636364
 20
495.345303551684
 30
0.0
  0
VERTEX
  5
115
  8
1
  6
________________
 62
     7
 10
329.5454545454546
 20
495.4586237594727
 30
0.0
  0
VERTEX
  5
116
  8
1
  6
________________
 62
     7
 10
328.9772727272727
 20
495.8869051688962
 30
0.0
  0
VERTEX
  5
117
  8
1
  6
________________
 62
     7
 10
328.4090909090909
 20
496.54262377718
 30
0.0
  0
VERTEX
  5
118
  8
1
  6
________________
 62
     7
 10
327.8409090909091
 20
497.3380226110773
 30
0.0
  0
VERTEX
  5
119
  8
1
  6
________________
 62
     7
 10
327.2727272727273
 20
498.1853446973417
 30
0.0
  0
VERTEX
  5
11A
  8
1
  6
________________
 62
     7
 10
326.7045454545455
 20
498.9968330627263
 30
0.0
  0
VERTEX
  5
11B
  8
1
  6
________________
 62
     7
 10
326.1363636363637
 20
499.6847307339845
 30
0.0
  0
VERTEX
  5
11C
  8
1
  6
________________
 62
     7
 10
325.5681818181819
 20
500.1612807378696
 30
0.0
  0
VERTEX
  5
11D
  8
1
  6
________________
 62
     7
 10
325.0000000000001
 20
500.3387261011351
 30
0.0
  0
VERTEX
  5
11E
  8
1
  6
________________
 62
     7
 10
324.4318181818182
 20
500.1585972803595
 30
0.0
  0
VERTEX
  5
11F
  8
1
  6
________________
 62
     7
 10
323.8636363636364
 20
499.6795744514217
 30
0.0
  0
VERTEX
  5
120
  8
1
  6
________________
 62
     7
 10
323.2954545454546
 20
498.9896252200261
 30
0.0
  0
VERTEX
  5
121
  8
1
  6
________________
 62
     7
 10
322.7272727272729
 20
498.1767171918771
 30
0.0
  0
VERTEX
  5
122
  8
1
  6
________________
 62
     7
 10
322.159090909091
 20
497.3288179726789
 30
0.0
  0
VERTEX
  5
123
  8
1
  6
________________
 62
     7
 10
321.5909090909092
 20
496.5338951681358
 30
0.0
  0
VERTEX
  5
124
  8
1
  6
________________
 62
     7
 10
321.0227272727274
 20
495.8799163839521
 30
0.0
  0
VERTEX
  5
125
  8
1
  6
________________
 62
     7
 10
320.4545454545456
 20
495.454849225832
 30
0.0
  0
VERTEX
  5
126
  8
1
  6
________________
 62
     7
 10
319.8863636363638
 20
495.3464266439482
 30
0.0
  0
VERTEX
  5
127
  8
1
  6
________________
 62
     7
 10
319.318181818182
 20
495.5926346157419
 30
0.0
  0
VERTEX
  5
128
  8
1
  6
________________
 62
     7
 10
318.7500000000002
 20
496.120467052136
 30
0.0
  0
VERTEX
  5
129
  8
1
  6
________________
 62
     7
 10
318.1818181818183
 20
496.8418999100212
 30
0.0
  0
VERTEX
  5
12A
  8
1
  6
________________
 62
     7
 10
317.6136363636365
 20
497.6689091462885
 30
0.0
  0
VERTEX
  5
12B
  8
1
  6
________________
 62
     7
 10
317.0454545454547
 20
498.5134707178285
 30
0.0
  0
VERTEX
  5
12C
  8
1
  6
________________
 62
     7
 10
316.4772727272729
 20
499.287560581532
 30
0.0
  0
VERTEX
  5
12D
  8
1
  6
________________
 62
     7
 10
315.909090909091
 20
499.9031546942899
 30
0.0
  0
VERTEX
  5
12E
  8
1
  6
________________
 62
     7
 10
315.3409090909092
 20
500.272229012993
 30
0.0
  0
VERTEX
  5
12F
  8
1
  6
________________
 62
     7
 10
314.7727272727274
 20
500.3086375020348
 30
0.0
  0
VERTEX
  5
130
  8
1
  6
________________
 62
     7
 10
314.2045454545456
 20
499.999241667477
 30
0.0
  0
VERTEX
  5
131
  8
1
  6
________________
 62
     7
 10
313.6363636363638
 20
499.4257423942694
 30
0.0
  0
VERTEX
  5
132
  8
1
  6
________________
 62
     7
 10
313.068181818182
 20
498.6761788426831
 30
0.0
  0
VERTEX
  5
133
  8
1
  6
________________
 62
     7
 10
312.5000000000002
 20
497.8385901729894
 30
0.0
  0
VERTEX
  5
134
  8
1
  6
________________
 62
     7
 10
311.9318181818184
 20
497.0010155454595
 30
0.0
  0
VERTEX
  5
135
  8
1
  6
________________
 62
     7
 10
311.3636363636365
 20
496.2514941203647
 30
0.0
  0
VERTEX
  5
136
  8
1
  6
________________
 62
     7
 10
310.7954545454547
 20
495.6780650579761
 30
0.0
  0
VERTEX
  5
137
  8
1
  6
________________
 62
     7
 10
310.2272727272729
 20
495.3687675185651
 30
0.0
  0
VERTEX
  5
138
  8
1
  6
________________
 62
     7
 10
309.6590909090911
 20
495.4053016977385
 30
0.0
  0
VERTEX
  5
139
  8
1
  6
________________
 62
     7
 10
309.0909090909093
 20
495.7745180976083
 30
0.0
  0
VERTEX
  5
13A
  8
1
  6
________________
 62
     7
 10
308.5227272727275
 20
496.3902517384123
 30
0.0
  0
VERTEX
  5
13B
  8
1
  6
________________
 62
     7
 10
307.9545454545457
 20
497.1644594286361
 30
0.0
  0
VERTEX
  5
13C
  8
1
  6
________________
 62
     7
 10
307.3863636363639
 20
498.0090979767651
 30
0.0
  0
VERTEX
  5
13D
  8
1
  6
________________
 62
     7
 10
306.818181818182
 20
498.8361241912851
 30
0.0
  0
VERTEX
  5
13E
  8
1
  6
________________
 62
     7
 10
306.2500000000002
 20
499.5574948806814
 30
0.0
  0
VERTEX
  5
13F
  8
1
  6
________________
 62
     7
 10
305.6818181818184
 20
500.0851668534398
 30
0.0
  0
VERTEX
  5
140
  8
1
  6
________________
 62
     7
 10
305.1136363636366
 20
500.3310969180455
 30
0.0
  0
VERTEX
  5
141
  8
1
  6
________________
 62
     7
 10
304.5454545454548
 20
500.2222680070028
 30
0.0
  0
VERTEX
  5
142
  8
1
  6
________________
 62
     7
 10
303.977272727273
 20
499.7967155006381
 30
0.0
  0
VERTEX
  5
143
  8
1
  6
________________
 62
     7
 10
303.4090909090912
 20
499.142248815089
 30
0.0
  0
VERTEX
  5
144
  8
1
  6
________________
 62
     7
 10
302.8409090909093
 20
498.3469121496807
 30
0.0
  0
VERTEX
  5
145
  8
1
  6
________________
 62
     7
 10
302.2727272727275
 20
497.4987497037385
 30
0.0
  0
VERTEX
  5
146
  8
1
  6
________________
 62
     7
 10
301.7045454545457
 20
496.6858056765876
 30
0.0
  0
VERTEX
  5
147
  8
1
  6
________________
 62
     7
 10
301.1363636363639
 20
495.9961242675532
 30
0.0
  0
VERTEX
  5
148
  8
1
  6
________________
 62
     7
 10
300.568181818182
 20
495.5177496759607
 30
0.0
  0
VERTEX
  5
149
  8
1
  6
________________
 62
     7
 10
300.0000000000002
 20
495.3387261011353
 30
0.0
  0
VERTEX
  5
14A
  8
1
  6
________________
 62
     7
 10
299.4318181818184
 20
495.5177496759604
 30
0.0
  0
VERTEX
  5
14B
  8
1
  6
________________
 62
     7
 10
298.8636363636366
 20
495.9961242675527
 30
0.0
  0
VERTEX
  5
14C
  8
1
  6
________________
 62
     7
 10
298.2954545454548
 20
496.6858056765869
 30
0.0
  0
VERTEX
  5
14D
  8
1
  6
________________
 62
     7
 10
297.727272727273
 20
497.4987497037378
 30
0.0
  0
VERTEX
  5
14E
  8
1
  6
________________
 62
     7
 10
297.1590909090912
 20
498.3469121496801
 30
0.0
  0
VERTEX
  5
14F
  8
1
  6
________________
 62
     7
 10
296.5909090909093
 20
499.1422488150884
 30
0.0
  0
VERTEX
  5
150
  8
1
  6
________________
 62
     7
 10
296.0227272727275
 20
499.7967155006377
 30
0.0
  0
VERTEX
  5
151
  8
1
  6
________________
 62
     7
 10
295.4545454545457
 20
500.2222680070026
 30
0.0
  0
VERTEX
  5
152
  8
1
  6
________________
 62
     7
 10
294.8863636363639
 20
500.3310969180457
 30
0.0
  0
VERTEX
  5
153
  8
1
  6
________________
 62
     7
 10
294.3181818181822
 20
500.0851668534401
 30
0.0
  0
VERTEX
  5
154
  8
1
  6
________________
 62
     7
 10
293.7500000000003
 20
499.557494880682
 30
0.0
  0
VERTEX
  5
155
  8
1
  6
________________
 62
     7
 10
293.1818181818185
 20
498.8361241912858
 30
0.0
  0
VERTEX
  5
156
  8
1
  6
________________
 62
     7
 10
292.6136363636367
 20
498.0090979767659
 30
0.0
  0
VERTEX
  5
157
  8
1
  6
________________
 62
     7
 10
292.0454545454548
 20
497.1644594286368
 30
0.0
  0
VERTEX
  5
158
  8
1
  6
________________
 62
     7
 10
291.477272727273
 20
496.3902517384129
 30
0.0
  0
VERTEX
  5
159
  8
1
  6
________________
 62
     7
 10
290.9090909090911
 20
495.7745180976087
 30
0.0
  0
VERTEX
  5
15A
  8
1
  6
________________
 62
     7
 10
290.3409090909093
 20
495.4053016977388
 30
0.0
  0
VERTEX
  5
15B
  8
1
  6
________________
 62
     7
 10
289.7727272727275
 20
495.3687675185649
 30
0.0
  0
VERTEX
  5
15C
  8
1
  6
________________
 62
     7
 10
289.2045454545457
 20
495.6780650579757
 30
0.0
  0
VERTEX
  5
15D
  8
1
  6
________________
 62
     7
 10
288.6363636363639
 20
496.2514941203641
 30
0.0
  0
VERTEX
  5
15E
  8
1
  6
________________
 62
     7
 10
288.068181818182
 20
497.0010155454589
 30
0.0
  0
VERTEX
  5
15F
  8
1
  6
________________
 62
     7
 10
287.5000000000002
 20
497.8385901729887
 30
0.0
  0
VERTEX
  5
160
  8
1
  6
________________
 62
     7
 10
286.9318181818184
 20
498.6761788426825
 30
0.0
  0
VERTEX
  5
161
  8
1
  6
________________
 62
     7
 10
286.3636363636366
 20
499.4257423942689
 30
0.0
  0
VERTEX
  5
162
  8
1
  6
________________
 62
     7
 10
285.7954545454548
 20
499.9992416674767
 30
0.0
  0
VERTEX
  5
163
  8
1
  6
________________
 62
     7
 10
285.227272727273
 20
500.3086375020346
 30
0.0
  0
VERTEX
  5
164
  8
1
  6
________________
 62
     7
 10
284.6590909090912
 20
500.2722290129932
 30
0.0
  0
VERTEX
  5
165
  8
1
  6
________________
 62
     7
 10
284.0909090909093
 20
499.9031546942903
 30
0.0
  0
VERTEX
  5
166
  8
1
  6
________________
 62
     7
 10
283.5227272727275
 20
499.2875605815325
 30
0.0
  0
VERTEX
  5
167
  8
1
  6
________________
 62
     7
 10
282.9545454545457
 20
498.513470717829
 30
0.0
  0
VERTEX
  5
168
  8
1
  6
________________
 62
     7
 10
282.3863636363639
 20
497.668909146289
 30
0.0
  0
VERTEX
  5
169
  8
1
  6
________________
 62
     7
 10
281.818181818182
 20
496.8418999100217
 30
0.0
  0
VERTEX
  5
16A
  8
1
  6
________________
 62
     7
 10
281.2500000000002
 20
496.1204670521363
 30
0.0
  0
VERTEX
  5
16B
  8
1
  6
________________
 62
     7
 10
280.6818181818184
 20
495.5926346157421
 30
0.0
  0
VERTEX
  5
16C
  8
1
  6
________________
 62
     7
 10
280.1136363636365
 20
495.3464266439482
 30
0.0
  0
VERTEX
  5
16D
  8
1
  6
________________
 62
     7
 10
279.5454545454547
 20
495.4548492258318
 30
0.0
  0
VERTEX
  5
16E
  8
1
  6
________________
 62
     7
 10
278.9772727272729
 20
495.8799163839516
 30
0.0
  0
VERTEX
  5
16F
  8
1
  6
________________
 62
     7
 10
278.4090909090911
 20
496.5338951681353
 30
0.0
  0
VERTEX
  5
170
  8
1
  6
________________
 62
     7
 10
277.8409090909093
 20
497.3288179726783
 30
0.0
  0
VERTEX
  5
171
  8
1
  6
________________
 62
     7
 10
277.2727272727274
 20
498.1767171918766
 30
0.0
  0
VERTEX
  5
172
  8
1
  6
________________
 62
     7
 10
276.7045454545456
 20
498.9896252200256
 30
0.0
  0
VERTEX
  5
173
  8
1
  6
________________
 62
     7
 10
276.1363636363637
 20
499.6795744514213
 30
0.0
  0
VERTEX
  5
174
  8
1
  6
________________
 62
     7
 10
275.5681818181819
 20
500.1585972803592
 30
0.0
  0
VERTEX
  5
175
  8
1
  6
________________
 62
     7
 10
275.0000000000001
 20
500.3387261011351
 30
0.0
  0
VERTEX
  5
176
  8
1
  6
________________
 62
     7
 10
274.4318181818183
 20
500.1612807378698
 30
0.0
  0
VERTEX
  5
177
  8
1
  6
________________
 62
     7
 10
273.8636363636365
 20
499.6847307339848
 30
0.0
  0
VERTEX
  5
178
  8
1
  6
________________
 62
     7
 10
273.2954545454547
 20
498.9968330627267
 30
0.0
  0
VERTEX
  5
179
  8
1
  6
________________
 62
     7
 10
272.7272727272729
 20
498.1853446973422
 30
0.0
  0
VERTEX
  5
17A
  8
1
  6
________________
 62
     7
 10
272.1590909090911
 20
497.3380226110779
 30
0.0
  0
VERTEX
  5
17B
  8
1
  6
________________
 62
     7
 10
271.5909090909093
 20
496.5426237771805
 30
0.0
  0
VERTEX
  5
17C
  8
1
  6
________________
 62
     7
 10
271.0227272727275
 20
495.8869051688966
 30
0.0
  0
VERTEX
  5
17D
  8
1
  6
________________
 62
     7
 10
270.4545454545457
 20
495.458623759473
 30
0.0
  0
VERTEX
  5
17E
  8
1
  6
________________
 62
     7
 10
269.8863636363639
 20
495.3453035516841
 30
0.0
  0
VERTEX
  5
17F
  8
1
  6
________________
 62
     7
 10
269.318181818182
 20
495.5850788082214
 30
0.0
  0
VERTEX
  5
180
  8
1
  6
________________
 62
     7
 10
268.7500000000002
 20
496.1058887584778
 30
0.0
  0
VERTEX
  5
181
  8
1
  6
________________
 62
     7
 10
268.1818181818184
 20
496.8207625216321
 30
0.0
  0
VERTEX
  5
182
  8
1
  6
________________
 62
     7
 10
267.6136363636366
 20
497.6427292168634
 30
0.0
  0
VERTEX
  5
183
  8
1
  6
________________
 62
     7
 10
267.0454545454548
 20
498.4848179633508
 30
0.0
  0
VERTEX
  5
184
  8
1
  6
________________
 62
     7
 10
266.477272727273
 20
499.2600578802731
 30
0.0
  0
VERTEX
  5
185
  8
1
  6
________________
 62
     7
 10
265.9090909090912
 20
499.8814780868094
 30
0.0
  0
VERTEX
  5
186
  8
1
  6
________________
 62
     7
 10
265.3409090909093
 20
500.2621077021386
 30
0.0
  0
VERTEX
  5
187
  8
1
  6
________________
 62
     7
 10
264.7727272727275
 20
500.3167999310334
 30
0.0
  0
VERTEX
  5
188
  8
1
  6
________________
 62
     7
 10
264.2045454545457
 20
500.0313193057161
 30
0.0
  0
VERTEX
  5
189
  8
1
  6
________________
 62
     7
 10
263.6363636363639
 20
499.4835466808848
 30
0.0
  0
VERTEX
  5
18A
  8
1
  6
________________
 62
     7
 10
263.068181818182
 20
498.7575192001152
 30
0.0
  0
VERTEX
  5
18B
  8
1
  6
________________
 62
     7
 10
262.5000000000002
 20
497.9372740069836
 30
0.0
  0
VERTEX
  5
18C
  8
1
  6
________________
 62
     7
 10
261.9318181818184
 20
497.106848245066
 30
0.0
  0
VERTEX
  5
18D
  8
1
  6
________________
 62
     7
 10
261.3636363636366
 20
496.3502790579385
 30
0.0
  0
VERTEX
  5
18E
  8
1
  6
________________
 62
     7
 10
260.7954545454548
 20
495.7516035891772
 30
0.0
  0
VERTEX
  5
18F
  8
1
  6
________________
 62
     7
 10
260.227272727273
 20
495.3948589823581
 30
0.0
  0
VERTEX
  5
190
  8
1
  6
________________
 62
     7
 10
259.6590909090912
 20
495.3584258655557
 30
0.0
  0
VERTEX
  5
191
  8
1
  6
________________
 62
     7
 10
259.0909090909093
 20
495.6360466348959
 30
0.0
  0
VERTEX
  5
192
  8
1
  6
________________
 62
     7
 10
258.5227272727275
 20
496.1563090079498
 30
0.0
  0
VERTEX
  5
193
  8
1
  6
________________
 62
     7
 10
257.9545454545457
 20
496.8461246976952
 30
0.0
  0
VERTEX
  5
194
  8
1
  6
________________
 62
     7
 10
257.3863636363639
 20
497.6324054171104
 30
0.0
  0
VERTEX
  5
195
  8
1
  6
________________
 62
     7
 10
256.8181818181821
 20
498.4420628791733
 30
0.0
  0
VERTEX
  5
196
  8
1
  6
________________
 62
     7
 10
256.2500000000003
 20
499.2020087968619
 30
0.0
  0
VERTEX
  5
197
  8
1
  6
________________
 62
     7
 10
255.6818181818185
 20
499.8391548831543
 30
0.0
  0
VERTEX
  5
198
  8
1
  6
________________
 62
     7
 10
255.1136363636367
 20
500.2804128510284
 30
0.0
  0
VERTEX
  5
199
  8
1
  6
________________
 62
     7
 10
254.5454545454548
 20
500.4616812836551
 30
0.0
  0
VERTEX
  5
19A
  8
1
  6
________________
 62
     7
 10
253.977272727273
 20
500.3852773517245
 30
0.0
  0
VERTEX
  5
19B
  8
1
  6
________________
 62
     7
 10
253.4090909090912
 20
500.08328723344
 30
0.0
  0
VERTEX
  5
19C
  8
1
  6
________________
 62
     7
 10
252.8409090909093
 20
499.5879375268525
 30
0.0
  0
VERTEX
  5
19D
  8
1
  6
________________
 62
     7
 10
252.2727272727275
 20
498.9314548300123
 30
0.0
  0
VERTEX
  5
19E
  8
1
  6
________________
 62
     7
 10
251.7045454545457
 20
498.14606574097
 30
0.0
  0
VERTEX
  5
19F
  8
1
  6
________________
 62
     7
 10
251.1363636363639
 20
497.263996857776
 30
0.0
  0
VERTEX
  5
1A0
  8
1
  6
________________
 62
     7
 10
250.5681818181821
 20
496.317474778481
 30
0.0
  0
VERTEX
  5
1A1
  8
1
  6
________________
 62
     7
 10
250.0
 20
495.3387261011351
 30
0.0
  0
SEQEND
  5
1A2
  8
1
  6
________________
 62
     7
  0
POLYLINE
  5
C4
  8
1
  6
________________
 62
     7
 66
     1
 10
0.0
 20
0.0
 30
0.0
  0
VERTEX
  5
1A3
  8
1
  6
________________
 62
     7
 10
349.9999999999999
 20
500.338726101135
 30
0.0
  0
VERTEX
  5
1A4
  8
1
  6
________________
 62
     7
 10
349.4318181818181
 20
501.3174747784805
 30
0.0
  0
VERTEX
  5
1A5
  8
1
  6
________________
 62
     7
 10
348.8636363636363
 20
502.2639968577756
 30
0.0
  0
VERTEX
  5
1A6
  8
1
  6
________________
 62
     7
 10
348.2954545454545
 20
503.1460657409696
 30
0.0
  0
VERTEX
  5
1A7
  8
1
  6
________________
 62
     7
 10
347.7272727272727
 20
503.9314548300119
 30
0.0
  0
VERTEX
  5
1A8
  8
1
  6
________________
 62
     7
 10
347.1590909090909
 20
504.5879375268522
 30
0.0
  0
VERTEX
  5
1A9
  8
1
  6
________________
 62
     7
 10
346.5909090909091
 20
505.0832872334399
 30
0.0
  0
VERTEX
  5
1AA
  8
1
  6
________________
 62
     7
 10
346.0227272727273
 20
505.3852773517243
 30
0.0
  0
VERTEX
  5
1AB
  8
1
  6
________________
 62
     7
 10
345.4545454545456
 20
505.4616812836551
 30
0.0
  0
VERTEX
  5
1AC
  8
1
  6
________________
 62
     7
 10
344.8863636363637
 20
505.2804128510285
 30
0.0
  0
VERTEX
  5
1AD
  8
1
  6
________________
 62
     7
 10
344.3181818181819
 20
504.8391548831544
 30
0.0
  0
VERTEX
  5
1AE
  8
1
  6
________________
 62
     7
 10
343.75
 20
504.2020087968622
 30
0.0
  0
VERTEX
  5
1AF
  8
1
  6
________________
 62
     7
 10
343.1818181818182
 20
503.4420628791736
 30
0.0
  0
VERTEX
  5
1B0
  8
1
  6
________________
 62
     7
 10
342.6136363636364
 20
502.6324054171108
 30
0.0
  0
VERTEX
  5
1B1
  8
1
  6
________________
 62
     7
 10
342.0454545454546
 20
501.8461246976955
 30
0.0
  0
VERTEX
  5
1B2
  8
1
  6
________________
 62
     7
 10
341.4772727272727
 20
501.15630900795
 30
0.0
  0
VERTEX
  5
1B3
  8
1
  6
________________
 62
     7
 10
340.9090909090909
 20
500.636046634896
 30
0.0
  0
VERTEX
  5
1B4
  8
1
  6
________________
 62
     7
 10
340.3409090909091
 20
500.3584258655557
 30
0.0
  0
VERTEX
  5
1B5
  8
1
  6
________________
 62
     7
 10
339.7727272727273
 20
500.3948589823578
 30
0.0
  0
VERTEX
  5
1B6
  8
1
  6
________________
 62
     7
 10
339.2045454545455
 20
500.7516035891768
 30
0.0
  0
VERTEX
  5
1B7
  8
1
  6
________________
 62
     7
 10
338.6363636363637
 20
501.3502790579381
 30
0.0
  0
VERTEX
  5
1B8
  8
1
  6
________________
 62
     7
 10
338.0681818181819
 20
502.1068482450655
 30
0.0
  0
VERTEX
  5
1B9
  8
1
  6
________________
 62
     7
 10
337.5000000000001
 20
502.937274006983
 30
0.0
  0
VERTEX
  5
1BA
  8
1
  6
________________
 62
     7
 10
336.9318181818182
 20
503.7575192001147
 30
0.0
  0
VERTEX
  5
1BB
  8
1
  6
________________
 62
     7
 10
336.3636363636364
 20
504.4835466808843
 30
0.0
  0
VERTEX
  5
1BC
  8
1
  6
________________
 62
     7
 10
335.7954545454546
 20
505.0313193057158
 30
0.0
  0
VERTEX
  5
1BD
  8
1
  6
________________
 62
     7
 10
335.2272727272728
 20
505.3167999310332
 30
0.0
  0
VERTEX
  5
1BE
  8
1
  6
________________
 62
     7
 10
334.659090909091
 20
505.2621077021386
 30
0.0
  0
VERTEX
  5
1BF
  8
1
  6
________________
 62
     7
 10
334.0909090909092
 20
504.8814780868095
 30
0.0
  0
VERTEX
  5
1C0
  8
1
  6
________________
 62
     7
 10
333.5227272727274
 20
504.2600578802733
 30
0.0
  0
VERTEX
  5
1C1
  8
1
  6
________________
 62
     7
 10
332.9545454545456
 20
503.484817963351
 30
0.0
  0
VERTEX
  5
1C2
  8
1
  6
________________
 62
     7
 10
332.3863636363637
 20
502.6427292168637
 30
0.0
  0
VERTEX
  5
1C3
  8
1
  6
________________
 62
     7
 10
331.8181818181819
 20
501.8207625216323
 30
0.0
  0
VERTEX
  5
1C4
  8
1
  6
________________
 62
     7
 10
331.2500000000001
 20
501.1058887584779
 30
0.0
  0
VERTEX
  5
1C5
  8
1
  6
________________
 62
     7
 10
330.6818181818182
 20
500.5850788082215
 30
0.0
  0
VERTEX
  5
1C6
  8
1
  6
________________
 62
     7
 10
330.1136363636364
 20
500.345303551684
 30
0.0
  0
VERTEX
  5
1C7
  8
1
  6
________________
 62
     7
 10
329.5454545454546
 20
500.4586237594727
 30
0.0
  0
VERTEX
  5
1C8
  8
1
  6
________________
 62
     7
 10
328.9772727272727
 20
500.8869051688962
 30
0.0
  0
VERTEX
  5
1C9
  8
1
  6
________________
 62
     7
 10
328.4090909090909
 20
501.54262377718
 30
0.0
  0
VERTEX
  5
1CA
  8
1
  6
________________
 62
     7
 10
327.8409090909091
 20
502.3380226110773
 30
0.0
  0
VERTEX
  5
1CB
  8
1
  6
________________
 62
     7
 10
327.2727272727273
 20
503.1853446973416
 30
0.0
  0
VERTEX
  5
1CC
  8
1
  6
________________
 62
     7
 10
326.7045454545455
 20
503.9968330627262
 30
0.0
  0
VERTEX
  5
1CD
  8
1
  6
________________
 62
     7
 10
326.1363636363637
 20
504.6847307339844
 30
0.0
  0
VERTEX
  5
1CE
  8
1
  6
________________
 62
     7
 10
325.5681818181819
 20
505.1612807378696
 30
0.0
  0
VERTEX
  5
1CF
  8
1
  6
________________
 62
     7
 10
325.0000000000001
 20
505.3387261011351
 30
0.0
  0
VERTEX
  5
1D0
  8
1
  6
________________
 62
     7
 10
324.4318181818182
 20
505.1585972803594
 30
0.0
  0
VERTEX
  5
1D1
  8
1
  6
________________
 62
     7
 10
323.8636363636364
 20
504.6795744514216
 30
0.0
  0
VERTEX
  5
1D2
  8
1
  6
________________
 62
     7
 10
323.2954545454546
 20
503.9896252200261
 30
0.0
  0
VERTEX
  5
1D3
  8
1
  6
________________
 62
     7
 10
322.7272727272729
 20
503.1767171918771
 30
0.0
  0
VERTEX
  5
1D4
  8
1
  6
________________
 62
     7
 10
322.159090909091
 20
502.3288179726789
 30
0.0
  0
VERTEX
  5
1D5
  8
1
  6
________________
 62
     7
 10
321.5909090909092
 20
501.5338951681358
 30
0.0
  0
VERTEX
  5
1D6
  8
1
  6
________________
 62
     7
 10
321.0227272727274
 20
500.879916383952
 30
0.0
  0
VERTEX
  5
1D7
  8
1
  6
________________
 62
     7
 10
320.4545454545456
 20
500.454849225832
 30
0.0
  0
VERTEX
  5
1D8
  8
1
  6
________________
 62
     7
 10
319.8863636363638
 20
500.3464266439482
 30
0.0
  0
VERTEX
  5
1D9
  8
1
  6
________________
 62
     7
 10
319.318181818182
 20
500.5926346157419
 30
0.0
  0
VERTEX
  5
1DA
  8
1
  6
________________
 62
     7
 10
318.7500000000002
 20
501.120467052136
 30
0.0
  0
VERTEX
  5
1DB
  8
1
  6
________________
 62
     7
 10
318.1818181818183
 20
501.8418999100211
 30
0.0
  0
VERTEX
  5
1DC
  8
1
  6
________________
 62
     7
 10
317.6136363636365
 20
502.6689091462884
 30
0.0
  0
VERTEX
  5
1DD
  8
1
  6
________________
 62
     7
 10
317.0454545454547
 20
503.5134707178284
 30
0.0
  0
VERTEX
  5
1DE
  8
1
  6
________________
 62
     7
 10
316.4772727272729
 20
504.287560581532
 30
0.0
  0
VERTEX
  5
1DF
  8
1
  6
________________
 62
     7
 10
315.909090909091
 20
504.90315469429
 30
0.0
  0
VERTEX
  5
1E0
  8
1
  6
________________
 62
     7
 10
315.3409090909092
 20
505.272229012993
 30
0.0
  0
VERTEX
  5
1E1
  8
1
  6
________________
 62
     7
 10
314.7727272727274
 20
505.3086375020347
 30
0.0
  0
VERTEX
  5
1E2
  8
1
  6
________________
 62
     7
 10
314.2045454545456
 20
504.999241667477
 30
0.0
  0
VERTEX
  5
1E3
  8
1
  6
________________
 62
     7
 10
313.6363636363638
 20
504.4257423942694
 30
0.0
  0
VERTEX
  5
1E4
  8
1
  6
________________
 62
     7
 10
313.068181818182
 20
503.676178842683
 30
0.0
  0
VERTEX
  5
1E5
  8
1
  6
________________
 62
     7
 10
312.5000000000002
 20
502.8385901729894
 30
0.0
  0
VERTEX
  5
1E6
  8
1
  6
________________
 62
     7
 10
311.9318181818184
 20
502.0010155454594
 30
0.0
  0
VERTEX
  5
1E7
  8
1
  6
________________
 62
     7
 10
311.3636363636365
 20
501.2514941203646
 30
0.0
  0
VERTEX
  5
1E8
  8
1
  6
________________
 62
     7
 10
310.7954545454547
 20
500.678065057976
 30
0.0
  0
VERTEX
  5
1E9
  8
1
  6
________________
 62
     7
 10
310.2272727272729
 20
500.3687675185651
 30
0.0
  0
VERTEX
  5
1EA
  8
1
  6
________________
 62
     7
 10
309.6590909090911
 20
500.4053016977385
 30
0.0
  0
VERTEX
  5
1EB
  8
1
  6
________________
 62
     7
 10
309.0909090909093
 20
500.7745180976083
 30
0.0
  0
VERTEX
  5
1EC
  8
1
  6
________________
 62
     7
 10
308.5227272727275
 20
501.3902517384123
 30
0.0
  0
VERTEX
  5
1ED
  8
1
  6
________________
 62
     7
 10
307.9545454545457
 20
502.1644594286361
 30
0.0
  0
VERTEX
  5
1EE
  8
1
  6
________________
 62
     7
 10
307.3863636363639
 20
503.0090979767651
 30
0.0
  0
VERTEX
  5
1EF
  8
1
  6
________________
 62
     7
 10
306.818181818182
 20
503.836124191285
 30
0.0
  0
VERTEX
  5
1F0
  8
1
  6
________________
 62
     7
 10
306.2500000000002
 20
504.5574948806814
 30
0.0
  0
VERTEX
  5
1F1
  8
1
  6
________________
 62
     7
 10
305.6818181818184
 20
505.0851668534397
 30
0.0
  0
VERTEX
  5
1F2
  8
1
  6
________________
 62
     7
 10
305.1136363636366
 20
505.3310969180455
 30
0.0
  0
VERTEX
  5
1F3
  8
1
  6
________________
 62
     7
 10
304.5454545454548
 20
505.2222680070028
 30
0.0
  0
VERTEX
  5
1F4
  8
1
  6
________________
 62
     7
 10
303.977272727273
 20
504.7967155006381
 30
0.0
  0
VERTEX
  5
1F5
  8
1
  6
________________
 62
     7
 10
303.4090909090912
 20
504.1422488150889
 30
0.0
  0
VERTEX
  5
1F6
  8
1
  6
________________
 62
     7
 10
302.8409090909093
 20
503.3469121496806
 30
0.0
  0
VERTEX
  5
1F7
  8
1
  6
________________
 62
     7
 10
302.2727272727275
 20
502.4987497037384
 30
0.0
  0
VERTEX
  5
1F8
  8
1
  6
________________
 62
     7
 10
301.7045454545457
 20
501.6858056765876
 30
0.0
  0
VERTEX
  5
1F9
  8
1
  6
________________
 62
     7
 10
301.1363636363639
 20
500.9961242675532
 30
0.0
  0
VERTEX
  5
1FA
  8
1
  6
________________
 62
     7
 10
300.568181818182
 20
500.5177496759607
 30
0.0
  0
VERTEX
  5
1FB
  8
1
  6
________________
 62
     7
 10
300.0000000000002
 20
500.3387261011352
 30
0.0
  0
VERTEX
  5
1FC
  8
1
  6
________________
 62
     7
 10
299.4318181818184
 20
500.5177496759603
 30
0.0
  0
VERTEX
  5
1FD
  8
1
  6
________________
 62
     7
 10
298.8636363636366
 20
500.9961242675527
 30
0.0
  0
VERTEX
  5
1FE
  8
1
  6
________________
 62
     7
 10
298.2954545454548
 20
501.6858056765869
 30
0.0
  0
VERTEX
  5
1FF
  8
1
  6
________________
 62
     7
 10
297.727272727273
 20
502.4987497037378
 30
0.0
  0
VERTEX
  5
200
  8
1
  6
________________
 62
     7
 10
297.1590909090912
 20
503.34691214968
 30
0.0
  0
VERTEX
  5
201
  8
1
  6
________________
 62
     7
 10
296.5909090909093
 20
504.1422488150884
 30
0.0
  0
VERTEX
  5
202
  8
1
  6
________________
 62
     7
 10
296.0227272727275
 20
504.7967155006376
 30
0.0
  0
VERTEX
  5
203
  8
1
  6
________________
 62
     7
 10
295.4545454545457
 20
505.2222680070026
 30
0.0
  0
VERTEX
  5
204
  8
1
  6
________________
 62
     7
 10
294.8863636363639
 20
505.3310969180456
 30
0.0
  0
VERTEX
  5
205
  8
1
  6
________________
 62
     7
 10
294.3181818181822
 20
505.0851668534401
 30
0.0
  0
VERTEX
  5
206
  8
1
  6
________________
 62
     7
 10
293.7500000000003
 20
504.557494880682
 30
0.0
  0
VERTEX
  5
207
  8
1
  6
________________
 62
     7
 10
293.1818181818185
 20
503.8361241912857
 30
0.0
  0
VERTEX
  5
208
  8
1
  6
________________
 62
     7
 10
292.6136363636367
 20
503.0090979767658
 30
0.0
  0
VERTEX
  5
209
  8
1
  6
________________
 62
     7
 10
292.0454545454548
 20
502.1644594286367
 30
0.0
  0
VERTEX
  5
20A
  8
1
  6
________________
 62
     7
 10
291.477272727273
 20
501.3902517384128
 30
0.0
  0
VERTEX
  5
20B
  8
1
  6
________________
 62
     7
 10
290.9090909090911
 20
500.7745180976087
 30
0.0
  0
VERTEX
  5
20C
  8
1
  6
________________
 62
     7
 10
290.3409090909093
 20
500.4053016977387
 30
0.0
  0
VERTEX
  5
20D
  8
1
  6
________________
 62
     7
 10
289.7727272727275
 20
500.3687675185649
 30
0.0
  0
VERTEX
  5
20E
  8
1
  6
________________
 62
     7
 10
289.2045454545457
 20
500.6780650579757
 30
0.0
  0
VERTEX
  5
20F
  8
1
  6
________________
 62
     7
 10
288.6363636363639
 20
501.251494120364
 30
0.0
  0
VERTEX
  5
210
  8
1
  6
________________
 62
     7
 10
288.068181818182
 20
502.0010155454588
 30
0.0
  0
VERTEX
  5
211
  8
1
  6
________________
 62
     7
 10
287.5000000000002
 20
502.8385901729887
 30
0.0
  0
VERTEX
  5
212
  8
1
  6
________________
 62
     7
 10
286.9318181818184
 20
503.6761788426824
 30
0.0
  0
VERTEX
  5
213
  8
1
  6
________________
 62
     7
 10
286.3636363636366
 20
504.4257423942688
 30
0.0
  0
VERTEX
  5
214
  8
1
  6
________________
 62
     7
 10
285.7954545454548
 20
504.9992416674766
 30
0.0
  0
VERTEX
  5
215
  8
1
  6
________________
 62
     7
 10
285.227272727273
 20
505.3086375020345
 30
0.0
  0
VERTEX
  5
216
  8
1
  6
________________
 62
     7
 10
284.6590909090912
 20
505.2722290129931
 30
0.0
  0
VERTEX
  5
217
  8
1
  6
________________
 62
     7
 10
284.0909090909093
 20
504.9031546942903
 30
0.0
  0
VERTEX
  5
218
  8
1
  6
________________
 62
     7
 10
283.5227272727275
 20
504.2875605815325
 30
0.0
  0
VERTEX
  5
219
  8
1
  6
________________
 62
     7
 10
282.9545454545457
 20
503.513470717829
 30
0.0
  0
VERTEX
  5
21A
  8
1
  6
________________
 62
     7
 10
282.3863636363639
 20
502.668909146289
 30
0.0
  0
VERTEX
  5
21B
  8
1
  6
________________
 62
     7
 10
281.818181818182
 20
501.8418999100217
 30
0.0
  0
VERTEX
  5
21C
  8
1
  6
________________
 62
     7
 10
281.2500000000002
 20
501.1204670521363
 30
0.0
  0
VERTEX
  5
21D
  8
1
  6
________________
 62
     7
 10
280.6818181818184
 20
500.5926346157421
 30
0.0
  0
VERTEX
  5
21E
  8
1
  6
________________
 62
     7
 10
280.1136363636365
 20
500.3464266439482
 30
0.0
  0
VERTEX
  5
21F
  8
1
  6
________________
 62
     7
 10
279.5454545454547
 20
500.4548492258318
 30
0.0
  0
VERTEX
  5
220
  8
1
  6
________________
 62
     7
 10
278.9772727272729
 20
500.8799163839516
 30
0.0
  0
VERTEX
  5
221
  8
1
  6
________________
 62
     7
 10
278.4090909090911
 20
501.5338951681353
 30
0.0
  0
VERTEX
  5
222
  8
1
  6
________________
 62
     7
 10
277.8409090909093
 20
502.3288179726783
 30
0.0
  0
VERTEX
  5
223
  8
1
  6
________________
 62
     7
 10
277.2727272727274
 20
503.1767171918765
 30
0.0
  0
VERTEX
  5
224
  8
1
  6
________________
 62
     7
 10
276.7045454545456
 20
503.9896252200256
 30
0.0
  0
VERTEX
  5
225
  8
1
  6
________________
 62
     7
 10
276.1363636363637
 20
504.6795744514212
 30
0.0
  0
VERTEX
  5
226
  8
1
  6
________________
 62
     7
 10
275.5681818181819
 20
505.1585972803592
 30
0.0
  0
VERTEX
  5
227
  8
1
  6
________________
 62
     7
 10
275.0000000000001
 20
505.338726101135
 30
0.0
  0
VERTEX
  5
228
  8
1
  6
________________
 62
     7
 10
274.4318181818183
 20
505.1612807378697
 30
0.0
  0
VERTEX
  5
229
  8
1
  6
________________
 62
     7
 10
273.8636363636365
 20
504.6847307339847
 30
0.0
  0
VERTEX
  5
22A
  8
1
  6
________________
 62
     7
 10
273.2954545454547
 20
503.9968330627266
 30
0.0
  0
VERTEX
  5
22B
  8
1
  6
________________
 62
     7
 10
272.7272727272729
 20
503.1853446973421
 30
0.0
  0
VERTEX
  5
22C
  8
1
  6
________________
 62
     7
 10
272.1590909090911
 20
502.3380226110779
 30
0.0
  0
VERTEX
  5
22D
  8
1
  6
________________
 62
     7
 10
271.5909090909093
 20
501.5426237771804
 30
0.0
  0
VERTEX
  5
22E
  8
1
  6
________________
 62
     7
 10
271.0227272727275
 20
500.8869051688966
 30
0.0
  0
VERTEX
  5
22F
  8
1
  6
________________
 62
     7
 10
270.4545454545457
 20
500.458623759473
 30
0.0
  0
VERTEX
  5
230
  8
1
  6
________________
 62
     7
 10
269.8863636363639
 20
500.345303551684
 30
0.0
  0
VERTEX
  5
231
  8
1
  6
________________
 62
     7
 10
269.318181818182
 20
500.5850788082213
 30
0.0
  0
VERTEX
  5
232
  8
1
  6
________________
 62
     7
 10
268.7500000000002
 20
501.1058887584777
 30
0.0
  0
VERTEX
  5
233
  8
1
  6
________________
 62
     7
 10
268.1818181818184
 20
501.820762521632
 30
0.0
  0
VERTEX
  5
234
  8
1
  6
________________
 62
     7
 10
267.6136363636366
 20
502.6427292168634
 30
0.0
  0
VERTEX
  5
235
  8
1
  6
________________
 62
     7
 10
267.0454545454548
 20
503.4848179633507
 30
0.0
  0
VERTEX
  5
236
  8
1
  6
________________
 62
     7
 10
266.477272727273
 20
504.260057880273
 30
0.0
  0
VERTEX
  5
237
  8
1
  6
________________
 62
     7
 10
265.9090909090912
 20
504.8814780868093
 30
0.0
  0
VERTEX
  5
238
  8
1
  6
________________
 62
     7
 10
265.3409090909093
 20
505.2621077021385
 30
0.0
  0
VERTEX
  5
239
  8
1
  6
________________
 62
     7
 10
264.7727272727275
 20
505.3167999310333
 30
0.0
  0
VERTEX
  5
23A
  8
1
  6
________________
 62
     7
 10
264.2045454545457
 20
505.0313193057161
 30
0.0
  0
VERTEX
  5
23B
  8
1
  6
________________
 62
     7
 10
263.6363636363639
 20
504.4835466808847
 30
0.0
  0
VERTEX
  5
23C
  8
1
  6
________________
 62
     7
 10
263.068181818182
 20
503.7575192001152
 30
0.0
  0
VERTEX
  5
23D
  8
1
  6
________________
 62
     7
 10
262.5000000000002
 20
502.9372740069836
 30
0.0
  0
VERTEX
  5
23E
  8
1
  6
________________
 62
     7
 10
261.9318181818184
 20
502.106848245066
 30
0.0
  0
VERTEX
  5
23F
  8
1
  6
________________
 62
     7
 10
261.3636363636366
 20
501.3502790579385
 30
0.0
  0
VERTEX
  5
240
  8
1
  6
________________
 62
     7
 10
260.7954545454548
 20
500.7516035891771
 30
0.0
  0
VERTEX
  5
241
  8
1
  6
________________
 62
     7
 10
260.227272727273
 20
500.394858982358
 30
0.0
  0
VERTEX
  5
242
  8
1
  6
________________
 62
     7
 10
259.6590909090912
 20
500.3584258655557
 30
0.0
  0
VERTEX
  5
243
  8
1
  6
________________
 62
     7
 10
259.0909090909093
 20
500.6360466348959
 30
0.0
  0
VERTEX
  5
244
  8
1
  6
________________
 62
     7
 10
258.5227272727275
 20
501.1563090079498
 30
0.0
  0
VERTEX
  5
245
  8
1
  6
________________
 62
     7
 10
257.9545454545457
 20
501.8461246976952
 30
0.0
  0
VERTEX
  5
246
  8
1
  6
________________
 62
     7
 10
257.3863636363639
 20
502.6324054171104
 30
0.0
  0
VERTEX
  5
247
  8
1
  6
________________
 62
     7
 10
256.8181818181821
 20
503.4420628791732
 30
0.0
  0
VERTEX
  5
248
  8
1
  6
________________
 62
     7
 10
256.2500000000003
 20
504.2020087968618
 30
0.0
  0
VERTEX
  5
249
  8
1
  6
________________
 62
     7
 10
255.6818181818185
 20
504.8391548831542
 30
0.0
  0
VERTEX
  5
24A
  8
1
  6
________________
 62
     7
 10
255.1136363636367
 20
505.2804128510283
 30
0.0
  0
VERTEX
  5
24B
  8
1
  6
________________
 62
     7
 10
254.5454545454548
 20
505.4616812836551
 30
0.0
  0
VERTEX
  5
24C
  8
1
  6
________________
 62
     7
 10
253.977272727273
 20
505.3852773517244
 30
0.0
  0
VERTEX
  5
24D
  8
1
  6
________________
 62
     7
 10
253.4090909090912
 20
505.08328723344
 30
0.0
  0
VERTEX
  5
24E
  8
1
  6
________________
 62
     7
 10
252.8409090909093
 20
504.5879375268524
 30
0.0
  0
VERTEX
  5
24F
  8
1
  6
________________
 62
     7
 10
252.2727272727275
 20
503.9314548300122
 30
0.0
  0
VERTEX
  5
250
  8
1
  6
________________
 62
     7
 10
251.7045454545457
 20
503.1460657409699
 30
0.0
  0
VERTEX
  5
251
  8
1
  6
________________
 62
     7
 10
251.1363636363639
 20
502.263996857776
 30
0.0
  0
VERTEX
  5
252
  8
1
  6
________________
 62
     7
 10
250.5681818181821
 20
501.317474778481
 30
0.0
  0
VERTEX
  5
253
  8
1
  6
________________
 62
     7
 10
250.0
 20
500.338726101135
 30
0.0
  0
SEQEND
  5
254
  8
1
  6
________________
 62
     7
  0
ENDBLK
  8
0
  0
BLOCK
  8
0
  2
*X3
 70
     1
 10
0.0
 20
0.0
 30
0.0
  0
TEXT
  5
ED
  8
1
 62
     7
 10
289.9722727272727
 20
334.7272727272727
 30
0.0
 40
5.0
  1
GUH-100
  7
EXPLODED0
  0
LINE
  5
EE
  8
1
 62
     7
 10
289.9722727272727
 20
333.8139133522727
 30
0.0
 11
312.7222727272727
 21
333.8139133522727
 31
0.0
  0
ENDBLK
  8
0
  0
ENDSEC
  0
SECTION
  2
ENTITIES
  0
INSERT
  5
9C
  8
0
  6
________________
 62
     7
  2
_7165
 10
0.0
 20
0.0
 30
0.0
  0
ARC
  5
9D
  8
0
  6
________________
 62
     7
 10
300.0000000000001
 20
388.583068567583
 30
0.0
 40
48.70000000000002
 50
114.8996629470474
 51
225.3293532577921
  0
LINE
  5
9E
  8
0
  6
________________0
 62
     1
 10
247.9545212830525
 20
388.583068567583
 30
0.0
 11
352.0849678858305
 21
388.583068567583
 31
0.0
  0
LINE
  5
A0
  8
0
  6
________________0
 62
     1
 10
300.0000000000001
 20
337.9557215074765
 30
0.0
 11
300.0000000000001
 21
441.0427768617297
 31
0.0
  0
INSERT
  5
A1
  8
1
 62
     7
  2
*X3
 10
0.0
 20
0.0
 30
0.0
  0
INSERT
  5
C5
  8
1
  6
________________
 62
     7
  2
_11707
 10
0.0
 20
0.0
 30
0.0
  0
ENDSEC
  0
EOF
