  0
SECTION
  2
HEADER
  9
$ACADVER
  1
AC1014
  9
$ACADMAINTVER
 70
     9
  9
$DWGCODEPAGE
  3
ANSI_932
  9
$INSBASE
 10
0.0
 20
0.0
 30
0.0
  9
$EXTMIN
 10
253.471909102541
 20
348.6646540148824
 30
0.0
  9
$EXTMAX
 10
373.471909102541
 20
578.6259484137224
 30
0.0
  9
$LIMMIN
 10
0.0
 20
0.0
  9
$LIMMAX
 10
12.0
 20
9.0
  9
$ORTHOMODE
 70
     0
  9
$REGENMODE
 70
     1
  9
$FILLMODE
 70
     1
  9
$QTEXTMODE
 70
     0
  9
$MIRRTEXT
 70
     1
  9
$DRAGMODE
 70
     2
  9
$LTSCALE
 40
1.0
  9
$OSMODE
 70
    37
  9
$ATTMODE
 70
     1
  9
$TEXTSIZE
 40
0.2
  9
$TRACEWID
 40
0.05
  9
$TEXTSTYLE
  7
STANDARD
  9
$CLAYER
  8
0
  9
$CELTYPE
  6
BYLAYER
  9
$CECOLOR
 62
   256
  9
$CELTSCALE
 40
1.0
  9
$DELOBJ
 70
     1
  9
$DISPSILH
 70
     0
  9
$DIMSCALE
 40
1.0
  9
$DIMASZ
 40
3.0
  9
$DIMEXO
 40
0.0625
  9
$DIMDLI
 40
0.38
  9
$DIMRND
 40
0.0
  9
$DIMDLE
 40
0.0
  9
$DIMEXE
 40
1.5
  9
$DIMTP
 40
0.0
  9
$DIMTM
 40
0.0
  9
$DIMTXT
 40
3.0
  9
$DIMCEN
 40
0.09
  9
$DIMTSZ
 40
0.0
  9
$DIMTOL
 70
     0
  9
$DIMLIM
 70
     0
  9
$DIMTIH
 70
     1
  9
$DIMTOH
 70
     1
  9
$DIMSE1
 70
     0
  9
$DIMSE2
 70
     0
  9
$DIMTAD
 70
     1
  9
$DIMZIN
 70
     0
  9
$DIMBLK
  1

  9
$DIMASO
 70
     1
  9
$DIMSHO
 70
     1
  9
$DIMPOST
  1

  9
$DIMAPOST
  1

  9
$DIMALT
 70
     0
  9
$DIMALTD
 70
     2
  9
$DIMALTF
 40
25.4
  9
$DIMLFAC
 40
1.0
  9
$DIMTOFL
 70
     0
  9
$DIMTVP
 40
0.0
  9
$DIMTIX
 70
     0
  9
$DIMSOXD
 70
     0
  9
$DIMSAH
 70
     0
  9
$DIMBLK1
  1

  9
$DIMBLK2
  1

  9
$DIMSTYLE
  2
STANDARD
  9
$DIMCLRD
 70
     0
  9
$DIMCLRE
 70
     0
  9
$DIMCLRT
 70
     0
  9
$DIMTFAC
 40
1.0
  9
$DIMGAP
 40
1.5
  9
$DIMJUST
 70
     0
  9
$DIMSD1
 70
     0
  9
$DIMSD2
 70
     0
  9
$DIMTOLJ
 70
     1
  9
$DIMTZIN
 70
     0
  9
$DIMALTZ
 70
     0
  9
$DIMALTTZ
 70
     0
  9
$DIMFIT
 70
     3
  9
$DIMUPT
 70
     0
  9
$DIMUNIT
 70
     2
  9
$DIMDEC
 70
     2
  9
$DIMTDEC
 70
     4
  9
$DIMALTU
 70
     2
  9
$DIMALTTD
 70
     2
  9
$DIMTXSTY
  7
ＭＳ_ゴシック
  9
$DIMAUNIT
 70
     0
  9
$LUNITS
 70
     2
  9
$LUPREC
 70
     4
  9
$SKETCHINC
 40
0.1
  9
$FILLETRAD
 40
0.5
  9
$AUNITS
 70
     0
  9
$AUPREC
 70
     0
  9
$MENU
  1
.
  9
$ELEVATION
 40
0.0
  9
$PELEVATION
 40
0.0
  9
$THICKNESS
 40
0.0
  9
$LIMCHECK
 70
     0
  9
$CHAMFERA
 40
0.0
  9
$CHAMFERB
 40
0.0
  9
$CHAMFERC
 40
0.0
  9
$CHAMFERD
 40
0.0
  9
$SKPOLY
 70
     0
  9
$TDCREATE
 40
2459991.705063241
  9
$TDUPDATE
 40
2459991.705063461
  9
$TDINDWG
 40
0.0000000116
  9
$TDUSRTIMER
 40
0.0000000116
  9
$USRTIMER
 70
     1
  9
$ANGBASE
 50
0.0
  9
$ANGDIR
 70
     0
  9
$PDMODE
 70
     0
  9
$PDSIZE
 40
0.0
  9
$PLINEWID
 40
0.0
  9
$COORDS
 70
     1
  9
$SPLFRAME
 70
     0
  9
$SPLINETYPE
 70
     6
  9
$SPLINESEGS
 70
     8
  9
$ATTDIA
 70
     0
  9
$ATTREQ
 70
     1
  9
$HANDLING
 70
     1
  9
$HANDSEED
  5
126
  9
$SURFTAB1
 70
     6
  9
$SURFTAB2
 70
     6
  9
$SURFTYPE
 70
     6
  9
$SURFU
 70
     6
  9
$SURFV
 70
     6
  9
$UCSNAME
  2

  9
$UCSORG
 10
0.0
 20
0.0
 30
0.0
  9
$UCSXDIR
 10
1.0
 20
0.0
 30
0.0
  9
$UCSYDIR
 10
0.0
 20
1.0
 30
0.0
  9
$PUCSNAME
  2

  9
$PUCSORG
 10
0.0
 20
0.0
 30
0.0
  9
$PUCSXDIR
 10
1.0
 20
0.0
 30
0.0
  9
$PUCSYDIR
 10
0.0
 20
1.0
 30
0.0
  9
$USERI1
 70
     0
  9
$USERI2
 70
     0
  9
$USERI3
 70
     0
  9
$USERI4
 70
     0
  9
$USERI5
 70
     0
  9
$USERR1
 40
0.0
  9
$USERR2
 40
0.0
  9
$USERR3
 40
0.0
  9
$USERR4
 40
0.0
  9
$USERR5
 40
0.0
  9
$WORLDVIEW
 70
     1
  9
$SHADEDGE
 70
     3
  9
$SHADEDIF
 70
    70
  9
$TILEMODE
 70
     1
  9
$MAXACTVP
 70
    64
  9
$PINSBASE
 10
0.0
 20
0.0
 30
0.0
  9
$PLIMCHECK
 70
     0
  9
$PEXTMIN
 10
1.000000000000000E+20
 20
1.000000000000000E+20
 30
1.000000000000000E+20
  9
$PEXTMAX
 10
-1.000000000000000E+20
 20
-1.000000000000000E+20
 30
-1.000000000000000E+20
  9
$PLIMMIN
 10
0.0
 20
0.0
  9
$PLIMMAX
 10
12.0
 20
9.0
  9
$UNITMODE
 70
     0
  9
$VISRETAIN
 70
     1
  9
$PLINEGEN
 70
     0
  9
$PSLTSCALE
 70
     1
  9
$TREEDEPTH
 70
  3020
  9
$PICKSTYLE
 70
     1
  9
$CMLSTYLE
  2
STANDARD
  9
$CMLJUST
 70
     0
  9
$CMLSCALE
 40
1.0
  9
$PROXYGRAPHICS
 70
     1
  9
$MEASUREMENT
 70
     1
  0
ENDSEC
  0
SECTION
  2
CLASSES
  0
CLASS
  1
ACDBDICTIONARYWDFLT
  2
AcDbDictionaryWithDefault
  3
ObjectDBX Classes
 90
        0
280
     0
281
     0
  0
CLASS
  1
VISUALSTYLE
  2
AcDbVisualStyle
  3
ObjectDBX Classes
 90
     4095
280
     0
281
     0
  0
CLASS
  1
MATERIAL
  2
AcDbMaterial
  3
ObjectDBX Classes
 90
     1153
280
     0
281
     0
  0
CLASS
  1
SCALE
  2
AcDbScale
  3
ObjectDBX Classes
 90
     1153
280
     0
281
     0
  0
CLASS
  1
TABLESTYLE
  2
AcDbTableStyle
  3
ObjectDBX Classes
 90
     4095
280
     0
281
     0
  0
CLASS
  1
MLEADERSTYLE
  2
AcDbMLeaderStyle
  3
ACDB_MLEADERSTYLE_CLASS
 90
     4095
280
     0
281
     0
  0
CLASS
  1
SUN
  2
AcDbSun
  3
SCENEOE
 90
     1153
280
     0
281
     0
  0
CLASS
  1
DICTIONARYVAR
  2
AcDbDictionaryVar
  3
ObjectDBX Classes
 90
        0
280
     0
281
     0
  0
CLASS
  1
XRECORD
  2
AcDbXrecord
  3
ObjectDBX Classes
 90
        0
280
     0
281
     0
  0
CLASS
  1
LWPOLYLINE
  2
AcDbPolyline
  3
ObjectDBX Classes
 90
        0
280
     0
281
     1
  0
CLASS
  1
HATCH
  2
AcDbHatch
  3
ObjectDBX Classes
 90
        0
280
     0
281
     1
  0
CLASS
  1
ACDBPLACEHOLDER
  2
AcDbPlaceHolder
  3
ObjectDBX Classes
 90
        0
280
     0
281
     0
  0
CLASS
  1
LAYOUT
  2
AcDbLayout
  3
ObjectDBX Classes
 90
        0
280
     0
281
     0
  0
ENDSEC
  0
SECTION
  2
TABLES
  0
TABLE
  2
VPORT
  5
8
102
{ACAD_XDICTIONARY
360
11B
102
}
330
0
100
AcDbSymbolTable
 70
     1
  0
VPORT
  5
29
330
8
100
AcDbSymbolTableRecord
100
AcDbViewportTableRecord
  2
*ACTIVE
 70
     0
 10
0.0
 20
0.0
 11
1.0
 21
1.0
 12
313.471909102541
 22
463.6453012143024
 13
0.0
 23
0.0
 14
0.5
 24
0.5
 15
0.5
 25
0.5
 16
0.0
 26
0.0
 36
1.0
 17
0.0
 27
0.0
 37
0.0
 40
229.96129439884
 41
1.6
 42
50.0
 43
0.0
 44
0.0
 50
0.0
 51
0.0
 71
     0
 72
   100
 73
     1
 74
     3
 75
     0
 76
     0
 77
     0
 78
     0
  0
ENDTAB
  0
TABLE
  2
LTYPE
  5
5
330
0
100
AcDbSymbolTable
 70
     2
  0
LTYPE
  5
14
330
5
100
AcDbSymbolTableRecord
100
AcDbLinetypeTableRecord
  2
BYBLOCK
 70
     0
  3

 72
    65
 73
     0
 40
0.0
  0
LTYPE
  5
15
330
5
100
AcDbSymbolTableRecord
100
AcDbLinetypeTableRecord
  2
BYLAYER
 70
     0
  3

 72
    65
 73
     0
 40
0.0
  0
LTYPE
  5
16
330
5
100
AcDbSymbolTableRecord
100
AcDbLinetypeTableRecord
  2
CONTINUOUS
 70
     0
  3
Solid line
 72
    65
 73
     0
 40
0.0
  0
LTYPE
  5
71
330
5
100
AcDbSymbolTableRecord
100
AcDbLinetypeTableRecord
  2
________________
 70
     0
  3

 72
    65
 73
     4
 40
6.0
 49
2.25
 74
     0
 49
-1.5
 74
     0
 49
0.7499999999999999
 74
     0
 49
-1.5
 74
     0
  0
ENDTAB
  0
TABLE
  2
LAYER
  5
2
330
0
100
AcDbSymbolTable
 70
     1
  0
LAYER
  5
10
330
2
100
AcDbSymbolTableRecord
100
AcDbLayerTableRecord
  2
0
 70
     0
 62
     7
  6
CONTINUOUS
  0
ENDTAB
  0
TABLE
  2
STYLE
  5
3
330
0
100
AcDbSymbolTable
 70
     2
  0
STYLE
  5
11
330
3
100
AcDbSymbolTableRecord
100
AcDbTextStyleTableRecord
  2
STANDARD
 70
     0
 40
0.0
 41
1.0
 50
0.0
 71
     0
 42
0.2
  3
txt
  4

  0
STYLE
  5
6E
330
3
100
AcDbSymbolTableRecord
100
AcDbTextStyleTableRecord
  2
ＭＳ_ゴシック
 70
     0
 40
0.0
 41
1.0
 50
0.0
 71
     0
 42
0.2
  3
ＭＳ ゴシック.shx
  4

  0
ENDTAB
  0
TABLE
  2
VIEW
  5
6
330
0
100
AcDbSymbolTable
 70
     0
  0
ENDTAB
  0
TABLE
  2
UCS
  5
7
330
0
100
AcDbSymbolTable
 70
     0
  0
ENDTAB
  0
TABLE
  2
APPID
  5
9
330
0
100
AcDbSymbolTable
 70
     2
  0
APPID
  5
12
330
9
100
AcDbSymbolTableRecord
100
AcDbRegAppTableRecord
  2
ACAD
 70
     0
  0
APPID
  5
125
330
9
100
AcDbSymbolTableRecord
100
AcDbRegAppTableRecord
  2
ACAD_MLEADERVER
 70
     0
  0
ENDTAB
  0
TABLE
  2
DIMSTYLE
  5
A
330
0
100
AcDbSymbolTable
 70
     1
  0
DIMSTYLE
105
27
330
A
100
AcDbSymbolTableRecord
100
AcDbDimStyleTableRecord
  2
STANDARD
 70
     0
  3

  4

  5

  6

  7

 40
1.0
 41
0.18
 42
0.0625
 43
0.38
 44
0.18
 45
0.0
 46
0.0
 47
0.0
 48
0.0
140
0.18
141
0.09
142
0.0
143
25.4
144
1.0
145
0.0
146
1.0
147
0.09
 71
     0
 72
     0
 73
     1
 74
     1
 75
     0
 76
     0
 77
     0
 78
     0
170
     0
171
     2
172
     0
173
     0
174
     0
175
     0
176
     0
177
     0
178
     0
270
     2
271
     4
272
     4
273
     2
274
     2
340
11
275
     0
280
     0
281
     0
282
     0
283
     1
284
     0
285
     0
286
     0
287
     3
288
     0
  0
ENDTAB
  0
TABLE
  2
BLOCK_RECORD
  5
1
330
0
100
AcDbSymbolTable
 70
     0
  0
BLOCK_RECORD
  5
1F
330
1
100
AcDbSymbolTableRecord
100
AcDbBlockTableRecord
  2
*MODEL_SPACE
  0
BLOCK_RECORD
  5
1B
330
1
100
AcDbSymbolTableRecord
100
AcDbBlockTableRecord
  2
*PAPER_SPACE
  0
ENDTAB
  0
ENDSEC
  0
SECTION
  2
BLOCKS
  0
BLOCK
  5
20
330
1F
100
AcDbEntity
  8
0
100
AcDbBlockBegin
  2
*MODEL_SPACE
 70
     0
 10
0.0
 20
0.0
 30
0.0
  3
*MODEL_SPACE
  1

  0
ENDBLK
  5
21
330
1F
100
AcDbEntity
  8
0
100
AcDbBlockEnd
  0
BLOCK
  5
1C
330
1B
100
AcDbEntity
 67
     1
  8
0
100
AcDbBlockBegin
  2
*PAPER_SPACE
 70
     0
 10
0.0
 20
0.0
 30
0.0
  3
*PAPER_SPACE
  1

  0
ENDBLK
  5
1D
330
1B
100
AcDbEntity
 67
     1
  8
0
100
AcDbBlockEnd
  0
ENDSEC
  0
SECTION
  2
ENTITIES
  0
ARC
  5
6F
330
1F
100
AcDbEntity
  8
0
  6
CONTINUOUS
 62
     7
100
AcDbCircle
 10
313.471909102541
 20
417.6819497576126
 30
0.0
 40
56.20000000000004
100
AcDbArc
 50
110.5595074063915
 51
228.7534666313271
  0
LINE
  5
70
330
1F
100
AcDbEntity
  8
0
  6
________________
 62
     1
100
AcDbLine
 10
254.0714374165707
 20
417.6819497576126
 30
0.0
 11
372.8441412069779
 21
417.6819497576126
 31
0.0
  0
ARC
  5
72
330
1F
100
AcDbEntity
  8
0
  6
CONTINUOUS
 62
     7
100
AcDbCircle
 10
313.471909102541
 20
417.6819497576126
 30
0.0
 40
56.19999999999997
100
AcDbArc
 50
311.2465333686728
 51
69.4404925936086
  0
LINE
  5
73
330
1F
100
AcDbEntity
  8
0
  6
________________
 62
     1
100
AcDbLine
 10
313.471909102541
 20
359.6975397400566
 30
0.0
 11
313.471909102541
 21
477.6587170038334
 31
0.0
  0
MTEXT
  5
74
330
1F
100
AcDbEntity
  8
0
 62
     7
100
AcDbMText
 10
304.046159687074
 20
354.0552861171552
 30
0.0
 40
5.0
 41
0.0
 71
     1
 72
     1
  1
{\fＭＳ ゴシック;GUH-120}
  0
LINE
  5
75
330
1F
100
AcDbEntity
  8
0
  6
CONTINUOUS
 62
     7
100
AcDbLine
 10
303.7052505961649
 20
348.6646540148824
 30
0.0
 11
326.4552505961649
 21
348.6646540148824
 31
0.0
  0
LINE
  5
76
330
1F
100
AcDbEntity
  8
0
  6
CONTINUOUS
 62
     7
100
AcDbLine
 10
329.9079863894432
 20
528.0982601842243
 30
0.0
 11
329.9079863894432
 21
557.097823764651
 31
0.0
  0
LINE
  5
77
330
1F
100
AcDbEntity
  8
0
  6
CONTINUOUS
 62
     7
100
AcDbLine
 10
297.0358318156389
 20
528.0982601842243
 30
0.0
 11
297.0358318156389
 21
557.0978237646509
 31
0.0
  0
LINE
  5
78
330
1F
100
AcDbEntity
  8
0
  6
CONTINUOUS
 62
     7
100
AcDbLine
 10
329.9079863894432
 20
528.0982601842243
 30
0.0
 11
297.0358318156389
 21
528.0982601842243
 31
0.0
  0
LINE
  5
79
330
1F
100
AcDbEntity
  8
0
  6
CONTINUOUS
 62
     7
100
AcDbLine
 10
332.3275258300213
 20
528.0982601842243
 30
0.0
 11
332.3275258300213
 21
553.764165892595
 31
0.0
  0
LINE
  5
7A
330
1F
100
AcDbEntity
  8
0
  6
CONTINUOUS
 62
     7
100
AcDbLine
 10
333.2082262320328
 20
553.1385217481779
 30
0.0
 11
333.2082262320328
 21
528.0982601842242
 31
0.0
  0
LINE
  5
7B
330
1F
100
AcDbEntity
  8
0
  6
CONTINUOUS
 62
     7
100
AcDbLine
 10
333.2082262320328
 20
528.0982601842243
 30
0.0
 11
332.3275258300213
 21
528.0982601842243
 31
0.0
  0
LINE
  5
7C
330
1F
100
AcDbEntity
  8
0
  6
CONTINUOUS
 62
     7
100
AcDbLine
 10
293.7355919730492
 20
528.0982601842243
 30
0.0
 11
293.7355919730492
 21
553.1385217481779
 31
0.0
  0
LINE
  5
7D
330
1F
100
AcDbEntity
  8
0
  6
CONTINUOUS
 62
     7
100
AcDbLine
 10
294.6162923750608
 20
553.764165892595
 30
0.0
 11
294.6162923750608
 21
528.0982601842242
 31
0.0
  0
LINE
  5
7E
330
1F
100
AcDbEntity
  8
0
  6
CONTINUOUS
 62
     7
100
AcDbLine
 10
294.6162923750607
 20
528.0982601842243
 30
0.0
 11
293.7355919730492
 21
528.0982601842243
 31
0.0
  0
LINE
  5
7F
330
1F
100
AcDbEntity
  8
0
  6
CONTINUOUS
 62
     7
100
AcDbLine
 10
369.671909102541
 20
528.0982601842243
 30
0.0
 11
333.2082262320328
 21
528.0982601842243
 31
0.0
  0
LINE
  5
80
330
1F
100
AcDbEntity
  8
0
  6
CONTINUOUS
 62
     7
100
AcDbLine
 10
293.7355919730492
 20
528.0982601842243
 30
0.0
 11
257.271909102541
 21
528.0982601842243
 31
0.0
  0
LINE
  5
81
330
1F
100
AcDbEntity
  8
0
  6
CONTINUOUS
 62
     7
100
AcDbLine
 10
294.6162923750608
 20
528.0982601842243
 30
0.0
 11
297.0358318156389
 21
528.0982601842243
 31
0.0
  0
LINE
  5
82
330
1F
100
AcDbEntity
  8
0
  6
CONTINUOUS
 62
     7
100
AcDbLine
 10
329.9079863894432
 20
528.0982601842243
 30
0.0
 11
332.3275258300213
 21
528.0982601842243
 31
0.0
  0
LINE
  5
83
330
1F
100
AcDbEntity
  8
0
  6
CONTINUOUS
 62
     7
100
AcDbLine
 10
369.671909102541
 20
528.0982601842243
 30
0.0
 11
369.671909102541
 21
558.0732895764693
 31
0.0
  0
LINE
  5
84
330
1F
100
AcDbEntity
  8
0
  6
CONTINUOUS
 62
     7
100
AcDbLine
 10
257.271909102541
 20
558.073289576469
 30
0.0
 11
257.271909102541
 21
528.0982601842242
 31
0.0
  0
LINE
  5
85
330
1F
100
AcDbEntity
  8
0
  6
CONTINUOUS
 62
     7
100
AcDbLine
 10
329.9079863894432
 20
562.097823764651
 30
0.0
 11
329.9079863894432
 21
578.6259484137224
 31
0.0
  0
LINE
  5
86
330
1F
100
AcDbEntity
  8
0
  6
CONTINUOUS
 62
     7
100
AcDbLine
 10
297.0358318156389
 20
562.0978237646508
 30
0.0
 11
297.0358318156389
 21
578.6259484137224
 31
0.0
  0
LINE
  5
87
330
1F
100
AcDbEntity
  8
0
  6
CONTINUOUS
 62
     7
100
AcDbLine
 10
329.9079863894432
 20
578.6259484137224
 30
0.0
 11
297.0358318156389
 21
578.6259484137224
 31
0.0
  0
LINE
  5
88
330
1F
100
AcDbEntity
  8
0
  6
CONTINUOUS
 62
     7
100
AcDbLine
 10
332.3275258300213
 20
558.764165892595
 30
0.0
 11
332.3275258300213
 21
578.6259484137224
 31
0.0
  0
LINE
  5
89
330
1F
100
AcDbEntity
  8
0
  6
CONTINUOUS
 62
     7
100
AcDbLine
 10
333.2082262320328
 20
578.6259484137224
 30
0.0
 11
333.2082262320328
 21
558.1385217481778
 31
0.0
  0
LINE
  5
8A
330
1F
100
AcDbEntity
  8
0
  6
CONTINUOUS
 62
     7
100
AcDbLine
 10
332.3275258300213
 20
578.6259484137224
 30
0.0
 11
333.2082262320328
 21
578.6259484137224
 31
0.0
  0
LINE
  5
8B
330
1F
100
AcDbEntity
  8
0
  6
CONTINUOUS
 62
     7
100
AcDbLine
 10
293.7355919730492
 20
558.1385217481778
 30
0.0
 11
293.7355919730492
 21
578.6259484137224
 31
0.0
  0
LINE
  5
8C
330
1F
100
AcDbEntity
  8
0
  6
CONTINUOUS
 62
     7
100
AcDbLine
 10
294.6162923750608
 20
578.6259484137224
 30
0.0
 11
294.6162923750608
 21
558.7641658925947
 31
0.0
  0
LINE
  5
8D
330
1F
100
AcDbEntity
  8
0
  6
CONTINUOUS
 62
     7
100
AcDbLine
 10
293.7355919730492
 20
578.6259484137224
 30
0.0
 11
294.6162923750607
 21
578.6259484137224
 31
0.0
  0
LINE
  5
8E
330
1F
100
AcDbEntity
  8
0
  6
CONTINUOUS
 62
     7
100
AcDbLine
 10
369.671909102541
 20
578.6259484137224
 30
0.0
 11
333.2082262320328
 21
578.6259484137224
 31
0.0
  0
LINE
  5
8F
330
1F
100
AcDbEntity
  8
0
  6
CONTINUOUS
 62
     7
100
AcDbLine
 10
293.7355919730492
 20
578.6259484137224
 30
0.0
 11
257.271909102541
 21
578.6259484137224
 31
0.0
  0
LINE
  5
90
330
1F
100
AcDbEntity
  8
0
  6
CONTINUOUS
 62
     7
100
AcDbLine
 10
294.6162923750608
 20
578.6259484137224
 30
0.0
 11
297.0358318156389
 21
578.6259484137224
 31
0.0
  0
LINE
  5
91
330
1F
100
AcDbEntity
  8
0
  6
CONTINUOUS
 62
     7
100
AcDbLine
 10
329.9079863894432
 20
578.6259484137224
 30
0.0
 11
332.3275258300213
 21
578.6259484137224
 31
0.0
  0
LINE
  5
92
330
1F
100
AcDbEntity
  8
0
  6
CONTINUOUS
 62
     7
100
AcDbLine
 10
369.671909102541
 20
563.0732895764689
 30
0.0
 11
369.671909102541
 21
578.6259484137224
 31
0.0
  0
LINE
  5
93
330
1F
100
AcDbEntity
  8
0
  6
CONTINUOUS
 62
     7
100
AcDbLine
 10
257.271909102541
 20
578.6259484137224
 30
0.0
 11
257.271909102541
 21
563.0732895764689
 31
0.0
  0
LWPOLYLINE
  5
94
330
1F
100
AcDbEntity
  8
0
  6
CONTINUOUS
 62
     7
100
AcDbPolyline
 90
      209
 70
     0
 43
0.0
 10
373.471909102541
 20
553.0982601842243
 10
372.894986025618
 20
554.0918974355742
 10
372.3180629486949
 20
555.0517977072853
 10
371.7411398717718
 20
555.944224019719
 10
371.1642167948487
 20
556.7354393932364
 10
370.5872937179257
 20
557.3917068481989
 10
370.0103706410026
 20
557.8792894049674
 10
369.4334475640795
 20
558.1644500839035
 10
368.8565244871564
 20
558.2134519053683
 10
368.2796014102334
 20
557.9932384498179
 10
367.7026783333104
 20
557.5115869033995
 10
367.1257552563872
 20
556.8395665410807
 10
366.5488321794642
 20
556.0536911185886
 10
365.9719091025411
 20
555.2304743916499
 10
365.394986025618
 20
554.4464301159911
 10
364.818062948695
 20
553.7780720473395
 10
364.2411398717719
 20
553.3019139414214
 10
363.6642167948489
 20
553.0944695539637
 10
363.0872937179257
 20
553.2241297017273
 10
362.5103706410027
 20
553.6648560359935
 10
361.9334475640796
 20
554.3296881657984
 10
361.3565244871565
 20
555.1306503328082
 10
360.7796014102334
 20
555.979766778688
 10
360.2026783333104
 20
556.7890617451039
 10
359.6257552563873
 20
557.4705594737214
 10
359.0488321794642
 20
557.9362842062064
 10
358.4719091025411
 20
558.0982601842244
 10
357.894986025618
 20
557.8983487746094
 10
357.3180629486949
 20
557.3977598448697
 10
356.7411398717719
 20
556.6875403876816
 10
356.1642167948488
 20
555.8587373957218
 10
355.5872937179257
 20
555.0023978616667
 10
355.0103706410026
 20
554.2095687781929
 10
354.4334475640796
 20
553.5712971379767
 10
353.8565244871565
 20
553.1786299336949
 10
353.2796014102335
 20
553.1214850412331
 10
352.7026783333104
 20
553.422033329027
 10
352.1257552563873
 20
553.9974378039659
 10
351.5488321794642
 20
554.7558285386119
 10
350.9719091025411
 20
555.6053356055273
 10
350.3949860256181
 20
556.4540890772743
 10
349.818062948695
 20
557.2102190264152
 10
349.2411398717719
 20
557.7818555255122
 10
348.6642167948488
 20
558.0771286471278
 10
348.0872937179258
 20
558.0132529260254
 10
347.5103706410026
 20
557.61304977006
 10
346.9334475640796
 20
556.9674740535967
 10
346.3565244871565
 20
556.1686162087758
 10
345.7796014102334
 20
555.308566667738
 10
345.2026783333103
 20
554.4794158626235
 10
344.6257552563872
 20
553.7732542255728
 10
344.0488321794641
 20
553.2821721887261
 10
343.4719091025411
 20
553.0982601842243
 10
342.894986025618
 20
553.2829019861522
 10
342.3180629486949
 20
553.7746547363754
 10
341.7411398717718
 20
554.4813689187037
 10
341.1642167948488
 20
555.3108950169474
 10
340.5872937179257
 20
556.1710835149164
 10
340.0103706410026
 20
556.969784896421
 10
339.4334475640796
 20
557.6148496452711
 10
338.8565244871564
 20
558.0141282452769
 10
338.2796014102334
 20
558.0766089263218
 10
337.7026783333103
 20
557.7795446826873
 10
337.1257552563873
 20
557.2059988934723
 10
336.5488321794642
 20
556.4481369063619
 10
335.9719091025412
 20
555.5981240690414
 10
335.3949860256181
 20
554.748125729196
 10
334.818062948695
 20
553.9903072345109
 10
334.2411398717719
 20
553.4168339326712
 10
333.6642167948489
 20
553.1198711713624
 10
333.0872937179258
 20
553.1824813384028
 10
332.5103706410027
 20
553.5819049131596
 10
331.9334475640797
 20
554.2271101759992
 10
331.3565244871566
 20
555.0259275373045
 10
330.7796014102335
 20
555.8861874074587
 10
330.2026783333105
 20
556.7157201968448
 10
329.6257552563874
 20
557.4223563158457
 10
329.0488321794643
 20
557.9139261748446
 10
328.4719091025412
 20
558.0982601842244
 10
327.8949860256182
 20
557.9139121402789
 10
327.3180629486951
 20
557.422329382946
 10
326.741139871772
 20
556.7156826380744
 10
326.1642167948489
 20
555.8861426315128
 10
325.5872937179258
 20
555.02588008911
 10
325.0103706410027
 20
554.2270657367145
 10
324.4334475640796
 20
553.5818703001751
 10
323.8565244871566
 20
553.1824645053405
 10
323.2796014102335
 20
553.1198811659933
 10
322.7026783333104
 20
553.4168783719563
 10
322.1257552563873
 20
553.9903883909134
 10
321.5488321794642
 20
554.7482401940209
 10
320.9719091025412
 20
555.5982627524351
 10
320.3949860256182
 20
556.448285037312
 10
319.8180629486951
 20
557.2061360198078
 10
319.241139871772
 20
557.7796446710787
 10
318.6642167948489
 20
558.076639962281
 10
318.0872937179258
 20
558.0140541798021
 10
317.5103706410028
 20
557.614645649595
 10
316.9334475640797
 20
556.9694475618484
 10
316.3565244871566
 20
556.1706310211548
 10
315.7796014102336
 20
555.3103671321069
 10
315.2026783333105
 20
554.4808269992973
 10
314.6257552563874
 20
553.7741817273186
 10
314.0488321794643
 20
553.2826024207635
 10
313.4719091025412
 20
553.0982601842244
 10
312.8949860256182
 20
553.2826024207632
 10
312.3180629486951
 20
553.7741817273181
 10
311.741139871772
 20
554.4808269992967
 10
311.1642167948489
 20
555.3103671321063
 10
310.5872937179259
 20
556.1706310211541
 10
310.0103706410029
 20
556.9694475618479
 10
309.4334475640797
 20
557.6146456495946
 10
308.8565244871566
 20
558.014054179802
 10
308.2796014102336
 20
558.0766399622811
 10
307.7026783333105
 20
557.7796446710792
 10
307.1257552563874
 20
557.2061360198084
 10
306.5488321794643
 20
556.4482850373126
 10
305.9719091025412
 20
555.5982627524357
 10
305.3949860256182
 20
554.7482401940215
 10
304.8180629486951
 20
553.990388390914
 10
304.241139871772
 20
553.4168783719566
 10
303.664216794849
 20
553.1198811659935
 10
303.0872937179259
 20
553.1824645053404
 10
302.5103706410028
 20
553.5818703001746
 10
301.9334475640798
 20
554.2270657367139
 10
301.3565244871567
 20
555.0258800891093
 10
300.7796014102336
 20
555.8861426315121
 10
300.2026783333105
 20
556.7156826380738
 10
299.6257552563874
 20
557.4223293829456
 10
299.0488321794643
 20
557.9139121402785
 10
298.4719091025413
 20
558.0982601842242
 10
297.8949860256182
 20
557.9139261748447
 10
297.3180629486952
 20
557.4223563158461
 10
296.7411398717721
 20
556.7157201968454
 10
296.164216794849
 20
555.8861874074593
 10
295.5872937179259
 20
555.0259275373052
 10
295.0103706410029
 20
554.2271101759997
 10
294.4334475640798
 20
553.58190491316
 10
293.8565244871567
 20
553.182481338403
 10
293.2796014102336
 20
553.1198711713624
 10
292.7026783333106
 20
553.4168339326709
 10
292.1257552563875
 20
553.9903072345103
 10
291.5488321794644
 20
554.7481257291953
 10
290.9719091025413
 20
555.5981240690408
 10
290.3949860256182
 20
556.4481369063614
 10
289.8180629486952
 20
557.2059988934718
 10
289.2411398717721
 20
557.779544682687
 10
288.664216794849
 20
558.0766089263216
 10
288.0872937179259
 20
558.014128245277
 10
287.5103706410029
 20
557.6148496452714
 10
286.9334475640798
 20
556.9697848964214
 10
286.3565244871567
 20
556.171083514917
 10
285.7796014102336
 20
555.3108950169479
 10
285.2026783333105
 20
554.4813689187042
 10
284.6257552563874
 20
553.7746547363757
 10
284.0488321794644
 20
553.2829019861524
 10
283.4719091025414
 20
553.0982601842243
 10
282.8949860256183
 20
553.2821721887259
 10
282.3180629486952
 20
553.7732542255723
 10
281.7411398717721
 20
554.4794158626229
 10
281.164216794849
 20
555.3085666677374
 10
280.587293717926
 20
556.1686162087752
 10
280.0103706410029
 20
556.9674740535961
 10
279.4334475640798
 20
557.6130497700595
 10
278.8565244871568
 20
558.0132529260252
 10
278.2796014102337
 20
558.0771286471279
 10
277.7026783333106
 20
557.7818555255126
 10
277.1257552563875
 20
557.2102190264156
 10
276.5488321794644
 20
556.4540890772748
 10
275.9719091025414
 20
555.6053356055278
 10
275.3949860256182
 20
554.7558285386124
 10
274.8180629486952
 20
553.9974378039662
 10
274.2411398717721
 20
553.4220333290273
 10
273.664216794849
 20
553.1214850412329
 10
273.0872937179259
 20
553.1786299336945
 10
272.5103706410028
 20
553.5712971379762
 10
271.9334475640798
 20
554.2095687781922
 10
271.3565244871567
 20
555.002397861666
 10
270.7796014102337
 20
555.8587373957212
 10
270.2026783333105
 20
556.687540387681
 10
269.6257552563875
 20
557.3977598448691
 10
269.0488321794645
 20
557.8983487746092
 10
268.4719091025414
 20
558.0982601842243
 10
267.8949860256183
 20
557.9362842062067
 10
267.3180629486952
 20
557.4705594737219
 10
266.7411398717721
 20
556.7890617451045
 10
266.1642167948491
 20
555.9797667786887
 10
265.587293717926
 20
555.1306503328087
 10
265.0103706410029
 20
554.329688165799
 10
264.4334475640798
 20
553.6648560359938
 10
263.8565244871568
 20
553.2241297017276
 10
263.2796014102337
 20
553.0944695539638
 10
262.7026783333106
 20
553.3019139414212
 10
262.1257552563875
 20
553.7780720473392
 10
261.5488321794645
 20
554.4464301159907
 10
260.9719091025414
 20
555.2304743916493
 10
260.3949860256183
 20
556.0536911185881
 10
259.8180629486952
 20
556.8395665410802
 10
259.2411398717721
 20
557.511586903399
 10
258.664216794849
 20
557.9932384498177
 10
258.087293717926
 20
558.2134519053682
 10
257.5103706410029
 20
558.1644500839036
 10
256.9334475640799
 20
557.8792894049675
 10
256.3565244871568
 20
557.3917068481991
 10
255.7796014102337
 20
556.7354393932368
 10
255.2026783333106
 20
555.9442240197195
 10
254.6257552563875
 20
555.0517977072859
 10
254.0488321794645
 20
554.0918974355748
 10
253.471909102541
 20
553.0982601842243
  0
LWPOLYLINE
  5
95
330
1F
100
AcDbEntity
  8
0
  6
CONTINUOUS
 62
     7
100
AcDbPolyline
 90
      209
 70
     0
 43
0.0
 10
373.471909102541
 20
558.0982601842242
 10
372.894986025618
 20
559.0918974355741
 10
372.3180629486949
 20
560.0517977072852
 10
371.7411398717718
 20
560.9442240197188
 10
371.1642167948487
 20
561.7354393932363
 10
370.5872937179257
 20
562.3917068481987
 10
370.0103706410026
 20
562.8792894049673
 10
369.4334475640795
 20
563.1644500839034
 10
368.8565244871564
 20
563.2134519053682
 10
368.2796014102334
 20
562.9932384498178
 10
367.7026783333104
 20
562.5115869033993
 10
367.1257552563872
 20
561.8395665410806
 10
366.5488321794642
 20
561.0536911185885
 10
365.9719091025411
 20
560.2304743916498
 10
365.394986025618
 20
559.446430115991
 10
364.818062948695
 20
558.7780720473394
 10
364.2411398717719
 20
558.3019139414213
 10
363.6642167948489
 20
558.0944695539636
 10
363.0872937179257
 20
558.2241297017272
 10
362.5103706410027
 20
558.6648560359934
 10
361.9334475640796
 20
559.3296881657983
 10
361.3565244871565
 20
560.130650332808
 10
360.7796014102334
 20
560.9797667786879
 10
360.2026783333104
 20
561.7890617451038
 10
359.6257552563873
 20
562.4705594737214
 10
359.0488321794642
 20
562.9362842062063
 10
358.4719091025411
 20
563.0982601842243
 10
357.894986025618
 20
562.8983487746093
 10
357.3180629486949
 20
562.3977598448696
 10
356.7411398717719
 20
561.6875403876815
 10
356.1642167948488
 20
560.8587373957217
 10
355.5872937179257
 20
560.0023978616666
 10
355.0103706410026
 20
559.2095687781928
 10
354.4334475640796
 20
558.5712971379766
 10
353.8565244871565
 20
558.1786299336948
 10
353.2796014102335
 20
558.121485041233
 10
352.7026783333104
 20
558.4220333290269
 10
352.1257552563873
 20
558.9974378039658
 10
351.5488321794642
 20
559.7558285386118
 10
350.9719091025411
 20
560.6053356055272
 10
350.3949860256181
 20
561.4540890772741
 10
349.818062948695
 20
562.2102190264151
 10
349.2411398717719
 20
562.7818555255121
 10
348.6642167948488
 20
563.0771286471277
 10
348.0872937179258
 20
563.0132529260253
 10
347.5103706410026
 20
562.6130497700599
 10
346.9334475640796
 20
561.9674740535966
 10
346.3565244871565
 20
561.1686162087757
 10
345.7796014102334
 20
560.3085666677379
 10
345.2026783333103
 20
559.4794158626233
 10
344.6257552563872
 20
558.7732542255727
 10
344.0488321794641
 20
558.282172188726
 10
343.4719091025411
 20
558.0982601842242
 10
342.894986025618
 20
558.2829019861521
 10
342.3180629486949
 20
558.7746547363753
 10
341.7411398717718
 20
559.4813689187037
 10
341.1642167948488
 20
560.3108950169474
 10
340.5872937179257
 20
561.1710835149164
 10
340.0103706410026
 20
561.969784896421
 10
339.4334475640796
 20
562.6148496452711
 10
338.8565244871564
 20
563.0141282452769
 10
338.2796014102334
 20
563.0766089263218
 10
337.7026783333103
 20
562.7795446826873
 10
337.1257552563873
 20
562.2059988934723
 10
336.5488321794642
 20
561.4481369063619
 10
335.9719091025412
 20
560.5981240690414
 10
335.3949860256181
 20
559.7481257291959
 10
334.818062948695
 20
558.9903072345107
 10
334.2411398717719
 20
558.4168339326711
 10
333.6642167948489
 20
558.1198711713623
 10
333.0872937179258
 20
558.1824813384027
 10
332.5103706410027
 20
558.5819049131595
 10
331.9334475640797
 20
559.2271101759991
 10
331.3565244871566
 20
560.0259275373044
 10
330.7796014102335
 20
560.8861874074586
 10
330.2026783333105
 20
561.7157201968447
 10
329.6257552563874
 20
562.4223563158456
 10
329.0488321794643
 20
562.9139261748445
 10
328.4719091025412
 20
563.0982601842243
 10
327.8949860256182
 20
562.9139121402787
 10
327.3180629486951
 20
562.4223293829459
 10
326.741139871772
 20
561.7156826380743
 10
326.1642167948489
 20
560.8861426315127
 10
325.5872937179258
 20
560.0258800891099
 10
325.0103706410027
 20
559.2270657367144
 10
324.4334475640796
 20
558.581870300175
 10
323.8565244871566
 20
558.1824645053404
 10
323.2796014102335
 20
558.1198811659932
 10
322.7026783333104
 20
558.4168783719562
 10
322.1257552563873
 20
558.9903883909133
 10
321.5488321794642
 20
559.7482401940208
 10
320.9719091025412
 20
560.598262752435
 10
320.3949860256182
 20
561.4482850373118
 10
319.8180629486951
 20
562.2061360198077
 10
319.241139871772
 20
562.7796446710786
 10
318.6642167948489
 20
563.0766399622809
 10
318.0872937179258
 20
563.014054179802
 10
317.5103706410028
 20
562.6146456495949
 10
316.9334475640797
 20
561.9694475618483
 10
316.3565244871566
 20
561.1706310211547
 10
315.7796014102336
 20
560.3103671321068
 10
315.2026783333105
 20
559.4808269992972
 10
314.6257552563874
 20
558.7741817273185
 10
314.0488321794643
 20
558.2826024207634
 10
313.4719091025412
 20
558.0982601842243
 10
312.8949860256182
 20
558.282602420763
 10
312.3180629486951
 20
558.774181727318
 10
311.741139871772
 20
559.4808269992966
 10
311.1642167948489
 20
560.3103671321062
 10
310.5872937179259
 20
561.170631021154
 10
310.0103706410029
 20
561.9694475618478
 10
309.4334475640797
 20
562.6146456495945
 10
308.8565244871566
 20
563.0140541798019
 10
308.2796014102336
 20
563.076639962281
 10
307.7026783333105
 20
562.779644671079
 10
307.1257552563874
 20
562.2061360198082
 10
306.5488321794643
 20
561.4482850373125
 10
305.9719091025412
 20
560.5982627524356
 10
305.3949860256182
 20
559.7482401940214
 10
304.8180629486951
 20
558.9903883909138
 10
304.241139871772
 20
558.4168783719565
 10
303.664216794849
 20
558.1198811659934
 10
303.0872937179259
 20
558.1824645053402
 10
302.5103706410028
 20
558.5818703001745
 10
301.9334475640798
 20
559.2270657367138
 10
301.3565244871567
 20
560.0258800891091
 10
300.7796014102336
 20
560.886142631512
 10
300.2026783333105
 20
561.7156826380736
 10
299.6257552563874
 20
562.4223293829455
 10
299.0488321794643
 20
562.9139121402784
 10
298.4719091025413
 20
563.098260184224
 10
297.8949860256182
 20
562.9139261748446
 10
297.3180629486952
 20
562.422356315846
 10
296.7411398717721
 20
561.7157201968453
 10
296.164216794849
 20
560.8861874074591
 10
295.5872937179259
 20
560.025927537305
 10
295.0103706410029
 20
559.2271101759995
 10
294.4334475640798
 20
558.5819049131599
 10
293.8565244871567
 20
558.1824813384029
 10
293.2796014102336
 20
558.1198711713623
 10
292.7026783333106
 20
558.4168339326709
 10
292.1257552563875
 20
558.9903072345103
 10
291.5488321794644
 20
559.7481257291953
 10
290.9719091025413
 20
560.5981240690408
 10
290.3949860256182
 20
561.4481369063614
 10
289.8180629486952
 20
562.2059988934718
 10
289.2411398717721
 20
562.779544682687
 10
288.664216794849
 20
563.0766089263216
 10
288.0872937179259
 20
563.014128245277
 10
287.5103706410029
 20
562.6148496452714
 10
286.9334475640798
 20
561.9697848964214
 10
286.3565244871567
 20
561.1710835149169
 10
285.7796014102336
 20
560.3108950169479
 10
285.2026783333105
 20
559.4813689187042
 10
284.6257552563874
 20
558.7746547363757
 10
284.0488321794644
 20
558.2829019861524
 10
283.4719091025414
 20
558.0982601842242
 10
282.8949860256183
 20
558.2821721887259
 10
282.3180629486952
 20
558.7732542255723
 10
281.7411398717721
 20
559.4794158626228
 10
281.164216794849
 20
560.3085666677373
 10
280.587293717926
 20
561.1686162087751
 10
280.0103706410029
 20
561.967474053596
 10
279.4334475640798
 20
562.6130497700594
 10
278.8565244871568
 20
563.0132529260251
 10
278.2796014102337
 20
563.0771286471278
 10
277.7026783333106
 20
562.7818555255125
 10
277.1257552563875
 20
562.2102190264155
 10
276.5488321794644
 20
561.4540890772747
 10
275.9719091025414
 20
560.6053356055277
 10
275.3949860256182
 20
559.7558285386123
 10
274.8180629486952
 20
558.9974378039661
 10
274.2411398717721
 20
558.4220333290272
 10
273.664216794849
 20
558.1214850412327
 10
273.0872937179259
 20
558.1786299336944
 10
272.5103706410028
 20
558.5712971379761
 10
271.9334475640798
 20
559.2095687781921
 10
271.3565244871567
 20
560.0023978616659
 10
270.7796014102337
 20
560.858737395721
 10
270.2026783333105
 20
561.6875403876809
 10
269.6257552563875
 20
562.397759844869
 10
269.0488321794645
 20
562.8983487746091
 10
268.4719091025414
 20
563.0982601842242
 10
267.8949860256183
 20
562.9362842062066
 10
267.3180629486952
 20
562.4705594737218
 10
266.7411398717721
 20
561.7890617451045
 10
266.1642167948491
 20
560.9797667786886
 10
265.587293717926
 20
560.1306503328086
 10
265.0103706410029
 20
559.3296881657989
 10
264.4334475640798
 20
558.6648560359937
 10
263.8565244871568
 20
558.2241297017275
 10
263.2796014102337
 20
558.0944695539637
 10
262.7026783333106
 20
558.301913941421
 10
262.1257552563875
 20
558.778072047339
 10
261.5488321794645
 20
559.4464301159906
 10
260.9719091025414
 20
560.2304743916492
 10
260.3949860256183
 20
561.053691118588
 10
259.8180629486952
 20
561.8395665410801
 10
259.2411398717721
 20
562.5115869033989
 10
258.664216794849
 20
562.9932384498176
 10
258.087293717926
 20
563.2134519053681
 10
257.5103706410029
 20
563.1644500839035
 10
256.9334475640799
 20
562.8792894049674
 10
256.3565244871568
 20
562.391706848199
 10
255.7796014102337
 20
561.7354393932367
 10
255.2026783333106
 20
560.9442240197194
 10
254.6257552563875
 20
560.0517977072858
 10
254.0488321794645
 20
559.0918974355747
 10
253.471909102541
 20
558.0982601842242
  0
ARC
  5
96
330
1F
100
AcDbEntity
  8
0
  6
CONTINUOUS
 62
     7
100
AcDbCircle
 10
348.5466863648417
 20
377.6819497576126
 30
0.0
 40
3.000000000000003
100
AcDbArc
 50
270.0
 51
311.2465333686728
  0
ARC
  5
97
330
1F
100
AcDbEntity
  8
0
  6
CONTINUOUS
 62
     7
100
AcDbCircle
 10
-337.7053584364658
 20
356.1819497576126
 30
0.0
 40
18.49999999999996
210
0.0
220
0.0
230
-1.0
100
AcDbArc
 50
50.41029995962801
 51
90.0
  0
ARC
  5
98
330
1F
100
AcDbEntity
  8
0
  6
CONTINUOUS
 62
     7
100
AcDbCircle
 10
-326.1067629613701
 20
370.2073760614756
 30
0.0
 40
0.3000000000000206
210
0.0
220
0.0
230
-1.0
100
AcDbArc
 50
284.9999999999996
 51
50.41029995962702
  0
LINE
  5
99
330
1F
100
AcDbEntity
  8
0
  6
CONTINUOUS
 62
     7
100
AcDbLine
 10
330.1838745972466
 20
368.804334437068
 30
0.0
 11
326.0291172478394
 21
369.9175983135888
 31
0.0
  0
ARC
  5
9A
330
1F
100
AcDbEntity
  8
0
  6
CONTINUOUS
 62
     7
100
AcDbCircle
 10
329.8991736476337
 20
367.7418160281499
 30
0.0
 40
1.099999999999952
100
AcDbArc
 50
286.1946194985411
 51
75.00000000000013
  0
ARC
  5
9B
330
1F
100
AcDbEntity
  8
0
  6
CONTINUOUS
 62
     7
100
AcDbCircle
 10
313.471909102541
 20
424.304657006707
 30
0.0
 40
60.0
100
AcDbArc
 50
274.6245878670636
 51
286.194619498541
  0
ARC
  5
9C
330
1F
100
AcDbEntity
  8
0
  6
CONTINUOUS
 62
     7
100
AcDbCircle
 10
318.2490395286072
 20
365.2475530742219
 30
0.0
 40
0.7499999999999825
100
AcDbArc
 50
184.9999999999998
 51
274.6245878670636
  0
ARC
  5
9D
330
1F
100
AcDbEntity
  8
0
  6
CONTINUOUS
 62
     7
100
AcDbCircle
 10
318.2490395286072
 20
365.2475530742219
 30
0.0
 40
0.7500000000000118
100
AcDbArc
 50
94.62458786706364
 51
185.0000000000004
  0
ARC
  5
9E
330
1F
100
AcDbEntity
  8
0
  6
CONTINUOUS
 62
     7
100
AcDbCircle
 10
-313.471909102541
 20
424.304657006707
 30
0.0
 40
58.49999999999999
210
0.0
220
0.0
230
-1.0
100
AcDbArc
 50
256.3695997915252
 51
265.3754121329362
  0
ARC
  5
9F
330
1F
100
AcDbEntity
  8
0
  6
CONTINUOUS
 62
     7
100
AcDbCircle
 10
-327.1871922869761
 20
367.7437959173394
 30
0.0
 40
0.3000000000000206
210
0.0
220
0.0
230
-1.0
100
AcDbArc
 50
105.0000000000003
 51
256.3695997915252
  0
LINE
  5
A0
330
1F
100
AcDbEntity
  8
0
  6
CONTINUOUS
 62
     7
100
AcDbLine
 10
324.6915647847276
 20
368.7230801452988
 30
0.0
 11
327.2648380005069
 21
368.033573665226
 31
0.0
  0
ARC
  5
A1
330
1F
100
AcDbEntity
  8
0
  6
CONTINUOUS
 62
     7
100
AcDbCircle
 10
-324.4327457396251
 20
367.7571543190097
 30
0.0
 40
1.000000000000006
210
0.0
220
0.0
230
-1.0
100
AcDbArc
 50
79.03015686164613
 51
105.0
  0
ARC
  5
A2
330
1F
100
AcDbEntity
  8
0
  6
CONTINUOUS
 62
     7
100
AcDbCircle
 10
313.471909102541
 20
424.304657006707
 30
0.0
 40
56.59999999999989
100
AcDbArc
 50
274.0468409928361
 51
280.9698431383538
  0
ARC
  5
A3
330
1F
100
AcDbEntity
  8
0
  6
CONTINUOUS
 62
     7
100
AcDbCircle
 10
317.4521692500637
 20
368.0452797513727
 30
0.0
 40
0.2000000000000232
100
AcDbArc
 50
185.0000000000001
 51
274.0468409928362
  0
LINE
  5
A4
330
1F
100
AcDbEntity
  8
0
  6
CONTINUOUS
 62
     7
100
AcDbLine
 10
317.2526129203729
 20
368.0314763879504
 30
0.0
 11
317.2529303104453
 21
368.0278486028232
 31
0.0
  0
LINE
  5
A5
330
1F
100
AcDbEntity
  8
0
  6
CONTINUOUS
 62
     7
100
AcDbLine
 10
317.182580098445
 20
368.0902409030004
 30
0.0
 11
317.2526129203729
 21
368.0314763879504
 31
0.0
  0
ARC
  5
A6
330
1F
100
AcDbEntity
  8
0
  6
CONTINUOUS
 62
     7
100
AcDbCircle
 10
317.2147194789293
 20
368.1285431251563
 30
0.0
 40
0.0500000000000177
100
AcDbArc
 50
140.0000000000024
 51
230.000000000002
  0
LINE
  5
A7
330
1F
100
AcDbEntity
  8
0
  6
CONTINUOUS
 62
     7
100
AcDbLine
 10
317.2351817718234
 20
368.2307153275686
 30
0.0
 11
317.1764172567733
 21
368.1606825056407
 31
0.0
  0
LINE
  5
A8
330
1F
100
AcDbEntity
  8
0
  6
CONTINUOUS
 62
     7
100
AcDbLine
 10
317.2090350489991
 20
368.5295737369962
 30
0.0
 11
317.2351817718234
 21
368.2307153275686
 31
0.0
  0
LINE
  5
A9
330
1F
100
AcDbEntity
  8
0
  6
CONTINUOUS
 62
     7
100
AcDbLine
 10
317.1390022270712
 20
368.5883382520463
 30
0.0
 11
317.2090350489991
 21
368.5295737369962
 31
0.0
  0
ARC
  5
AA
330
1F
100
AcDbEntity
  8
0
  6
CONTINUOUS
 62
     7
100
AcDbCircle
 10
317.1711416075555
 20
368.6266404742022
 30
0.0
 40
0.0500000000000177
100
AcDbArc
 50
140.000000000003
 51
230.0000000000027
  0
LINE
  5
AB
330
1F
100
AcDbEntity
  8
0
  6
CONTINUOUS
 62
     7
100
AcDbLine
 10
317.1916039004496
 20
368.7288126766146
 30
0.0
 11
317.1328393853995
 21
368.6587798546866
 31
0.0
  0
ARC
  5
AC
330
1F
100
AcDbEntity
  8
0
  6
CONTINUOUS
 62
     7
100
AcDbCircle
 10
317.9354985522835
 20
368.6333100746978
 30
0.0
 40
0.7499999999999812
100
AcDbArc
 50
94.58402647579156
 51
172.6842767148884
  0
ARC
  5
AD
330
1F
100
AcDbEntity
  8
0
  6
CONTINUOUS
 62
     7
100
AcDbCircle
 10
-313.471909102541
 20
424.304657006707
 30
0.0
 40
55.09999999999994
210
0.0
220
0.0
230
-1.0
100
AcDbArc
 50
260.1900703295901
 51
265.4159735242083
  0
ARC
  5
AE
330
1F
100
AcDbEntity
  8
0
  6
CONTINUOUS
 62
     7
100
AcDbCircle
 10
-322.689481880538
 20
370.9956863537079
 30
0.0
 40
0.999999999999998
210
0.0
220
0.0
230
-1.0
100
AcDbArc
 50
230.0
 51
260.1900703295901
  0
LINE
  5
AF
330
1F
100
AcDbEntity
  8
0
  6
CONTINUOUS
 62
     7
100
AcDbLine
 10
324.849606242735
 20
371.5028386199922
 30
0.0
 11
323.3322694902245
 21
370.229641910589
 31
0.0
  0
ARC
  5
B0
330
1F
100
AcDbEntity
  8
0
  6
CONTINUOUS
 62
     7
100
AcDbCircle
 10
337.7053584364658
 20
356.1819497576126
 30
0.0
 40
20.00000000000002
100
AcDbArc
 50
90.00000000000001
 51
130.0
  0
LINE
  5
B1
330
1F
100
AcDbEntity
  8
0
  6
CONTINUOUS
 62
     7
100
AcDbLine
 10
348.4254496957341
 20
376.1819497576126
 30
0.0
 11
337.7053584364658
 21
376.1819497576126
 31
0.0
  0
ARC
  5
B2
330
1F
100
AcDbEntity
  8
0
  6
CONTINUOUS
 62
     7
100
AcDbCircle
 10
-348.4254496957341
 20
379.1819497576126
 30
0.0
 40
3.00000000000001
210
0.0
220
0.0
230
-1.0
100
AcDbArc
 50
227.7641892110297
 51
270.0
  0
ARC
  5
B3
330
1F
100
AcDbEntity
  8
0
  6
CONTINUOUS
 62
     7
100
AcDbCircle
 10
-332.9155548784805
 20
468.5955495020796
 30
0.0
 40
0.4999999999999855
210
0.0
220
0.0
230
-1.0
100
AcDbArc
 50
62.92234984456811
 51
110.9016034092431
  0
ARC
  5
B4
330
1F
100
AcDbEntity
  8
0
  6
CONTINUOUS
 62
     7
100
AcDbCircle
 10
-294.0282633266015
 20
468.5955495020796
 30
0.0
 40
0.5000000000000144
210
0.0
220
0.0
230
-1.0
100
AcDbArc
 50
69.0983965907569
 51
117.0776501554323
  0
ARC
  5
B5
330
1F
100
AcDbEntity
  8
0
  6
CONTINUOUS
 62
     7
100
AcDbCircle
 10
-278.5183685093479
 20
379.1819497576126
 30
0.0
 40
3.000000000000003
210
0.0
220
0.0
230
-1.0
100
AcDbArc
 50
270.0
 51
312.2358107889703
  0
LINE
  5
B6
330
1F
100
AcDbEntity
  8
0
  6
CONTINUOUS
 62
     7
100
AcDbLine
 10
289.2384597686163
 20
376.1819497576126
 30
0.0
 11
278.5183685093479
 21
376.1819497576126
 31
0.0
  0
ARC
  5
B7
330
1F
100
AcDbEntity
  8
0
  6
CONTINUOUS
 62
     7
100
AcDbCircle
 10
289.2384597686163
 20
356.1819497576126
 30
0.0
 40
20.00000000000004
100
AcDbArc
 50
50.0
 51
90.0
  0
LINE
  5
B8
330
1F
100
AcDbEntity
  8
0
  6
CONTINUOUS
 62
     7
100
AcDbLine
 10
302.4360905170708
 20
371.215968450816
 30
0.0
 11
302.0942119623471
 21
371.5028386199922
 31
0.0
  0
ARC
  5
B9
330
1F
100
AcDbEntity
  8
0
  6
CONTINUOUS
 62
     7
100
AcDbCircle
 10
301.471909102541
 20
370.0669017861376
 30
0.0
 40
1.50000000000001
100
AcDbArc
 50
284.9999999999999
 51
50.0
  0
LINE
  5
BA
330
1F
100
AcDbEntity
  8
0
  6
CONTINUOUS
 62
     7
100
AcDbLine
 10
299.6789802045751
 20
368.0335736652261
 30
0.0
 11
301.8601376701948
 21
368.618013046704
 31
0.0
  0
ARC
  5
BB
330
1F
100
AcDbEntity
  8
0
  6
CONTINUOUS
 62
     7
100
AcDbCircle
 10
-299.7566259181058
 20
367.7437959173394
 30
0.0
 40
0.2999999999999676
210
0.0
220
0.0
230
-1.0
100
AcDbArc
 50
283.6304002084751
 51
75.00000000000006
  0
ARC
  5
BC
330
1F
100
AcDbEntity
  8
0
  6
CONTINUOUS
 62
     7
100
AcDbCircle
 10
-313.471909102541
 20
424.304657006707
 30
0.0
 40
58.49999999999999
210
0.0
220
0.0
230
-1.0
100
AcDbArc
 50
276.2669174675892
 51
283.6304002084748
  0
ARC
  5
BD
330
1F
100
AcDbEntity
  8
0
  6
CONTINUOUS
 62
     7
100
AcDbCircle
 10
-307.1951872149187
 20
367.1482683668932
 30
0.0
 40
1.00000000000001
210
0.0
220
0.0
230
-1.0
100
AcDbArc
 50
185.0000000000001
 51
276.2669174675892
  0
LINE
  5
BE
330
1F
100
AcDbEntity
  8
0
  6
CONTINUOUS
 62
     7
100
AcDbLine
 10
308.2040228673926
 20
367.2055993938903
 30
0.0
 11
308.1913819130104
 21
367.0611126241456
 31
0.0
  0
ARC
  5
BF
330
1F
100
AcDbEntity
  8
0
  6
CONTINUOUS
 62
     7
100
AcDbCircle
 10
-307.4568768438237
 20
367.270966200951
 30
0.0
 40
0.7500000000000363
210
0.0
220
0.0
230
-1.0
100
AcDbArc
 50
96.02041790666884
 51
184.9999999999998
  0
ARC
  5
C0
330
1F
100
AcDbEntity
  8
0
  6
CONTINUOUS
 62
     7
100
AcDbCircle
 10
313.471909102541
 20
424.304657006707
 30
0.0
 40
56.59999999999989
100
AcDbArc
 50
263.9580297336246
 51
263.9795820933311
  0
ARC
  5
C1
330
1F
100
AcDbEntity
  8
0
  6
CONTINUOUS
 62
     7
100
AcDbCircle
 10
307.5933089098837
 20
368.7649004374271
 30
0.0
 40
0.7499999999999777
100
AcDbArc
 50
175.0000000000028
 51
263.9580297336246
  0
ARC
  5
C2
330
1F
100
AcDbEntity
  8
0
  6
CONTINUOUS
 62
     7
100
AcDbCircle
 10
307.5933089098837
 20
368.7649004374271
 30
0.0
 40
0.750000000000012
100
AcDbArc
 50
83.95802973362458
 51
175.0000000000001
  0
ARC
  5
C3
330
1F
100
AcDbEntity
  8
0
  6
CONTINUOUS
 62
     7
100
AcDbCircle
 10
-313.471909102541
 20
424.304657006707
 30
0.0
 40
55.0999999999999
210
0.0
220
0.0
230
-1.0
100
AcDbArc
 50
274.5045601790356
 51
276.0419702663754
  0
ARC
  5
C4
330
1F
100
AcDbEntity
  8
0
  6
CONTINUOUS
 62
     7
100
AcDbCircle
 10
309.0855372135692
 20
368.6271728533114
 30
0.0
 40
0.7499999999999825
100
AcDbArc
 50
355.0000000000002
 51
85.4954398209644
  0
LINE
  5
C5
330
1F
100
AcDbEntity
  8
0
  6
CONTINUOUS
 62
     7
100
AcDbLine
 10
309.6026710351187
 20
365.9327545468968
 30
0.0
 11
309.832683237138
 21
368.5618060462506
 31
0.0
  0
ARC
  5
C6
330
1F
100
AcDbEntity
  8
0
  6
CONTINUOUS
 62
     7
100
AcDbCircle
 10
-313.471909102541
 20
424.304657006707
 30
0.0
 40
58.49999999999998
210
0.0
220
0.0
230
-1.0
100
AcDbArc
 50
268.2005604617891
 51
273.7923583835747
  0
ARC
  5
C7
330
1F
100
AcDbEntity
  8
0
  6
CONTINUOUS
 62
     7
100
AcDbCircle
 10
-315.2931660585325
 20
366.3332586873612
 30
0.0
 40
0.50000000000001
210
0.0
220
0.0
230
-1.0
100
AcDbArc
 50
175.0
 51
268.2005604617891
  0
LINE
  5
C8
330
1F
100
AcDbEntity
  8
0
  6
CONTINUOUS
 62
     7
100
AcDbLine
 10
315.6312047012445
 20
368.2063159436431
 30
0.0
 11
315.7912634075784
 21
366.3768365587351
 31
0.0
  0
ARC
  5
C9
330
1F
100
AcDbEntity
  8
0
  6
CONTINUOUS
 62
     7
100
AcDbCircle
 10
316.6273993993363
 20
368.2934716863907
 30
0.0
 40
0.9999999999999863
100
AcDbArc
 50
93.22445179912657
 51
185.0000000000001
  0
ARC
  5
CA
330
1F
100
AcDbEntity
  8
0
  6
CONTINUOUS
 62
     7
100
AcDbCircle
 10
-313.471909102541
 20
424.304657006707
 30
0.0
 40
55.09999999999991
210
0.0
220
0.0
230
-1.0
100
AcDbArc
 50
266.5910556705288
 51
266.7755482008734
  0
ARC
  5
CB
330
1F
100
AcDbEntity
  8
0
  6
CONTINUOUS
 62
     7
100
AcDbCircle
 10
316.7661153190631
 20
369.0026841178216
 30
0.0
 40
0.2999999999999819
100
AcDbArc
 50
5.000000000000138
 51
93.40894432947127
  0
LINE
  5
CC
330
1F
100
AcDbEntity
  8
0
  6
CONTINUOUS
 62
     7
100
AcDbLine
 10
317.0743744320408
 20
368.9213803073848
 30
0.0
 11
317.0649737284906
 21
369.0288308406459
 31
0.0
  0
LINE
  5
CD
330
1F
100
AcDbEntity
  8
0
  6
CONTINUOUS
 62
     7
100
AcDbLine
 10
317.1444072539688
 20
368.8626157923346
 30
0.0
 11
317.0743744320408
 21
368.9213803073848
 31
0.0
  0
ARC
  5
CE
330
1F
100
AcDbEntity
  8
0
  6
CONTINUOUS
 62
     7
100
AcDbCircle
 10
317.1122678734844
 20
368.8243135701787
 30
0.0
 40
0.0499999999999821
100
AcDbArc
 50
320.0000000000008
 51
49.99999999999965
  0
LINE
  5
CF
330
1F
100
AcDbEntity
  8
0
  6
CONTINUOUS
 62
     7
100
AcDbLine
 10
317.0918055805903
 20
368.7221413677664
 30
0.0
 11
317.1505700956404
 21
368.7921741896944
 31
0.0
  0
LINE
  5
D0
330
1F
100
AcDbEntity
  8
0
  6
CONTINUOUS
 62
     7
100
AcDbLine
 10
317.1179523034147
 20
368.4232829583389
 30
0.0
 11
317.0918055805903
 21
368.7221413677664
 31
0.0
  0
LINE
  5
D1
330
1F
100
AcDbEntity
  8
0
  6
CONTINUOUS
 62
     7
100
AcDbLine
 10
317.1879851253426
 20
368.3645184432888
 30
0.0
 11
317.1179523034147
 21
368.4232829583389
 31
0.0
  0
ARC
  5
D2
330
1F
100
AcDbEntity
  8
0
  6
CONTINUOUS
 62
     7
100
AcDbCircle
 10
317.1558457448583
 20
368.3262162211328
 30
0.0
 40
0.0499999999999821
100
AcDbArc
 50
320.0000000000008
 51
49.99999999999965
  0
LINE
  5
D3
330
1F
100
AcDbEntity
  8
0
  6
CONTINUOUS
 62
     7
100
AcDbLine
 10
317.1353834519642
 20
368.2240440187205
 30
0.0
 11
317.1941479670142
 21
368.2940768406485
 31
0.0
  0
LINE
  5
D4
330
1F
100
AcDbEntity
  8
0
  6
CONTINUOUS
 62
     7
100
AcDbLine
 10
317.1620276189262
 20
367.9194997967803
 30
0.0
 11
317.1353834519642
 21
368.2240440187205
 31
0.0
  0
ARC
  5
D5
330
1F
100
AcDbEntity
  8
0
  6
CONTINUOUS
 62
     7
100
AcDbCircle
 10
-317.4608860283537
 20
367.9456465196046
 30
0.0
 40
0.3000000000000146
210
0.0
220
0.0
230
-1.0
100
AcDbArc
 50
265.9514718448417
 51
354.9999999999999
  0
ARC
  5
D6
330
1F
100
AcDbEntity
  8
0
  6
CONTINUOUS
 62
     7
100
AcDbCircle
 10
-313.471909102541
 20
424.304657006707
 30
0.0
 40
56.79999999999997
210
0.0
220
0.0
230
-1.0
100
AcDbArc
 50
259.1892438506072
 51
265.9514718448417
  0
ARC
  5
D7
330
1F
100
AcDbEntity
  8
0
  6
CONTINUOUS
 62
     7
100
AcDbCircle
 10
324.4069903620223
 20
367.0393621253521
 30
0.0
 40
1.50000000000001
100
AcDbArc
 50
75.0
 51
100.8107561493928
  0
LINE
  5
D8
330
1F
100
AcDbEntity
  8
0
  6
CONTINUOUS
 62
     7
100
AcDbLine
 10
326.4450693217416
 20
368.0461747845995
 30
0.0
 11
324.795218929676
 21
368.4882508647857
 31
0.0
  0
ARC
  5
D9
330
1F
100
AcDbEntity
  8
0
  6
CONTINUOUS
 62
     7
100
AcDbCircle
 10
326.3674236082109
 20
367.7563970367128
 30
0.0
 40
0.3000000000000045
100
AcDbArc
 50
282.8463015189934
 51
75.0
  0
ARC
  5
DA
330
1F
100
AcDbEntity
  8
0
  6
CONTINUOUS
 62
     7
100
AcDbCircle
 10
313.471909102541
 20
424.304657006707
 30
0.0
 40
58.29999999999995
100
AcDbArc
 50
274.2806523170568
 51
282.8463015189933
  0
ARC
  5
DB
330
1F
100
AcDbEntity
  8
0
  6
CONTINUOUS
 62
     7
100
AcDbCircle
 10
-317.8608582506142
 20
365.6686857486505
 30
0.0
 40
0.5000000000000051
210
0.0
220
0.0
230
-1.0
100
AcDbArc
 50
354.9999999999999
 51
85.71934768294307
  0
LINE
  5
DC
330
1F
100
AcDbEntity
  8
0
  6
CONTINUOUS
 62
     7
100
AcDbLine
 10
317.4219604781262
 20
364.9484536209192
 30
0.0
 11
317.3627609015683
 21
365.6251078772768
 31
0.0
  0
ARC
  5
DD
330
1F
100
AcDbEntity
  8
0
  6
CONTINUOUS
 62
     7
100
AcDbCircle
 10
316.9238631290802
 20
364.9048757495454
 30
0.0
 40
0.4999999999999993
100
AcDbArc
 50
273.3259414537624
 51
5.000000000000114
  0
ARC
  5
DE
330
1F
100
AcDbEntity
  8
0
  6
CONTINUOUS
 62
     7
100
AcDbCircle
 10
313.471909102541
 20
424.304657006707
 30
0.0
 40
59.99999999999998
100
AcDbArc
 50
266.4575589505708
 51
273.3259414537625
  0
LINE
  5
DF
330
1F
100
AcDbEntity
  8
0
  6
CONTINUOUS
 62
     7
100
AcDbLine
 10
309.4980558253653
 20
364.7369972277515
 30
0.0
 11
309.7646364736983
 21
364.4192987823845
 31
0.0
  0
LINE
  5
E0
330
1F
100
AcDbEntity
  8
0
  6
CONTINUOUS
 62
     7
100
AcDbLine
 10
309.25950960621
 20
364.4527089140734
 30
0.0
 11
309.4980558253653
 21
364.7369972277515
 31
0.0
  0
ARC
  5
E1
330
1F
100
AcDbEntity
  8
0
  6
CONTINUOUS
 62
     7
100
AcDbCircle
 10
313.471909102541
 20
424.304657006707
 30
0.0
 40
59.99999999999998
100
AcDbArc
 50
253.8053805014589
 51
265.9741429321506
  0
ARC
  5
E2
330
1F
100
AcDbEntity
  8
0
  6
CONTINUOUS
 62
     7
100
AcDbCircle
 10
297.0446445574483
 20
367.74181602815
 30
0.0
 40
1.100000000000001
100
AcDbArc
 50
105.0
 51
253.8053805014589
  0
LINE
  5
E3
330
1F
100
AcDbEntity
  8
0
  6
CONTINUOUS
 62
     7
100
AcDbLine
 10
300.9147009572426
 20
369.9175983135888
 30
0.0
 11
296.7599436078355
 21
368.804334437068
 31
0.0
  0
ARC
  5
E4
330
1F
100
AcDbEntity
  8
0
  6
CONTINUOUS
 62
     7
100
AcDbCircle
 10
-300.8370552437119
 20
370.2073760614756
 30
0.0
 40
0.2999999999999841
210
0.0
220
0.0
230
-1.0
100
AcDbArc
 50
129.5897000403722
 51
255.0000000000002
  0
ARC
  5
E5
330
1F
100
AcDbEntity
  8
0
  6
CONTINUOUS
 62
     7
100
AcDbCircle
 10
-289.2384597686163
 20
356.1819497576126
 30
0.0
 40
18.50000000000002
210
0.0
220
0.0
230
-1.0
100
AcDbArc
 50
90.0
 51
129.5897000403721
  0
ARC
  5
E6
330
1F
100
AcDbEntity
  8
0
  6
CONTINUOUS
 62
     7
100
AcDbCircle
 10
278.3971318402404
 20
377.6819497576126
 30
0.0
 40
3.000000000000004
100
AcDbArc
 50
228.7534666313271
 51
270.0
  0
ARC
  5
E7
330
1F
100
AcDbEntity
  8
0
  6
CONTINUOUS
 62
     7
100
AcDbCircle
 10
294.0867719931468
 20
469.3661490766501
 30
0.0
 40
1.000000000000004
100
AcDbArc
 50
58.02694530747801
 51
110.5595074063915
  0
ARC
  5
E8
330
1F
100
AcDbEntity
  8
0
  6
CONTINUOUS
 62
     7
100
AcDbCircle
 10
332.8570462119351
 20
469.3661490766501
 30
0.0
 40
1.000000000000051
100
AcDbArc
 50
69.44049259360874
 51
121.9730546925213
  0
ARC
  5
E9
330
1F
100
AcDbEntity
  8
0
  6
CONTINUOUS
 62
     7
100
AcDbCircle
 10
331.0037248752366
 20
472.3351893294824
 30
0.0
 40
3.69999999999996
100
AcDbArc
 50
244.0048289235259
 51
297.0776501554321
  0
ARC
  5
EA
330
1F
100
AcDbEntity
  8
0
  6
CONTINUOUS
 62
     7
100
AcDbCircle
 10
-313.471909102541
 20
436.3819497576126
 30
0.0
 40
36.30000000000006
210
0.0
220
0.0
230
-1.0
100
AcDbArc
 50
64.00482892352608
 51
115.9951710764739
  0
ARC
  5
EB
330
1F
100
AcDbEntity
  8
0
  6
CONTINUOUS
 62
     7
100
AcDbCircle
 10
295.9400933298454
 20
472.3351893294824
 30
0.0
 40
3.700000000000017
100
AcDbArc
 50
242.9223498445679
 51
295.9951710764738
  0
LINE
  5
EC
330
1F
100
AcDbEntity
  8
0
  6
CONTINUOUS
 62
     7
100
AcDbLine
 10
278.3971318402404
 20
374.6819497576126
 30
0.0
 11
289.2384597686163
 21
374.6819497576126
 31
0.0
  0
ARC
  5
ED
330
1F
100
AcDbEntity
  8
0
  6
CONTINUOUS
 62
     7
100
AcDbCircle
 10
-295.9400933298454
 20
472.3351893294824
 30
0.0
 40
2.499999999999964
210
0.0
220
0.0
230
-1.0
100
AcDbArc
 50
244.0048289235259
 51
301.9730546925219
  0
ARC
  5
EE
330
1F
100
AcDbEntity
  8
0
  6
CONTINUOUS
 62
     7
100
AcDbCircle
 10
313.471909102541
 20
436.3819497576126
 30
0.0
 40
37.49999999999999
100
AcDbArc
 50
64.00482892352603
 51
115.9951710764739
  0
ARC
  5
EF
330
1F
100
AcDbEntity
  8
0
  6
CONTINUOUS
 62
     7
100
AcDbCircle
 10
-331.0037248752366
 20
472.3351893294824
 30
0.0
 40
2.500000000000026
210
0.0
220
0.0
230
-1.0
100
AcDbArc
 50
238.0269453074787
 51
295.9951710764738
  0
LINE
  5
F0
330
1F
100
AcDbEntity
  8
0
  6
CONTINUOUS
 62
     7
100
AcDbLine
 10
337.7053584364658
 20
374.6819497576126
 30
0.0
 11
348.5466863648417
 21
374.6819497576126
 31
0.0
  0
ARC
  5
F1
330
1F
100
AcDbEntity
  8
0
  6
CONTINUOUS
 62
     7
100
AcDbCircle
 10
-313.471909102541
 20
417.6819497576126
 30
0.0
 40
55.00000000000003
210
0.0
220
0.0
230
-1.0
100
AcDbArc
 50
110.9016034092429
 51
227.7641892110298
  0
ARC
  5
F2
330
1F
100
AcDbEntity
  8
0
  6
CONTINUOUS
 62
     7
100
AcDbCircle
 10
-313.471909102541
 20
417.6819497576126
 30
0.0
 40
54.99999999999999
210
0.0
220
0.0
230
-1.0
100
AcDbArc
 50
312.2358107889702
 51
69.09839659075715
  0
ENDSEC
  0
SECTION
  2
OBJECTS
  0
DICTIONARY
  5
C
330
0
100
AcDbDictionary
  3
ACAD_GROUP
350
D
  3
ACAD_LAYOUT
350
1A
  3
ACAD_MATERIAL
350
43
  3
ACAD_MLEADERSTYLE
350
6B
  3
ACAD_MLINESTYLE
350
17
  3
ACAD_PLOTSETTINGS
350
19
  3
ACAD_SCALELIST
350
47
  3
ACAD_VISUALSTYLE
350
2A
  3
ACDBHEADERROUNDTRIPXREC
350
F3
  3
ACDBVARIABLEDICTIONARY
350
114
  0
DICTIONARY
  5
11B
330
8
100
AcDbDictionary
280
     1
  3
ACAD_XREC_ROUNDTRIP
360
11C
  0
DICTIONARY
  5
D
102
{ACAD_REACTORS
330
C
102
}
330
C
100
AcDbDictionary
  0
DICTIONARY
  5
1A
102
{ACAD_REACTORS
330
C
102
}
330
C
100
AcDbDictionary
  0
DICTIONARY
  5
43
102
{ACAD_REACTORS
330
C
102
}
330
C
100
AcDbDictionary
  3
BYBLOCK
350
45
  3
BYLAYER
350
44
  3
GLOBAL
350
46
  0
DICTIONARY
  5
6B
102
{ACAD_REACTORS
330
C
102
}
330
C
100
AcDbDictionary
  3
STANDARD
350
6C
  0
DICTIONARY
  5
17
102
{ACAD_REACTORS
330
C
102
}
330
C
100
AcDbDictionary
  3
STANDARD
350
18
  0
DICTIONARY
  5
19
102
{ACAD_REACTORS
330
C
102
}
330
C
100
AcDbDictionary
  0
DICTIONARY
  5
47
102
{ACAD_REACTORS
330
C
102
}
330
C
100
AcDbDictionary
  3
A0
350
48
  3
A1
350
49
  3
A2
350
4A
  3
A3
350
4B
  3
A4
350
4C
  3
A5
350
4D
  3
A6
350
4E
  3
A7
350
4F
  3
A8
350
50
  3
A9
350
51
  3
B0
350
52
  3
B1
350
53
  3
B2
350
54
  3
B3
350
55
  3
B4
350
56
  3
B5
350
57
  3
B6
350
58
  3
B7
350
59
  3
B8
350
5A
  3
B9
350
5B
  3
C0
350
5C
  3
C1
350
5D
  3
C2
350
5E
  3
C3
350
5F
  3
C4
350
60
  3
C5
350
61
  3
C6
350
62
  3
C7
350
63
  3
C8
350
64
  3
C9
350
65
  3
D0
350
66
  3
D1
350
67
  3
D2
350
68
  0
DICTIONARY
  5
2A
102
{ACAD_REACTORS
330
C
102
}
330
C
100
AcDbDictionary
  3
2DWIREFRAME
350
2F
  3
BASIC
350
32
  3
BRIGHTEN
350
36
  3
COLORCHANGE
350
3A
  3
CONCEPTUAL
350
34
  3
DIM
350
35
  3
EDGECOLOROFF
350
3D
  3
FACEPATTERN
350
39
  3
FLAT
350
2B
  3
FLATWITHEDGES
350
2C
  3
GOURAUD
350
2D
  3
GOURAUDWITHEDGES
350
2E
  3
HIDDEN
350
31
  3
JITTEROFF
350
3B
  3
LINEPATTERN
350
38
  3
OVERHANGOFF
350
3C
  3
REALISTIC
350
33
  3
SHADED
350
42
  3
SHADED_WITH_EDGES
350
41
  3
SHADES_OF_GRAY
350
3E
  3
SKETCHY
350
3F
  3
THICKEN
350
37
  3
WIREFRAME
350
30
  3
X-RAY
350
40
  0
DICTIONARY
  5
F3
102
{ACAD_REACTORS
330
C
102
}
330
C
100
AcDbDictionary
  3
CEPSNID
350
FD
  3
CEPSNTYPE
350
FC
  3
DIMSTYLEDATA
350
113
  3
FINGERPRINTGUID
350
FE
  3
HYPERLINKBASE
350
F6
  3
INSUNITS
350
FB
  3
LAYOUTDICT
350
F8
  3
LWETCUNION
350
FA
  3
PLOTSETDICT
350
F9
  3
PSVPSCALE
350
100
  3
PUCSBASE
350
103
  3
PUCSORGBACK
350
109
  3
PUCSORGBOTTOM
350
105
  3
PUCSORGFRONT
350
108
  3
PUCSORGLEFT
350
106
  3
PUCSORGRIGHT
350
107
  3
PUCSORGTOP
350
104
  3
PUCSORTHOREF
350
101
  3
PUCSORTHOVIEW
350
102
  3
STYLESHEET
350
F7
  3
TSTACKALIGN
350
F4
  3
TSTACKSIZE
350
F5
  3
UCSBASE
350
10C
  3
UCSORGBACK
350
112
  3
UCSORGBOTTOM
350
10E
  3
UCSORGFRONT
350
111
  3
UCSORGLEFT
350
10F
  3
UCSORGRIGHT
350
110
  3
UCSORGTOP
350
10D
  3
UCSORTHOREF
350
10A
  3
UCSORTHOVIEW
350
10B
  3
VERSIONGUID
350
FF
  0
DICTIONARY
  5
114
102
{ACAD_REACTORS
330
C
102
}
330
C
100
AcDbDictionary
  3
CANNOSCALE
350
11D
  3
CMLEADERSTYLE
350
116
  3
CTABLESTYLE
350
115
  3
DIMASSOC
350
119
  3
HIDETEXT
350
11A
  3
MSLTSCALE
350
11E
  0
XRECORD
  5
11C
102
{ACAD_REACTORS
330
11B
102
}
330
11B
100
AcDbXrecord
102
VTR_0.000_0.000_1.000_1.000_VISUALSTYLE
340
2F
102
VTR_0.000_0.000_1.000_1.000_GRIDDISPLAY
 70
     3
102
VTR_0.000_0.000_1.000_1.000_GRIDMAJOR
 70
     5
102
VTR_0.000_0.000_1.000_1.000_DEFAULTLIGHTING
280
     1
102
VTR_0.000_0.000_1.000_1.000_DEFAULTLIGHTINGTYPE
 70
     1
102
VTR_0.000_0.000_1.000_1.000_BRIGHTNESS
141
0.0
102
VTR_0.000_0.000_1.000_1.000_CONTRAST
142
0.0
  0
MATERIAL
  5
45
102
{ACAD_REACTORS
330
43
102
}
102
{ACAD_XDICTIONARY
360
121
102
}
330
43
100
AcDbMaterial
  1
BYBLOCK
  0
MATERIAL
  5
44
102
{ACAD_REACTORS
330
43
102
}
102
{ACAD_XDICTIONARY
360
11F
102
}
330
43
100
AcDbMaterial
  1
BYLAYER
  0
MATERIAL
  5
46
102
{ACAD_REACTORS
330
43
102
}
102
{ACAD_XDICTIONARY
360
123
102
}
330
43
100
AcDbMaterial
  1
GLOBAL
  0
ACAD_PROXY_OBJECT
  5
6C
102
{ACAD_REACTORS
330
6B
102
}
330
6B
100
AcDbProxyObject
 90
      499
 91
      505
 93
      610
310
40901902A4063FBFFFFFE056BD1B81E855B9FC0AD7A3703D0AD73F4214DD185B99185C9900AD7A3703D0AC73F90141901A02B5E8DC0F42B1CFC02B5E8DC0F42B1CFE5764000000000000300FC0
340
14
340
0
340
11
340
0
 94
        0
1001
ACAD_MLEADERVER
1070
     2
  0
MLINESTYLE
  5
18
102
{ACAD_REACTORS
330
17
102
}
330
17
100
AcDbMlineStyle
  2
Standard
 70
     0
  3

 62
   256
 51
90.0
 52
90.0
 71
     2
 49
0.5
 62
   256
  6
BYLAYER
 49
-0.5
 62
   256
  6
BYLAYER
  0
ACAD_PROXY_OBJECT
  5
48
102
{ACAD_REACTORS
330
47
102
}
330
47
100
AcDbProxyObject
 90
      499
 91
      503
 93
       41
310
903313A31580
  0
ACAD_PROXY_OBJECT
  5
49
102
{ACAD_REACTORS
330
47
102
}
330
47
100
AcDbProxyObject
 90
      499
 91
      503
 93
      105
310
903313A324000000000000004000
  0
ACAD_PROXY_OBJECT
  5
4A
102
{ACAD_REACTORS
330
47
102
}
330
47
100
AcDbProxyObject
 90
      499
 91
      503
 93
      105
310
903313A344000000000000104000
  0
ACAD_PROXY_OBJECT
  5
4B
102
{ACAD_REACTORS
330
47
102
}
330
47
100
AcDbProxyObject
 90
      499
 91
      503
 93
      105
310
903313A354000000000000144000
  0
ACAD_PROXY_OBJECT
  5
4C
102
{ACAD_REACTORS
330
47
102
}
330
47
100
AcDbProxyObject
 90
      499
 91
      503
 93
      105
310
903313A384000000000000204000
  0
ACAD_PROXY_OBJECT
  5
4D
102
{ACAD_REACTORS
330
47
102
}
330
47
100
AcDbProxyObject
 90
      499
 91
      503
 93
      113
310
904313A31304000000000000244000
  0
ACAD_PROXY_OBJECT
  5
4E
102
{ACAD_REACTORS
330
47
102
}
330
47
100
AcDbProxyObject
 90
      499
 91
      503
 93
      113
310
904313A31364000000000000304000
  0
ACAD_PROXY_OBJECT
  5
4F
102
{ACAD_REACTORS
330
47
102
}
330
47
100
AcDbProxyObject
 90
      499
 91
      503
 93
      113
310
904313A32304000000000000344000
  0
ACAD_PROXY_OBJECT
  5
50
102
{ACAD_REACTORS
330
47
102
}
330
47
100
AcDbProxyObject
 90
      499
 91
      503
 93
      113
310
904313A333040000000000003E4000
  0
ACAD_PROXY_OBJECT
  5
51
102
{ACAD_REACTORS
330
47
102
}
330
47
100
AcDbProxyObject
 90
      499
 91
      503
 93
      113
310
904313A34304000000000000444000
  0
ACAD_PROXY_OBJECT
  5
52
102
{ACAD_REACTORS
330
47
102
}
330
47
100
AcDbProxyObject
 90
      499
 91
      503
 93
      113
310
904313A35304000000000000494000
  0
ACAD_PROXY_OBJECT
  5
53
102
{ACAD_REACTORS
330
47
102
}
330
47
100
AcDbProxyObject
 90
      499
 91
      503
 93
      121
310
905313A3130304000000000000594000
  0
ACAD_PROXY_OBJECT
  5
54
102
{ACAD_REACTORS
330
47
102
}
330
47
100
AcDbProxyObject
 90
      499
 91
      503
 93
      105
310
903323A310000000000000010100
  0
ACAD_PROXY_OBJECT
  5
55
102
{ACAD_REACTORS
330
47
102
}
330
47
100
AcDbProxyObject
 90
      499
 91
      503
 93
      105
310
903343A310000000000000410100
  0
ACAD_PROXY_OBJECT
  5
56
102
{ACAD_REACTORS
330
47
102
}
330
47
100
AcDbProxyObject
 90
      499
 91
      503
 93
      105
310
903383A310000000000000810100
  0
ACAD_PROXY_OBJECT
  5
57
102
{ACAD_REACTORS
330
47
102
}
330
47
100
AcDbProxyObject
 90
      499
 91
      503
 93
      113
310
90431303A310000000000000910100
  0
ACAD_PROXY_OBJECT
  5
58
102
{ACAD_REACTORS
330
47
102
}
330
47
100
AcDbProxyObject
 90
      499
 91
      503
 93
      121
310
9053130303A310000000000001650100
  0
ACAD_PROXY_OBJECT
  5
59
102
{ACAD_REACTORS
330
47
102
}
330
47
100
AcDbProxyObject
 90
      499
 91
      503
 93
      257
310
90E312F31323822203D2031272D3022000000000000200FC000000000000284000
  0
ACAD_PROXY_OBJECT
  5
5A
102
{ACAD_REACTORS
330
47
102
}
330
47
100
AcDbProxyObject
 90
      499
 91
      503
 93
      249
310
90D312F363422203D2031272D3022000000000000240FC000000000000284000
  0
ACAD_PROXY_OBJECT
  5
5B
102
{ACAD_REACTORS
330
47
102
}
330
47
100
AcDbProxyObject
 90
      499
 91
      503
 93
      249
310
90D312F333222203D2031272D3022000000000000280FC000000000000284000
  0
ACAD_PROXY_OBJECT
  5
5C
102
{ACAD_REACTORS
330
47
102
}
330
47
100
AcDbProxyObject
 90
      499
 91
      503
 93
      249
310
90D312F313622203D2031272D30220000000000002C0FC000000000000284000
  0
ACAD_PROXY_OBJECT
  5
5D
102
{ACAD_REACTORS
330
47
102
}
330
47
100
AcDbProxyObject
 90
      499
 91
      503
 93
      249
310
90D332F333222203D2031272D30220000000000002E0FC000000000000284000
  0
ACAD_PROXY_OBJECT
  5
5E
102
{ACAD_REACTORS
330
47
102
}
330
47
100
AcDbProxyObject
 90
      499
 91
      503
 93
      241
310
90C312F3822203D2031272D3022000000000000300FC000000000000284000
  0
ACAD_PROXY_OBJECT
  5
5F
102
{ACAD_REACTORS
330
47
102
}
330
47
100
AcDbProxyObject
 90
      499
 91
      503
 93
      249
310
90D332F313622203D2031272D3022000000000000320FC000000000000284000
  0
ACAD_PROXY_OBJECT
  5
60
102
{ACAD_REACTORS
330
47
102
}
330
47
100
AcDbProxyObject
 90
      499
 91
      503
 93
      241
310
90C312F3422203D2031272D3022000000000000340FC000000000000284000
  0
ACAD_PROXY_OBJECT
  5
61
102
{ACAD_REACTORS
330
47
102
}
330
47
100
AcDbProxyObject
 90
      499
 91
      503
 93
      241
310
90C332F3822203D2031272D3022000000000000360FC000000000000284000
  0
ACAD_PROXY_OBJECT
  5
62
102
{ACAD_REACTORS
330
47
102
}
330
47
100
AcDbProxyObject
 90
      499
 91
      503
 93
      241
310
90C312F3222203D2031272D3022000000000000380FC000000000000284000
  0
ACAD_PROXY_OBJECT
  5
63
102
{ACAD_REACTORS
330
47
102
}
330
47
100
AcDbProxyObject
 90
      499
 91
      503
 93
      241
310
90C332F3422203D2031272D30220000000000003A0FC000000000000284000
  0
ACAD_PROXY_OBJECT
  5
64
102
{ACAD_REACTORS
330
47
102
}
330
47
100
AcDbProxyObject
 90
      499
 91
      503
 93
      161
310
90A3122203D2031272D30224000000000000284000
  0
ACAD_PROXY_OBJECT
  5
65
102
{ACAD_REACTORS
330
47
102
}
330
47
100
AcDbProxyObject
 90
      499
 91
      503
 93
      257
310
90E312D312F3222203D2031272D30220000000000003E0FC000000000000284000
  0
ACAD_PROXY_OBJECT
  5
66
102
{ACAD_REACTORS
330
47
102
}
330
47
100
AcDbProxyObject
 90
      499
 91
      503
 93
      225
310
90A3322203D2031272D302200000000000002100000000000000284000
  0
ACAD_PROXY_OBJECT
  5
67
102
{ACAD_REACTORS
330
47
102
}
330
47
100
AcDbProxyObject
 90
      499
 91
      503
 93
      225
310
90A3622203D2031272D302200000000000006100000000000000284000
  0
ACAD_PROXY_OBJECT
  5
68
102
{ACAD_REACTORS
330
47
102
}
330
47
100
AcDbProxyObject
 90
      499
 91
      503
 93
      249
310
90D31272D3022203D2031272D30220000000000000A100000000000000284000
  0
ACAD_PROXY_OBJECT
  5
2F
102
{ACAD_REACTORS
330
2A
102
}
330
2A
100
AcDbProxyObject
 90
      499
 91
      501
 93
      436
310
42CC9915DA5C99599C985B595049028333333333333E33F0000000000000F90107901411070040501600405405064090741402480A0340
1001
ACAD
1000
AcDbSavedByObjectVersion
1070
     0
  0
ACAD_PROXY_OBJECT
  5
32
102
{ACAD_REACTORS
330
2A
102
}
330
2A
100
AcDbProxyObject
 90
      499
 91
      501
 93
      388
310
4150985CDA58D07406404333333333333E33F0000000000000F90107A41107004050150841D405064090741402480A0350
1001
ACAD
1000
AcDbSavedByObjectVersion
1070
     0
  0
ACAD_PROXY_OBJECT
  5
36
102
{ACAD_REACTORS
330
2A
102
}
330
2A
100
AcDbProxyObject
 90
      499
 91
      501
 93
      428
310
42109C9A59DA1D195B90C409028333333333333E33F0000000000000F9010790141107004050150841D405064090741402480A029950
1001
ACAD
1000
AcDbSavedByObjectVersion
1070
     0
  0
ACAD_PROXY_OBJECT
  5
3A
102
{ACAD_REACTORS
330
2A
102
}
330
2A
100
AcDbProxyObject
 90
      499
 91
      501
 93
      452
310
42D0DBDB1BDC90DA185B99D95104090240C333333333333E33F0000000000000F90108901411070040501508421405064090741402480A0350
1001
ACAD
1000
AcDbSavedByObjectVersion
1070
     0
  0
ACAD_PROXY_OBJECT
  5
34
102
{ACAD_REACTORS
330
2A
102
}
330
2A
100
AcDbProxyObject
 90
      499
 91
      501
 93
      500
310
4290DBDB98D95C1D1D585B10940D028333333333333E33F0000000000000F90107902409070040501000000000018199010841D405064090740C02480A0340
1001
ACAD
1000
AcDbSavedByObjectVersion
1070
     0
  0
ACAD_PROXY_OBJECT
  5
35
102
{ACAD_REACTORS
330
2A
102
}
330
2A
100
AcDbProxyObject
 90
      499
 91
      501
 93
      412
310
40D11A5B50B409028333333333333E33F0000000000000F9010790141107004050150841D405064090741402480A02677FFFFFD0
1001
ACAD
1000
AcDbSavedByObjectVersion
1070
     0
  0
ACAD_PROXY_OBJECT
  5
3D
102
{ACAD_REACTORS
330
2A
102
}
330
2A
100
AcDbProxyObject
 90
      499
 91
      501
 93
      452
310
43115919D950DBDB1BDC93D999916409028333333333333E33F0000000000000F9010790141107004050150841D405064090741402480A0350
1001
ACAD
1000
AcDbSavedByObjectVersion
1070
     0
  0
ACAD_PROXY_OBJECT
  5
39
102
{ACAD_REACTORS
330
2A
102
}
330
2A
100
AcDbProxyObject
 90
      499
 91
      501
 93
      444
310
42D19858D95C185D1D195C9B90F409028333333333333E33F0000000000000F9010790141107004050150841D405064090741402480A0350
1001
ACAD
1000
AcDbSavedByObjectVersion
1070
     0
  0
ACAD_PROXY_OBJECT
  5
2B
102
{ACAD_REACTORS
330
2A
102
}
330
2A
100
AcDbProxyObject
 90
      499
 91
      501
 93
      380
310
41119B185D240901404333333333333E33F0000000000000F9010740A907004050150841D405064090741402480A1B50
1001
ACAD
1000
AcDbSavedByObjectVersion
1070
     0
  0
ACAD_PROXY_OBJECT
  5
2C
102
{ACAD_REACTORS
330
2A
102
}
330
2A
100
AcDbProxyObject
 90
      499
 91
      501
 93
      468
310
43519B185D15DA5D1A115919D95CD0140901404333333333333E33F0000000000000F90107409019070040501600405405064090741402480A1B50
1001
ACAD
1000
AcDbSavedByObjectVersion
1070
     0
  0
ACAD_PROXY_OBJECT
  5
2D
102
{ACAD_REACTORS
330
2A
102
}
330
2A
100
AcDbProxyObject
 90
      499
 91
      501
 93
      404
310
41D1DBDD5C985D5910240902404333333333333E33F0000000000000F9010740A9070040501641D405064090741402480A1B50
1001
ACAD
1000
AcDbSavedByObjectVersion
1070
     0
  0
ACAD_PROXY_OBJECT
  5
2E
102
{ACAD_REACTORS
330
2A
102
}
330
2A
100
AcDbProxyObject
 90
      499
 91
      501
 93
      492
310
4411DBDD5C985D5915DA5D1A115919D95CD0340902404333333333333E33F0000000000000F90107409019070040501600405405064090741402480A1B50
1001
ACAD
1000
AcDbSavedByObjectVersion
1070
     0
  0
ACAD_PROXY_OBJECT
  5
31
102
{ACAD_REACTORS
330
2A
102
}
330
2A
100
AcDbProxyObject
 90
      499
 91
      501
 93
      476
310
41921A5919195B90640502408333333333333E33F0000000000000F901079024090700405020000000000001110200405405064090740C02480A0340
1001
ACAD
1000
AcDbSavedByObjectVersion
1070
     0
  0
ACAD_PROXY_OBJECT
  5
3B
102
{ACAD_REACTORS
330
2A
102
}
330
2A
100
AcDbProxyObject
 90
      499
 91
      501
 93
      428
310
42529A5D1D195C93D999914409028333333333333E33F0000000000000F9010790141107004050150A41D405064090741402480A0350
1001
ACAD
1000
AcDbSavedByObjectVersion
1070
     0
  0
ACAD_PROXY_OBJECT
  5
38
102
{ACAD_REACTORS
330
2A
102
}
330
2A
100
AcDbProxyObject
 90
      499
 91
      501
 93
      444
310
42D31A5B995C185D1D195C9B90E409028333333333333E33F0000000000000F9010790141107004050750841D405064090741402483A0350
1001
ACAD
1000
AcDbSavedByObjectVersion
1070
     0
  0
ACAD_PROXY_OBJECT
  5
3C
102
{ACAD_REACTORS
330
2A
102
}
330
2A
100
AcDbProxyObject
 90
      499
 91
      501
 93
      444
310
42D3DD995C9A185B99D3D999915409028333333333333E33F0000000000000F9010790141107004050150941D405064090741402480A0350
1001
ACAD
1000
AcDbSavedByObjectVersion
1070
     0
  0
ACAD_PROXY_OBJECT
  5
33
102
{ACAD_REACTORS
330
2A
102
}
330
2A
100
AcDbProxyObject
 90
      499
 91
      501
 93
      428
310
425499585B1A5CDD1A58D08409038333333333333E33F0000000000000F9010740A907004050150800405405064090740C02480A1B40
1001
ACAD
1000
AcDbSavedByObjectVersion
1070
     0
  0
ACAD_PROXY_OBJECT
  5
42
102
{ACAD_REACTORS
330
2A
102
}
330
2A
100
AcDbProxyObject
 90
      499
 91
      501
 93
      420
310
4194DA1859195911B40902404333333333333E33F0000000000000F9010740A41107004050150800405405064090840C02480A0B40
1001
ACAD
1000
AcDbSavedByObjectVersion
1070
     0
  0
ACAD_PROXY_OBJECT
  5
41
102
{ACAD_REACTORS
330
2A
102
}
330
2A
100
AcDbProxyObject
 90
      499
 91
      501
 93
      516
310
4454DA18591959081DDA5D1A08195919D95CD1A40902404333333333333E33F0000000000000F901074090142907004050250800405405064090740C02480A0B40
1001
ACAD
1000
AcDbSavedByObjectVersion
1070
     0
  0
ACAD_PROXY_OBJECT
  5
3E
102
{ACAD_REACTORS
330
2A
102
}
330
2A
100
AcDbProxyObject
 90
      499
 91
      501
 93
      532
310
4394DA1859195CC81BD98811DC985E5174090240C333333333333E33F0000000000000F901079024090741D01000000000000111010841D405064090740C02480A0340
1001
ACAD
1000
AcDbSavedByObjectVersion
1070
     0
  0
ACAD_PROXY_OBJECT
  5
3F
102
{ACAD_REACTORS
330
2A
102
}
330
2A
100
AcDbProxyObject
 90
      499
 91
      501
 93
      476
310
41D4DAD95D18DA1E51840502408333333333333E33F0000000000000F901079024090741D01000000000000111010B41D405064090741802480A0340
1001
ACAD
1000
AcDbSavedByObjectVersion
1070
     0
  0
ACAD_PROXY_OBJECT
  5
37
102
{ACAD_REACTORS
330
2A
102
}
330
2A
100
AcDbProxyObject
 90
      499
 91
      501
 93
      412
310
41D51A1A58DAD95B90D409028333333333333E33F0000000000000F9010790141107004050150C41D405064090741402480A0350
1001
ACAD
1000
AcDbSavedByObjectVersion
1070
     0
  0
ACAD_PROXY_OBJECT
  5
30
102
{ACAD_REACTORS
330
2A
102
}
330
2A
100
AcDbProxyObject
 90
      499
 91
      501
 93
      420
310
4255DA5C99599C985B595059028333333333333E33F0000000000000F90107901411070040501600405405064090740C02480A0340
1001
ACAD
1000
AcDbSavedByObjectVersion
1070
     0
  0
ACAD_PROXY_OBJECT
  5
40
102
{ACAD_REACTORS
330
2A
102
}
330
2A
100
AcDbProxyObject
 90
      499
 91
      501
 93
      404
310
41560B54985E51940902404000000000000E03F0000000000000F9010740501907004050150841D405064090740C02480A1B40
1001
ACAD
1000
AcDbSavedByObjectVersion
1070
     0
  0
XRECORD
  5
FD
102
{ACAD_REACTORS
330
F3
102
}
330
F3
100
AcDbXrecord
340
0
  0
XRECORD
  5
FC
102
{ACAD_REACTORS
330
F3
102
}
330
F3
100
AcDbXrecord
 90
        0
  0
XRECORD
  5
113
102
{ACAD_REACTORS
330
F3
102
}
330
F3
100
AcDbXrecord
1000
DSTYLE
1002
{
1070
   179
 70
     2
1070
   171
 70
     2
1070
   143
 40
25.4
1070
   274
 70
     2
1070
    41
 40
3.0
1070
   141
 40
0.09
1070
    43
 40
0.38
1070
   278
 70
    46
1070
    44
 40
1.5
1070
    42
 40
0.0625
1070
   147
 40
1.5
1070
   272
 70
     4
1070
    73
 70
     1
1070
   172
 70
     0
1070
    74
 70
     1
1070
   283
 70
     1
1070
   340
340
6E
1070
   140
 40
3.0
1070
   284
 70
     0
1070
    78
 70
     0
1002
}
  0
XRECORD
  5
FE
102
{ACAD_REACTORS
330
F3
102
}
330
F3
100
AcDbXrecord
  1
{BB439A96-8D66-4236-B94D-BE659B079A10}
  0
XRECORD
  5
F6
102
{ACAD_REACTORS
330
F3
102
}
330
F3
100
AcDbXrecord
  1

  0
XRECORD
  5
FB
102
{ACAD_REACTORS
330
F3
102
}
330
F3
100
AcDbXrecord
 90
        4
  0
XRECORD
  5
F8
102
{ACAD_REACTORS
330
F3
102
}
330
F3
100
AcDbXrecord
340
1A
  0
XRECORD
  5
FA
102
{ACAD_REACTORS
330
F3
102
}
330
F3
100
AcDbXrecord
 90
    10269
  0
XRECORD
  5
F9
102
{ACAD_REACTORS
330
F3
102
}
330
F3
100
AcDbXrecord
340
19
  0
XRECORD
  5
100
102
{ACAD_REACTORS
330
F3
102
}
330
F3
100
AcDbXrecord
 40
0.0
  0
XRECORD
  5
103
102
{ACAD_REACTORS
330
F3
102
}
330
F3
100
AcDbXrecord
340
0
  0
XRECORD
  5
109
102
{ACAD_REACTORS
330
F3
102
}
330
F3
100
AcDbXrecord
 10
0.0
 20
0.0
 30
0.0
  0
XRECORD
  5
105
102
{ACAD_REACTORS
330
F3
102
}
330
F3
100
AcDbXrecord
 10
0.0
 20
0.0
 30
0.0
  0
XRECORD
  5
108
102
{ACAD_REACTORS
330
F3
102
}
330
F3
100
AcDbXrecord
 10
0.0
 20
0.0
 30
0.0
  0
XRECORD
  5
106
102
{ACAD_REACTORS
330
F3
102
}
330
F3
100
AcDbXrecord
 10
0.0
 20
0.0
 30
0.0
  0
XRECORD
  5
107
102
{ACAD_REACTORS
330
F3
102
}
330
F3
100
AcDbXrecord
 10
0.0
 20
0.0
 30
0.0
  0
XRECORD
  5
104
102
{ACAD_REACTORS
330
F3
102
}
330
F3
100
AcDbXrecord
 10
0.0
 20
0.0
 30
0.0
  0
XRECORD
  5
101
102
{ACAD_REACTORS
330
F3
102
}
330
F3
100
AcDbXrecord
340
0
  0
XRECORD
  5
102
102
{ACAD_REACTORS
330
F3
102
}
330
F3
100
AcDbXrecord
 70
     0
  0
XRECORD
  5
F7
102
{ACAD_REACTORS
330
F3
102
}
330
F3
100
AcDbXrecord
  1

  0
XRECORD
  5
F4
102
{ACAD_REACTORS
330
F3
102
}
330
F3
100
AcDbXrecord
 90
        1
  0
XRECORD
  5
F5
102
{ACAD_REACTORS
330
F3
102
}
330
F3
100
AcDbXrecord
 90
       70
  0
XRECORD
  5
10C
102
{ACAD_REACTORS
330
F3
102
}
330
F3
100
AcDbXrecord
340
0
  0
XRECORD
  5
112
102
{ACAD_REACTORS
330
F3
102
}
330
F3
100
AcDbXrecord
 10
0.0
 20
0.0
 30
0.0
  0
XRECORD
  5
10E
102
{ACAD_REACTORS
330
F3
102
}
330
F3
100
AcDbXrecord
 10
0.0
 20
0.0
 30
0.0
  0
XRECORD
  5
111
102
{ACAD_REACTORS
330
F3
102
}
330
F3
100
AcDbXrecord
 10
0.0
 20
0.0
 30
0.0
  0
XRECORD
  5
10F
102
{ACAD_REACTORS
330
F3
102
}
330
F3
100
AcDbXrecord
 10
0.0
 20
0.0
 30
0.0
  0
XRECORD
  5
110
102
{ACAD_REACTORS
330
F3
102
}
330
F3
100
AcDbXrecord
 10
0.0
 20
0.0
 30
0.0
  0
XRECORD
  5
10D
102
{ACAD_REACTORS
330
F3
102
}
330
F3
100
AcDbXrecord
 10
0.0
 20
0.0
 30
0.0
  0
XRECORD
  5
10A
102
{ACAD_REACTORS
330
F3
102
}
330
F3
100
AcDbXrecord
340
0
  0
XRECORD
  5
10B
102
{ACAD_REACTORS
330
F3
102
}
330
F3
100
AcDbXrecord
 70
     0
  0
XRECORD
  5
FF
102
{ACAD_REACTORS
330
F3
102
}
330
F3
100
AcDbXrecord
  1
{FAEB1C32-E019-11D5-929B-00C0DF256EC4}
  0
DICTIONARYVAR
  5
11D
102
{ACAD_REACTORS
330
114
102
}
330
114
100
DictionaryVariables
280
     0
  1
1:1
  0
DICTIONARYVAR
  5
116
102
{ACAD_REACTORS
330
114
102
}
330
114
100
DictionaryVariables
280
     0
  1
Standard
  0
DICTIONARYVAR
  5
115
102
{ACAD_REACTORS
330
114
102
}
330
114
100
DictionaryVariables
280
     0
  1
Standard
  0
DICTIONARYVAR
  5
119
102
{ACAD_REACTORS
330
114
102
}
330
114
100
DictionaryVariables
280
     0
  1
2
  0
DICTIONARYVAR
  5
11A
102
{ACAD_REACTORS
330
114
102
}
330
114
100
DictionaryVariables
280
     0
  1
1
  0
DICTIONARYVAR
  5
11E
102
{ACAD_REACTORS
330
114
102
}
330
114
100
DictionaryVariables
280
     0
  1
1
  0
DICTIONARY
  5
121
330
45
100
AcDbDictionary
280
     1
  3
ACAD_XREC_ROUNDTRIP
360
122
  0
DICTIONARY
  5
11F
330
44
100
AcDbDictionary
280
     1
  3
ACAD_XREC_ROUNDTRIP
360
120
  0
DICTIONARY
  5
123
330
46
100
AcDbDictionary
280
     1
  3
ACAD_XREC_ROUNDTRIP
360
124
  0
XRECORD
  5
122
102
{ACAD_REACTORS
330
121
102
}
330
121
100
AcDbXrecord
102
MATERIAL
148
0.0
149
0.0
149
0.0
 93
        0
 94
      127
282
     0
 72
     1
 77
     1
171
     1
175
     1
179
     1
273
     0
  0
XRECORD
  5
120
102
{ACAD_REACTORS
330
11F
102
}
330
11F
100
AcDbXrecord
102
MATERIAL
148
0.0
149
0.0
149
0.0
 93
        0
 94
      127
282
     0
 72
     1
 77
     1
171
     1
175
     1
179
     1
273
     0
  0
XRECORD
  5
124
102
{ACAD_REACTORS
330
123
102
}
330
123
100
AcDbXrecord
102
MATERIAL
148
0.0
149
0.0
149
0.0
 93
        0
 94
      127
282
     0
 72
     1
 77
     1
171
     1
175
     1
179
     1
273
     0
  0
ENDSEC
  0
EOF
