  0
SECTION
  2
HEADER
  9
$ACADVER
  1
AC1014
  9
$ACADMAINTVER
 70
     9
  9
$DWGCODEPAGE
  3
ANSI_932
  9
$INSBASE
 10
0.0
 20
0.0
 30
0.0
  9
$EXTMIN
 10
245.7094738677485
 20
338.5194920596583
 30
0.0
  9
$EXTMAX
 10
316.1094738677484
 20
504.9976501511888
 30
0.0
  9
$LIMMIN
 10
0.0
 20
0.0
  9
$LIMMAX
 10
12.0
 20
9.0
  9
$ORTHOMODE
 70
     0
  9
$REGENMODE
 70
     1
  9
$FILLMODE
 70
     1
  9
$QTEXTMODE
 70
     0
  9
$MIRRTEXT
 70
     1
  9
$DRAGMODE
 70
     2
  9
$LTSCALE
 40
1.0
  9
$OSMODE
 70
    37
  9
$ATTMODE
 70
     1
  9
$TEXTSIZE
 40
0.2
  9
$TRACEWID
 40
0.05
  9
$TEXTSTYLE
  7
STANDARD
  9
$CLAYER
  8
0
  9
$CELTYPE
  6
BYLAYER
  9
$CECOLOR
 62
   256
  9
$CELTSCALE
 40
1.0
  9
$DELOBJ
 70
     1
  9
$DISPSILH
 70
     0
  9
$DIMSCALE
 40
1.0
  9
$DIMASZ
 40
3.0
  9
$DIMEXO
 40
0.0625
  9
$DIMDLI
 40
0.38
  9
$DIMRND
 40
0.0
  9
$DIMDLE
 40
0.0
  9
$DIMEXE
 40
1.5
  9
$DIMTP
 40
0.0
  9
$DIMTM
 40
0.0
  9
$DIMTXT
 40
3.0
  9
$DIMCEN
 40
0.09
  9
$DIMTSZ
 40
0.0
  9
$DIMTOL
 70
     0
  9
$DIMLIM
 70
     0
  9
$DIMTIH
 70
     1
  9
$DIMTOH
 70
     1
  9
$DIMSE1
 70
     0
  9
$DIMSE2
 70
     0
  9
$DIMTAD
 70
     1
  9
$DIMZIN
 70
     0
  9
$DIMBLK
  1

  9
$DIMASO
 70
     1
  9
$DIMSHO
 70
     1
  9
$DIMPOST
  1

  9
$DIMAPOST
  1

  9
$DIMALT
 70
     0
  9
$DIMALTD
 70
     2
  9
$DIMALTF
 40
25.4
  9
$DIMLFAC
 40
1.0
  9
$DIMTOFL
 70
     0
  9
$DIMTVP
 40
0.0
  9
$DIMTIX
 70
     0
  9
$DIMSOXD
 70
     0
  9
$DIMSAH
 70
     0
  9
$DIMBLK1
  1

  9
$DIMBLK2
  1

  9
$DIMSTYLE
  2
STANDARD
  9
$DIMCLRD
 70
     0
  9
$DIMCLRE
 70
     0
  9
$DIMCLRT
 70
     0
  9
$DIMTFAC
 40
1.0
  9
$DIMGAP
 40
1.5
  9
$DIMJUST
 70
     0
  9
$DIMSD1
 70
     0
  9
$DIMSD2
 70
     0
  9
$DIMTOLJ
 70
     1
  9
$DIMTZIN
 70
     0
  9
$DIMALTZ
 70
     0
  9
$DIMALTTZ
 70
     0
  9
$DIMFIT
 70
     3
  9
$DIMUPT
 70
     0
  9
$DIMUNIT
 70
     2
  9
$DIMDEC
 70
     2
  9
$DIMTDEC
 70
     4
  9
$DIMALTU
 70
     2
  9
$DIMALTTD
 70
     2
  9
$DIMTXSTY
  7
ＭＳ_ゴシック
  9
$DIMAUNIT
 70
     0
  9
$LUNITS
 70
     2
  9
$LUPREC
 70
     4
  9
$SKETCHINC
 40
0.1
  9
$FILLETRAD
 40
0.5
  9
$AUNITS
 70
     0
  9
$AUPREC
 70
     0
  9
$MENU
  1
.
  9
$ELEVATION
 40
0.0
  9
$PELEVATION
 40
0.0
  9
$THICKNESS
 40
0.0
  9
$LIMCHECK
 70
     0
  9
$CHAMFERA
 40
0.0
  9
$CHAMFERB
 40
0.0
  9
$CHAMFERC
 40
0.0
  9
$CHAMFERD
 40
0.0
  9
$SKPOLY
 70
     0
  9
$TDCREATE
 40
2459991.705416551
  9
$TDUPDATE
 40
2459991.705416806
  9
$TDINDWG
 40
0.0000000116
  9
$TDUSRTIMER
 40
0.0000000116
  9
$USRTIMER
 70
     1
  9
$ANGBASE
 50
0.0
  9
$ANGDIR
 70
     0
  9
$PDMODE
 70
     0
  9
$PDSIZE
 40
0.0
  9
$PLINEWID
 40
0.0
  9
$COORDS
 70
     1
  9
$SPLFRAME
 70
     0
  9
$SPLINETYPE
 70
     6
  9
$SPLINESEGS
 70
     8
  9
$ATTDIA
 70
     0
  9
$ATTREQ
 70
     1
  9
$HANDLING
 70
     1
  9
$HANDSEED
  5
128
  9
$SURFTAB1
 70
     6
  9
$SURFTAB2
 70
     6
  9
$SURFTYPE
 70
     6
  9
$SURFU
 70
     6
  9
$SURFV
 70
     6
  9
$UCSNAME
  2

  9
$UCSORG
 10
0.0
 20
0.0
 30
0.0
  9
$UCSXDIR
 10
1.0
 20
0.0
 30
0.0
  9
$UCSYDIR
 10
0.0
 20
1.0
 30
0.0
  9
$PUCSNAME
  2

  9
$PUCSORG
 10
0.0
 20
0.0
 30
0.0
  9
$PUCSXDIR
 10
1.0
 20
0.0
 30
0.0
  9
$PUCSYDIR
 10
0.0
 20
1.0
 30
0.0
  9
$USERI1
 70
     0
  9
$USERI2
 70
     0
  9
$USERI3
 70
     0
  9
$USERI4
 70
     0
  9
$USERI5
 70
     0
  9
$USERR1
 40
0.0
  9
$USERR2
 40
0.0
  9
$USERR3
 40
0.0
  9
$USERR4
 40
0.0
  9
$USERR5
 40
0.0
  9
$WORLDVIEW
 70
     1
  9
$SHADEDGE
 70
     3
  9
$SHADEDIF
 70
    70
  9
$TILEMODE
 70
     1
  9
$MAXACTVP
 70
    64
  9
$PINSBASE
 10
0.0
 20
0.0
 30
0.0
  9
$PLIMCHECK
 70
     0
  9
$PEXTMIN
 10
1.000000000000000E+20
 20
1.000000000000000E+20
 30
1.000000000000000E+20
  9
$PEXTMAX
 10
-1.000000000000000E+20
 20
-1.000000000000000E+20
 30
-1.000000000000000E+20
  9
$PLIMMIN
 10
0.0
 20
0.0
  9
$PLIMMAX
 10
12.0
 20
9.0
  9
$UNITMODE
 70
     0
  9
$VISRETAIN
 70
     1
  9
$PLINEGEN
 70
     0
  9
$PSLTSCALE
 70
     1
  9
$TREEDEPTH
 70
  3020
  9
$PICKSTYLE
 70
     1
  9
$CMLSTYLE
  2
STANDARD
  9
$CMLJUST
 70
     0
  9
$CMLSCALE
 40
1.0
  9
$PROXYGRAPHICS
 70
     1
  9
$MEASUREMENT
 70
     1
  0
ENDSEC
  0
SECTION
  2
CLASSES
  0
CLASS
  1
ACDBDICTIONARYWDFLT
  2
AcDbDictionaryWithDefault
  3
ObjectDBX Classes
 90
        0
280
     0
281
     0
  0
CLASS
  1
VISUALSTYLE
  2
AcDbVisualStyle
  3
ObjectDBX Classes
 90
     4095
280
     0
281
     0
  0
CLASS
  1
MATERIAL
  2
AcDbMaterial
  3
ObjectDBX Classes
 90
     1153
280
     0
281
     0
  0
CLASS
  1
SCALE
  2
AcDbScale
  3
ObjectDBX Classes
 90
     1153
280
     0
281
     0
  0
CLASS
  1
TABLESTYLE
  2
AcDbTableStyle
  3
ObjectDBX Classes
 90
     4095
280
     0
281
     0
  0
CLASS
  1
MLEADERSTYLE
  2
AcDbMLeaderStyle
  3
ACDB_MLEADERSTYLE_CLASS
 90
     4095
280
     0
281
     0
  0
CLASS
  1
SUN
  2
AcDbSun
  3
SCENEOE
 90
     1153
280
     0
281
     0
  0
CLASS
  1
DICTIONARYVAR
  2
AcDbDictionaryVar
  3
ObjectDBX Classes
 90
        0
280
     0
281
     0
  0
CLASS
  1
XRECORD
  2
AcDbXrecord
  3
ObjectDBX Classes
 90
        0
280
     0
281
     0
  0
CLASS
  1
LWPOLYLINE
  2
AcDbPolyline
  3
ObjectDBX Classes
 90
        0
280
     0
281
     1
  0
CLASS
  1
HATCH
  2
AcDbHatch
  3
ObjectDBX Classes
 90
        0
280
     0
281
     1
  0
CLASS
  1
ACDBPLACEHOLDER
  2
AcDbPlaceHolder
  3
ObjectDBX Classes
 90
        0
280
     0
281
     0
  0
CLASS
  1
LAYOUT
  2
AcDbLayout
  3
ObjectDBX Classes
 90
        0
280
     0
281
     0
  0
ENDSEC
  0
SECTION
  2
TABLES
  0
TABLE
  2
VPORT
  5
8
102
{ACAD_XDICTIONARY
360
11D
102
}
330
0
100
AcDbSymbolTable
 70
     1
  0
VPORT
  5
29
330
8
100
AcDbSymbolTableRecord
100
AcDbViewportTableRecord
  2
*ACTIVE
 70
     0
 10
0.0
 20
0.0
 11
1.0
 21
1.0
 12
280.9094738677485
 22
421.7585711054236
 13
0.0
 23
0.0
 14
0.5
 24
0.5
 15
0.5
 25
0.5
 16
0.0
 26
0.0
 36
1.0
 17
0.0
 27
0.0
 37
0.0
 40
166.4781580915305
 41
1.6
 42
50.0
 43
0.0
 44
0.0
 50
0.0
 51
0.0
 71
     0
 72
   100
 73
     1
 74
     3
 75
     0
 76
     0
 77
     0
 78
     0
  0
ENDTAB
  0
TABLE
  2
LTYPE
  5
5
330
0
100
AcDbSymbolTable
 70
     2
  0
LTYPE
  5
14
330
5
100
AcDbSymbolTableRecord
100
AcDbLinetypeTableRecord
  2
BYBLOCK
 70
     0
  3

 72
    65
 73
     0
 40
0.0
  0
LTYPE
  5
15
330
5
100
AcDbSymbolTableRecord
100
AcDbLinetypeTableRecord
  2
BYLAYER
 70
     0
  3

 72
    65
 73
     0
 40
0.0
  0
LTYPE
  5
16
330
5
100
AcDbSymbolTableRecord
100
AcDbLinetypeTableRecord
  2
CONTINUOUS
 70
     0
  3
Solid line
 72
    65
 73
     0
 40
0.0
  0
LTYPE
  5
70
330
5
100
AcDbSymbolTableRecord
100
AcDbLinetypeTableRecord
  2
________________
 70
     0
  3

 72
    65
 73
     4
 40
6.0
 49
2.25
 74
     0
 49
-1.5
 74
     0
 49
0.7499999999999999
 74
     0
 49
-1.5
 74
     0
  0
ENDTAB
  0
TABLE
  2
LAYER
  5
2
330
0
100
AcDbSymbolTable
 70
     1
  0
LAYER
  5
10
330
2
100
AcDbSymbolTableRecord
100
AcDbLayerTableRecord
  2
0
 70
     0
 62
     7
  6
CONTINUOUS
  0
ENDTAB
  0
TABLE
  2
STYLE
  5
3
330
0
100
AcDbSymbolTable
 70
     2
  0
STYLE
  5
11
330
3
100
AcDbSymbolTableRecord
100
AcDbTextStyleTableRecord
  2
STANDARD
 70
     0
 40
0.0
 41
1.0
 50
0.0
 71
     0
 42
0.2
  3
txt
  4

  0
STYLE
  5
6E
330
3
100
AcDbSymbolTableRecord
100
AcDbTextStyleTableRecord
  2
ＭＳ_ゴシック
 70
     0
 40
0.0
 41
1.0
 50
0.0
 71
     0
 42
0.2
  3
ＭＳ ゴシック.shx
  4

  0
ENDTAB
  0
TABLE
  2
VIEW
  5
6
330
0
100
AcDbSymbolTable
 70
     0
  0
ENDTAB
  0
TABLE
  2
UCS
  5
7
330
0
100
AcDbSymbolTable
 70
     0
  0
ENDTAB
  0
TABLE
  2
APPID
  5
9
330
0
100
AcDbSymbolTable
 70
     2
  0
APPID
  5
12
330
9
100
AcDbSymbolTableRecord
100
AcDbRegAppTableRecord
  2
ACAD
 70
     0
  0
APPID
  5
127
330
9
100
AcDbSymbolTableRecord
100
AcDbRegAppTableRecord
  2
ACAD_MLEADERVER
 70
     0
  0
ENDTAB
  0
TABLE
  2
DIMSTYLE
  5
A
330
0
100
AcDbSymbolTable
 70
     1
  0
DIMSTYLE
105
27
330
A
100
AcDbSymbolTableRecord
100
AcDbDimStyleTableRecord
  2
STANDARD
 70
     0
  3

  4

  5

  6

  7

 40
1.0
 41
0.18
 42
0.0625
 43
0.38
 44
0.18
 45
0.0
 46
0.0
 47
0.0
 48
0.0
140
0.18
141
0.09
142
0.0
143
25.4
144
1.0
145
0.0
146
1.0
147
0.09
 71
     0
 72
     0
 73
     1
 74
     1
 75
     0
 76
     0
 77
     0
 78
     0
170
     0
171
     2
172
     0
173
     0
174
     0
175
     0
176
     0
177
     0
178
     0
270
     2
271
     4
272
     4
273
     2
274
     2
340
11
275
     0
280
     0
281
     0
282
     0
283
     1
284
     0
285
     0
286
     0
287
     3
288
     0
  0
ENDTAB
  0
TABLE
  2
BLOCK_RECORD
  5
1
330
0
100
AcDbSymbolTable
 70
     0
  0
BLOCK_RECORD
  5
1F
330
1
100
AcDbSymbolTableRecord
100
AcDbBlockTableRecord
  2
*MODEL_SPACE
  0
BLOCK_RECORD
  5
1B
330
1
100
AcDbSymbolTableRecord
100
AcDbBlockTableRecord
  2
*PAPER_SPACE
  0
ENDTAB
  0
ENDSEC
  0
SECTION
  2
BLOCKS
  0
BLOCK
  5
20
330
1F
100
AcDbEntity
  8
0
100
AcDbBlockBegin
  2
*MODEL_SPACE
 70
     0
 10
0.0
 20
0.0
 30
0.0
  3
*MODEL_SPACE
  1

  0
ENDBLK
  5
21
330
1F
100
AcDbEntity
  8
0
100
AcDbBlockEnd
  0
BLOCK
  5
1C
330
1B
100
AcDbEntity
 67
     1
  8
0
100
AcDbBlockBegin
  2
*PAPER_SPACE
 70
     0
 10
0.0
 20
0.0
 30
0.0
  3
*PAPER_SPACE
  1

  0
ENDBLK
  5
1D
330
1B
100
AcDbEntity
 67
     1
  8
0
100
AcDbBlockEnd
  0
ENDSEC
  0
SECTION
  2
ENTITIES
  0
LINE
  5
6F
330
1F
100
AcDbEntity
  8
0
  6
________________
 62
     1
100
AcDbLine
 10
245.7094738677485
 20
383.3639535508631
 30
0.0
 11
316.1094738677484
 21
383.3639535508631
 31
0.0
  0
LINE
  5
71
330
1F
100
AcDbEntity
  8
0
  6
________________
 62
     1
100
AcDbLine
 10
280.9094738677484
 20
348.1639535508631
 30
0.0
 11
280.9094738677484
 21
418.563953550863
 31
0.0
  0
MTEXT
  5
72
330
1F
100
AcDbEntity
  8
0
 62
     2
100
AcDbMText
 10
276.5973829586576
 20
341.753871321022
 30
0.0
 40
3.0
 41
0.0
 71
     1
 72
     1
  1
{\fＭＳ ゴシック;GUH-64}
  0
LINE
  5
73
330
1F
100
AcDbEntity
  8
0
  6
CONTINUOUS
 62
     2
100
AcDbLine
 10
276.3928375041122
 20
338.5194920596583
 30
0.0
 11
288.0928375041121
 21
338.5194920596583
 31
0.0
  0
LINE
  5
74
330
1F
100
AcDbEntity
  8
0
  6
CONTINUOUS
 62
     7
100
AcDbLine
 10
291.4559786601535
 20
455.7646379454007
 30
0.0
 11
291.4559786601535
 21
485.6000020542239
 31
0.0
  0
LINE
  5
75
330
1F
100
AcDbEntity
  8
0
  6
CONTINUOUS
 62
     7
100
AcDbLine
 10
270.3629690753434
 20
455.7646379454007
 30
0.0
 11
270.3629690753434
 21
485.6000020542238
 31
0.0
  0
LINE
  5
76
330
1F
100
AcDbEntity
  8
0
  6
CONTINUOUS
 62
     7
100
AcDbLine
 10
291.4559786601535
 20
455.7646379454007
 30
0.0
 11
270.3629690753434
 21
455.7646379454007
 31
0.0
  0
LINE
  5
77
330
1F
100
AcDbEntity
  8
0
  6
CONTINUOUS
 62
     7
100
AcDbLine
 10
267.8112538965693
 20
455.7646379454007
 30
0.0
 11
267.8112538965693
 21
482.3920185218685
 31
0.0
  0
LINE
  5
78
330
1F
100
AcDbEntity
  8
0
  6
CONTINUOUS
 62
     7
100
AcDbLine
 10
268.7673260784808
 20
483.8040975264674
 30
0.0
 11
268.7673260784808
 21
455.7646379454007
 31
0.0
  0
LINE
  5
79
330
1F
100
AcDbEntity
  8
0
  6
CONTINUOUS
 62
     7
100
AcDbLine
 10
268.7673260784808
 20
455.7646379454007
 30
0.0
 11
267.8112538965693
 21
455.7646379454007
 31
0.0
  0
LINE
  5
7A
330
1F
100
AcDbEntity
  8
0
  6
CONTINUOUS
 62
     7
100
AcDbLine
 10
293.0516216570161
 20
455.7646379454007
 30
0.0
 11
293.0516216570161
 21
483.8040975264674
 31
0.0
  0
LINE
  5
7B
330
1F
100
AcDbEntity
  8
0
  6
CONTINUOUS
 62
     7
100
AcDbLine
 10
294.0076938389275
 20
482.3920185218684
 30
0.0
 11
294.0076938389275
 21
455.7646379454007
 31
0.0
  0
LINE
  5
7C
330
1F
100
AcDbEntity
  8
0
  6
CONTINUOUS
 62
     7
100
AcDbLine
 10
294.0076938389275
 20
455.7646379454007
 30
0.0
 11
293.0516216570161
 21
455.7646379454007
 31
0.0
  0
LINE
  5
7D
330
1F
100
AcDbEntity
  8
0
  6
CONTINUOUS
 62
     7
100
AcDbLine
 10
314.1094738677485
 20
455.7646379454007
 30
0.0
 11
294.0076938389275
 21
455.7646379454007
 31
0.0
  0
LINE
  5
7E
330
1F
100
AcDbEntity
  8
0
  6
CONTINUOUS
 62
     7
100
AcDbLine
 10
267.8112538965693
 20
455.7646379454007
 30
0.0
 11
247.7094738677485
 21
455.7646379454007
 31
0.0
  0
LINE
  5
7F
330
1F
100
AcDbEntity
  8
0
  6
CONTINUOUS
 62
     7
100
AcDbLine
 10
268.7673260784808
 20
455.7646379454007
 30
0.0
 11
270.3629690753434
 21
455.7646379454007
 31
0.0
  0
LINE
  5
80
330
1F
100
AcDbEntity
  8
0
  6
CONTINUOUS
 62
     7
100
AcDbLine
 10
291.4559786601535
 20
455.7646379454007
 30
0.0
 11
293.0516216570161
 21
455.7646379454007
 31
0.0
  0
LINE
  5
81
330
1F
100
AcDbEntity
  8
0
  6
CONTINUOUS
 62
     7
100
AcDbLine
 10
314.1094738677485
 20
455.7646379454007
 30
0.0
 11
314.1094738677485
 21
483.7115565332628
 31
0.0
  0
LINE
  5
82
330
1F
100
AcDbEntity
  8
0
  6
CONTINUOUS
 62
     7
100
AcDbLine
 10
247.7094738677484
 20
483.7115565332628
 30
0.0
 11
247.7094738677484
 21
455.7646379454007
 31
0.0
  0
LINE
  5
83
330
1F
100
AcDbEntity
  8
0
  6
CONTINUOUS
 62
     7
100
AcDbLine
 10
291.4559786601535
 20
490.600002054224
 30
0.0
 11
291.4559786601535
 21
504.9976501511888
 31
0.0
  0
LINE
  5
84
330
1F
100
AcDbEntity
  8
0
  6
CONTINUOUS
 62
     7
100
AcDbLine
 10
270.3629690753434
 20
490.6000020542238
 30
0.0
 11
270.3629690753434
 21
504.9976501511888
 31
0.0
  0
LINE
  5
85
330
1F
100
AcDbEntity
  8
0
  6
CONTINUOUS
 62
     7
100
AcDbLine
 10
291.4559786601535
 20
504.9976501511887
 30
0.0
 11
270.3629690753434
 21
504.9976501511887
 31
0.0
  0
LINE
  5
86
330
1F
100
AcDbEntity
  8
0
  6
CONTINUOUS
 62
     7
100
AcDbLine
 10
267.8112538965693
 20
487.3920185218684
 30
0.0
 11
267.8112538965693
 21
504.9976501511888
 31
0.0
  0
LINE
  5
87
330
1F
100
AcDbEntity
  8
0
  6
CONTINUOUS
 62
     7
100
AcDbLine
 10
268.7673260784808
 20
504.9976501511887
 30
0.0
 11
268.7673260784808
 21
488.8040975264672
 31
0.0
  0
LINE
  5
88
330
1F
100
AcDbEntity
  8
0
  6
CONTINUOUS
 62
     7
100
AcDbLine
 10
267.8112538965693
 20
504.9976501511887
 30
0.0
 11
268.7673260784808
 21
504.9976501511887
 31
0.0
  0
LINE
  5
89
330
1F
100
AcDbEntity
  8
0
  6
CONTINUOUS
 62
     7
100
AcDbLine
 10
293.0516216570161
 20
488.8040975264676
 30
0.0
 11
293.0516216570161
 21
504.9976501511888
 31
0.0
  0
LINE
  5
8A
330
1F
100
AcDbEntity
  8
0
  6
CONTINUOUS
 62
     7
100
AcDbLine
 10
294.0076938389275
 20
504.9976501511887
 30
0.0
 11
294.0076938389275
 21
487.3920185218685
 31
0.0
  0
LINE
  5
8B
330
1F
100
AcDbEntity
  8
0
  6
CONTINUOUS
 62
     7
100
AcDbLine
 10
293.0516216570161
 20
504.9976501511887
 30
0.0
 11
294.0076938389275
 21
504.9976501511887
 31
0.0
  0
LINE
  5
8C
330
1F
100
AcDbEntity
  8
0
  6
CONTINUOUS
 62
     7
100
AcDbLine
 10
314.1094738677485
 20
504.9976501511887
 30
0.0
 11
294.0076938389275
 21
504.9976501511887
 31
0.0
  0
LINE
  5
8D
330
1F
100
AcDbEntity
  8
0
  6
CONTINUOUS
 62
     7
100
AcDbLine
 10
267.8112538965693
 20
504.9976501511887
 30
0.0
 11
247.7094738677485
 21
504.9976501511887
 31
0.0
  0
LINE
  5
8E
330
1F
100
AcDbEntity
  8
0
  6
CONTINUOUS
 62
     7
100
AcDbLine
 10
268.7673260784808
 20
504.9976501511887
 30
0.0
 11
270.3629690753434
 21
504.9976501511887
 31
0.0
  0
LINE
  5
8F
330
1F
100
AcDbEntity
  8
0
  6
CONTINUOUS
 62
     7
100
AcDbLine
 10
291.4559786601535
 20
504.9976501511887
 30
0.0
 11
293.0516216570161
 21
504.9976501511887
 31
0.0
  0
LINE
  5
90
330
1F
100
AcDbEntity
  8
0
  6
CONTINUOUS
 62
     7
100
AcDbLine
 10
314.1094738677485
 20
488.7115565332628
 30
0.0
 11
314.1094738677485
 21
504.9976501511888
 31
0.0
  0
LINE
  5
91
330
1F
100
AcDbEntity
  8
0
  6
CONTINUOUS
 62
     7
100
AcDbLine
 10
247.7094738677484
 20
504.9976501511887
 30
0.0
 11
247.7094738677484
 21
488.7115565332626
 31
0.0
  0
LWPOLYLINE
  5
92
330
1F
100
AcDbEntity
  8
0
  6
CONTINUOUS
 62
     7
100
AcDbPolyline
 90
      129
 70
     0
 43
0.0
 10
315.9094738677485
 20
480.7646379454006
 10
315.3625988677484
 20
481.7070639853359
 10
314.8157238677485
 20
482.6207546643269
 10
314.2688488677485
 20
483.4769746214297
 10
313.7219738677485
 20
484.2469884957001
 10
313.1750988677485
 20
484.9020609261938
 10
312.6282238677485
 20
485.4134565519669
 10
312.0813488677485
 20
485.7524400120751
 10
311.5344738677485
 20
485.8902759455743
 10
310.9875988677485
 20
485.7982289915203
 10
310.4407238677485
 20
485.4574197803794
 10
309.8938488677485
 20
484.9097931859055
 10
309.3469738677485
 20
484.2204739135029
 10
308.8000988677485
 20
483.4546322981657
 10
308.2532238677485
 20
482.6774386748882
 10
307.7063488677484
 20
481.9540633786642
 10
307.1594738677484
 20
481.3496767444882
 10
306.6125988677485
 20
480.9294491073543
 10
306.0657238677484
 20
480.7585508022566
 10
305.5188488677484
 20
480.8936424840037
 10
304.9719738677484
 20
481.3077857092624
 10
304.4250988677484
 20
481.9265920579851
 10
303.8782238677484
 20
482.6751284905927
 10
303.3313488677484
 20
483.4784619675055
 10
302.7844738677483
 20
484.2616594491444
 10
302.2375988677484
 20
484.9497878959298
 10
301.6907238677484
 20
485.4679142682826
 10
301.1438488677483
 20
485.7411055266234
 10
300.5969738677484
 20
485.6991705376414
 10
300.0500988677484
 20
485.3515673748811
 10
299.5032238677483
 20
484.7738444305057
 10
298.9563488677483
 20
484.0435505883852
 10
298.4094738677483
 20
483.2382347323897
 10
297.8625988677483
 20
482.4354457463895
 10
297.3157238677483
 20
481.7127325142545
 10
296.7688488677483
 20
481.1476439198551
 10
296.2219738677483
 20
480.8177288470611
 10
295.6750988677483
 20
480.7984921768815
 10
295.1282238677483
 20
481.0979109920918
 10
294.5813488677483
 20
481.6425807800637
 10
294.0344738677483
 20
482.3542519843488
 10
293.4875988677483
 20
483.1546750484994
 10
292.9407238677483
 20
483.9656004160673
 10
292.3938488677483
 20
484.7087785306047
 10
291.8469738677483
 20
485.3059598356633
 10
291.3000988677483
 20
485.6788947747954
 10
290.7532238677483
 20
485.7499428720539
 10
290.2063488677483
 20
485.4945297901534
 10
289.6594738677483
 20
484.9815750487325
 10
289.1125988677483
 20
484.2895150502599
 10
288.5657238677483
 20
483.4967861972044
 10
288.0188488677483
 20
482.6818248920347
 10
287.4719738677482
 20
481.9230675372198
 10
286.9250988677482
 20
481.2989505352282
 10
286.3782238677483
 20
480.8879102885288
 10
285.8313488677482
 20
480.7683069510402
 10
285.2844738677482
 20
480.9797664131467
 10
284.7375988677482
 20
481.4602752477315
 10
284.1907238677482
 20
482.1313503408204
 10
283.6438488677483
 20
482.9145085784397
 10
283.0969738677482
 20
483.7312668466151
 10
282.5500988677483
 20
484.503142031373
 10
282.0032238677483
 20
485.1516510187391
 10
281.4563488677482
 20
485.5983106947397
 10
280.9094738677483
 20
485.7646379454006
 10
280.3625988677483
 20
485.5983106947394
 10
279.8157238677482
 20
485.1516510187387
 10
279.2688488677483
 20
484.5031420313724
 10
278.7219738677483
 20
483.7312668466146
 10
278.1750988677482
 20
482.914508578439
 10
277.6282238677483
 20
482.1313503408199
 10
277.0813488677483
 20
481.460275247731
 10
276.5344738677482
 20
480.9797664131465
 10
275.9875988677481
 20
480.7683069510401
 10
275.4407238677483
 20
480.887910288529
 10
274.8938488677482
 20
481.2989505352286
 10
274.3469738677481
 20
481.9230675372203
 10
273.8000988677483
 20
482.6818248920353
 10
273.2532238677482
 20
483.4967861972049
 10
272.7063488677482
 20
484.2895150502604
 10
272.1594738677483
 20
484.9815750487329
 10
271.6125988677482
 20
485.4945297901536
 10
271.0657238677482
 20
485.7499428720539
 10
270.5188488677481
 20
485.6788947747951
 10
269.9719738677482
 20
485.3059598356629
 10
269.4250988677482
 20
484.708778530604
 10
268.8782238677482
 20
483.9656004160666
 10
268.3313488677482
 20
483.1546750484987
 10
267.7844738677482
 20
482.3542519843483
 10
267.2375988677482
 20
481.6425807800632
 10
266.6907238677482
 20
481.0979109920916
 10
266.1438488677482
 20
480.7984921768814
 10
265.5969738677483
 20
480.8177288470612
 10
265.0500988677483
 20
481.1476439198553
 10
264.5032238677483
 20
481.712732514255
 10
263.9563488677483
 20
482.43544574639
 10
263.4094738677483
 20
483.2382347323903
 10
262.8625988677483
 20
484.0435505883857
 10
262.3157238677483
 20
484.7738444305061
 10
261.7688488677483
 20
485.3515673748815
 10
261.2219738677483
 20
485.6991705376416
 10
260.6750988677483
 20
485.7411055266234
 10
260.1282238677483
 20
485.4679142682825
 10
259.5813488677482
 20
484.9497878959296
 10
259.0344738677483
 20
484.261659449144
 10
258.4875988677483
 20
483.478461967505
 10
257.9407238677482
 20
482.6751284905923
 10
257.3938488677483
 20
481.9265920579848
 10
256.8469738677483
 20
481.3077857092621
 10
256.3000988677482
 20
480.8936424840036
 10
255.7532238677483
 20
480.7585508022566
 10
255.2063488677483
 20
480.9294491073545
 10
254.6594738677482
 20
481.3496767444885
 10
254.1125988677482
 20
481.9540633786646
 10
253.5657238677482
 20
482.6774386748884
 10
253.0188488677482
 20
483.454632298166
 10
252.4719738677482
 20
484.2204739135032
 10
251.9250988677482
 20
484.9097931859058
 10
251.3782238677482
 20
485.4574197803796
 10
250.8313488677482
 20
485.7982289915203
 10
250.2844738677482
 20
485.8902759455742
 10
249.7375988677482
 20
485.7524400120749
 10
249.1907238677482
 20
485.4134565519666
 10
248.6438488677482
 20
484.9020609261935
 10
248.0969738677482
 20
484.2469884956997
 10
247.5500988677482
 20
483.4769746214293
 10
247.0032238677482
 20
482.6207546643266
 10
246.4563488677482
 20
481.7070639853355
 10
245.9094738677484
 20
480.7646379454006
  0
LWPOLYLINE
  5
93
330
1F
100
AcDbEntity
  8
0
  6
CONTINUOUS
 62
     7
100
AcDbPolyline
 90
      129
 70
     0
 43
0.0
 10
315.9094738677485
 20
485.7646379454006
 10
315.3625988677484
 20
486.7070639853359
 10
314.8157238677485
 20
487.6207546643269
 10
314.2688488677485
 20
488.4769746214297
 10
313.7219738677485
 20
489.2469884957001
 10
313.1750988677485
 20
489.9020609261938
 10
312.6282238677485
 20
490.4134565519669
 10
312.0813488677485
 20
490.7524400120751
 10
311.5344738677485
 20
490.8902759455743
 10
310.9875988677485
 20
490.7982289915203
 10
310.4407238677485
 20
490.4574197803794
 10
309.8938488677485
 20
489.9097931859055
 10
309.3469738677485
 20
489.2204739135029
 10
308.8000988677485
 20
488.4546322981657
 10
308.2532238677485
 20
487.6774386748882
 10
307.7063488677484
 20
486.9540633786642
 10
307.1594738677484
 20
486.3496767444882
 10
306.6125988677485
 20
485.9294491073543
 10
306.0657238677484
 20
485.7585508022566
 10
305.5188488677484
 20
485.8936424840037
 10
304.9719738677484
 20
486.3077857092624
 10
304.4250988677484
 20
486.9265920579851
 10
303.8782238677484
 20
487.6751284905927
 10
303.3313488677484
 20
488.4784619675055
 10
302.7844738677483
 20
489.2616594491444
 10
302.2375988677484
 20
489.9497878959298
 10
301.6907238677484
 20
490.4679142682826
 10
301.1438488677483
 20
490.7411055266234
 10
300.5969738677484
 20
490.6991705376414
 10
300.0500988677484
 20
490.3515673748811
 10
299.5032238677483
 20
489.7738444305057
 10
298.9563488677483
 20
489.0435505883852
 10
298.4094738677483
 20
488.2382347323897
 10
297.8625988677483
 20
487.4354457463895
 10
297.3157238677483
 20
486.7127325142545
 10
296.7688488677483
 20
486.1476439198551
 10
296.2219738677483
 20
485.8177288470611
 10
295.6750988677483
 20
485.7984921768815
 10
295.1282238677483
 20
486.0979109920918
 10
294.5813488677483
 20
486.6425807800637
 10
294.0344738677483
 20
487.3542519843488
 10
293.4875988677483
 20
488.1546750484994
 10
292.9407238677483
 20
488.9656004160673
 10
292.3938488677483
 20
489.7087785306047
 10
291.8469738677483
 20
490.3059598356633
 10
291.3000988677483
 20
490.6788947747954
 10
290.7532238677483
 20
490.7499428720539
 10
290.2063488677483
 20
490.4945297901534
 10
289.6594738677483
 20
489.9815750487325
 10
289.1125988677483
 20
489.2895150502599
 10
288.5657238677483
 20
488.4967861972044
 10
288.0188488677483
 20
487.6818248920347
 10
287.4719738677482
 20
486.9230675372198
 10
286.9250988677482
 20
486.2989505352282
 10
286.3782238677483
 20
485.8879102885288
 10
285.8313488677482
 20
485.7683069510402
 10
285.2844738677482
 20
485.9797664131467
 10
284.7375988677482
 20
486.4602752477315
 10
284.1907238677482
 20
487.1313503408204
 10
283.6438488677483
 20
487.9145085784397
 10
283.0969738677482
 20
488.7312668466151
 10
282.5500988677483
 20
489.503142031373
 10
282.0032238677483
 20
490.1516510187391
 10
281.4563488677482
 20
490.5983106947397
 10
280.9094738677483
 20
490.7646379454006
 10
280.3625988677483
 20
490.5983106947394
 10
279.8157238677482
 20
490.1516510187387
 10
279.2688488677483
 20
489.5031420313724
 10
278.7219738677483
 20
488.7312668466146
 10
278.1750988677482
 20
487.914508578439
 10
277.6282238677483
 20
487.1313503408199
 10
277.0813488677483
 20
486.460275247731
 10
276.5344738677482
 20
485.9797664131465
 10
275.9875988677481
 20
485.7683069510401
 10
275.4407238677483
 20
485.887910288529
 10
274.8938488677482
 20
486.2989505352286
 10
274.3469738677481
 20
486.9230675372203
 10
273.8000988677483
 20
487.6818248920353
 10
273.2532238677482
 20
488.4967861972049
 10
272.7063488677482
 20
489.2895150502604
 10
272.1594738677483
 20
489.9815750487329
 10
271.6125988677482
 20
490.4945297901536
 10
271.0657238677482
 20
490.7499428720539
 10
270.5188488677481
 20
490.6788947747951
 10
269.9719738677482
 20
490.3059598356629
 10
269.4250988677482
 20
489.708778530604
 10
268.8782238677482
 20
488.9656004160666
 10
268.3313488677482
 20
488.1546750484987
 10
267.7844738677482
 20
487.3542519843483
 10
267.2375988677482
 20
486.6425807800632
 10
266.6907238677482
 20
486.0979109920916
 10
266.1438488677482
 20
485.7984921768814
 10
265.5969738677483
 20
485.8177288470612
 10
265.0500988677483
 20
486.1476439198553
 10
264.5032238677483
 20
486.712732514255
 10
263.9563488677483
 20
487.43544574639
 10
263.4094738677483
 20
488.2382347323903
 10
262.8625988677483
 20
489.0435505883857
 10
262.3157238677483
 20
489.7738444305061
 10
261.7688488677483
 20
490.3515673748815
 10
261.2219738677483
 20
490.6991705376416
 10
260.6750988677483
 20
490.7411055266234
 10
260.1282238677483
 20
490.4679142682825
 10
259.5813488677482
 20
489.9497878959296
 10
259.0344738677483
 20
489.261659449144
 10
258.4875988677483
 20
488.478461967505
 10
257.9407238677482
 20
487.6751284905923
 10
257.3938488677483
 20
486.9265920579848
 10
256.8469738677483
 20
486.3077857092621
 10
256.3000988677482
 20
485.8936424840036
 10
255.7532238677483
 20
485.7585508022566
 10
255.2063488677483
 20
485.9294491073545
 10
254.6594738677482
 20
486.3496767444885
 10
254.1125988677482
 20
486.9540633786646
 10
253.5657238677482
 20
487.6774386748884
 10
253.0188488677482
 20
488.454632298166
 10
252.4719738677482
 20
489.2204739135032
 10
251.9250988677482
 20
489.9097931859058
 10
251.3782238677482
 20
490.4574197803796
 10
250.8313488677482
 20
490.7982289915203
 10
250.2844738677482
 20
490.8902759455742
 10
249.7375988677482
 20
490.7524400120749
 10
249.1907238677482
 20
490.4134565519666
 10
248.6438488677482
 20
489.9020609261935
 10
248.0969738677482
 20
489.2469884956997
 10
247.5500988677482
 20
488.4769746214293
 10
247.0032238677482
 20
487.6207546643266
 10
246.4563488677482
 20
486.7070639853355
 10
245.9094738677484
 20
485.7646379454006
  0
ARC
  5
94
330
1F
100
AcDbEntity
  8
0
  6
CONTINUOUS
 62
     7
100
AcDbCircle
 10
306.5227516743861
 20
367.363953550863
 30
0.0
 40
3.000000000000003
100
AcDbArc
 50
270.0
 51
328.0079678914681
  0
ARC
  5
95
330
1F
100
AcDbEntity
  8
0
  6
CONTINUOUS
 62
     7
100
AcDbCircle
 10
280.9094738677484
 20
413.1983345457263
 30
0.0
 40
60.00000000000003
100
AcDbArc
 50
274.0207255512138
 51
286.0047742955542
  0
ARC
  5
96
330
1F
100
AcDbEntity
  8
0
  6
CONTINUOUS
 62
     7
100
AcDbCircle
 10
285.0639249074968
 20
354.0941634868379
 30
0.0
 40
0.7499999999999777
100
AcDbArc
 50
185.0000000000006
 51
274.0207255512138
  0
ARC
  5
97
330
1F
100
AcDbEntity
  8
0
  6
CONTINUOUS
 62
     7
100
AcDbCircle
 10
285.0639249074968
 20
354.0941634868379
 30
0.0
 40
0.7499999999999931
100
AcDbArc
 50
94.02072555121387
 51
185.0000000000001
  0
ARC
  5
98
330
1F
100
AcDbEntity
  8
0
  6
CONTINUOUS
 62
     7
100
AcDbCircle
 10
280.9094738677484
 20
413.1983345457263
 30
0.0
 40
56.6
100
AcDbArc
 50
273.4123524208679
 51
280.311208285044
  0
ARC
  5
99
330
1F
100
AcDbEntity
  8
0
  6
CONTINUOUS
 62
     7
100
AcDbCircle
 10
284.2664911565369
 20
356.8983306831795
 30
0.0
 40
0.2000000000000232
100
AcDbArc
 50
185.0000000000001
 51
273.4123524208679
  0
LINE
  5
9A
330
1F
100
AcDbEntity
  8
0
  6
CONTINUOUS
 62
     7
100
AcDbLine
 10
284.0667466253333
 20
356.8866784728926
 30
0.0
 11
284.0672522169185
 21
356.88089953463
 31
0.0
  0
LINE
  5
9B
330
1F
100
AcDbEntity
  8
0
  6
CONTINUOUS
 62
     7
100
AcDbLine
 10
283.9967138034053
 20
356.9454429879426
 30
0.0
 11
284.0667466253333
 21
356.8866784728926
 31
0.0
  0
ARC
  5
9C
330
1F
100
AcDbEntity
  8
0
  6
CONTINUOUS
 62
     7
100
AcDbCircle
 10
284.0288531838896
 20
356.9837452100986
 30
0.0
 40
0.0500000000000177
100
AcDbArc
 50
139.9999999999984
 51
230.0000000000001
  0
LINE
  5
9D
330
1F
100
AcDbEntity
  8
0
  6
CONTINUOUS
 62
     7
100
AcDbLine
 10
284.0493154767838
 20
357.0859174125109
 30
0.0
 11
283.9905509617337
 21
357.0158845905829
 31
0.0
  0
LINE
  5
9E
330
1F
100
AcDbEntity
  8
0
  6
CONTINUOUS
 62
     7
100
AcDbLine
 10
284.0231687539595
 20
357.3847758219384
 30
0.0
 11
284.0493154767838
 21
357.0859174125109
 31
0.0
  0
LINE
  5
9F
330
1F
100
AcDbEntity
  8
0
  6
CONTINUOUS
 62
     7
100
AcDbLine
 10
283.9531359320314
 20
357.4435403369885
 30
0.0
 11
284.0231687539595
 21
357.3847758219384
 31
0.0
  0
ARC
  5
A0
330
1F
100
AcDbEntity
  8
0
  6
CONTINUOUS
 62
     7
100
AcDbCircle
 10
283.9852753125157
 20
357.4818425591445
 30
0.0
 40
0.0500000000000177
100
AcDbArc
 50
139.9999999999997
 51
230.0000000000024
  0
LINE
  5
A1
330
1F
100
AcDbEntity
  8
0
  6
CONTINUOUS
 62
     7
100
AcDbLine
 10
284.0057376054099
 20
357.5840147615568
 30
0.0
 11
283.9469730903598
 21
357.5139819396288
 31
0.0
  0
ARC
  5
A2
330
1F
100
AcDbEntity
  8
0
  6
CONTINUOUS
 62
     7
100
AcDbCircle
 10
284.7485510893531
 20
357.4804380842969
 30
0.0
 40
0.7499999999999927
100
AcDbArc
 50
93.94156695412892
 51
172.0619543080985
  0
ARC
  5
A3
330
1F
100
AcDbEntity
  8
0
  6
CONTINUOUS
 62
     7
100
AcDbCircle
 10
-280.9094738677484
 20
413.1983345457263
 30
0.0
 40
55.10000000000002
210
0.0
220
0.0
230
-1.0
100
AcDbArc
 50
259.5715763804564
 51
266.0584330458711
  0
LINE
  5
A4
330
1F
100
AcDbEntity
  8
0
  6
CONTINUOUS
 62
     7
100
AcDbLine
 10
293.3018620231736
 20
361.1776620498478
 30
0.0
 11
291.4090625302734
 21
359.2848625569476
 31
0.0
  0
LINE
  5
A5
330
1F
100
AcDbEntity
  8
0
  6
CONTINUOUS
 62
     7
100
AcDbLine
 10
306.0242105774972
 20
365.863953550863
 30
0.0
 11
304.6155705221583
 21
365.863953550863
 31
0.0
  0
ARC
  5
A6
330
1F
100
AcDbEntity
  8
0
  6
CONTINUOUS
 62
     7
100
AcDbCircle
 10
-306.0242105774972
 20
368.863953550863
 30
0.0
 40
3.000000000000012
210
0.0
220
0.0
230
-1.0
100
AcDbArc
 50
210.0
 51
270.0000000000001
  0
ARC
  5
A7
330
1F
100
AcDbEntity
  8
0
  6
CONTINUOUS
 62
     7
100
AcDbCircle
 10
-280.9094738677484
 20
383.3639535508631
 30
0.0
 40
31.99999999999998
210
0.0
220
0.0
230
-1.0
100
AcDbArc
 50
113.8764579095184
 51
210.0
  0
ARC
  5
A8
330
1F
100
AcDbEntity
  8
0
  6
CONTINUOUS
 62
     7
100
AcDbCircle
 10
-293.6595996400526
 20
412.1681944329003
 30
0.0
 40
0.4999999999999771
210
0.0
220
0.0
230
-1.0
100
AcDbArc
 50
63.04963197299475
 51
113.8764579095182
  0
ARC
  5
A9
330
1F
100
AcDbEntity
  8
0
  6
CONTINUOUS
 62
     7
100
AcDbCircle
 10
292.2093004310395
 20
415.0206726894933
 30
0.0
 40
2.699999999999977
100
AcDbArc
 50
239.8533804676996
 51
296.9503680270051
  0
ARC
  5
AA
330
1F
100
AcDbEntity
  8
0
  6
CONTINUOUS
 62
     7
100
AcDbCircle
 10
-280.9094738677484
 20
395.5639535508631
 30
0.0
 40
19.80000000000002
210
0.0
220
0.0
230
-1.0
100
AcDbArc
 50
59.85338046769941
 51
120.1466195323006
  0
ARC
  5
AB
330
1F
100
AcDbEntity
  8
0
  6
CONTINUOUS
 62
     7
100
AcDbCircle
 10
269.6096473044573
 20
415.0206726894933
 30
0.0
 40
2.700000000000029
100
AcDbArc
 50
243.0496319729947
 51
300.1466195323005
  0
ARC
  5
AC
330
1F
100
AcDbEntity
  8
0
  6
CONTINUOUS
 62
     7
100
AcDbCircle
 10
-268.1593480954443
 20
412.1681944329002
 30
0.0
 40
0.5000000000000092
210
0.0
220
0.0
230
-1.0
100
AcDbArc
 50
66.12354209048155
 51
116.9503680270053
  0
ARC
  5
AD
330
1F
100
AcDbEntity
  8
0
  6
CONTINUOUS
 62
     7
100
AcDbCircle
 10
-280.9094738677484
 20
383.3639535508631
 30
0.0
 40
32.00000000000003
210
0.0
220
0.0
230
-1.0
100
AcDbArc
 50
330.0
 51
66.12354209048158
  0
ARC
  5
AE
330
1F
100
AcDbEntity
  8
0
  6
CONTINUOUS
 62
     7
100
AcDbCircle
 10
-255.7947371579997
 20
368.863953550863
 30
0.0
 40
3.000000000000003
210
0.0
220
0.0
230
-1.0
100
AcDbArc
 50
270.0
 51
330.0
  0
LINE
  5
AF
330
1F
100
AcDbEntity
  8
0
  6
CONTINUOUS
 62
     7
100
AcDbLine
 10
257.2033772133386
 20
365.863953550863
 30
0.0
 11
255.7947371579997
 21
365.863953550863
 31
0.0
  0
ARC
  5
B0
330
1F
100
AcDbEntity
  8
0
  6
CONTINUOUS
 62
     7
100
AcDbCircle
 10
257.2033772133386
 20
349.8639535508631
 30
0.0
 40
15.99999999999994
100
AcDbArc
 50
45.00000000000001
 51
90.0
  0
LINE
  5
B1
330
1F
100
AcDbEntity
  8
0
  6
CONTINUOUS
 62
     7
100
AcDbLine
 10
269.9701340395283
 20
359.7246137226429
 30
0.0
 11
268.5170857123234
 21
361.1776620498478
 31
0.0
  0
ARC
  5
B2
330
1F
100
AcDbEntity
  8
0
  6
CONTINUOUS
 62
     7
100
AcDbCircle
 10
268.9094738677484
 20
358.663953550863
 30
0.0
 40
1.50000000000001
100
AcDbArc
 50
285.0
 51
45.0
  0
LINE
  5
B3
330
1F
100
AcDbEntity
  8
0
  6
CONTINUOUS
 62
     7
100
AcDbLine
 10
267.7039788801268
 20
356.7880278718349
 30
0.0
 11
269.2977024354022
 21
357.2150648114294
 31
0.0
  0
ARC
  5
B4
330
1F
100
AcDbEntity
  8
0
  6
CONTINUOUS
 62
     7
100
AcDbCircle
 10
-267.7816245936576
 20
356.4982501239482
 30
0.0
 40
0.2999999999999833
210
0.0
220
0.0
230
-1.0
100
AcDbArc
 50
283.0360703296379
 51
74.99999999999989
  0
ARC
  5
B5
330
1F
100
AcDbEntity
  8
0
  6
CONTINUOUS
 62
     7
100
AcDbCircle
 10
-280.9094738677484
 20
413.1983345457263
 30
0.0
 40
58.50000000000004
210
0.0
220
0.0
230
-1.0
100
AcDbArc
 50
275.6429640238784
 51
283.0360703296381
  0
ARC
  5
B6
330
1F
100
AcDbEntity
  8
0
  6
CONTINUOUS
 62
     7
100
AcDbCircle
 10
-275.2555473327054
 20
355.9769826328578
 30
0.0
 40
0.9999999999999549
210
0.0
220
0.0
230
-1.0
100
AcDbArc
 50
185.0
 51
275.6429640238784
  0
LINE
  5
B7
330
1F
100
AcDbEntity
  8
0
  6
CONTINUOUS
 62
     7
100
AcDbLine
 10
276.264618553794
 20
356.037006221443
 30
0.0
 11
276.2517420307971
 21
355.8898268901101
 31
0.0
  0
ARC
  5
B8
330
1F
100
AcDbEntity
  8
0
  6
CONTINUOUS
 62
     7
100
AcDbCircle
 10
-275.5174725302252
 20
356.1023730285038
 30
0.0
 40
0.7500000000000124
210
0.0
220
0.0
230
-1.0
100
AcDbArc
 50
95.39487166211511
 51
184.9999999999998
  0
ARC
  5
B9
330
1F
100
AcDbEntity
  8
0
  6
CONTINUOUS
 62
     7
100
AcDbCircle
 10
280.9094738677484
 20
413.1983345457263
 30
0.0
 40
56.6
100
AcDbArc
 50
264.6003786947073
 51
264.6051283378848
  0
ARC
  5
BA
330
1F
100
AcDbEntity
  8
0
  6
CONTINUOUS
 62
     7
100
AcDbCircle
 10
275.6538920696445
 20
357.5961640848221
 30
0.0
 40
0.7499999999999825
100
AcDbArc
 50
175.0
 51
264.6003786947074
  0
ARC
  5
BB
330
1F
100
AcDbEntity
  8
0
  6
CONTINUOUS
 62
     7
100
AcDbCircle
 10
275.6538920696445
 20
357.5961640848221
 30
0.0
 40
0.7500000000000238
100
AcDbArc
 50
84.6003786947072
 51
174.9999999999999
  0
ARC
  5
BC
330
1F
100
AcDbEntity
  8
0
  6
CONTINUOUS
 62
     7
100
AcDbCircle
 10
-280.9094738677484
 20
413.1983345457263
 30
0.0
 40
55.10000000000003
210
0.0
220
0.0
230
-1.0
100
AcDbArc
 50
273.8580899254403
 51
275.3996213052927
  0
ARC
  5
BD
330
1F
100
AcDbEntity
  8
0
  6
CONTINUOUS
 62
     7
100
AcDbCircle
 10
277.1515788255827
 20
357.4749038827451
 30
0.0
 40
0.7500000000000377
100
AcDbArc
 50
355.0000000000002
 51
86.14191007455975
  0
LINE
  5
BE
330
1F
100
AcDbEntity
  8
0
  6
CONTINUOUS
 62
     7
100
AcDbLine
 10
277.6693815921045
 20
354.7881316523505
 30
0.0
 11
277.8987248491516
 21
357.4095370756843
 31
0.0
  0
ARC
  5
BF
330
1F
100
AcDbEntity
  8
0
  6
CONTINUOUS
 62
     7
100
AcDbCircle
 10
-280.9094738677484
 20
413.1983345457263
 30
0.0
 40
58.50000000000001
210
0.0
220
0.0
230
-1.0
100
AcDbArc
 50
268.8189451672489
 51
273.175019798632
  0
ARC
  5
C0
330
1F
100
AcDbEntity
  8
0
  6
CONTINUOUS
 62
     7
100
AcDbCircle
 10
-282.1049603393299
 20
355.2106564399746
 30
0.0
 40
0.5000000000000051
210
0.0
220
0.0
230
-1.0
100
AcDbArc
 50
174.9999999999999
 51
268.8189451672489
  0
LINE
  5
C1
330
1F
100
AcDbEntity
  8
0
  6
CONTINUOUS
 62
     7
100
AcDbLine
 10
282.4443470614391
 20
357.0683050782383
 30
0.0
 11
282.6030576883758
 21
355.2542343113485
 31
0.0
  0
ARC
  5
C2
330
1F
100
AcDbEntity
  8
0
  6
CONTINUOUS
 62
     7
100
AcDbCircle
 10
283.4405417595309
 20
357.1554608209859
 30
0.0
 40
0.9999999999999887
100
AcDbArc
 50
92.58589575878969
 51
184.9999999999998
  0
ARC
  5
C3
330
1F
100
AcDbEntity
  8
0
  6
CONTINUOUS
 62
     7
100
AcDbCircle
 10
-280.9094738677484
 20
413.1983345457263
 30
0.0
 40
55.10000000000003
210
0.0
220
0.0
230
-1.0
100
AcDbArc
 50
267.2376088999122
 51
267.4141042412103
  0
ARC
  5
C4
330
1F
100
AcDbEntity
  8
0
  6
CONTINUOUS
 62
     7
100
AcDbCircle
 10
283.5794294363672
 20
357.862710059672
 30
0.0
 40
0.2999999999999819
100
AcDbArc
 50
5.000000000000138
 51
92.76239110008778
  0
LINE
  5
C5
330
1F
100
AcDbEntity
  8
0
  6
CONTINUOUS
 62
     7
100
AcDbLine
 10
283.8880214712639
 20
357.7776009342879
 30
0.0
 11
283.8782878457947
 21
357.8888567824963
 31
0.0
  0
LINE
  5
C6
330
1F
100
AcDbEntity
  8
0
  6
CONTINUOUS
 62
     7
100
AcDbLine
 10
283.9580542931919
 20
357.7188364192378
 30
0.0
 11
283.8880214712639
 21
357.7776009342879
 31
0.0
  0
ARC
  5
C7
330
1F
100
AcDbEntity
  8
0
  6
CONTINUOUS
 62
     7
100
AcDbCircle
 10
283.9259149127076
 20
357.6805341970819
 30
0.0
 40
0.0500000000000177
100
AcDbArc
 50
319.9999999999994
 51
50.0000000000016
  0
LINE
  5
C8
330
1F
100
AcDbEntity
  8
0
  6
CONTINUOUS
 62
     7
100
AcDbLine
 10
283.9054526198134
 20
357.5783619946696
 30
0.0
 11
283.9642171348635
 21
357.6483948165975
 31
0.0
  0
LINE
  5
C9
330
1F
100
AcDbEntity
  8
0
  6
CONTINUOUS
 62
     7
100
AcDbLine
 10
283.9315993426377
 20
357.279503585242
 30
0.0
 11
283.9054526198134
 21
357.5783619946696
 31
0.0
  0
LINE
  5
CA
330
1F
100
AcDbEntity
  8
0
  6
CONTINUOUS
 62
     7
100
AcDbLine
 10
284.0016321645658
 20
357.2207390701919
 30
0.0
 11
283.9315993426377
 21
357.279503585242
 31
0.0
  0
ARC
  5
CB
330
1F
100
AcDbEntity
  8
0
  6
CONTINUOUS
 62
     7
100
AcDbCircle
 10
283.9694927840814
 20
357.182436848036
 30
0.0
 40
0.0500000000000177
100
AcDbArc
 50
319.9999999999994
 51
50.0000000000016
  0
LINE
  5
CC
330
1F
100
AcDbEntity
  8
0
  6
CONTINUOUS
 62
     7
100
AcDbLine
 10
283.9490304911872
 20
357.0802646456237
 30
0.0
 11
284.0077950062374
 21
357.1502974675516
 31
0.0
  0
LINE
  5
CD
330
1F
100
AcDbEntity
  8
0
  6
CONTINUOUS
 62
     7
100
AcDbLine
 10
283.9759561724285
 20
356.7725027007493
 30
0.0
 11
283.9490304911872
 21
357.0802646456237
 31
0.0
  0
ARC
  5
CE
330
1F
100
AcDbEntity
  8
0
  6
CONTINUOUS
 62
     7
100
AcDbCircle
 10
-284.274814581856
 20
356.7986494235735
 30
0.0
 40
0.2999999999999797
210
0.0
220
0.0
230
-1.0
100
AcDbArc
 50
266.5852386397763
 51
354.9999999999999
  0
ARC
  5
CF
330
1F
100
AcDbEntity
  8
0
  6
CONTINUOUS
 62
     7
100
AcDbCircle
 10
-280.9094738677484
 20
413.1983345457263
 30
0.0
 40
56.8
210
0.0
220
0.0
230
-1.0
100
AcDbArc
 50
259.8437092421448
 51
266.5852386397763
  0
ARC
  5
D0
330
1F
100
AcDbEntity
  8
0
  6
CONTINUOUS
 62
     7
100
AcDbCircle
 10
291.189738802046
 20
355.8118713956013
 30
0.0
 40
1.499999999999996
100
AcDbArc
 50
75.0
 51
100.1562907578553
  0
LINE
  5
D1
330
1F
100
AcDbEntity
  8
0
  6
CONTINUOUS
 62
     7
100
AcDbLine
 10
293.2777451435873
 20
356.8053060532093
 30
0.0
 11
291.5779673696998
 21
357.2607601350348
 31
0.0
  0
ARC
  5
D2
330
1F
100
AcDbEntity
  8
0
  6
CONTINUOUS
 62
     7
100
AcDbCircle
 10
293.2000994300565
 20
356.5155283053226
 30
0.0
 40
0.300000000000008
100
AcDbArc
 50
282.2341505429252
 51
74.99999999999989
  0
ARC
  5
D3
330
1F
100
AcDbEntity
  8
0
  6
CONTINUOUS
 62
     7
100
AcDbCircle
 10
280.9094738677484
 20
413.1983345457263
 30
0.0
 40
58.30000000000003
100
AcDbArc
 50
273.6717279545774
 51
282.234150542925
  0
ARC
  5
D4
330
1F
100
AcDbEntity
  8
0
  6
CONTINUOUS
 62
     7
100
AcDbCircle
 10
-284.6750193207021
 20
354.5190309758837
 30
0.0
 40
0.50000000000001
210
0.0
220
0.0
230
-1.0
100
AcDbArc
 50
354.9999999999999
 51
86.32827204542258
  0
LINE
  5
D5
330
1F
100
AcDbEntity
  8
0
  6
CONTINUOUS
 62
     7
100
AcDbLine
 10
284.2352168023382
 20
353.8091401408335
 30
0.0
 11
284.1769219716562
 21
354.4754531045098
 31
0.0
  0
ARC
  5
D6
330
1F
100
AcDbEntity
  8
0
  6
CONTINUOUS
 62
     7
100
AcDbCircle
 10
283.7371194532924
 20
353.7655622694597
 30
0.0
 40
0.4999999999999837
100
AcDbArc
 50
272.7239193878372
 51
5.000000000000114
  0
ARC
  5
D7
330
1F
100
AcDbEntity
  8
0
  6
CONTINUOUS
 62
     7
100
AcDbCircle
 10
280.9094738677484
 20
413.1983345457263
 30
0.0
 40
60.00000000000004
100
AcDbArc
 50
267.0566925891804
 51
272.7239193878373
  0
LINE
  5
D8
330
1F
100
AcDbEntity
  8
0
  6
CONTINUOUS
 62
     7
100
AcDbLine
 10
277.564730015095
 20
353.5919586535657
 30
0.0
 11
277.828604999005
 21
353.2774846934953
 31
0.0
  0
LINE
  5
D9
330
1F
100
AcDbEntity
  8
0
  6
CONTINUOUS
 62
     7
100
AcDbLine
 10
277.324393695099
 20
353.3055369807796
 30
0.0
 11
277.564730015095
 21
353.5919586535657
 31
0.0
  0
ARC
  5
DA
330
1F
100
AcDbEntity
  8
0
  6
CONTINUOUS
 62
     7
100
AcDbCircle
 10
280.9094738677484
 20
413.1983345457263
 30
0.0
 40
60.00000000000001
100
AcDbArc
 50
253.9952257044458
 51
266.5744602261555
  0
ARC
  5
DB
330
1F
100
AcDbEntity
  8
0
  6
CONTINUOUS
 62
     7
100
AcDbCircle
 10
264.6421440768312
 20
356.4852497991394
 30
0.0
 40
0.9999999999999972
100
AcDbArc
 50
104.9999999999999
 51
253.9952257044459
  0
LINE
  5
DC
330
1F
100
AcDbEntity
  8
0
  6
CONTINUOUS
 62
     7
100
AcDbLine
 10
268.4075640855057
 20
358.5294672300378
 30
0.0
 11
264.3833250317286
 21
357.4511756254285
 31
0.0
  0
ARC
  5
DD
330
1F
100
AcDbEntity
  8
0
  6
CONTINUOUS
 62
     7
100
AcDbCircle
 10
-268.329918371975
 20
358.8192449779245
 30
0.0
 40
0.2999999999999636
210
0.0
220
0.0
230
-1.0
100
AcDbArc
 50
134.9999999999995
 51
254.9999999999999
  0
LINE
  5
DE
330
1F
100
AcDbEntity
  8
0
  6
CONTINUOUS
 62
     7
100
AcDbLine
 10
267.4564255405435
 20
360.117001878068
 30
0.0
 11
268.5420504063309
 21
359.0313770122805
 31
0.0
  0
ARC
  5
DF
330
1F
100
AcDbEntity
  8
0
  6
CONTINUOUS
 62
     7
100
AcDbCircle
 10
-257.2033772133386
 20
349.8639535508631
 30
0.0
 40
14.49999999999996
210
0.0
220
0.0
230
-1.0
100
AcDbArc
 50
90.0
 51
135.0
  0
LINE
  5
E0
330
1F
100
AcDbEntity
  8
0
  6
CONTINUOUS
 62
     7
100
AcDbLine
 10
255.2961960611107
 20
364.363953550863
 30
0.0
 11
257.2033772133386
 21
364.363953550863
 31
0.0
  0
ARC
  5
E1
330
1F
100
AcDbEntity
  8
0
  6
CONTINUOUS
 62
     7
100
AcDbCircle
 10
255.2961960611107
 20
367.363953550863
 30
0.0
 40
2.999999999999983
100
AcDbArc
 50
211.992032108532
 51
270.0
  0
ARC
  5
E2
330
1F
100
AcDbEntity
  8
0
  6
CONTINUOUS
 62
     7
100
AcDbCircle
 10
280.9094738677484
 20
383.3639535508631
 30
0.0
 40
33.2
100
AcDbArc
 50
113.2363339883173
 51
211.992032108532
  0
ARC
  5
E3
330
1F
100
AcDbEntity
  8
0
  6
CONTINUOUS
 62
     7
100
AcDbCircle
 10
268.2057785944964
 20
412.9520614052757
 30
0.0
 40
1.000000000000005
100
AcDbArc
 50
55.83711573313548
 51
113.2363339883173
  0
ARC
  5
E4
330
1F
100
AcDbEntity
  8
0
  6
CONTINUOUS
 62
     7
100
AcDbCircle
 10
-269.6096473044573
 20
415.0206726894933
 30
0.0
 40
1.500000000000003
210
0.0
220
0.0
230
-1.0
100
AcDbArc
 50
239.8533804676998
 51
304.1628842668646
  0
ARC
  5
E5
330
1F
100
AcDbEntity
  8
0
  6
CONTINUOUS
 62
     7
100
AcDbCircle
 10
280.9094738677484
 20
395.5639535508631
 30
0.0
 40
21.00000000000002
100
AcDbArc
 50
59.85338046769941
 51
120.1466195323006
  0
ARC
  5
E6
330
1F
100
AcDbEntity
  8
0
  6
CONTINUOUS
 62
     7
100
AcDbCircle
 10
-292.2093004310395
 20
415.0206726894933
 30
0.0
 40
1.499999999999999
210
0.0
220
0.0
230
-1.0
100
AcDbArc
 50
235.8371157331354
 51
300.1466195323005
  0
ARC
  5
E7
330
1F
100
AcDbEntity
  8
0
  6
CONTINUOUS
 62
     7
100
AcDbCircle
 10
293.6131691410005
 20
412.9520614052757
 30
0.0
 40
0.9999999999999863
100
AcDbArc
 50
66.76366601168263
 51
124.1628842668645
  0
ARC
  5
E8
330
1F
100
AcDbEntity
  8
0
  6
CONTINUOUS
 62
     7
100
AcDbCircle
 10
280.9094738677484
 20
383.3639535508631
 30
0.0
 40
33.19999999999997
100
AcDbArc
 50
328.0079678914681
 51
66.76366601168263
  0
ARC
  5
E9
330
1F
100
AcDbEntity
  8
0
  6
CONTINUOUS
 62
     7
100
AcDbCircle
 10
297.1768036586657
 20
356.4852497991394
 30
0.0
 40
0.999999999999998
100
AcDbArc
 50
286.0047742955541
 51
74.99999999999989
  0
ARC
  5
EA
330
1F
100
AcDbEntity
  8
0
  6
CONTINUOUS
 62
     7
100
AcDbCircle
 10
-294.0373231418394
 20
356.4982501239483
 30
0.0
 40
0.299999999999967
210
0.0
220
0.0
230
-1.0
100
AcDbArc
 50
105.0000000000003
 51
256.963929670362
  0
ARC
  5
EB
330
1F
100
AcDbEntity
  8
0
  6
CONTINUOUS
 62
     7
100
AcDbCircle
 10
-293.4890293635219
 20
358.8192449779245
 30
0.0
 40
0.299999999999967
210
0.0
220
0.0
230
-1.0
100
AcDbArc
 50
285.0000000000007
 51
44.99999999999977
  0
ARC
  5
EC
330
1F
100
AcDbEntity
  8
0
  6
CONTINUOUS
 62
     7
100
AcDbCircle
 10
-291.2195674783016
 20
356.5285721521743
 30
0.0
 40
0.9999999999999948
210
0.0
220
0.0
230
-1.0
100
AcDbArc
 50
79.6887917149561
 51
105.0
  0
ARC
  5
ED
330
1F
100
AcDbEntity
  8
0
  6
CONTINUOUS
 62
     7
100
AcDbCircle
 10
-290.7019557490868
 20
359.9919693381342
 30
0.0
 40
0.9999999999999966
210
0.0
220
0.0
230
-1.0
100
AcDbArc
 50
225.0000000000003
 51
259.5715763804564
  0
ARC
  5
EE
330
1F
100
AcDbEntity
  8
0
  6
CONTINUOUS
 62
     7
100
AcDbCircle
 10
304.6155705221583
 20
349.8639535508631
 30
0.0
 40
15.99999999999996
100
AcDbArc
 50
90.0
 51
135.0
  0
ARC
  5
EF
330
1F
100
AcDbEntity
  8
0
  6
CONTINUOUS
 62
     7
100
AcDbCircle
 10
-304.6155705221583
 20
349.8639535508631
 30
0.0
 40
14.49999999999997
210
0.0
220
0.0
230
-1.0
100
AcDbArc
 50
45.0
 51
90.00000000000001
  0
LINE
  5
F0
330
1F
100
AcDbEntity
  8
0
  6
CONTINUOUS
 62
     7
100
AcDbLine
 10
293.2768973291659
 20
359.0313770122805
 30
0.0
 11
294.3625221949534
 21
360.117001878068
 31
0.0
  0
LINE
  5
F1
330
1F
100
AcDbEntity
  8
0
  6
CONTINUOUS
 62
     7
100
AcDbLine
 10
297.4356227037682
 20
357.4511756254285
 30
0.0
 11
293.4113836499911
 21
358.5294672300379
 31
0.0
  0
LINE
  5
F2
330
1F
100
AcDbEntity
  8
0
  6
CONTINUOUS
 62
     7
100
AcDbLine
 10
304.6155705221583
 20
364.363953550863
 30
0.0
 11
306.5227516743861
 21
364.363953550863
 31
0.0
  0
ARC
  5
F3
330
1F
100
AcDbEntity
  8
0
  6
CONTINUOUS
 62
     7
100
AcDbCircle
 10
-280.9094738677484
 20
413.1983345457263
 30
0.0
 40
58.50000000000003
210
0.0
220
0.0
230
-1.0
100
AcDbArc
 50
256.9639296703619
 51
265.9792744487863
  0
LINE
  5
F4
330
1F
100
AcDbEntity
  8
0
  6
CONTINUOUS
 62
     7
100
AcDbLine
 10
291.4783865234041
 20
357.4944979784634
 30
0.0
 11
294.1149688553701
 21
356.7880278718349
 31
0.0
  0
ENDSEC
  0
SECTION
  2
OBJECTS
  0
DICTIONARY
  5
C
330
0
100
AcDbDictionary
  3
ACAD_GROUP
350
D
  3
ACAD_LAYOUT
350
1A
  3
ACAD_MATERIAL
350
43
  3
ACAD_MLEADERSTYLE
350
6B
  3
ACAD_MLINESTYLE
350
17
  3
ACAD_PLOTSETTINGS
350
19
  3
ACAD_SCALELIST
350
47
  3
ACAD_VISUALSTYLE
350
2A
  3
ACDBHEADERROUNDTRIPXREC
350
F5
  3
ACDBVARIABLEDICTIONARY
350
116
  0
DICTIONARY
  5
11D
330
8
100
AcDbDictionary
280
     1
  3
ACAD_XREC_ROUNDTRIP
360
11E
  0
DICTIONARY
  5
D
102
{ACAD_REACTORS
330
C
102
}
330
C
100
AcDbDictionary
  0
DICTIONARY
  5
1A
102
{ACAD_REACTORS
330
C
102
}
330
C
100
AcDbDictionary
  0
DICTIONARY
  5
43
102
{ACAD_REACTORS
330
C
102
}
330
C
100
AcDbDictionary
  3
BYBLOCK
350
45
  3
BYLAYER
350
44
  3
GLOBAL
350
46
  0
DICTIONARY
  5
6B
102
{ACAD_REACTORS
330
C
102
}
330
C
100
AcDbDictionary
  3
STANDARD
350
6C
  0
DICTIONARY
  5
17
102
{ACAD_REACTORS
330
C
102
}
330
C
100
AcDbDictionary
  3
STANDARD
350
18
  0
DICTIONARY
  5
19
102
{ACAD_REACTORS
330
C
102
}
330
C
100
AcDbDictionary
  0
DICTIONARY
  5
47
102
{ACAD_REACTORS
330
C
102
}
330
C
100
AcDbDictionary
  3
A0
350
48
  3
A1
350
49
  3
A2
350
4A
  3
A3
350
4B
  3
A4
350
4C
  3
A5
350
4D
  3
A6
350
4E
  3
A7
350
4F
  3
A8
350
50
  3
A9
350
51
  3
B0
350
52
  3
B1
350
53
  3
B2
350
54
  3
B3
350
55
  3
B4
350
56
  3
B5
350
57
  3
B6
350
58
  3
B7
350
59
  3
B8
350
5A
  3
B9
350
5B
  3
C0
350
5C
  3
C1
350
5D
  3
C2
350
5E
  3
C3
350
5F
  3
C4
350
60
  3
C5
350
61
  3
C6
350
62
  3
C7
350
63
  3
C8
350
64
  3
C9
350
65
  3
D0
350
66
  3
D1
350
67
  3
D2
350
68
  0
DICTIONARY
  5
2A
102
{ACAD_REACTORS
330
C
102
}
330
C
100
AcDbDictionary
  3
2DWIREFRAME
350
2F
  3
BASIC
350
32
  3
BRIGHTEN
350
36
  3
COLORCHANGE
350
3A
  3
CONCEPTUAL
350
34
  3
DIM
350
35
  3
EDGECOLOROFF
350
3D
  3
FACEPATTERN
350
39
  3
FLAT
350
2B
  3
FLATWITHEDGES
350
2C
  3
GOURAUD
350
2D
  3
GOURAUDWITHEDGES
350
2E
  3
HIDDEN
350
31
  3
JITTEROFF
350
3B
  3
LINEPATTERN
350
38
  3
OVERHANGOFF
350
3C
  3
REALISTIC
350
33
  3
SHADED
350
42
  3
SHADED_WITH_EDGES
350
41
  3
SHADES_OF_GRAY
350
3E
  3
SKETCHY
350
3F
  3
THICKEN
350
37
  3
WIREFRAME
350
30
  3
X-RAY
350
40
  0
DICTIONARY
  5
F5
102
{ACAD_REACTORS
330
C
102
}
330
C
100
AcDbDictionary
  3
CEPSNID
350
FF
  3
CEPSNTYPE
350
FE
  3
DIMSTYLEDATA
350
115
  3
FINGERPRINTGUID
350
100
  3
HYPERLINKBASE
350
F8
  3
INSUNITS
350
FD
  3
LAYOUTDICT
350
FA
  3
LWETCUNION
350
FC
  3
PLOTSETDICT
350
FB
  3
PSVPSCALE
350
102
  3
PUCSBASE
350
105
  3
PUCSORGBACK
350
10B
  3
PUCSORGBOTTOM
350
107
  3
PUCSORGFRONT
350
10A
  3
PUCSORGLEFT
350
108
  3
PUCSORGRIGHT
350
109
  3
PUCSORGTOP
350
106
  3
PUCSORTHOREF
350
103
  3
PUCSORTHOVIEW
350
104
  3
STYLESHEET
350
F9
  3
TSTACKALIGN
350
F6
  3
TSTACKSIZE
350
F7
  3
UCSBASE
350
10E
  3
UCSORGBACK
350
114
  3
UCSORGBOTTOM
350
110
  3
UCSORGFRONT
350
113
  3
UCSORGLEFT
350
111
  3
UCSORGRIGHT
350
112
  3
UCSORGTOP
350
10F
  3
UCSORTHOREF
350
10C
  3
UCSORTHOVIEW
350
10D
  3
VERSIONGUID
350
101
  0
DICTIONARY
  5
116
102
{ACAD_REACTORS
330
C
102
}
330
C
100
AcDbDictionary
  3
CANNOSCALE
350
11F
  3
CMLEADERSTYLE
350
118
  3
CTABLESTYLE
350
117
  3
DIMASSOC
350
11B
  3
HIDETEXT
350
11C
  3
MSLTSCALE
350
120
  0
XRECORD
  5
11E
102
{ACAD_REACTORS
330
11D
102
}
330
11D
100
AcDbXrecord
102
VTR_0.000_0.000_1.000_1.000_VISUALSTYLE
340
2F
102
VTR_0.000_0.000_1.000_1.000_GRIDDISPLAY
 70
     3
102
VTR_0.000_0.000_1.000_1.000_GRIDMAJOR
 70
     5
102
VTR_0.000_0.000_1.000_1.000_DEFAULTLIGHTING
280
     1
102
VTR_0.000_0.000_1.000_1.000_DEFAULTLIGHTINGTYPE
 70
     1
102
VTR_0.000_0.000_1.000_1.000_BRIGHTNESS
141
0.0
102
VTR_0.000_0.000_1.000_1.000_CONTRAST
142
0.0
  0
MATERIAL
  5
45
102
{ACAD_REACTORS
330
43
102
}
102
{ACAD_XDICTIONARY
360
123
102
}
330
43
100
AcDbMaterial
  1
BYBLOCK
  0
MATERIAL
  5
44
102
{ACAD_REACTORS
330
43
102
}
102
{ACAD_XDICTIONARY
360
121
102
}
330
43
100
AcDbMaterial
  1
BYLAYER
  0
MATERIAL
  5
46
102
{ACAD_REACTORS
330
43
102
}
102
{ACAD_XDICTIONARY
360
125
102
}
330
43
100
AcDbMaterial
  1
GLOBAL
  0
ACAD_PROXY_OBJECT
  5
6C
102
{ACAD_REACTORS
330
6B
102
}
330
6B
100
AcDbProxyObject
 90
      499
 91
      505
 93
      610
310
40901902A4063FBFFFFFE056BD1B81E855B9FC0AD7A3703D0AD73F4214DD185B99185C9900AD7A3703D0AC73F90141901A02B5E8DC0F42B1CFC02B5E8DC0F42B1CFE5764000000000000300FC0
340
14
340
0
340
11
340
0
 94
        0
1001
ACAD_MLEADERVER
1070
     2
  0
MLINESTYLE
  5
18
102
{ACAD_REACTORS
330
17
102
}
330
17
100
AcDbMlineStyle
  2
Standard
 70
     0
  3

 62
   256
 51
90.0
 52
90.0
 71
     2
 49
0.5
 62
   256
  6
BYLAYER
 49
-0.5
 62
   256
  6
BYLAYER
  0
ACAD_PROXY_OBJECT
  5
48
102
{ACAD_REACTORS
330
47
102
}
330
47
100
AcDbProxyObject
 90
      499
 91
      503
 93
       41
310
903313A31580
  0
ACAD_PROXY_OBJECT
  5
49
102
{ACAD_REACTORS
330
47
102
}
330
47
100
AcDbProxyObject
 90
      499
 91
      503
 93
      105
310
903313A324000000000000004000
  0
ACAD_PROXY_OBJECT
  5
4A
102
{ACAD_REACTORS
330
47
102
}
330
47
100
AcDbProxyObject
 90
      499
 91
      503
 93
      105
310
903313A344000000000000104000
  0
ACAD_PROXY_OBJECT
  5
4B
102
{ACAD_REACTORS
330
47
102
}
330
47
100
AcDbProxyObject
 90
      499
 91
      503
 93
      105
310
903313A354000000000000144000
  0
ACAD_PROXY_OBJECT
  5
4C
102
{ACAD_REACTORS
330
47
102
}
330
47
100
AcDbProxyObject
 90
      499
 91
      503
 93
      105
310
903313A384000000000000204000
  0
ACAD_PROXY_OBJECT
  5
4D
102
{ACAD_REACTORS
330
47
102
}
330
47
100
AcDbProxyObject
 90
      499
 91
      503
 93
      113
310
904313A31304000000000000244000
  0
ACAD_PROXY_OBJECT
  5
4E
102
{ACAD_REACTORS
330
47
102
}
330
47
100
AcDbProxyObject
 90
      499
 91
      503
 93
      113
310
904313A31364000000000000304000
  0
ACAD_PROXY_OBJECT
  5
4F
102
{ACAD_REACTORS
330
47
102
}
330
47
100
AcDbProxyObject
 90
      499
 91
      503
 93
      113
310
904313A32304000000000000344000
  0
ACAD_PROXY_OBJECT
  5
50
102
{ACAD_REACTORS
330
47
102
}
330
47
100
AcDbProxyObject
 90
      499
 91
      503
 93
      113
310
904313A333040000000000003E4000
  0
ACAD_PROXY_OBJECT
  5
51
102
{ACAD_REACTORS
330
47
102
}
330
47
100
AcDbProxyObject
 90
      499
 91
      503
 93
      113
310
904313A34304000000000000444000
  0
ACAD_PROXY_OBJECT
  5
52
102
{ACAD_REACTORS
330
47
102
}
330
47
100
AcDbProxyObject
 90
      499
 91
      503
 93
      113
310
904313A35304000000000000494000
  0
ACAD_PROXY_OBJECT
  5
53
102
{ACAD_REACTORS
330
47
102
}
330
47
100
AcDbProxyObject
 90
      499
 91
      503
 93
      121
310
905313A3130304000000000000594000
  0
ACAD_PROXY_OBJECT
  5
54
102
{ACAD_REACTORS
330
47
102
}
330
47
100
AcDbProxyObject
 90
      499
 91
      503
 93
      105
310
903323A310000000000000010100
  0
ACAD_PROXY_OBJECT
  5
55
102
{ACAD_REACTORS
330
47
102
}
330
47
100
AcDbProxyObject
 90
      499
 91
      503
 93
      105
310
903343A310000000000000410100
  0
ACAD_PROXY_OBJECT
  5
56
102
{ACAD_REACTORS
330
47
102
}
330
47
100
AcDbProxyObject
 90
      499
 91
      503
 93
      105
310
903383A310000000000000810100
  0
ACAD_PROXY_OBJECT
  5
57
102
{ACAD_REACTORS
330
47
102
}
330
47
100
AcDbProxyObject
 90
      499
 91
      503
 93
      113
310
90431303A310000000000000910100
  0
ACAD_PROXY_OBJECT
  5
58
102
{ACAD_REACTORS
330
47
102
}
330
47
100
AcDbProxyObject
 90
      499
 91
      503
 93
      121
310
9053130303A310000000000001650100
  0
ACAD_PROXY_OBJECT
  5
59
102
{ACAD_REACTORS
330
47
102
}
330
47
100
AcDbProxyObject
 90
      499
 91
      503
 93
      257
310
90E312F31323822203D2031272D3022000000000000200FC000000000000284000
  0
ACAD_PROXY_OBJECT
  5
5A
102
{ACAD_REACTORS
330
47
102
}
330
47
100
AcDbProxyObject
 90
      499
 91
      503
 93
      249
310
90D312F363422203D2031272D3022000000000000240FC000000000000284000
  0
ACAD_PROXY_OBJECT
  5
5B
102
{ACAD_REACTORS
330
47
102
}
330
47
100
AcDbProxyObject
 90
      499
 91
      503
 93
      249
310
90D312F333222203D2031272D3022000000000000280FC000000000000284000
  0
ACAD_PROXY_OBJECT
  5
5C
102
{ACAD_REACTORS
330
47
102
}
330
47
100
AcDbProxyObject
 90
      499
 91
      503
 93
      249
310
90D312F313622203D2031272D30220000000000002C0FC000000000000284000
  0
ACAD_PROXY_OBJECT
  5
5D
102
{ACAD_REACTORS
330
47
102
}
330
47
100
AcDbProxyObject
 90
      499
 91
      503
 93
      249
310
90D332F333222203D2031272D30220000000000002E0FC000000000000284000
  0
ACAD_PROXY_OBJECT
  5
5E
102
{ACAD_REACTORS
330
47
102
}
330
47
100
AcDbProxyObject
 90
      499
 91
      503
 93
      241
310
90C312F3822203D2031272D3022000000000000300FC000000000000284000
  0
ACAD_PROXY_OBJECT
  5
5F
102
{ACAD_REACTORS
330
47
102
}
330
47
100
AcDbProxyObject
 90
      499
 91
      503
 93
      249
310
90D332F313622203D2031272D3022000000000000320FC000000000000284000
  0
ACAD_PROXY_OBJECT
  5
60
102
{ACAD_REACTORS
330
47
102
}
330
47
100
AcDbProxyObject
 90
      499
 91
      503
 93
      241
310
90C312F3422203D2031272D3022000000000000340FC000000000000284000
  0
ACAD_PROXY_OBJECT
  5
61
102
{ACAD_REACTORS
330
47
102
}
330
47
100
AcDbProxyObject
 90
      499
 91
      503
 93
      241
310
90C332F3822203D2031272D3022000000000000360FC000000000000284000
  0
ACAD_PROXY_OBJECT
  5
62
102
{ACAD_REACTORS
330
47
102
}
330
47
100
AcDbProxyObject
 90
      499
 91
      503
 93
      241
310
90C312F3222203D2031272D3022000000000000380FC000000000000284000
  0
ACAD_PROXY_OBJECT
  5
63
102
{ACAD_REACTORS
330
47
102
}
330
47
100
AcDbProxyObject
 90
      499
 91
      503
 93
      241
310
90C332F3422203D2031272D30220000000000003A0FC000000000000284000
  0
ACAD_PROXY_OBJECT
  5
64
102
{ACAD_REACTORS
330
47
102
}
330
47
100
AcDbProxyObject
 90
      499
 91
      503
 93
      161
310
90A3122203D2031272D30224000000000000284000
  0
ACAD_PROXY_OBJECT
  5
65
102
{ACAD_REACTORS
330
47
102
}
330
47
100
AcDbProxyObject
 90
      499
 91
      503
 93
      257
310
90E312D312F3222203D2031272D30220000000000003E0FC000000000000284000
  0
ACAD_PROXY_OBJECT
  5
66
102
{ACAD_REACTORS
330
47
102
}
330
47
100
AcDbProxyObject
 90
      499
 91
      503
 93
      225
310
90A3322203D2031272D302200000000000002100000000000000284000
  0
ACAD_PROXY_OBJECT
  5
67
102
{ACAD_REACTORS
330
47
102
}
330
47
100
AcDbProxyObject
 90
      499
 91
      503
 93
      225
310
90A3622203D2031272D302200000000000006100000000000000284000
  0
ACAD_PROXY_OBJECT
  5
68
102
{ACAD_REACTORS
330
47
102
}
330
47
100
AcDbProxyObject
 90
      499
 91
      503
 93
      249
310
90D31272D3022203D2031272D30220000000000000A100000000000000284000
  0
ACAD_PROXY_OBJECT
  5
2F
102
{ACAD_REACTORS
330
2A
102
}
330
2A
100
AcDbProxyObject
 90
      499
 91
      501
 93
      436
310
42CC9915DA5C99599C985B595049028333333333333E33F0000000000000F90107901411070040501600405405064090741402480A0340
1001
ACAD
1000
AcDbSavedByObjectVersion
1070
     0
  0
ACAD_PROXY_OBJECT
  5
32
102
{ACAD_REACTORS
330
2A
102
}
330
2A
100
AcDbProxyObject
 90
      499
 91
      501
 93
      388
310
4150985CDA58D07406404333333333333E33F0000000000000F90107A41107004050150841D405064090741402480A0350
1001
ACAD
1000
AcDbSavedByObjectVersion
1070
     0
  0
ACAD_PROXY_OBJECT
  5
36
102
{ACAD_REACTORS
330
2A
102
}
330
2A
100
AcDbProxyObject
 90
      499
 91
      501
 93
      428
310
42109C9A59DA1D195B90C409028333333333333E33F0000000000000F9010790141107004050150841D405064090741402480A029950
1001
ACAD
1000
AcDbSavedByObjectVersion
1070
     0
  0
ACAD_PROXY_OBJECT
  5
3A
102
{ACAD_REACTORS
330
2A
102
}
330
2A
100
AcDbProxyObject
 90
      499
 91
      501
 93
      452
310
42D0DBDB1BDC90DA185B99D95104090240C333333333333E33F0000000000000F90108901411070040501508421405064090741402480A0350
1001
ACAD
1000
AcDbSavedByObjectVersion
1070
     0
  0
ACAD_PROXY_OBJECT
  5
34
102
{ACAD_REACTORS
330
2A
102
}
330
2A
100
AcDbProxyObject
 90
      499
 91
      501
 93
      500
310
4290DBDB98D95C1D1D585B10940D028333333333333E33F0000000000000F90107902409070040501000000000018199010841D405064090740C02480A0340
1001
ACAD
1000
AcDbSavedByObjectVersion
1070
     0
  0
ACAD_PROXY_OBJECT
  5
35
102
{ACAD_REACTORS
330
2A
102
}
330
2A
100
AcDbProxyObject
 90
      499
 91
      501
 93
      412
310
40D11A5B50B409028333333333333E33F0000000000000F9010790141107004050150841D405064090741402480A02677FFFFFD0
1001
ACAD
1000
AcDbSavedByObjectVersion
1070
     0
  0
ACAD_PROXY_OBJECT
  5
3D
102
{ACAD_REACTORS
330
2A
102
}
330
2A
100
AcDbProxyObject
 90
      499
 91
      501
 93
      452
310
43115919D950DBDB1BDC93D999916409028333333333333E33F0000000000000F9010790141107004050150841D405064090741402480A0350
1001
ACAD
1000
AcDbSavedByObjectVersion
1070
     0
  0
ACAD_PROXY_OBJECT
  5
39
102
{ACAD_REACTORS
330
2A
102
}
330
2A
100
AcDbProxyObject
 90
      499
 91
      501
 93
      444
310
42D19858D95C185D1D195C9B90F409028333333333333E33F0000000000000F9010790141107004050150841D405064090741402480A0350
1001
ACAD
1000
AcDbSavedByObjectVersion
1070
     0
  0
ACAD_PROXY_OBJECT
  5
2B
102
{ACAD_REACTORS
330
2A
102
}
330
2A
100
AcDbProxyObject
 90
      499
 91
      501
 93
      380
310
41119B185D240901404333333333333E33F0000000000000F9010740A907004050150841D405064090741402480A1B50
1001
ACAD
1000
AcDbSavedByObjectVersion
1070
     0
  0
ACAD_PROXY_OBJECT
  5
2C
102
{ACAD_REACTORS
330
2A
102
}
330
2A
100
AcDbProxyObject
 90
      499
 91
      501
 93
      468
310
43519B185D15DA5D1A115919D95CD0140901404333333333333E33F0000000000000F90107409019070040501600405405064090741402480A1B50
1001
ACAD
1000
AcDbSavedByObjectVersion
1070
     0
  0
ACAD_PROXY_OBJECT
  5
2D
102
{ACAD_REACTORS
330
2A
102
}
330
2A
100
AcDbProxyObject
 90
      499
 91
      501
 93
      404
310
41D1DBDD5C985D5910240902404333333333333E33F0000000000000F9010740A9070040501641D405064090741402480A1B50
1001
ACAD
1000
AcDbSavedByObjectVersion
1070
     0
  0
ACAD_PROXY_OBJECT
  5
2E
102
{ACAD_REACTORS
330
2A
102
}
330
2A
100
AcDbProxyObject
 90
      499
 91
      501
 93
      492
310
4411DBDD5C985D5915DA5D1A115919D95CD0340902404333333333333E33F0000000000000F90107409019070040501600405405064090741402480A1B50
1001
ACAD
1000
AcDbSavedByObjectVersion
1070
     0
  0
ACAD_PROXY_OBJECT
  5
31
102
{ACAD_REACTORS
330
2A
102
}
330
2A
100
AcDbProxyObject
 90
      499
 91
      501
 93
      476
310
41921A5919195B90640502408333333333333E33F0000000000000F901079024090700405020000000000001110200405405064090740C02480A0340
1001
ACAD
1000
AcDbSavedByObjectVersion
1070
     0
  0
ACAD_PROXY_OBJECT
  5
3B
102
{ACAD_REACTORS
330
2A
102
}
330
2A
100
AcDbProxyObject
 90
      499
 91
      501
 93
      428
310
42529A5D1D195C93D999914409028333333333333E33F0000000000000F9010790141107004050150A41D405064090741402480A0350
1001
ACAD
1000
AcDbSavedByObjectVersion
1070
     0
  0
ACAD_PROXY_OBJECT
  5
38
102
{ACAD_REACTORS
330
2A
102
}
330
2A
100
AcDbProxyObject
 90
      499
 91
      501
 93
      444
310
42D31A5B995C185D1D195C9B90E409028333333333333E33F0000000000000F9010790141107004050750841D405064090741402483A0350
1001
ACAD
1000
AcDbSavedByObjectVersion
1070
     0
  0
ACAD_PROXY_OBJECT
  5
3C
102
{ACAD_REACTORS
330
2A
102
}
330
2A
100
AcDbProxyObject
 90
      499
 91
      501
 93
      444
310
42D3DD995C9A185B99D3D999915409028333333333333E33F0000000000000F9010790141107004050150941D405064090741402480A0350
1001
ACAD
1000
AcDbSavedByObjectVersion
1070
     0
  0
ACAD_PROXY_OBJECT
  5
33
102
{ACAD_REACTORS
330
2A
102
}
330
2A
100
AcDbProxyObject
 90
      499
 91
      501
 93
      428
310
425499585B1A5CDD1A58D08409038333333333333E33F0000000000000F9010740A907004050150800405405064090740C02480A1B40
1001
ACAD
1000
AcDbSavedByObjectVersion
1070
     0
  0
ACAD_PROXY_OBJECT
  5
42
102
{ACAD_REACTORS
330
2A
102
}
330
2A
100
AcDbProxyObject
 90
      499
 91
      501
 93
      420
310
4194DA1859195911B40902404333333333333E33F0000000000000F9010740A41107004050150800405405064090840C02480A0B40
1001
ACAD
1000
AcDbSavedByObjectVersion
1070
     0
  0
ACAD_PROXY_OBJECT
  5
41
102
{ACAD_REACTORS
330
2A
102
}
330
2A
100
AcDbProxyObject
 90
      499
 91
      501
 93
      516
310
4454DA18591959081DDA5D1A08195919D95CD1A40902404333333333333E33F0000000000000F901074090142907004050250800405405064090740C02480A0B40
1001
ACAD
1000
AcDbSavedByObjectVersion
1070
     0
  0
ACAD_PROXY_OBJECT
  5
3E
102
{ACAD_REACTORS
330
2A
102
}
330
2A
100
AcDbProxyObject
 90
      499
 91
      501
 93
      532
310
4394DA1859195CC81BD98811DC985E5174090240C333333333333E33F0000000000000F901079024090741D01000000000000111010841D405064090740C02480A0340
1001
ACAD
1000
AcDbSavedByObjectVersion
1070
     0
  0
ACAD_PROXY_OBJECT
  5
3F
102
{ACAD_REACTORS
330
2A
102
}
330
2A
100
AcDbProxyObject
 90
      499
 91
      501
 93
      476
310
41D4DAD95D18DA1E51840502408333333333333E33F0000000000000F901079024090741D01000000000000111010B41D405064090741802480A0340
1001
ACAD
1000
AcDbSavedByObjectVersion
1070
     0
  0
ACAD_PROXY_OBJECT
  5
37
102
{ACAD_REACTORS
330
2A
102
}
330
2A
100
AcDbProxyObject
 90
      499
 91
      501
 93
      412
310
41D51A1A58DAD95B90D409028333333333333E33F0000000000000F9010790141107004050150C41D405064090741402480A0350
1001
ACAD
1000
AcDbSavedByObjectVersion
1070
     0
  0
ACAD_PROXY_OBJECT
  5
30
102
{ACAD_REACTORS
330
2A
102
}
330
2A
100
AcDbProxyObject
 90
      499
 91
      501
 93
      420
310
4255DA5C99599C985B595059028333333333333E33F0000000000000F90107901411070040501600405405064090740C02480A0340
1001
ACAD
1000
AcDbSavedByObjectVersion
1070
     0
  0
ACAD_PROXY_OBJECT
  5
40
102
{ACAD_REACTORS
330
2A
102
}
330
2A
100
AcDbProxyObject
 90
      499
 91
      501
 93
      404
310
41560B54985E51940902404000000000000E03F0000000000000F9010740501907004050150841D405064090740C02480A1B40
1001
ACAD
1000
AcDbSavedByObjectVersion
1070
     0
  0
XRECORD
  5
FF
102
{ACAD_REACTORS
330
F5
102
}
330
F5
100
AcDbXrecord
340
0
  0
XRECORD
  5
FE
102
{ACAD_REACTORS
330
F5
102
}
330
F5
100
AcDbXrecord
 90
        0
  0
XRECORD
  5
115
102
{ACAD_REACTORS
330
F5
102
}
330
F5
100
AcDbXrecord
1000
DSTYLE
1002
{
1070
   179
 70
     2
1070
   171
 70
     2
1070
   143
 40
25.4
1070
   274
 70
     2
1070
    41
 40
3.0
1070
   141
 40
0.09
1070
    43
 40
0.38
1070
   278
 70
    46
1070
    44
 40
1.5
1070
    42
 40
0.0625
1070
   147
 40
1.5
1070
   272
 70
     4
1070
    73
 70
     1
1070
   172
 70
     0
1070
    74
 70
     1
1070
   283
 70
     1
1070
   340
340
6E
1070
   140
 40
3.0
1070
   284
 70
     0
1070
    78
 70
     0
1002
}
  0
XRECORD
  5
100
102
{ACAD_REACTORS
330
F5
102
}
330
F5
100
AcDbXrecord
  1
{476809AF-4659-443E-BB06-894F0A3B8316}
  0
XRECORD
  5
F8
102
{ACAD_REACTORS
330
F5
102
}
330
F5
100
AcDbXrecord
  1

  0
XRECORD
  5
FD
102
{ACAD_REACTORS
330
F5
102
}
330
F5
100
AcDbXrecord
 90
        4
  0
XRECORD
  5
FA
102
{ACAD_REACTORS
330
F5
102
}
330
F5
100
AcDbXrecord
340
1A
  0
XRECORD
  5
FC
102
{ACAD_REACTORS
330
F5
102
}
330
F5
100
AcDbXrecord
 90
    10269
  0
XRECORD
  5
FB
102
{ACAD_REACTORS
330
F5
102
}
330
F5
100
AcDbXrecord
340
19
  0
XRECORD
  5
102
102
{ACAD_REACTORS
330
F5
102
}
330
F5
100
AcDbXrecord
 40
0.0
  0
XRECORD
  5
105
102
{ACAD_REACTORS
330
F5
102
}
330
F5
100
AcDbXrecord
340
0
  0
XRECORD
  5
10B
102
{ACAD_REACTORS
330
F5
102
}
330
F5
100
AcDbXrecord
 10
0.0
 20
0.0
 30
0.0
  0
XRECORD
  5
107
102
{ACAD_REACTORS
330
F5
102
}
330
F5
100
AcDbXrecord
 10
0.0
 20
0.0
 30
0.0
  0
XRECORD
  5
10A
102
{ACAD_REACTORS
330
F5
102
}
330
F5
100
AcDbXrecord
 10
0.0
 20
0.0
 30
0.0
  0
XRECORD
  5
108
102
{ACAD_REACTORS
330
F5
102
}
330
F5
100
AcDbXrecord
 10
0.0
 20
0.0
 30
0.0
  0
XRECORD
  5
109
102
{ACAD_REACTORS
330
F5
102
}
330
F5
100
AcDbXrecord
 10
0.0
 20
0.0
 30
0.0
  0
XRECORD
  5
106
102
{ACAD_REACTORS
330
F5
102
}
330
F5
100
AcDbXrecord
 10
0.0
 20
0.0
 30
0.0
  0
XRECORD
  5
103
102
{ACAD_REACTORS
330
F5
102
}
330
F5
100
AcDbXrecord
340
0
  0
XRECORD
  5
104
102
{ACAD_REACTORS
330
F5
102
}
330
F5
100
AcDbXrecord
 70
     0
  0
XRECORD
  5
F9
102
{ACAD_REACTORS
330
F5
102
}
330
F5
100
AcDbXrecord
  1

  0
XRECORD
  5
F6
102
{ACAD_REACTORS
330
F5
102
}
330
F5
100
AcDbXrecord
 90
        1
  0
XRECORD
  5
F7
102
{ACAD_REACTORS
330
F5
102
}
330
F5
100
AcDbXrecord
 90
       70
  0
XRECORD
  5
10E
102
{ACAD_REACTORS
330
F5
102
}
330
F5
100
AcDbXrecord
340
0
  0
XRECORD
  5
114
102
{ACAD_REACTORS
330
F5
102
}
330
F5
100
AcDbXrecord
 10
0.0
 20
0.0
 30
0.0
  0
XRECORD
  5
110
102
{ACAD_REACTORS
330
F5
102
}
330
F5
100
AcDbXrecord
 10
0.0
 20
0.0
 30
0.0
  0
XRECORD
  5
113
102
{ACAD_REACTORS
330
F5
102
}
330
F5
100
AcDbXrecord
 10
0.0
 20
0.0
 30
0.0
  0
XRECORD
  5
111
102
{ACAD_REACTORS
330
F5
102
}
330
F5
100
AcDbXrecord
 10
0.0
 20
0.0
 30
0.0
  0
XRECORD
  5
112
102
{ACAD_REACTORS
330
F5
102
}
330
F5
100
AcDbXrecord
 10
0.0
 20
0.0
 30
0.0
  0
XRECORD
  5
10F
102
{ACAD_REACTORS
330
F5
102
}
330
F5
100
AcDbXrecord
 10
0.0
 20
0.0
 30
0.0
  0
XRECORD
  5
10C
102
{ACAD_REACTORS
330
F5
102
}
330
F5
100
AcDbXrecord
340
0
  0
XRECORD
  5
10D
102
{ACAD_REACTORS
330
F5
102
}
330
F5
100
AcDbXrecord
 70
     0
  0
XRECORD
  5
101
102
{ACAD_REACTORS
330
F5
102
}
330
F5
100
AcDbXrecord
  1
{FAEB1C32-E019-11D5-929B-00C0DF256EC4}
  0
DICTIONARYVAR
  5
11F
102
{ACAD_REACTORS
330
116
102
}
330
116
100
DictionaryVariables
280
     0
  1
1:1
  0
DICTIONARYVAR
  5
118
102
{ACAD_REACTORS
330
116
102
}
330
116
100
DictionaryVariables
280
     0
  1
Standard
  0
DICTIONARYVAR
  5
117
102
{ACAD_REACTORS
330
116
102
}
330
116
100
DictionaryVariables
280
     0
  1
Standard
  0
DICTIONARYVAR
  5
11B
102
{ACAD_REACTORS
330
116
102
}
330
116
100
DictionaryVariables
280
     0
  1
2
  0
DICTIONARYVAR
  5
11C
102
{ACAD_REACTORS
330
116
102
}
330
116
100
DictionaryVariables
280
     0
  1
1
  0
DICTIONARYVAR
  5
120
102
{ACAD_REACTORS
330
116
102
}
330
116
100
DictionaryVariables
280
     0
  1
1
  0
DICTIONARY
  5
123
330
45
100
AcDbDictionary
280
     1
  3
ACAD_XREC_ROUNDTRIP
360
124
  0
DICTIONARY
  5
121
330
44
100
AcDbDictionary
280
     1
  3
ACAD_XREC_ROUNDTRIP
360
122
  0
DICTIONARY
  5
125
330
46
100
AcDbDictionary
280
     1
  3
ACAD_XREC_ROUNDTRIP
360
126
  0
XRECORD
  5
124
102
{ACAD_REACTORS
330
123
102
}
330
123
100
AcDbXrecord
102
MATERIAL
148
0.0
149
0.0
149
0.0
 93
        0
 94
      127
282
     0
 72
     1
 77
     1
171
     1
175
     1
179
     1
273
     0
  0
XRECORD
  5
122
102
{ACAD_REACTORS
330
121
102
}
330
121
100
AcDbXrecord
102
MATERIAL
148
0.0
149
0.0
149
0.0
 93
        0
 94
      127
282
     0
 72
     1
 77
     1
171
     1
175
     1
179
     1
273
     0
  0
XRECORD
  5
126
102
{ACAD_REACTORS
330
125
102
}
330
125
100
AcDbXrecord
102
MATERIAL
148
0.0
149
0.0
149
0.0
 93
        0
 94
      127
282
     0
 72
     1
 77
     1
171
     1
175
     1
179
     1
273
     0
  0
ENDSEC
  0
EOF
