  0
SECTION
  2
HEADER
  9
$ACADVER
  1
AC1006
  9
$DWGCODEPAGE
  3
ansi_932
  9
$INSBASE
 10
0.0
 20
0.0
 30
0.0
  9
$EXTMIN
 10
247.7116478978403
 20
350.5227318071444
  9
$EXTMAX
 10
337.7116478978403
 20
520.3229601534596
  9
$LIMMIN
 10
0.0
 20
0.0
  9
$LIMMAX
 10
12.0
 20
9.0
  9
$ORTHOMODE
 70
     0
  9
$REGENMODE
 70
     1
  9
$FILLMODE
 70
     1
  9
$QTEXTMODE
 70
     0
  9
$MIRRTEXT
 70
     1
  9
$DRAGMODE
 70
     2
  9
$LTSCALE
 40
1.0
  9
$OSMODE
 70
    37
  9
$ATTMODE
 70
     1
  9
$TEXTSIZE
 40
0.2
  9
$TRACEWID
 40
0.05
  9
$TEXTSTYLE
  7
STANDARD
  9
$CLAYER
  8
0
  9
$CELTYPE
  6
BYLAYER
  9
$CECOLOR
 62
   256
  9
$DIMSCALE
 40
1.0
  9
$DIMASZ
 40
3.0
  9
$DIMEXO
 40
0.0625
  9
$DIMDLI
 40
0.38
  9
$DIMRND
 40
0.0
  9
$DIMDLE
 40
0.0
  9
$DIMEXE
 40
0.18
  9
$DIMTP
 40
0.0
  9
$DIMTM
 40
0.0
  9
$DIMTXT
 40
3.0
  9
$DIMCEN
 40
0.09
  9
$DIMTSZ
 40
0.0
  9
$DIMTOL
 70
     0
  9
$DIMLIM
 70
     0
  9
$DIMTIH
 70
     1
  9
$DIMTOH
 70
     1
  9
$DIMSE1
 70
     0
  9
$DIMSE2
 70
     0
  9
$DIMTAD
 70
     1
  9
$DIMZIN
 70
     0
  9
$DIMBLK
  1

  9
$DIMASO
 70
     1
  9
$DIMSHO
 70
     1
  9
$DIMPOST
  1

  9
$DIMAPOST
  1

  9
$DIMALT
 70
     0
  9
$DIMALTD
 70
     2
  9
$DIMALTF
 40
25.4
  9
$DIMLFAC
 40
1.0
  9
$DIMTOFL
 70
     0
  9
$DIMTVP
 40
0.0
  9
$DIMTIX
 70
     0
  9
$DIMSOXD
 70
     0
  9
$DIMSAH
 70
     0
  9
$DIMBLK1
  1

  9
$DIMBLK2
  1

  9
$LUNITS
 70
     2
  9
$LUPREC
 70
     4
  9
$SKETCHINC
 40
0.1
  9
$FILLETRAD
 40
0.5
  9
$AUNITS
 70
     0
  9
$AUPREC
 70
     0
  9
$MENU
  1
.
  9
$ELEVATION
 40
0.0
  9
$THICKNESS
 40
0.0
  9
$LIMCHECK
 70
     0
  9
$CHAMFERA
 40
0.5
  9
$CHAMFERB
 40
0.5
  9
$SKPOLY
 70
     0
  9
$TDCREATE
 40
2459991.70003684
  9
$TDUPDATE
 40
2459991.700036852
  9
$TDINDWG
 40
0.0000000116
  9
$TDUSRTIMER
 40
0.0000000116
  9
$USRTIMER
 70
     1
  9
$ANGBASE
 50
0.0
  9
$ANGDIR
 70
     0
  9
$PDMODE
 70
     0
  9
$PDSIZE
 40
0.0
  9
$PLINEWID
 40
0.0
  9
$COORDS
 70
     1
  9
$SPLFRAME
 70
     0
  9
$SPLINETYPE
 70
     6
  9
$SPLINESEGS
 70
     8
  9
$ATTDIA
 70
     0
  9
$ATTREQ
 70
     1
  9
$HANDLING
 70
     1
  9
$HANDSEED
  5
237
  9
$SURFTAB1
 70
     6
  9
$SURFTAB2
 70
     6
  9
$SURFTYPE
 70
     6
  9
$SURFU
 70
     6
  9
$SURFV
 70
     6
  9
$UCSNAME
  2

  9
$UCSORG
 10
0.0
 20
0.0
 30
0.0
  9
$UCSXDIR
 10
1.0
 20
0.0
 30
0.0
  9
$UCSYDIR
 10
0.0
 20
1.0
 30
0.0
  9
$USERI1
 70
     0
  9
$USERI2
 70
     0
  9
$USERI3
 70
     0
  9
$USERI4
 70
     0
  9
$USERI5
 70
     0
  9
$USERR1
 40
0.0
  9
$USERR2
 40
0.0
  9
$USERR3
 40
0.0
  9
$USERR4
 40
0.0
  9
$USERR5
 40
0.0
  9
$WORLDVIEW
 70
     1
  0
ENDSEC
  0
SECTION
  2
TABLES
  0
TABLE
  2
VPORT
 70
     1
  0
VPORT
  2
*ACTIVE
 70
     0
 10
0.0
 20
0.0
 11
1.0
 21
1.0
 12
292.7116478978403
 22
435.422845980302
 13
0.0
 23
0.0
 14
0.5
 24
0.5
 15
0.5
 25
0.5
 16
0.0
 26
0.0
 36
1.0
 17
0.0
 27
0.0
 37
0.0
 40
169.8002283463152
 41
1.6
 42
50.0
 43
0.0
 44
0.0
 50
0.0
 51
0.0
 71
     0
 72
   100
 73
     1
 74
     3
 75
     0
 76
     0
 77
     0
 78
     0
  0
ENDTAB
  0
TABLE
  2
LTYPE
 70
     3
  0
LTYPE
  2
CONTINUOUS
 70
     0
  3
Solid line
 72
    65
 73
     0
 40
0.0
  0
LTYPE
  2
________________
 70
     0
  3

 72
    65
 73
     0
 40
0.0
  0
LTYPE
  2
________________0
 70
     0
  3

 72
    65
 73
     4
 40
7.2
 49
2.7
 49
-1.8
 49
0.8999999999999999
 49
-1.8
  0
ENDTAB
  0
TABLE
  2
LAYER
 70
     1
  0
LAYER
  2
0
 70
     0
 62
     7
  6
CONTINUOUS
  0
ENDTAB
  0
TABLE
  2
STYLE
 70
     2
  0
STYLE
  2
STANDARD
 70
     0
 40
0.0
 41
1.0
 50
0.0
 71
     0
 42
0.2
  3
txt
  4

  0
STYLE
  2
EXPLODED0
 70
     0
 40
0.2
 41
1.0
 50
0.0
 71
     0
 42
0.2
  3
ＭＳ ゴシック
  4

  0
ENDTAB
  0
TABLE
  2
VIEW
 70
     0
  0
ENDTAB
  0
TABLE
  2
UCS
 70
     0
  0
ENDTAB
  0
ENDSEC
  0
SECTION
  2
BLOCKS
  0
BLOCK
  8
0
  2
_5331
 70
     0
 10
0.0
 20
0.0
 30
0.0
  0
ARC
  5
3C
  8
0
  6
________________
 62
     7
 10
310.3447477818766
 20
435.4035456850332
 30
0.0
 40
1.000000000000027
 50
63.9832218459158
 51
121.9283983876314
  0
ARC
  5
3E
  8
0
  6
________________
 62
     7
 10
321.5948610154974
 20
374.2771870465045
 30
0.0
 40
3.000000000000003
 50
270.0
 51
319.1220209737994
  0
ARC
  5
3F
  8
0
  6
________________
 62
     7
 10
-316.945097231765
 20
352.7771870465045
 30
0.0
 40
18.5
 50
50.41029995962811
 51
89.99999999999999
210
0.0
220
0.0
230
-1.0
  0
ARC
  5
40
  8
0
  6
________________
 62
     7
 10
-305.3465017566695
 20
366.8026133503674
 30
0.0
 40
0.3000000000000206
 50
285.0000000000002
 51
50.41029995962884
210
0.0
220
0.0
230
-1.0
  0
LINE
  5
41
  8
0
  6
________________
 62
     7
 10
309.1409483874862
 20
365.475311585794
 30
0.0
 11
305.2688560431387
 21
366.5128356024807
 31
0.0
  0
ARC
  5
42
  8
0
  6
________________
 62
     7
 10
308.7786017243426
 20
364.1230154289893
 30
0.0
 40
1.399999999999981
 50
285.9131594098495
 51
75.0
  0
ARC
  5
43
  8
0
  6
________________
 62
     7
 10
292.7116478978404
 20
420.477367476875
 30
0.0
 40
59.99999999999994
 50
274.1454901616603
 51
285.9131594098495
  0
ARC
  5
44
  8
0
  6
________________
 62
     7
 10
296.9947914655414
 20
361.382383077364
 30
0.0
 40
0.7500000000000377
 50
184.9999999999999
 51
274.1454901616603
  0
ARC
  5
45
  8
0
  6
________________
 62
     7
 10
296.9947914655414
 20
361.382383077364
 30
0.0
 40
0.7499999999999986
 50
94.14549016166046
 51
184.9999999999993
  0
ARC
  5
46
  8
0
  6
________________
 62
     7
 10
-292.7116478978404
 20
420.477367476875
 30
0.0
 40
58.49999999999996
 50
255.5419886811394
 51
265.8545098383397
210
0.0
220
0.0
230
-1.0
  0
ARC
  5
47
  8
0
  6
________________
 62
     7
 10
-307.2424674392673
 20
364.120510897977
 30
0.0
 40
0.3000000000000206
 50
104.9999999999996
 51
255.5419886811397
210
0.0
220
0.0
230
-1.0
  0
LINE
  5
48
  8
0
  6
________________
 62
     7
 10
304.8301896123011
 20
365.0774616477551
 30
0.0
 11
307.3201131527981
 21
364.4102886458638
 31
0.0
  0
ARC
  5
49
  8
0
  6
________________
 62
     7
 10
-304.5713705671986
 20
364.111535821466
 30
0.0
 40
1.000000000000009
 50
78.11793000617706
 51
105.0000000000001
210
0.0
220
0.0
230
-1.0
  0
ARC
  5
4A
  8
0
  6
________________
 62
     7
 10
292.7116478978404
 20
420.477367476875
 30
0.0
 40
56.59999999999999
 50
273.5434511039206
 51
281.8820699938229
  0
ARC
  5
4B
  8
0
  6
________________
 62
     7
 10
296.1974765316708
 20
364.1851921881587
 30
0.0
 40
0.1999999999999679
 50
185.0000000000002
 51
273.5434511039207
  0
LINE
  5
4C
  8
0
  6
________________
 62
     7
 10
295.9977707209976
 20
364.1730974001852
 30
0.0
 11
295.9982375920525
 21
364.1677610396092
 31
0.0
  0
LINE
  5
4D
  8
0
  6
________________
 62
     7
 10
295.9277378990696
 20
364.2318619152353
 30
0.0
 11
295.9977707209976
 21
364.1730974001852
 31
0.0
  0
ARC
  5
4E
  8
0
  6
________________
 62
     7
 10
295.9598772795539
 20
364.2701641373912
 30
0.0
 40
0.0499999999999395
 50
139.9999999999998
 51
229.9999999999981
  0
LINE
  5
4F
  8
0
  6
________________
 62
     7
 10
295.9803395724481
 20
364.3723363398036
 30
0.0
 11
295.921575057398
 21
364.3023035178755
 31
0.0
  0
LINE
  5
50
  8
0
  6
________________
 62
     7
 10
295.9541928496238
 20
364.6711947492311
 30
0.0
 11
295.9803395724481
 21
364.3723363398036
 31
0.0
  0
LINE
  5
51
  8
0
  6
________________
 62
     7
 10
295.8841600276958
 20
364.7299592642812
 30
0.0
 11
295.9541928496238
 21
364.6711947492311
 31
0.0
  0
ARC
  5
52
  8
0
  6
________________
 62
     7
 10
295.9162994081801
 20
364.7682614864372
 30
0.0
 40
0.0499999999999821
 50
139.9999999999998
 51
229.9999999999981
  0
LINE
  5
53
  8
0
  6
________________
 62
     7
 10
295.9367617010743
 20
364.8704336888494
 30
0.0
 11
295.8779971860241
 21
364.8004008669214
 31
0.0
  0
ARC
  5
54
  8
0
  6
________________
 62
     7
 10
296.6798045001036
 20
364.7685150997176
 30
0.0
 40
0.7500000000000492
 50
94.07431246636503
 51
172.1898286031485
  0
ARC
  5
55
  8
0
  6
________________
 62
     7
 10
-292.7116478978404
 20
420.477367476875
 30
0.0
 40
55.09999999999996
 50
260.8649301451087
 51
265.9256875336348
210
0.0
220
0.0
230
-1.0
  0
ARC
  5
56
  8
0
  6
________________
 62
     7
 10
-301.3006947231663
 20
367.0635277475282
 30
0.0
 40
0.9999999999999556
 50
229.9999999999997
 51
260.8649301451087
210
0.0
220
0.0
230
-1.0
  0
LINE
  5
57
  8
0
  6
________________
 62
     7
 10
304.0893450380343
 20
368.098075908884
 30
0.0
 11
301.9434823328528
 21
366.2974833044092
 31
0.0
  0
ARC
  5
58
  8
0
  6
________________
 62
     7
 10
316.945097231765
 20
352.7771870465045
 30
0.0
 40
20.00000000000002
 50
89.99999999999999
 51
130.0
  0
LINE
  5
59
  8
0
  6
________________
 62
     7
 10
321.2904862227268
 20
372.7771870465045
 30
0.0
 11
316.945097231765
 21
372.7771870465045
 31
0.0
  0
ARC
  5
5A
  8
0
  6
________________
 62
     7
 10
-321.2904862227268
 20
375.7771870465045
 30
0.0
 40
3.000000000000032
 50
219.4300079078965
 51
269.9999999999999
210
0.0
220
0.0
230
-1.0
  0
ARC
  5
5B
  8
0
  6
________________
 62
     7
 10
-310.3609812311296
 20
434.6148586292566
 30
0.0
 40
0.4999999999999687
 50
64.3296924135691
 51
116.539748883084
210
0.0
220
0.0
230
-1.0
  0
ARC
  5
5C
  8
0
  6
________________
 62
     7
 10
-275.062314564551
 20
434.6148586292565
 30
0.0
 40
0.5000000000000094
 50
63.46025111691601
 51
115.6703075864312
210
0.0
220
0.0
230
-1.0
  0
ARC
  5
5D
  8
0
  6
________________
 62
     7
 10
-264.1328095729539
 20
375.7771870465045
 30
0.0
 40
3.000000000000003
 50
269.9999999999999
 51
320.5699920921035
210
0.0
220
0.0
230
-1.0
  0
LINE
  5
5E
  8
0
  6
________________
 62
     7
 10
268.4781985639155
 20
372.7771870465045
 30
0.0
 11
264.1328095729539
 21
372.7771870465045
 31
0.0
  0
ARC
  5
5F
  8
0
  6
________________
 62
     7
 10
268.4781985639155
 20
352.7771870465045
 30
0.0
 40
20.00000000000004
 50
50.00000000000001
 51
90.0
  0
LINE
  5
60
  8
0
  6
________________
 62
     7
 10
281.6758293123701
 20
367.8112057397079
 30
0.0
 11
281.3339507576463
 21
368.098075908884
 31
0.0
  0
ARC
  5
61
  8
0
  6
________________
 62
     7
 10
280.7116478978403
 20
366.6621390750294
 30
0.0
 40
1.50000000000001
 50
284.9999999999999
 51
50.0
  0
LINE
  5
62
  8
0
  6
________________
 62
     7
 10
278.1031826428828
 20
364.4102886458638
 30
0.0
 11
281.0998764654941
 21
365.2132503355958
 31
0.0
  0
ARC
  5
63
  8
0
  6
________________
 62
     7
 10
-278.1808283564135
 20
364.120510897977
 30
0.0
 40
0.3000000000000406
 50
284.4580113188603
 51
74.99999999999949
210
0.0
220
0.0
230
-1.0
  0
ARC
  5
64
  8
0
  6
________________
 62
     7
 10
-292.7116478978402
 20
420.477367476875
 30
0.0
 40
58.49999999999996
 50
275.7671067904632
 51
284.4580113188603
210
0.0
220
0.0
230
-1.0
  0
ARC
  5
65
  8
0
  6
________________
 62
     7
 10
-286.9337532269275
 20
363.2684002324663
 30
0.0
 40
1.00000000000001
 50
185.0000000000001
 51
275.7671067904632
210
0.0
220
0.0
230
-1.0
  0
LINE
  5
66
  8
0
  6
________________
 62
     7
 10
287.9427774600903
 20
363.3278867466004
 30
0.0
 11
287.9299479250193
 21
363.1812444897187
 31
0.0
  0
ARC
  5
67
  8
0
  6
________________
 62
     7
 10
-287.1956314365215
 20
363.3932535536612
 30
0.0
 40
0.7500000000000265
 50
95.51933366422458
 51
184.9999999999998
210
0.0
220
0.0
230
-1.0
  0
ARC
  5
68
  8
0
  6
________________
 62
     7
 10
292.7116478978402
 20
420.477367476875
 30
0.0
 40
56.59999999999996
 50
264.4725738187145
 51
264.4806663357754
  0
ARC
  5
69
  8
0
  6
________________
 62
     7
 10
287.3320521928079
 20
364.8870585188346
 30
0.0
 40
0.7499999999999825
 50
175.0000000000002
 51
264.4725738187145
  0
ARC
  5
6A
  8
0
  6
________________
 62
     7
 10
287.3320521928079
 20
364.8870585188346
 30
0.0
 40
0.7500000000000013
 50
84.47257381871455
 51
174.9999999999996
  0
ARC
  5
6B
  8
0
  6
________________
 62
     7
 10
-292.7116478978402
 20
420.477367476875
 30
0.0
 40
55.09999999999994
 50
273.990723026741
 51
275.5274261812855
210
0.0
220
0.0
230
-1.0
  0
ARC
  5
6C
  8
0
  6
________________
 62
     7
 10
288.8247697439619
 20
364.7627852006262
 30
0.0
 40
0.7500000000000377
 50
355.0000000000002
 51
86.00927697325909
  0
LINE
  5
6D
  8
0
  6
________________
 62
     7
 10
289.3424375272299
 20
362.0744701045822
 30
0.0
 11
289.5719157675307
 21
364.6974183935654
 31
0.0
  0
ARC
  5
6E
  8
0
  6
________________
 62
     7
 10
-292.7116478978402
 20
420.477367476875
 30
0.0
 40
58.49999999999995
 50
268.6909764275273
 51
273.3016822854707
210
0.0
220
0.0
230
-1.0
  0
ARC
  5
6F
  8
0
  6
________________
 62
     7
 10
-294.0366453584712
 20
362.4925040922872
 30
0.0
 40
0.5000000000000051
 50
174.999999999999
 51
268.6909764275273
210
0.0
220
0.0
230
-1.0
  0
LINE
  5
70
  8
0
  6
________________
 62
     7
 10
294.3757546377394
 20
364.353323916735
 30
0.0
 11
294.5347427075171
 21
362.536081963661
 31
0.0
  0
ARC
  5
71
  8
0
  6
________________
 62
     7
 10
295.3719493358311
 20
364.4404796594827
 30
0.0
 40
0.9999999999999752
 50
92.71802547401872
 51
185.0000000000002
  0
ARC
  5
72
  8
0
  6
________________
 62
     7
 10
-292.7116478978402
 20
420.477367476875
 30
0.0
 40
55.09999999999996
 50
267.1038260113905
 51
267.2819745259813
210
0.0
220
0.0
230
-1.0
  0
ARC
  5
73
  8
0
  6
________________
 62
     7
 10
295.5108020915994
 20
365.1481280478032
 30
0.0
 40
0.2999999999999771
 50
4.999999999999992
 51
92.89617398860946
  0
LINE
  5
74
  8
0
  6
________________
 62
     7
 10
295.8193239772427
 20
365.0638207320544
 30
0.0
 11
295.8096605010269
 21
365.1742747706274
 31
0.0
  0
LINE
  5
75
  8
0
  6
________________
 62
     7
 10
295.8893567991707
 20
365.0050562170042
 30
0.0
 11
295.8193239772427
 21
365.0638207320544
 31
0.0
  0
ARC
  5
76
  8
0
  6
________________
 62
     7
 10
295.8572174186864
 20
364.9667539948483
 30
0.0
 40
0.0499999999999821
 50
320.0000000000008
 51
50.00000000000006
  0
LINE
  5
77
  8
0
  6
________________
 62
     7
 10
295.8367551257922
 20
364.864581792436
 30
0.0
 11
295.8955196408423
 21
364.934614614364
 31
0.0
  0
LINE
  5
78
  8
0
  6
________________
 62
     7
 10
295.8629018486165
 20
364.5657233830084
 30
0.0
 11
295.8367551257922
 21
364.864581792436
 31
0.0
  0
LINE
  5
79
  8
0
  6
________________
 62
     7
 10
295.9329346705445
 20
364.5069588679584
 30
0.0
 11
295.8629018486165
 21
364.5657233830084
 31
0.0
  0
ARC
  5
7A
  8
0
  6
________________
 62
     7
 10
295.9007952900602
 20
364.4686566458024
 30
0.0
 40
0.0499999999999821
 50
320.0000000000008
 51
50.00000000000006
  0
LINE
  5
7B
  8
0
  6
________________
 62
     7
 10
295.880332997166
 20
364.3664844433902
 30
0.0
 11
295.9390975122162
 21
364.4365172653181
 31
0.0
  0
LINE
  5
7C
  8
0
  6
________________
 62
     7
 10
295.9072006788107
 20
364.0593854369375
 30
0.0
 11
295.880332997166
 21
364.3664844433902
 31
0.0
  0
ARC
  5
7D
  8
0
  6
________________
 62
     7
 10
-296.2060590882382
 20
364.0855321597618
 30
0.0
 40
0.2999999999999594
 50
266.4541083864663
 51
354.9999999999999
210
0.0
220
0.0
230
-1.0
  0
ARC
  5
7E
  8
0
  6
________________
 62
     7
 10
-292.7116478978402
 20
420.477367476875
 30
0.0
 40
56.79999999999998
 50
258.2828099833697
 51
266.4541083864663
210
0.0
220
0.0
230
-1.0
  0
ARC
  5
7F
  8
0
  6
________________
 62
     7
 10
304.5512745698738
 20
363.3922272014332
 30
0.0
 40
1.499999999999996
 50
74.99999999999989
 51
101.7171900166304
  0
LINE
  5
80
  8
0
  6
________________
 62
     7
 10
306.5234520816838
 20
364.4166981004281
 30
0.0
 11
304.9395031375276
 21
364.8411159408669
 31
0.0
  0
ARC
  5
81
  8
0
  6
________________
 62
     7
 10
306.4458063681531
 20
364.1269203525413
 30
0.0
 40
0.300000000000034
 50
283.697504817053
 51
74.99999999999955
  0
ARC
  5
82
  8
0
  6
________________
 62
     7
 10
292.7116478978402
 20
420.477367476875
 30
0.0
 40
58.29999999999995
 50
273.7977153627614
 51
283.6975048170532
  0
ARC
  5
83
  8
0
  6
________________
 62
     7
 10
-296.606213775787
 20
361.8064858010188
 30
0.0
 40
0.4999999999999498
 50
354.9999999999999
 51
86.20228463723863
210
0.0
220
0.0
230
-1.0
  0
LINE
  5
84
  8
0
  6
________________
 62
     7
 10
296.1665979406455
 20
361.0944611669732
 30
0.0
 11
296.1081164267411
 21
361.7629079296449
 31
0.0
  0
ARC
  5
85
  8
0
  6
________________
 62
     7
 10
295.6685005915996
 20
361.0508832955994
 30
0.0
 40
0.5000000000000048
 50
272.8484872050763
 51
5.000000000000114
  0
ARC
  5
86
  8
0
  6
________________
 62
     7
 10
292.7116478978402
 20
420.477367476875
 30
0.0
 40
59.99999999999996
 50
266.9337591039522
 51
272.8484872050763
  0
LINE
  5
87
  8
0
  6
________________
 62
     7
 10
289.2377946206645
 20
360.878396209427
 30
0.0
 11
289.502220398639
 21
360.5632658385514
 31
0.0
  0
LINE
  5
88
  8
0
  6
________________
 62
     7
 10
288.9978278412584
 20
360.5924149379665
 30
0.0
 11
289.2377946206645
 21
360.878396209427
 31
0.0
  0
ARC
  5
89
  8
0
  6
________________
 62
     7
 10
292.7116478978402
 20
420.477367476875
 30
0.0
 40
59.99999999999989
 50
254.0868405901506
 51
266.4512946272445
  0
ARC
  5
8A
  8
0
  6
________________
 62
     7
 10
276.6446940713381
 20
364.1230154289893
 30
0.0
 40
1.400000000000021
 50
105.0000000000002
 51
254.0868405901506
  0
LINE
  5
8B
  8
0
  6
________________
 62
     7
 10
280.1544397525419
 20
366.5128356024807
 30
0.0
 11
276.2823474081945
 21
365.475311585794
 31
0.0
  0
ARC
  5
8C
  8
0
  6
________________
 62
     7
 10
-280.0767940390112
 20
366.8026133503674
 30
0.0
 40
0.3000000000000269
 50
129.5897000403717
 51
255.0
210
0.0
220
0.0
230
-1.0
  0
ARC
  5
8D
  8
0
  6
________________
 62
     7
 10
-268.4781985639155
 20
352.7771870465045
 30
0.0
 40
18.50000000000002
 50
89.99999999999999
 51
129.5897000403721
210
0.0
220
0.0
230
-1.0
  0
ARC
  5
8E
  8
0
  6
________________
 62
     7
 10
263.8284347801833
 20
374.2771870465045
 30
0.0
 40
3.000000000000009
 50
220.8779790262007
 51
270.0
  0
ARC
  5
8F
  8
0
  6
________________
 62
     7
 10
275.078548013804
 20
435.4035456850332
 30
0.0
 40
0.9999999999999991
 50
58.07160161236922
 51
116.0167781540842
  0
ARC
  5
90
  8
0
  6
________________
 62
     7
 10
308.7581706058393
 20
437.9496746810736
 30
0.0
 40
3.20000000000001
 50
238.4872670207973
 51
295.6703075864309
  0
ARC
  5
91
  8
0
  6
________________
 62
     7
 10
-292.7116478978403
 20
411.7771870465045
 30
0.0
 40
27.49999999999998
 50
58.48726702079708
 51
121.512732979203
210
0.0
220
0.0
230
-1.0
  0
ARC
  5
92
  8
0
  6
________________
 62
     7
 10
276.6651251898413
 20
437.9496746810736
 30
0.0
 40
3.200000000000006
 50
244.3296924135689
 51
301.5127329792032
  0
LINE
  5
93
  8
0
  6
________________
 62
     7
 10
263.8284347801833
 20
371.2771870465045
 30
0.0
 11
268.4781985639155
 21
371.2771870465045
 31
0.0
  0
ARC
  5
94
  8
0
  6
________________
 62
     7
 10
-276.6651251898413
 20
437.9496746810736
 30
0.0
 40
1.999999999999983
 50
238.4872670207967
 51
301.9283983876308
210
0.0
220
0.0
230
-1.0
  0
ARC
  5
95
  8
0
  6
________________
 62
     7
 10
292.7116478978403
 20
411.7771870465045
 30
0.0
 40
28.70000000000001
 50
58.48726702079704
 51
121.5127329792029
  0
ARC
  5
96
  8
0
  6
________________
 62
     7
 10
-308.7581706058393
 20
437.9496746810736
 30
0.0
 40
1.999999999999998
 50
238.0716016123688
 51
301.5127329792026
210
0.0
220
0.0
230
-1.0
  0
ARC
  5
97
  8
0
  6
________________
 62
     7
 10
292.7116478978403
 20
399.2771870465045
 30
0.0
 40
41.2
 50
319.1220209737994
 51
63.98322184591586
  0
LINE
  5
98
  8
0
  6
________________
 62
     7
 10
316.945097231765
 20
371.2771870465045
 30
0.0
 11
321.5948610154974
 21
371.2771870465045
 31
0.0
  0
ARC
  5
99
  8
0
  6
________________
 62
     7
 10
-292.7116478978403
 20
399.2771870465045
 30
0.0
 40
40.00000000000001
 50
116.5397488830837
 51
219.4300079078965
210
0.0
220
0.0
230
-1.0
  0
ARC
  5
9A
  8
0
  6
________________
 62
     7
 10
-292.7116478978403
 20
399.2771870465045
 30
0.0
 40
40.00000000000002
 50
320.5699920921035
 51
63.46025111691631
210
0.0
220
0.0
230
-1.0
  0
ENDBLK
  8
0
  0
BLOCK
  8
0
  2
_10085
 70
     0
 10
0.0
 20
0.0
 30
0.0
  0
LINE
  5
A4
  8
0
  6
________________
 62
     7
 10
307.712794533657
 20
470.63159436992
 30
0.0
 11
307.712794533657
 21
495.6315944236208
 31
0.0
  0
LINE
  5
A5
  8
0
  6
________________
 62
     7
 10
277.7105012620237
 20
470.63159436992
 30
0.0
 11
277.7105012620237
 21
495.6315944236207
 31
0.0
  0
LINE
  5
A6
  8
0
  6
________________
 62
     7
 10
307.712794533657
 20
470.63159436992
 30
0.0
 11
277.7105012620237
 21
470.63159436992
 31
0.0
  0
LINE
  5
A7
  8
0
  6
________________
 62
     7
 10
274.6399136883305
 20
470.63159436992
 30
0.0
 11
274.6399136883305
 21
498.9722108319286
 31
0.0
  0
LINE
  5
A8
  8
0
  6
________________
 62
     7
 10
275.6074070724831
 20
497.5412352698962
 30
0.0
 11
275.6074070724831
 21
470.63159436992
 31
0.0
  0
LINE
  5
A9
  8
0
  6
________________
 62
     7
 10
275.6074070724832
 20
470.63159436992
 30
0.0
 11
274.6399136883305
 21
470.63159436992
 31
0.0
  0
LINE
  5
AA
  8
0
  6
________________
 62
     7
 10
309.8158887231975
 20
470.63159436992
 30
0.0
 11
309.8158887231975
 21
497.5412352698963
 31
0.0
  0
LINE
  5
AB
  8
0
  6
________________
 62
     7
 10
310.7833821073502
 20
498.9722108319285
 30
0.0
 11
310.7833821073502
 21
470.63159436992
 31
0.0
  0
LINE
  5
AC
  8
0
  6
________________
 62
     7
 10
310.7833821073502
 20
470.63159436992
 30
0.0
 11
309.8158887231975
 21
470.63159436992
 31
0.0
  0
LINE
  5
AD
  8
0
  6
________________
 62
     7
 10
274.6399136883305
 20
470.63159436992
 30
0.0
 11
251.5116478978404
 21
470.63159436992
 31
0.0
  0
LINE
  5
AE
  8
0
  6
________________
 62
     7
 10
333.9116478978403
 20
470.63159436992
 30
0.0
 11
310.7833821073502
 21
470.63159436992
 31
0.0
  0
LINE
  5
AF
  8
0
  6
________________
 62
     7
 10
307.712794533657
 20
470.63159436992
 30
0.0
 11
309.8158887231975
 21
470.63159436992
 31
0.0
  0
LINE
  5
B0
  8
0
  6
________________
 62
     7
 10
275.6074070724831
 20
470.63159436992
 30
0.0
 11
277.7105012620236
 21
470.63159436992
 31
0.0
  0
LINE
  5
B1
  8
0
  6
________________
 62
     7
 10
251.5116478978403
 20
500.606623761883
 30
0.0
 11
251.5116478978403
 21
470.63159436992
 31
0.0
  0
LINE
  5
B2
  8
0
  6
________________
 62
     7
 10
333.9116478978403
 20
470.63159436992
 30
0.0
 11
333.9116478978403
 21
500.6066237618832
 31
0.0
  0
LINE
  5
B3
  8
0
  6
________________
 62
     7
 10
307.712794533657
 20
500.6315944236209
 30
0.0
 11
307.712794533657
 21
520.3229601534596
 31
0.0
  0
LINE
  5
B4
  8
0
  6
________________
 62
     7
 10
277.7105012620237
 20
500.6315944236208
 30
0.0
 11
277.7105012620237
 21
520.3229601534596
 31
0.0
  0
LINE
  5
B5
  8
0
  6
________________
 62
     7
 10
307.712794533657
 20
520.3229601534596
 30
0.0
 11
277.7105012620237
 21
520.3229601534596
 31
0.0
  0
LINE
  5
B6
  8
0
  6
________________
 62
     7
 10
274.6399136883305
 20
503.9722108319286
 30
0.0
 11
274.6399136883305
 21
520.3229601534596
 31
0.0
  0
LINE
  5
B7
  8
0
  6
________________
 62
     7
 10
275.6074070724831
 20
520.3229601534596
 30
0.0
 11
275.6074070724831
 21
502.5412352698961
 31
0.0
  0
LINE
  5
B8
  8
0
  6
________________
 62
     7
 10
274.6399136883305
 20
520.3229601534596
 30
0.0
 11
275.6074070724832
 21
520.3229601534596
 31
0.0
  0
LINE
  5
B9
  8
0
  6
________________
 62
     7
 10
309.8158887231975
 20
502.5412352698963
 30
0.0
 11
309.8158887231975
 21
520.3229601534596
 31
0.0
  0
LINE
  5
BA
  8
0
  6
________________
 62
     7
 10
310.7833821073502
 20
520.3229601534596
 30
0.0
 11
310.7833821073502
 21
503.9722108319285
 31
0.0
  0
LINE
  5
BB
  8
0
  6
________________
 62
     7
 10
309.8158887231975
 20
520.3229601534596
 30
0.0
 11
310.7833821073502
 21
520.3229601534596
 31
0.0
  0
LINE
  5
BC
  8
0
  6
________________
 62
     7
 10
274.6399136883305
 20
520.3229601534596
 30
0.0
 11
251.5116478978404
 21
520.3229601534596
 31
0.0
  0
LINE
  5
BD
  8
0
  6
________________
 62
     7
 10
333.9116478978403
 20
520.3229601534596
 30
0.0
 11
310.7833821073502
 21
520.3229601534596
 31
0.0
  0
LINE
  5
BE
  8
0
  6
________________
 62
     7
 10
307.712794533657
 20
520.3229601534596
 30
0.0
 11
309.8158887231975
 21
520.3229601534596
 31
0.0
  0
LINE
  5
BF
  8
0
  6
________________
 62
     7
 10
275.6074070724831
 20
520.3229601534596
 30
0.0
 11
277.7105012620236
 21
520.3229601534596
 31
0.0
  0
LINE
  5
C0
  8
0
  6
________________
 62
     7
 10
251.5116478978403
 20
520.3229601534596
 30
0.0
 11
251.5116478978403
 21
505.6066237618829
 31
0.0
  0
LINE
  5
C1
  8
0
  6
________________
 62
     7
 10
333.9116478978403
 20
505.6066237618832
 30
0.0
 11
333.9116478978403
 21
520.3229601534596
 31
0.0
  0
POLYLINE
  5
C2
  8
0
  6
________________
 62
     7
 66
     1
 10
0.0
 20
0.0
 30
0.0
  0
VERTEX
  5
F0
  8
0
  6
________________
 62
     7
 10
337.7116478978403
 20
495.6315943699199
 30
0.0
  0
VERTEX
  5
F1
  8
0
  6
________________
 62
     7
 10
337.1491478978403
 20
496.6006613764362
 30
0.0
  0
VERTEX
  5
F2
  8
0
  6
________________
 62
     7
 10
336.5866478978403
 20
497.5384589470975
 30
0.0
  0
VERTEX
  5
F3
  8
0
  6
________________
 62
     7
 10
336.0241478978403
 20
498.4137176460492
 30
0.0
  0
VERTEX
  5
F4
  8
0
  6
________________
 62
     7
 10
335.4616478978403
 20
499.1951680374362
 30
0.0
  0
VERTEX
  5
F5
  8
0
  6
________________
 62
     7
 10
334.8991478978403
 20
499.8515406854038
 30
0.0
  0
VERTEX
  5
F6
  8
0
  6
________________
 62
     7
 10
334.3366478978403
 20
500.3515661540972
 30
0.0
  0
VERTEX
  5
F7
  8
0
  6
________________
 62
     7
 10
333.7741478978403
 20
500.6639750076612
 30
0.0
  0
VERTEX
  5
F8
  8
0
  6
________________
 62
     7
 10
333.2116478978403
 20
500.7574978102412
 30
0.0
  0
VERTEX
  5
F9
  8
0
  6
________________
 62
     7
 10
332.6491478978403
 20
500.6008884883343
 30
0.0
  0
VERTEX
  5
FA
  8
0
  6
________________
 62
     7
 10
332.0866478978403
 20
500.1861698710254
 30
0.0
  0
VERTEX
  5
FB
  8
0
  6
________________
 62
     7
 10
331.5241478978403
 20
499.5722979258668
 30
0.0
  0
VERTEX
  5
FC
  8
0
  6
________________
 62
     7
 10
330.9616478978403
 20
498.830190144633
 30
0.0
  0
VERTEX
  5
FD
  8
0
  6
________________
 62
     7
 10
330.3991478978403
 20
498.0307640190984
 30
0.0
  0
VERTEX
  5
FE
  8
0
  6
________________
 62
     7
 10
329.8366478978403
 20
497.2449370410371
 30
0.0
  0
VERTEX
  5
FF
  8
0
  6
________________
 62
     7
 10
329.2741478978403
 20
496.5436267022236
 30
0.0
  0
VERTEX
  5
100
  8
0
  6
________________
 62
     7
 10
328.7116478978403
 20
495.9977504944322
 30
0.0
  0
VERTEX
  5
101
  8
0
  6
________________
 62
     7
 10
328.1491478978403
 20
495.6782259094372
 30
0.0
  0
VERTEX
  5
102
  8
0
  6
________________
 62
     7
 10
327.5866478978403
 20
495.6556915937491
 30
0.0
  0
VERTEX
  5
103
  8
0
  6
________________
 62
     7
 10
327.0241478978403
 20
495.9555086941586
 30
0.0
  0
VERTEX
  5
104
  8
0
  6
________________
 62
     7
 10
326.4616478978403
 20
496.5080915451115
 30
0.0
  0
VERTEX
  5
105
  8
0
  6
________________
 62
     7
 10
325.8991478978403
 20
497.2318989903653
 30
0.0
  0
VERTEX
  5
106
  8
0
  6
________________
 62
     7
 10
325.3366478978403
 20
498.0453898736775
 30
0.0
  0
VERTEX
  5
107
  8
0
  6
________________
 62
     7
 10
324.7741478978403
 20
498.8670230388058
 30
0.0
  0
VERTEX
  5
108
  8
0
  6
________________
 62
     7
 10
324.2116478978403
 20
499.6152573295076
 30
0.0
  0
VERTEX
  5
109
  8
0
  6
________________
 62
     7
 10
323.6491478978403
 20
500.2085515895407
 30
0.0
  0
VERTEX
  5
10A
  8
0
  6
________________
 62
     7
 10
323.0866478978403
 20
500.5653646626623
 30
0.0
  0
VERTEX
  5
10B
  8
0
  6
________________
 62
     7
 10
322.5241478978403
 20
500.6051796451886
 30
0.0
  0
VERTEX
  5
10C
  8
0
  6
________________
 62
     7
 10
321.9616478978403
 20
500.3089347869308
 30
0.0
  0
VERTEX
  5
10D
  8
0
  6
________________
 62
     7
 10
321.3991478978403
 20
499.7528238256181
 30
0.0
  0
VERTEX
  5
10E
  8
0
  6
________________
 62
     7
 10
320.8366478978403
 20
499.0212345194461
 30
0.0
  0
VERTEX
  5
10F
  8
0
  6
________________
 62
     7
 10
320.2741478978403
 20
498.1985546266102
 30
0.0
  0
VERTEX
  5
110
  8
0
  6
________________
 62
     7
 10
319.7116478978403
 20
497.3691719053057
 30
0.0
  0
VERTEX
  5
111
  8
0
  6
________________
 62
     7
 10
319.1491478978403
 20
496.6174741137281
 30
0.0
  0
VERTEX
  5
112
  8
0
  6
________________
 62
     7
 10
318.5866478978403
 20
496.0278490100728
 30
0.0
  0
VERTEX
  5
113
  8
0
  6
________________
 62
     7
 10
318.0241478978403
 20
495.6846843525352
 30
0.0
  0
VERTEX
  5
114
  8
0
  6
________________
 62
     7
 10
317.4616478978403
 20
495.6698872297582
 30
0.0
  0
VERTEX
  5
115
  8
0
  6
________________
 62
     7
 10
316.8991478978403
 20
495.99013067411
 30
0.0
  0
VERTEX
  5
116
  8
0
  6
________________
 62
     7
 10
316.3366478978403
 20
496.5651092417713
 30
0.0
  0
VERTEX
  5
117
  8
0
  6
________________
 62
     7
 10
315.7741478978403
 20
497.3096724312027
 30
0.0
  0
VERTEX
  5
118
  8
0
  6
________________
 62
     7
 10
315.2116478978403
 20
498.1386697408653
 30
0.0
  0
VERTEX
  5
119
  8
0
  6
________________
 62
     7
 10
314.6491478978403
 20
498.9669506692196
 30
0.0
  0
VERTEX
  5
11A
  8
0
  6
________________
 62
     7
 10
314.0866478978403
 20
499.7093647147265
 30
0.0
  0
VERTEX
  5
11B
  8
0
  6
________________
 62
     7
 10
313.5241478978403
 20
500.2807613758467
 30
0.0
  0
VERTEX
  5
11C
  8
0
  6
________________
 62
     7
 10
312.9616478978403
 20
500.595990151041
 30
0.0
  0
VERTEX
  5
11D
  8
0
  6
________________
 62
     7
 10
312.3991478978403
 20
500.5747732346578
 30
0.0
  0
VERTEX
  5
11E
  8
0
  6
________________
 62
     7
 10
311.8366478978403
 20
500.2243074576208
 30
0.0
  0
VERTEX
  5
11F
  8
0
  6
________________
 62
     7
 10
311.2741478978403
 20
499.6274528725968
 30
0.0
  0
VERTEX
  5
120
  8
0
  6
________________
 62
     7
 10
310.7116478978403
 20
498.8695643525475
 30
0.0
  0
VERTEX
  5
121
  8
0
  6
________________
 62
     7
 10
310.1491478978403
 20
498.0359967704342
 30
0.0
  0
VERTEX
  5
122
  8
0
  6
________________
 62
     7
 10
309.5866478978403
 20
497.2121049992185
 30
0.0
  0
VERTEX
  5
123
  8
0
  6
________________
 62
     7
 10
309.0241478978403
 20
496.483243911862
 30
0.0
  0
VERTEX
  5
124
  8
0
  6
________________
 62
     7
 10
308.4616478978403
 20
495.934768381326
 30
0.0
  0
VERTEX
  5
125
  8
0
  6
________________
 62
     7
 10
307.8991478978403
 20
495.6520332805721
 30
0.0
  0
VERTEX
  5
126
  8
0
  6
________________
 62
     7
 10
307.3366478978403
 20
495.7119606683262
 30
0.0
  0
VERTEX
  5
127
  8
0
  6
________________
 62
     7
 10
306.7741478978403
 20
496.0934411378271
 30
0.0
  0
VERTEX
  5
128
  8
0
  6
________________
 62
     7
 10
306.2116478978403
 20
496.7121191755476
 30
0.0
  0
VERTEX
  5
129
  8
0
  6
________________
 62
     7
 10
305.6491478978403
 20
497.4825851661807
 30
0.0
  0
VERTEX
  5
12A
  8
0
  6
________________
 62
     7
 10
305.0866478978403
 20
498.3194294944199
 30
0.0
  0
VERTEX
  5
12B
  8
0
  6
________________
 62
     7
 10
304.5241478978403
 20
499.1372425449583
 30
0.0
  0
VERTEX
  5
12C
  8
0
  6
________________
 62
     7
 10
303.9616478978403
 20
499.8506147024892
 30
0.0
  0
VERTEX
  5
12D
  8
0
  6
________________
 62
     7
 10
303.3991478978403
 20
500.3741363517058
 30
0.0
  0
VERTEX
  5
12E
  8
0
  6
________________
 62
     7
 10
302.8366478978403
 20
500.6223978773016
 30
0.0
  0
VERTEX
  5
12F
  8
0
  6
________________
 62
     7
 10
302.2741478978403
 20
500.5233860981717
 30
0.0
  0
VERTEX
  5
130
  8
0
  6
________________
 62
     7
 10
301.7116478978403
 20
500.1114781736394
 30
0.0
  0
VERTEX
  5
131
  8
0
  6
________________
 62
     7
 10
301.1491478978403
 20
499.4717858636943
 30
0.0
  0
VERTEX
  5
132
  8
0
  6
________________
 62
     7
 10
300.5866478978403
 20
498.6897333816019
 30
0.0
  0
VERTEX
  5
133
  8
0
  6
________________
 62
     7
 10
300.0241478978403
 20
497.8507449406276
 30
0.0
  0
VERTEX
  5
134
  8
0
  6
________________
 62
     7
 10
299.4616478978403
 20
497.040244754037
 30
0.0
  0
VERTEX
  5
135
  8
0
  6
________________
 62
     7
 10
298.8991478978403
 20
496.3436570350954
 30
0.0
  0
VERTEX
  5
136
  8
0
  6
________________
 62
     7
 10
298.3366478978403
 20
495.8464059970684
 30
0.0
  0
VERTEX
  5
137
  8
0
  6
________________
 62
     7
 10
297.7741478978403
 20
495.6339158532215
 30
0.0
  0
VERTEX
  5
138
  8
0
  6
________________
 62
     7
 10
297.2116478978403
 20
495.7716116712044
 30
0.0
  0
VERTEX
  5
139
  8
0
  6
________________
 62
     7
 10
296.6491478978403
 20
496.2130092370488
 30
0.0
  0
VERTEX
  5
13A
  8
0
  6
________________
 62
     7
 10
296.0866478978403
 20
496.8727197488307
 30
0.0
  0
VERTEX
  5
13B
  8
0
  6
________________
 62
     7
 10
295.5241478978403
 20
497.6653153437948
 30
0.0
  0
VERTEX
  5
13C
  8
0
  6
________________
 62
     7
 10
294.9616478978403
 20
498.5053681591861
 30
0.0
  0
VERTEX
  5
13D
  8
0
  6
________________
 62
     7
 10
294.3991478978403
 20
499.3074503322495
 30
0.0
  0
VERTEX
  5
13E
  8
0
  6
________________
 62
     7
 10
293.8366478978403
 20
499.9861340002296
 30
0.0
  0
VERTEX
  5
13F
  8
0
  6
________________
 62
     7
 10
293.2741478978403
 20
500.4559913003715
 30
0.0
  0
VERTEX
  5
140
  8
0
  6
________________
 62
     7
 10
292.7116478978403
 20
500.6315943699199
 30
0.0
  0
VERTEX
  5
141
  8
0
  6
________________
 62
     7
 10
292.1491478978403
 20
500.4559913003715
 30
0.0
  0
VERTEX
  5
142
  8
0
  6
________________
 62
     7
 10
291.5866478978403
 20
499.9861340002295
 30
0.0
  0
VERTEX
  5
143
  8
0
  6
________________
 62
     7
 10
291.0241478978403
 20
499.3074503322493
 30
0.0
  0
VERTEX
  5
144
  8
0
  6
________________
 62
     7
 10
290.4616478978403
 20
498.5053681591859
 30
0.0
  0
VERTEX
  5
145
  8
0
  6
________________
 62
     7
 10
289.8991478978403
 20
497.6653153437946
 30
0.0
  0
VERTEX
  5
146
  8
0
  6
________________
 62
     7
 10
289.3366478978402
 20
496.8727197488305
 30
0.0
  0
VERTEX
  5
147
  8
0
  6
________________
 62
     7
 10
288.7741478978402
 20
496.2130092370486
 30
0.0
  0
VERTEX
  5
148
  8
0
  6
________________
 62
     7
 10
288.2116478978402
 20
495.7716116712043
 30
0.0
  0
VERTEX
  5
149
  8
0
  6
________________
 62
     7
 10
287.6491478978402
 20
495.6339158532214
 30
0.0
  0
VERTEX
  5
14A
  8
0
  6
________________
 62
     7
 10
287.0866478978402
 20
495.8464059970684
 30
0.0
  0
VERTEX
  5
14B
  8
0
  6
________________
 62
     7
 10
286.5241478978402
 20
496.3436570350954
 30
0.0
  0
VERTEX
  5
14C
  8
0
  6
________________
 62
     7
 10
285.9616478978402
 20
497.040244754037
 30
0.0
  0
VERTEX
  5
14D
  8
0
  6
________________
 62
     7
 10
285.3991478978402
 20
497.8507449406277
 30
0.0
  0
VERTEX
  5
14E
  8
0
  6
________________
 62
     7
 10
284.8366478978402
 20
498.689733381602
 30
0.0
  0
VERTEX
  5
14F
  8
0
  6
________________
 62
     7
 10
284.2741478978402
 20
499.4717858636944
 30
0.0
  0
VERTEX
  5
150
  8
0
  6
________________
 62
     7
 10
283.7116478978402
 20
500.1114781736395
 30
0.0
  0
VERTEX
  5
151
  8
0
  6
________________
 62
     7
 10
283.1491478978403
 20
500.5233860981717
 30
0.0
  0
VERTEX
  5
152
  8
0
  6
________________
 62
     7
 10
282.5866478978403
 20
500.6223978773015
 30
0.0
  0
VERTEX
  5
153
  8
0
  6
________________
 62
     7
 10
282.0241478978403
 20
500.3741363517058
 30
0.0
  0
VERTEX
  5
154
  8
0
  6
________________
 62
     7
 10
281.4616478978403
 20
499.8506147024891
 30
0.0
  0
VERTEX
  5
155
  8
0
  6
________________
 62
     7
 10
280.8991478978403
 20
499.1372425449582
 30
0.0
  0
VERTEX
  5
156
  8
0
  6
________________
 62
     7
 10
280.3366478978403
 20
498.3194294944198
 30
0.0
  0
VERTEX
  5
157
  8
0
  6
________________
 62
     7
 10
279.7741478978403
 20
497.4825851661806
 30
0.0
  0
VERTEX
  5
158
  8
0
  6
________________
 62
     7
 10
279.2116478978403
 20
496.7121191755475
 30
0.0
  0
VERTEX
  5
159
  8
0
  6
________________
 62
     7
 10
278.6491478978403
 20
496.0934411378271
 30
0.0
  0
VERTEX
  5
15A
  8
0
  6
________________
 62
     7
 10
278.0866478978403
 20
495.7119606683262
 30
0.0
  0
VERTEX
  5
15B
  8
0
  6
________________
 62
     7
 10
277.5241478978403
 20
495.6520332805721
 30
0.0
  0
VERTEX
  5
15C
  8
0
  6
________________
 62
     7
 10
276.9616478978403
 20
495.9347683813261
 30
0.0
  0
VERTEX
  5
15D
  8
0
  6
________________
 62
     7
 10
276.3991478978403
 20
496.4832439118621
 30
0.0
  0
VERTEX
  5
15E
  8
0
  6
________________
 62
     7
 10
275.8366478978403
 20
497.2121049992188
 30
0.0
  0
VERTEX
  5
15F
  8
0
  6
________________
 62
     7
 10
275.2741478978403
 20
498.0359967704344
 30
0.0
  0
VERTEX
  5
160
  8
0
  6
________________
 62
     7
 10
274.7116478978403
 20
498.8695643525476
 30
0.0
  0
VERTEX
  5
161
  8
0
  6
________________
 62
     7
 10
274.1491478978402
 20
499.627452872597
 30
0.0
  0
VERTEX
  5
162
  8
0
  6
________________
 62
     7
 10
273.5866478978402
 20
500.2243074576209
 30
0.0
  0
VERTEX
  5
163
  8
0
  6
________________
 62
     7
 10
273.0241478978402
 20
500.574773234658
 30
0.0
  0
VERTEX
  5
164
  8
0
  6
________________
 62
     7
 10
272.4616478978402
 20
500.5959901510411
 30
0.0
  0
VERTEX
  5
165
  8
0
  6
________________
 62
     7
 10
271.8991478978402
 20
500.2807613758467
 30
0.0
  0
VERTEX
  5
166
  8
0
  6
________________
 62
     7
 10
271.3366478978402
 20
499.7093647147264
 30
0.0
  0
VERTEX
  5
167
  8
0
  6
________________
 62
     7
 10
270.7741478978402
 20
498.9669506692195
 30
0.0
  0
VERTEX
  5
168
  8
0
  6
________________
 62
     7
 10
270.2116478978402
 20
498.1386697408652
 30
0.0
  0
VERTEX
  5
169
  8
0
  6
________________
 62
     7
 10
269.6491478978402
 20
497.3096724312027
 30
0.0
  0
VERTEX
  5
16A
  8
0
  6
________________
 62
     7
 10
269.0866478978402
 20
496.5651092417712
 30
0.0
  0
VERTEX
  5
16B
  8
0
  6
________________
 62
     7
 10
268.5241478978403
 20
495.99013067411
 30
0.0
  0
VERTEX
  5
16C
  8
0
  6
________________
 62
     7
 10
267.9616478978403
 20
495.6698872297582
 30
0.0
  0
VERTEX
  5
16D
  8
0
  6
________________
 62
     7
 10
267.3991478978403
 20
495.6846843525354
 30
0.0
  0
VERTEX
  5
16E
  8
0
  6
________________
 62
     7
 10
266.8366478978403
 20
496.0278490100729
 30
0.0
  0
VERTEX
  5
16F
  8
0
  6
________________
 62
     7
 10
266.2741478978403
 20
496.6174741137283
 30
0.0
  0
VERTEX
  5
170
  8
0
  6
________________
 62
     7
 10
265.7116478978403
 20
497.3691719053059
 30
0.0
  0
VERTEX
  5
171
  8
0
  6
________________
 62
     7
 10
265.1491478978403
 20
498.1985546266104
 30
0.0
  0
VERTEX
  5
172
  8
0
  6
________________
 62
     7
 10
264.5866478978403
 20
499.0212345194464
 30
0.0
  0
VERTEX
  5
173
  8
0
  6
________________
 62
     7
 10
264.0241478978403
 20
499.7528238256183
 30
0.0
  0
VERTEX
  5
174
  8
0
  6
________________
 62
     7
 10
263.4616478978403
 20
500.3089347869309
 30
0.0
  0
VERTEX
  5
175
  8
0
  6
________________
 62
     7
 10
262.8991478978403
 20
500.6051796451887
 30
0.0
  0
VERTEX
  5
176
  8
0
  6
________________
 62
     7
 10
262.3366478978403
 20
500.5653646626624
 30
0.0
  0
VERTEX
  5
177
  8
0
  6
________________
 62
     7
 10
261.7741478978403
 20
500.2085515895407
 30
0.0
  0
VERTEX
  5
178
  8
0
  6
________________
 62
     7
 10
261.2116478978403
 20
499.6152573295076
 30
0.0
  0
VERTEX
  5
179
  8
0
  6
________________
 62
     7
 10
260.6491478978403
 20
498.8670230388057
 30
0.0
  0
VERTEX
  5
17A
  8
0
  6
________________
 62
     7
 10
260.0866478978403
 20
498.0453898736774
 30
0.0
  0
VERTEX
  5
17B
  8
0
  6
________________
 62
     7
 10
259.5241478978403
 20
497.2318989903652
 30
0.0
  0
VERTEX
  5
17C
  8
0
  6
________________
 62
     7
 10
258.9616478978403
 20
496.5080915451114
 30
0.0
  0
VERTEX
  5
17D
  8
0
  6
________________
 62
     7
 10
258.3991478978403
 20
495.9555086941586
 30
0.0
  0
VERTEX
  5
17E
  8
0
  6
________________
 62
     7
 10
257.8366478978403
 20
495.6556915937491
 30
0.0
  0
VERTEX
  5
17F
  8
0
  6
________________
 62
     7
 10
257.2741478978403
 20
495.6782259094372
 30
0.0
  0
VERTEX
  5
180
  8
0
  6
________________
 62
     7
 10
256.7116478978403
 20
495.9977504944323
 30
0.0
  0
VERTEX
  5
181
  8
0
  6
________________
 62
     7
 10
256.1491478978403
 20
496.5436267022237
 30
0.0
  0
VERTEX
  5
182
  8
0
  6
________________
 62
     7
 10
255.5866478978403
 20
497.2449370410372
 30
0.0
  0
VERTEX
  5
183
  8
0
  6
________________
 62
     7
 10
255.0241478978403
 20
498.0307640190985
 30
0.0
  0
VERTEX
  5
184
  8
0
  6
________________
 62
     7
 10
254.4616478978403
 20
498.8301901446331
 30
0.0
  0
VERTEX
  5
185
  8
0
  6
________________
 62
     7
 10
253.8991478978403
 20
499.5722979258668
 30
0.0
  0
VERTEX
  5
186
  8
0
  6
________________
 62
     7
 10
253.3366478978403
 20
500.1861698710254
 30
0.0
  0
VERTEX
  5
187
  8
0
  6
________________
 62
     7
 10
252.7741478978403
 20
500.6008884883344
 30
0.0
  0
VERTEX
  5
188
  8
0
  6
________________
 62
     7
 10
252.2116478978403
 20
500.7574978102412
 30
0.0
  0
VERTEX
  5
189
  8
0
  6
________________
 62
     7
 10
251.6491478978403
 20
500.6639750076612
 30
0.0
  0
VERTEX
  5
18A
  8
0
  6
________________
 62
     7
 10
251.0866478978403
 20
500.351566154097
 30
0.0
  0
VERTEX
  5
18B
  8
0
  6
________________
 62
     7
 10
250.5241478978403
 20
499.8515406854037
 30
0.0
  0
VERTEX
  5
18C
  8
0
  6
________________
 62
     7
 10
249.9616478978403
 20
499.1951680374361
 30
0.0
  0
VERTEX
  5
18D
  8
0
  6
________________
 62
     7
 10
249.3991478978403
 20
498.4137176460491
 30
0.0
  0
VERTEX
  5
18E
  8
0
  6
________________
 62
     7
 10
248.8366478978403
 20
497.5384589470974
 30
0.0
  0
VERTEX
  5
18F
  8
0
  6
________________
 62
     7
 10
248.2741478978402
 20
496.600661376436
 30
0.0
  0
VERTEX
  5
190
  8
0
  6
________________
 62
     7
 10
247.7116478978403
 20
495.6315943699199
 30
0.0
  0
SEQEND
  5
191
  8
0
  6
________________
 62
     7
  0
POLYLINE
  5
C3
  8
0
  6
________________
 62
     7
 66
     1
 10
0.0
 20
0.0
 30
0.0
  0
VERTEX
  5
192
  8
0
  6
________________
 62
     7
 10
337.7116478978403
 20
500.6315943699199
 30
0.0
  0
VERTEX
  5
193
  8
0
  6
________________
 62
     7
 10
337.1491478978403
 20
501.6006613764361
 30
0.0
  0
VERTEX
  5
194
  8
0
  6
________________
 62
     7
 10
336.5866478978403
 20
502.5384589470975
 30
0.0
  0
VERTEX
  5
195
  8
0
  6
________________
 62
     7
 10
336.0241478978403
 20
503.4137176460491
 30
0.0
  0
VERTEX
  5
196
  8
0
  6
________________
 62
     7
 10
335.4616478978403
 20
504.1951680374361
 30
0.0
  0
VERTEX
  5
197
  8
0
  6
________________
 62
     7
 10
334.8991478978403
 20
504.8515406854038
 30
0.0
  0
VERTEX
  5
198
  8
0
  6
________________
 62
     7
 10
334.3366478978403
 20
505.351566154097
 30
0.0
  0
VERTEX
  5
199
  8
0
  6
________________
 62
     7
 10
333.7741478978403
 20
505.6639750076611
 30
0.0
  0
VERTEX
  5
19A
  8
0
  6
________________
 62
     7
 10
333.2116478978403
 20
505.7574978102411
 30
0.0
  0
VERTEX
  5
19B
  8
0
  6
________________
 62
     7
 10
332.6491478978403
 20
505.6008884883342
 30
0.0
  0
VERTEX
  5
19C
  8
0
  6
________________
 62
     7
 10
332.0866478978403
 20
505.1861698710253
 30
0.0
  0
VERTEX
  5
19D
  8
0
  6
________________
 62
     7
 10
331.5241478978403
 20
504.5722979258667
 30
0.0
  0
VERTEX
  5
19E
  8
0
  6
________________
 62
     7
 10
330.9616478978403
 20
503.830190144633
 30
0.0
  0
VERTEX
  5
19F
  8
0
  6
________________
 62
     7
 10
330.3991478978403
 20
503.0307640190983
 30
0.0
  0
VERTEX
  5
1A0
  8
0
  6
________________
 62
     7
 10
329.8366478978403
 20
502.2449370410371
 30
0.0
  0
VERTEX
  5
1A1
  8
0
  6
________________
 62
     7
 10
329.2741478978403
 20
501.5436267022235
 30
0.0
  0
VERTEX
  5
1A2
  8
0
  6
________________
 62
     7
 10
328.7116478978403
 20
500.9977504944321
 30
0.0
  0
VERTEX
  5
1A3
  8
0
  6
________________
 62
     7
 10
328.1491478978403
 20
500.6782259094372
 30
0.0
  0
VERTEX
  5
1A4
  8
0
  6
________________
 62
     7
 10
327.5866478978403
 20
500.6556915937491
 30
0.0
  0
VERTEX
  5
1A5
  8
0
  6
________________
 62
     7
 10
327.0241478978403
 20
500.9555086941585
 30
0.0
  0
VERTEX
  5
1A6
  8
0
  6
________________
 62
     7
 10
326.4616478978403
 20
501.5080915451114
 30
0.0
  0
VERTEX
  5
1A7
  8
0
  6
________________
 62
     7
 10
325.8991478978403
 20
502.2318989903653
 30
0.0
  0
VERTEX
  5
1A8
  8
0
  6
________________
 62
     7
 10
325.3366478978403
 20
503.0453898736774
 30
0.0
  0
VERTEX
  5
1A9
  8
0
  6
________________
 62
     7
 10
324.7741478978403
 20
503.8670230388057
 30
0.0
  0
VERTEX
  5
1AA
  8
0
  6
________________
 62
     7
 10
324.2116478978403
 20
504.6152573295076
 30
0.0
  0
VERTEX
  5
1AB
  8
0
  6
________________
 62
     7
 10
323.6491478978403
 20
505.2085515895405
 30
0.0
  0
VERTEX
  5
1AC
  8
0
  6
________________
 62
     7
 10
323.0866478978403
 20
505.5653646626623
 30
0.0
  0
VERTEX
  5
1AD
  8
0
  6
________________
 62
     7
 10
322.5241478978403
 20
505.6051796451885
 30
0.0
  0
VERTEX
  5
1AE
  8
0
  6
________________
 62
     7
 10
321.9616478978403
 20
505.3089347869307
 30
0.0
  0
VERTEX
  5
1AF
  8
0
  6
________________
 62
     7
 10
321.3991478978403
 20
504.7528238256181
 30
0.0
  0
VERTEX
  5
1B0
  8
0
  6
________________
 62
     7
 10
320.8366478978403
 20
504.021234519446
 30
0.0
  0
VERTEX
  5
1B1
  8
0
  6
________________
 62
     7
 10
320.2741478978403
 20
503.1985546266101
 30
0.0
  0
VERTEX
  5
1B2
  8
0
  6
________________
 62
     7
 10
319.7116478978403
 20
502.3691719053056
 30
0.0
  0
VERTEX
  5
1B3
  8
0
  6
________________
 62
     7
 10
319.1491478978403
 20
501.6174741137281
 30
0.0
  0
VERTEX
  5
1B4
  8
0
  6
________________
 62
     7
 10
318.5866478978403
 20
501.0278490100728
 30
0.0
  0
VERTEX
  5
1B5
  8
0
  6
________________
 62
     7
 10
318.0241478978403
 20
500.6846843525352
 30
0.0
  0
VERTEX
  5
1B6
  8
0
  6
________________
 62
     7
 10
317.4616478978403
 20
500.6698872297582
 30
0.0
  0
VERTEX
  5
1B7
  8
0
  6
________________
 62
     7
 10
316.8991478978403
 20
500.9901306741099
 30
0.0
  0
VERTEX
  5
1B8
  8
0
  6
________________
 62
     7
 10
316.3366478978403
 20
501.5651092417712
 30
0.0
  0
VERTEX
  5
1B9
  8
0
  6
________________
 62
     7
 10
315.7741478978403
 20
502.3096724312027
 30
0.0
  0
VERTEX
  5
1BA
  8
0
  6
________________
 62
     7
 10
315.2116478978403
 20
503.1386697408652
 30
0.0
  0
VERTEX
  5
1BB
  8
0
  6
________________
 62
     7
 10
314.6491478978403
 20
503.9669506692195
 30
0.0
  0
VERTEX
  5
1BC
  8
0
  6
________________
 62
     7
 10
314.0866478978403
 20
504.7093647147264
 30
0.0
  0
VERTEX
  5
1BD
  8
0
  6
________________
 62
     7
 10
313.5241478978403
 20
505.2807613758466
 30
0.0
  0
VERTEX
  5
1BE
  8
0
  6
________________
 62
     7
 10
312.9616478978403
 20
505.5959901510409
 30
0.0
  0
VERTEX
  5
1BF
  8
0
  6
________________
 62
     7
 10
312.3991478978403
 20
505.5747732346577
 30
0.0
  0
VERTEX
  5
1C0
  8
0
  6
________________
 62
     7
 10
311.8366478978403
 20
505.2243074576207
 30
0.0
  0
VERTEX
  5
1C1
  8
0
  6
________________
 62
     7
 10
311.2741478978403
 20
504.6274528725967
 30
0.0
  0
VERTEX
  5
1C2
  8
0
  6
________________
 62
     7
 10
310.7116478978403
 20
503.8695643525474
 30
0.0
  0
VERTEX
  5
1C3
  8
0
  6
________________
 62
     7
 10
310.1491478978403
 20
503.0359967704342
 30
0.0
  0
VERTEX
  5
1C4
  8
0
  6
________________
 62
     7
 10
309.5866478978403
 20
502.2121049992185
 30
0.0
  0
VERTEX
  5
1C5
  8
0
  6
________________
 62
     7
 10
309.0241478978403
 20
501.483243911862
 30
0.0
  0
VERTEX
  5
1C6
  8
0
  6
________________
 62
     7
 10
308.4616478978403
 20
500.934768381326
 30
0.0
  0
VERTEX
  5
1C7
  8
0
  6
________________
 62
     7
 10
307.8991478978403
 20
500.652033280572
 30
0.0
  0
VERTEX
  5
1C8
  8
0
  6
________________
 62
     7
 10
307.3366478978403
 20
500.7119606683261
 30
0.0
  0
VERTEX
  5
1C9
  8
0
  6
________________
 62
     7
 10
306.7741478978403
 20
501.0934411378271
 30
0.0
  0
VERTEX
  5
1CA
  8
0
  6
________________
 62
     7
 10
306.2116478978403
 20
501.7121191755475
 30
0.0
  0
VERTEX
  5
1CB
  8
0
  6
________________
 62
     7
 10
305.6491478978403
 20
502.4825851661807
 30
0.0
  0
VERTEX
  5
1CC
  8
0
  6
________________
 62
     7
 10
305.0866478978403
 20
503.3194294944198
 30
0.0
  0
VERTEX
  5
1CD
  8
0
  6
________________
 62
     7
 10
304.5241478978403
 20
504.1372425449582
 30
0.0
  0
VERTEX
  5
1CE
  8
0
  6
________________
 62
     7
 10
303.9616478978403
 20
504.8506147024891
 30
0.0
  0
VERTEX
  5
1CF
  8
0
  6
________________
 62
     7
 10
303.3991478978403
 20
505.3741363517058
 30
0.0
  0
VERTEX
  5
1D0
  8
0
  6
________________
 62
     7
 10
302.8366478978403
 20
505.6223978773015
 30
0.0
  0
VERTEX
  5
1D1
  8
0
  6
________________
 62
     7
 10
302.2741478978403
 20
505.5233860981716
 30
0.0
  0
VERTEX
  5
1D2
  8
0
  6
________________
 62
     7
 10
301.7116478978403
 20
505.1114781736393
 30
0.0
  0
VERTEX
  5
1D3
  8
0
  6
________________
 62
     7
 10
301.1491478978403
 20
504.4717858636943
 30
0.0
  0
VERTEX
  5
1D4
  8
0
  6
________________
 62
     7
 10
300.5866478978403
 20
503.6897333816019
 30
0.0
  0
VERTEX
  5
1D5
  8
0
  6
________________
 62
     7
 10
300.0241478978403
 20
502.8507449406275
 30
0.0
  0
VERTEX
  5
1D6
  8
0
  6
________________
 62
     7
 10
299.4616478978403
 20
502.0402447540369
 30
0.0
  0
VERTEX
  5
1D7
  8
0
  6
________________
 62
     7
 10
298.8991478978403
 20
501.3436570350954
 30
0.0
  0
VERTEX
  5
1D8
  8
0
  6
________________
 62
     7
 10
298.3366478978403
 20
500.8464059970684
 30
0.0
  0
VERTEX
  5
1D9
  8
0
  6
________________
 62
     7
 10
297.7741478978403
 20
500.6339158532215
 30
0.0
  0
VERTEX
  5
1DA
  8
0
  6
________________
 62
     7
 10
297.2116478978403
 20
500.7716116712044
 30
0.0
  0
VERTEX
  5
1DB
  8
0
  6
________________
 62
     7
 10
296.6491478978403
 20
501.2130092370488
 30
0.0
  0
VERTEX
  5
1DC
  8
0
  6
________________
 62
     7
 10
296.0866478978403
 20
501.8727197488307
 30
0.0
  0
VERTEX
  5
1DD
  8
0
  6
________________
 62
     7
 10
295.5241478978403
 20
502.6653153437948
 30
0.0
  0
VERTEX
  5
1DE
  8
0
  6
________________
 62
     7
 10
294.9616478978403
 20
503.5053681591861
 30
0.0
  0
VERTEX
  5
1DF
  8
0
  6
________________
 62
     7
 10
294.3991478978403
 20
504.3074503322494
 30
0.0
  0
VERTEX
  5
1E0
  8
0
  6
________________
 62
     7
 10
293.8366478978403
 20
504.9861340002296
 30
0.0
  0
VERTEX
  5
1E1
  8
0
  6
________________
 62
     7
 10
293.2741478978403
 20
505.4559913003715
 30
0.0
  0
VERTEX
  5
1E2
  8
0
  6
________________
 62
     7
 10
292.7116478978403
 20
505.6315943699199
 30
0.0
  0
VERTEX
  5
1E3
  8
0
  6
________________
 62
     7
 10
292.1491478978403
 20
505.4559913003715
 30
0.0
  0
VERTEX
  5
1E4
  8
0
  6
________________
 62
     7
 10
291.5866478978403
 20
504.9861340002295
 30
0.0
  0
VERTEX
  5
1E5
  8
0
  6
________________
 62
     7
 10
291.0241478978403
 20
504.3074503322493
 30
0.0
  0
VERTEX
  5
1E6
  8
0
  6
________________
 62
     7
 10
290.4616478978403
 20
503.5053681591859
 30
0.0
  0
VERTEX
  5
1E7
  8
0
  6
________________
 62
     7
 10
289.8991478978403
 20
502.6653153437946
 30
0.0
  0
VERTEX
  5
1E8
  8
0
  6
________________
 62
     7
 10
289.3366478978402
 20
501.8727197488304
 30
0.0
  0
VERTEX
  5
1E9
  8
0
  6
________________
 62
     7
 10
288.7741478978402
 20
501.2130092370486
 30
0.0
  0
VERTEX
  5
1EA
  8
0
  6
________________
 62
     7
 10
288.2116478978402
 20
500.7716116712043
 30
0.0
  0
VERTEX
  5
1EB
  8
0
  6
________________
 62
     7
 10
287.6491478978402
 20
500.6339158532214
 30
0.0
  0
VERTEX
  5
1EC
  8
0
  6
________________
 62
     7
 10
287.0866478978402
 20
500.8464059970684
 30
0.0
  0
VERTEX
  5
1ED
  8
0
  6
________________
 62
     7
 10
286.5241478978402
 20
501.3436570350954
 30
0.0
  0
VERTEX
  5
1EE
  8
0
  6
________________
 62
     7
 10
285.9616478978402
 20
502.040244754037
 30
0.0
  0
VERTEX
  5
1EF
  8
0
  6
________________
 62
     7
 10
285.3991478978402
 20
502.8507449406277
 30
0.0
  0
VERTEX
  5
1F0
  8
0
  6
________________
 62
     7
 10
284.8366478978402
 20
503.6897333816019
 30
0.0
  0
VERTEX
  5
1F1
  8
0
  6
________________
 62
     7
 10
284.2741478978402
 20
504.4717858636943
 30
0.0
  0
VERTEX
  5
1F2
  8
0
  6
________________
 62
     7
 10
283.7116478978402
 20
505.1114781736394
 30
0.0
  0
VERTEX
  5
1F3
  8
0
  6
________________
 62
     7
 10
283.1491478978403
 20
505.5233860981717
 30
0.0
  0
VERTEX
  5
1F4
  8
0
  6
________________
 62
     7
 10
282.5866478978403
 20
505.6223978773014
 30
0.0
  0
VERTEX
  5
1F5
  8
0
  6
________________
 62
     7
 10
282.0241478978403
 20
505.3741363517057
 30
0.0
  0
VERTEX
  5
1F6
  8
0
  6
________________
 62
     7
 10
281.4616478978403
 20
504.8506147024891
 30
0.0
  0
VERTEX
  5
1F7
  8
0
  6
________________
 62
     7
 10
280.8991478978403
 20
504.1372425449581
 30
0.0
  0
VERTEX
  5
1F8
  8
0
  6
________________
 62
     7
 10
280.3366478978403
 20
503.3194294944197
 30
0.0
  0
VERTEX
  5
1F9
  8
0
  6
________________
 62
     7
 10
279.7741478978403
 20
502.4825851661806
 30
0.0
  0
VERTEX
  5
1FA
  8
0
  6
________________
 62
     7
 10
279.2116478978403
 20
501.7121191755475
 30
0.0
  0
VERTEX
  5
1FB
  8
0
  6
________________
 62
     7
 10
278.6491478978403
 20
501.0934411378271
 30
0.0
  0
VERTEX
  5
1FC
  8
0
  6
________________
 62
     7
 10
278.0866478978403
 20
500.7119606683262
 30
0.0
  0
VERTEX
  5
1FD
  8
0
  6
________________
 62
     7
 10
277.5241478978403
 20
500.6520332805721
 30
0.0
  0
VERTEX
  5
1FE
  8
0
  6
________________
 62
     7
 10
276.9616478978403
 20
500.9347683813261
 30
0.0
  0
VERTEX
  5
1FF
  8
0
  6
________________
 62
     7
 10
276.3991478978403
 20
501.4832439118621
 30
0.0
  0
VERTEX
  5
200
  8
0
  6
________________
 62
     7
 10
275.8366478978403
 20
502.2121049992186
 30
0.0
  0
VERTEX
  5
201
  8
0
  6
________________
 62
     7
 10
275.2741478978403
 20
503.0359967704343
 30
0.0
  0
VERTEX
  5
202
  8
0
  6
________________
 62
     7
 10
274.7116478978403
 20
503.8695643525476
 30
0.0
  0
VERTEX
  5
203
  8
0
  6
________________
 62
     7
 10
274.1491478978402
 20
504.6274528725969
 30
0.0
  0
VERTEX
  5
204
  8
0
  6
________________
 62
     7
 10
273.5866478978402
 20
505.2243074576208
 30
0.0
  0
VERTEX
  5
205
  8
0
  6
________________
 62
     7
 10
273.0241478978402
 20
505.5747732346579
 30
0.0
  0
VERTEX
  5
206
  8
0
  6
________________
 62
     7
 10
272.4616478978402
 20
505.595990151041
 30
0.0
  0
VERTEX
  5
207
  8
0
  6
________________
 62
     7
 10
271.8991478978402
 20
505.2807613758466
 30
0.0
  0
VERTEX
  5
208
  8
0
  6
________________
 62
     7
 10
271.3366478978402
 20
504.7093647147263
 30
0.0
  0
VERTEX
  5
209
  8
0
  6
________________
 62
     7
 10
270.7741478978402
 20
503.9669506692194
 30
0.0
  0
VERTEX
  5
20A
  8
0
  6
________________
 62
     7
 10
270.2116478978402
 20
503.1386697408652
 30
0.0
  0
VERTEX
  5
20B
  8
0
  6
________________
 62
     7
 10
269.6491478978402
 20
502.3096724312027
 30
0.0
  0
VERTEX
  5
20C
  8
0
  6
________________
 62
     7
 10
269.0866478978402
 20
501.5651092417712
 30
0.0
  0
VERTEX
  5
20D
  8
0
  6
________________
 62
     7
 10
268.5241478978403
 20
500.9901306741099
 30
0.0
  0
VERTEX
  5
20E
  8
0
  6
________________
 62
     7
 10
267.9616478978403
 20
500.6698872297582
 30
0.0
  0
VERTEX
  5
20F
  8
0
  6
________________
 62
     7
 10
267.3991478978403
 20
500.6846843525353
 30
0.0
  0
VERTEX
  5
210
  8
0
  6
________________
 62
     7
 10
266.8366478978403
 20
501.0278490100729
 30
0.0
  0
VERTEX
  5
211
  8
0
  6
________________
 62
     7
 10
266.2741478978403
 20
501.6174741137282
 30
0.0
  0
VERTEX
  5
212
  8
0
  6
________________
 62
     7
 10
265.7116478978403
 20
502.3691719053058
 30
0.0
  0
VERTEX
  5
213
  8
0
  6
________________
 62
     7
 10
265.1491478978403
 20
503.1985546266104
 30
0.0
  0
VERTEX
  5
214
  8
0
  6
________________
 62
     7
 10
264.5866478978403
 20
504.0212345194463
 30
0.0
  0
VERTEX
  5
215
  8
0
  6
________________
 62
     7
 10
264.0241478978403
 20
504.7528238256183
 30
0.0
  0
VERTEX
  5
216
  8
0
  6
________________
 62
     7
 10
263.4616478978403
 20
505.3089347869309
 30
0.0
  0
VERTEX
  5
217
  8
0
  6
________________
 62
     7
 10
262.8991478978403
 20
505.6051796451887
 30
0.0
  0
VERTEX
  5
218
  8
0
  6
________________
 62
     7
 10
262.3366478978403
 20
505.5653646626624
 30
0.0
  0
VERTEX
  5
219
  8
0
  6
________________
 62
     7
 10
261.7741478978403
 20
505.2085515895406
 30
0.0
  0
VERTEX
  5
21A
  8
0
  6
________________
 62
     7
 10
261.2116478978403
 20
504.6152573295076
 30
0.0
  0
VERTEX
  5
21B
  8
0
  6
________________
 62
     7
 10
260.6491478978403
 20
503.8670230388057
 30
0.0
  0
VERTEX
  5
21C
  8
0
  6
________________
 62
     7
 10
260.0866478978403
 20
503.0453898736774
 30
0.0
  0
VERTEX
  5
21D
  8
0
  6
________________
 62
     7
 10
259.5241478978403
 20
502.2318989903652
 30
0.0
  0
VERTEX
  5
21E
  8
0
  6
________________
 62
     7
 10
258.9616478978403
 20
501.5080915451114
 30
0.0
  0
VERTEX
  5
21F
  8
0
  6
________________
 62
     7
 10
258.3991478978403
 20
500.9555086941585
 30
0.0
  0
VERTEX
  5
220
  8
0
  6
________________
 62
     7
 10
257.8366478978403
 20
500.6556915937491
 30
0.0
  0
VERTEX
  5
221
  8
0
  6
________________
 62
     7
 10
257.2741478978403
 20
500.6782259094372
 30
0.0
  0
VERTEX
  5
222
  8
0
  6
________________
 62
     7
 10
256.7116478978403
 20
500.9977504944322
 30
0.0
  0
VERTEX
  5
223
  8
0
  6
________________
 62
     7
 10
256.1491478978403
 20
501.5436267022237
 30
0.0
  0
VERTEX
  5
224
  8
0
  6
________________
 62
     7
 10
255.5866478978403
 20
502.2449370410372
 30
0.0
  0
VERTEX
  5
225
  8
0
  6
________________
 62
     7
 10
255.0241478978403
 20
503.0307640190984
 30
0.0
  0
VERTEX
  5
226
  8
0
  6
________________
 62
     7
 10
254.4616478978403
 20
503.830190144633
 30
0.0
  0
VERTEX
  5
227
  8
0
  6
________________
 62
     7
 10
253.8991478978403
 20
504.5722979258668
 30
0.0
  0
VERTEX
  5
228
  8
0
  6
________________
 62
     7
 10
253.3366478978403
 20
505.1861698710253
 30
0.0
  0
VERTEX
  5
229
  8
0
  6
________________
 62
     7
 10
252.7741478978403
 20
505.6008884883343
 30
0.0
  0
VERTEX
  5
22A
  8
0
  6
________________
 62
     7
 10
252.2116478978403
 20
505.7574978102411
 30
0.0
  0
VERTEX
  5
22B
  8
0
  6
________________
 62
     7
 10
251.6491478978403
 20
505.6639750076611
 30
0.0
  0
VERTEX
  5
22C
  8
0
  6
________________
 62
     7
 10
251.0866478978403
 20
505.351566154097
 30
0.0
  0
VERTEX
  5
22D
  8
0
  6
________________
 62
     7
 10
250.5241478978403
 20
504.8515406854037
 30
0.0
  0
VERTEX
  5
22E
  8
0
  6
________________
 62
     7
 10
249.9616478978403
 20
504.1951680374361
 30
0.0
  0
VERTEX
  5
22F
  8
0
  6
________________
 62
     7
 10
249.3991478978403
 20
503.413717646049
 30
0.0
  0
VERTEX
  5
230
  8
0
  6
________________
 62
     7
 10
248.8366478978403
 20
502.5384589470974
 30
0.0
  0
VERTEX
  5
231
  8
0
  6
________________
 62
     7
 10
248.2741478978402
 20
501.6006613764359
 30
0.0
  0
VERTEX
  5
232
  8
0
  6
________________
 62
     7
 10
247.7116478978403
 20
500.6315943699199
 30
0.0
  0
SEQEND
  5
233
  8
0
  6
________________
 62
     7
  0
ENDBLK
  8
0
  0
BLOCK
  8
0
  2
*X3
 70
     1
 10
0.0
 20
0.0
 30
0.0
  0
TEXT
  5
EC
  8
0
 62
     7
 10
282.683920625113
 20
349.9545499889625
 30
0.0
 40
5.0
  1
GUH-80
  7
EXPLODED0
  0
LINE
  5
ED
  8
0
 62
     7
 10
282.683920625113
 20
349.0411906139625
 30
0.0
 11
302.183920625113
 21
349.0411906139625
 31
0.0
  0
ENDBLK
  8
0
  0
ENDSEC
  0
SECTION
  2
ENTITIES
  0
INSERT
  5
9B
  8
0
  6
________________
 62
     7
  2
_5331
 10
0.0
 20
0.0
 30
0.0
  0
ARC
  5
9C
  8
0
  6
________________
 62
     7
 10
292.7116478978403
 20
399.2771870465045
 30
0.0
 40
41.2
 50
116.0167781540842
 51
220.8779790262007
  0
LINE
  5
9D
  8
0
  6
________________0
 62
     1
 10
248.4050381573746
 20
399.2771870465045
 30
0.0
 11
336.803463379617
 21
399.2771870465045
 31
0.0
  0
LINE
  5
9F
  8
0
  6
________________0
 62
     1
 10
292.7116478978403
 20
357.0127906103128
 30
0.0
 11
292.7116478978403
 21
444.0754442431692
 31
0.0
  0
INSERT
  5
A0
  8
0
 62
     7
  2
*X3
 10
0.0
 20
0.0
 30
0.0
  0
INSERT
  5
C4
  8
0
  6
________________
 62
     7
  2
_10085
 10
0.0
 20
0.0
 30
0.0
  0
ENDSEC
  0
EOF
