  0
SECTION
  2
HEADER
  9
$ACADVER
  1
AC1006
  9
$DWGCODEPAGE
  3
ansi_932
  9
$INSBASE
 10
0.0
 20
0.0
 30
0.0
  9
$EXTMIN
 10
159.9999999999999
 20
-47.50000875000501
  9
$EXTMAX
 10
415.000008750005
 20
222.5000000000002
  9
$LIMMIN
 10
0.0
 20
0.0
  9
$LIMMAX
 10
12.0
 20
9.0
  9
$ORTHOMODE
 70
     0
  9
$REGENMODE
 70
     1
  9
$FILLMODE
 70
     1
  9
$QTEXTMODE
 70
     0
  9
$MIRRTEXT
 70
     1
  9
$DRAGMODE
 70
     2
  9
$LTSCALE
 40
1.0
  9
$OSMODE
 70
    37
  9
$ATTMODE
 70
     1
  9
$TEXTSIZE
 40
0.2
  9
$TRACEWID
 40
0.05
  9
$TEXTSTYLE
  7
STANDARD
  9
$CLAYER
  8
0
  9
$CELTYPE
  6
BYLAYER
  9
$CECOLOR
 62
   256
  9
$DIMSCALE
 40
1.0
  9
$DIMASZ
 40
3.0
  9
$DIMEXO
 40
0.0625
  9
$DIMDLI
 40
0.38
  9
$DIMRND
 40
0.0
  9
$DIMDLE
 40
0.0
  9
$DIMEXE
 40
0.18
  9
$DIMTP
 40
0.0
  9
$DIMTM
 40
0.0
  9
$DIMTXT
 40
3.0
  9
$DIMCEN
 40
0.09
  9
$DIMTSZ
 40
0.0
  9
$DIMTOL
 70
     0
  9
$DIMLIM
 70
     0
  9
$DIMTIH
 70
     1
  9
$DIMTOH
 70
     1
  9
$DIMSE1
 70
     0
  9
$DIMSE2
 70
     0
  9
$DIMTAD
 70
     1
  9
$DIMZIN
 70
     0
  9
$DIMBLK
  1

  9
$DIMASO
 70
     1
  9
$DIMSHO
 70
     1
  9
$DIMPOST
  1

  9
$DIMAPOST
  1

  9
$DIMALT
 70
     0
  9
$DIMALTD
 70
     2
  9
$DIMALTF
 40
25.4
  9
$DIMLFAC
 40
1.0
  9
$DIMTOFL
 70
     0
  9
$DIMTVP
 40
0.0
  9
$DIMTIX
 70
     0
  9
$DIMSOXD
 70
     0
  9
$DIMSAH
 70
     0
  9
$DIMBLK1
  1

  9
$DIMBLK2
  1

  9
$LUNITS
 70
     2
  9
$LUPREC
 70
     4
  9
$SKETCHINC
 40
0.1
  9
$FILLETRAD
 40
0.5
  9
$AUNITS
 70
     0
  9
$AUPREC
 70
     0
  9
$MENU
  1
.
  9
$ELEVATION
 40
0.0
  9
$THICKNESS
 40
0.0
  9
$LIMCHECK
 70
     0
  9
$CHAMFERA
 40
0.5
  9
$CHAMFERB
 40
0.5
  9
$SKPOLY
 70
     0
  9
$TDCREATE
 40
2459311.702030787
  9
$TDUPDATE
 40
2459311.702030798
  9
$TDINDWG
 40
0.0000000116
  9
$TDUSRTIMER
 40
0.0000000116
  9
$USRTIMER
 70
     1
  9
$ANGBASE
 50
0.0
  9
$ANGDIR
 70
     0
  9
$PDMODE
 70
     0
  9
$PDSIZE
 40
0.0
  9
$PLINEWID
 40
0.0
  9
$COORDS
 70
     1
  9
$SPLFRAME
 70
     0
  9
$SPLINETYPE
 70
     6
  9
$SPLINESEGS
 70
     8
  9
$ATTDIA
 70
     0
  9
$ATTREQ
 70
     1
  9
$HANDLING
 70
     1
  9
$HANDSEED
  5
1F1
  9
$SURFTAB1
 70
     6
  9
$SURFTAB2
 70
     6
  9
$SURFTYPE
 70
     6
  9
$SURFU
 70
     6
  9
$SURFV
 70
     6
  9
$UCSNAME
  2

  9
$UCSORG
 10
0.0
 20
0.0
 30
0.0
  9
$UCSXDIR
 10
1.0
 20
0.0
 30
0.0
  9
$UCSYDIR
 10
0.0
 20
1.0
 30
0.0
  9
$USERI1
 70
     0
  9
$USERI2
 70
     0
  9
$USERI3
 70
     0
  9
$USERI4
 70
     0
  9
$USERI5
 70
     0
  9
$USERR1
 40
0.0
  9
$USERR2
 40
0.0
  9
$USERR3
 40
0.0
  9
$USERR4
 40
0.0
  9
$USERR5
 40
0.0
  9
$WORLDVIEW
 70
     1
  0
ENDSEC
  0
SECTION
  2
TABLES
  0
TABLE
  2
VPORT
 70
     1
  0
VPORT
  2
*ACTIVE
 70
     0
 10
0.0
 20
0.0
 11
1.0
 21
1.0
 12
287.5000043750024
 22
87.49999562499758
 13
0.0
 23
0.0
 14
0.5
 24
0.5
 15
0.5
 25
0.5
 16
0.0
 26
0.0
 36
1.0
 17
0.0
 27
0.0
 37
0.0
 40
270.0000087500052
 41
1.6
 42
50.0
 43
0.0
 44
0.0
 50
0.0
 51
0.0
 71
     0
 72
   100
 73
     1
 74
     3
 75
     0
 76
     0
 77
     0
 78
     0
  0
ENDTAB
  0
TABLE
  2
LTYPE
 70
     2
  0
LTYPE
  2
CONTINUOUS
 70
     0
  3
Solid line
 72
    65
 73
     0
 40
0.0
  0
LTYPE
  2
________________
 70
     0
  3

 72
    65
 73
     0
 40
0.0
  0
ENDTAB
  0
TABLE
  2
LAYER
 70
     1
  0
LAYER
  2
0
 70
     0
 62
     7
  6
CONTINUOUS
  0
ENDTAB
  0
TABLE
  2
STYLE
 70
     2
  0
STYLE
  2
STANDARD
 70
     0
 40
0.0
 41
1.0
 50
0.0
 71
     0
 42
0.2
  3
txt
  4

  0
STYLE
  2
EXPLODED0
 70
     0
 40
0.2
 41
1.0
 50
0.0
 71
     0
 42
0.2
  3
ＭＳ ゴシック
  4

  0
ENDTAB
  0
TABLE
  2
VIEW
 70
     0
  0
ENDTAB
  0
TABLE
  2
UCS
 70
     0
  0
ENDTAB
  0
ENDSEC
  0
SECTION
  2
BLOCKS
  0
BLOCK
  8
0
  2
_1423
 70
     0
 10
0.0
 20
0.0
 30
0.0
  0
ENDBLK
  8
0
  0
BLOCK
  8
0
  2
_1551
 70
     0
 10
0.0
 20
0.0
 30
0.0
  0
ENDBLK
  8
0
  0
BLOCK
  8
0
  2
_1603
 70
     0
 10
0.0
 20
0.0
 30
0.0
  0
ENDBLK
  8
0
  0
ENDSEC
  0
SECTION
  2
ENTITIES
  0
INSERT
  5
3C
  8
0
  6
________________
 62
     7
  2
_1423
 10
0.0
 20
0.0
 30
0.0
  0
LINE
  5
3E
  8
0
  6
________________
 62
     7
 10
290.7000000000001
 20
147.5
 30
0.0
 11
290.7000000000001
 21
147.0
 31
0.0
  0
LINE
  5
3F
  8
0
  6
________________
 62
     7
 10
290.7000000000001
 20
147.0
 30
0.0
 11
291.1977757566971
 21
147.0
 31
0.0
  0
ARC
  5
40
  8
0
  6
________________
 62
     7
 10
-235.0000000000001
 20
147.5
 30
0.0
 40
56.20000000000005
 50
180.5097556529847
 51
0.0
210
0.0
220
0.0
230
-1.0
  0
ARC
  5
41
  8
0
  6
________________
 62
     7
 10
179.8
 20
147.0
 30
0.0
 40
0.5000000000000004
 50
359.9999999999994
 51
90.0
  0
LINE
  5
42
  8
0
  6
________________
 62
     7
 10
182.0000000000001
 20
136.1580424969937
 30
0.0
 11
182.0000000000001
 21
142.0
 31
0.0
  0
ARC
  5
43
  8
0
  6
________________
 62
     7
 10
288.5
 20
152.3
 30
0.0
 40
0.5000000000000004
 50
90.0
 51
179.9999999999999
  0
LINE
  5
44
  8
0
  6
________________
 62
     7
 10
288.0000000000001
 20
152.3
 30
0.0
 11
288.0000000000001
 21
136.1580424969937
 31
0.0
  0
ARC
  5
45
  8
0
  6
________________
 62
     7
 10
-235.0000000000001
 20
147.5
 30
0.0
 40
54.20000000000004
 50
192.0790607014646
 51
347.9209392985352
210
0.0
220
0.0
230
-1.0
  0
LINE
  5
46
  8
0
  6
________________
 62
     7
 10
289.5000000000001
 20
147.5
 30
0.0
 11
289.5000000000001
 21
152.8
 31
0.0
  0
LINE
  5
47
  8
0
  6
________________
 62
     7
 10
180.3000000000001
 20
142.0
 30
0.0
 11
180.3
 21
147.0
 31
0.0
  0
LINE
  5
48
  8
0
  6
________________
 62
     7
 10
182.0000000000001
 20
142.0
 30
0.0
 11
180.3000000000001
 21
142.0
 31
0.0
  0
ARC
  5
49
  8
0
  6
________________
 62
     7
 10
-235.0
 20
147.5
 30
0.0
 40
75.00000000000001
 50
176.3305621950122
 51
355.7945343998402
210
0.0
220
0.0
230
-1.0
  0
LINE
  5
4A
  8
0
  6
________________
 62
     7
 10
302.0
 20
147.5
 30
0.0
 11
303.0163521732655
 21
148.0867912008263
 31
0.0
  0
LINE
  5
4B
  8
0
  6
________________
 62
     7
 10
302.0
 20
147.5
 30
0.0
 11
303.0163521732655
 21
146.9132087991736
 31
0.0
  0
LINE
  5
4C
  8
0
  6
________________
 62
     7
 10
300.9999999999999
 20
146.5
 30
0.0
 11
301.5867912008263
 21
145.4836478267344
 31
0.0
  0
LINE
  5
4D
  8
0
  6
________________
 62
     7
 10
300.9999999999999
 20
146.5
 30
0.0
 11
300.4132087991736
 21
145.4836478267344
 31
0.0
  0
LINE
  5
4E
  8
0
  6
________________
 62
     7
 10
301.0000000000001
 20
148.5
 30
0.0
 11
300.4132087991737
 21
149.5163521732655
 31
0.0
  0
LINE
  5
4F
  8
0
  6
________________
 62
     7
 10
301.0000000000001
 20
148.5
 30
0.0
 11
301.5867912008264
 21
149.5163521732655
 31
0.0
  0
ARC
  5
50
  8
0
  6
________________
 62
     7
 10
301.0
 20
147.5
 30
0.0
 40
2.100000000000005
 50
106.2258530019726
 51
163.774146998026
  0
ARC
  5
51
  8
0
  6
________________
 62
     7
 10
301.0
 20
147.5
 30
0.0
 40
2.100000000000005
 50
196.2258530019726
 51
253.7741469980257
  0
ARC
  5
52
  8
0
  6
________________
 62
     7
 10
301.0
 20
147.5
 30
0.0
 40
2.100000000000005
 50
286.2258530019726
 51
343.774146998026
  0
ARC
  5
53
  8
0
  6
________________
 62
     7
 10
301.0
 20
147.5
 30
0.0
 40
2.100000000000006
 50
16.22585300197272
 51
73.77414699802581
  0
LINE
  5
54
  8
0
  6
________________
 62
     7
 10
289.5000000000001
 20
152.3
 30
0.0
 11
289.6999999999999
 21
152.3
 31
0.0
  0
LINE
  5
55
  8
0
  6
________________
 62
     7
 10
300.0
 20
147.5
 30
0.0
 11
298.9836478267344
 21
146.9132087991736
 31
0.0
  0
LINE
  5
56
  8
0
  6
________________
 62
     7
 10
300.0
 20
147.5
 30
0.0
 11
298.9836478267344
 21
148.0867912008264
 31
0.0
  0
LINE
  5
57
  8
0
  6
________________
 62
     7
 10
309.3124989557227
 20
152.8
 30
0.0
 11
309.3124989557227
 21
152.3
 31
0.0
  0
LINE
  5
58
  8
0
  6
________________
 62
     7
 10
175.0654515084306
 20
142.0
 30
0.0
 11
175.0654515084306
 21
142.2
 31
0.0
  0
ARC
  5
59
  8
0
  6
________________
 62
     7
 10
234.9999999999999
 20
147.5
 30
0.0
 40
72.49999999999994
 50
184.1922587083621
 51
184.3507563410289
  0
LINE
  5
5A
  8
0
  6
________________
 62
     7
 10
179.2999999999999
 20
147.5
 30
0.0
 11
179.2999999999999
 21
148.0
 31
0.0
  0
LINE
  5
5B
  8
0
  6
________________
 62
     7
 10
179.2999999999999
 20
148.0
 30
0.0
 11
178.8022242433029
 21
148.0
 31
0.0
  0
ARC
  5
5C
  8
0
  6
________________
 62
     7
 10
-234.9999999999999
 20
147.5
 30
0.0
 40
56.20000000000005
 50
0.509755652984659
 51
180.0
210
0.0
220
0.0
230
-1.0
  0
ARC
  5
5D
  8
0
  6
________________
 62
     7
 10
290.2
 20
148.0
 30
0.0
 40
0.5000000000000004
 50
179.9999999999994
 51
270.0
  0
LINE
  5
5E
  8
0
  6
________________
 62
     7
 10
181.9999999999999
 20
142.7
 30
0.0
 11
181.9999999999999
 21
158.8419575030063
 31
0.0
  0
LINE
  5
5F
  8
0
  6
________________
 62
     7
 10
288.0
 20
158.8419575030063
 30
0.0
 11
288.0
 21
153.0
 31
0.0
  0
ARC
  5
60
  8
0
  6
________________
 62
     7
 10
181.5
 20
142.7
 30
0.0
 40
0.5000000000000004
 50
270.0
 51
0.0
  0
ARC
  5
61
  8
0
  6
________________
 62
     7
 10
-234.9999999999999
 20
147.5
 30
0.0
 40
54.20000000000004
 50
12.07906070146469
 51
167.9209392985353
210
0.0
220
0.0
230
-1.0
  0
LINE
  5
62
  8
0
  6
________________
 62
     7
 10
180.4999999999999
 20
147.5
 30
0.0
 11
180.4999999999999
 21
142.2
 31
0.0
  0
LINE
  5
63
  8
0
  6
________________
 62
     7
 10
289.6999999999999
 20
153.0
 30
0.0
 11
289.7
 21
148.0
 31
0.0
  0
LINE
  5
64
  8
0
  6
________________
 62
     7
 10
288.0
 20
153.0
 30
0.0
 11
289.6999999999999
 21
153.0
 31
0.0
  0
ARC
  5
65
  8
0
  6
________________
 62
     7
 10
-235.0
 20
147.5
 30
0.0
 40
75.00000000000001
 50
356.3305621950121
 51
175.7945343998401
210
0.0
220
0.0
230
-1.0
  0
LINE
  5
66
  8
0
  6
________________
 62
     7
 10
169.0
 20
146.5
 30
0.0
 11
169.5867912008264
 21
145.4836478267344
 31
0.0
  0
LINE
  5
67
  8
0
  6
________________
 62
     7
 10
169.0
 20
146.5
 30
0.0
 11
168.4132087991737
 21
145.4836478267344
 31
0.0
  0
ARC
  5
68
  8
0
  6
________________
 62
     7
 10
169.0
 20
147.5
 30
0.0
 40
2.100000000000005
 50
286.2258530019726
 51
343.774146998026
  0
ARC
  5
69
  8
0
  6
________________
 62
     7
 10
169.0
 20
147.5
 30
0.0
 40
2.100000000000005
 50
16.22585300197261
 51
73.77414699802577
  0
ARC
  5
6A
  8
0
  6
________________
 62
     7
 10
169.0
 20
147.5
 30
0.0
 40
2.100000000000005
 50
106.2258530019727
 51
163.7741469980261
  0
ARC
  5
6B
  8
0
  6
________________
 62
     7
 10
169.0
 20
147.5
 30
0.0
 40
2.100000000000006
 50
196.2258530019727
 51
253.7741469980257
  0
LINE
  5
6C
  8
0
  6
________________
 62
     7
 10
180.4999999999999
 20
142.7
 30
0.0
 11
180.3000000000001
 21
142.7
 31
0.0
  0
LINE
  5
6D
  8
0
  6
________________
 62
     7
 10
168.0
 20
147.5
 30
0.0
 11
166.9836478267345
 21
146.9132087991737
 31
0.0
  0
LINE
  5
6E
  8
0
  6
________________
 62
     7
 10
168.0
 20
147.5
 30
0.0
 11
166.9836478267345
 21
148.0867912008264
 31
0.0
  0
LINE
  5
6F
  8
0
  6
________________
 62
     7
 10
169.0000000000001
 20
148.5
 30
0.0
 11
168.4132087991737
 21
149.5163521732655
 31
0.0
  0
LINE
  5
70
  8
0
  6
________________
 62
     7
 10
169.0000000000001
 20
148.5
 30
0.0
 11
169.5867912008264
 21
149.5163521732655
 31
0.0
  0
LINE
  5
71
  8
0
  6
________________
 62
     7
 10
170.0
 20
147.5
 30
0.0
 11
171.0163521732656
 21
148.0867912008263
 31
0.0
  0
LINE
  5
72
  8
0
  6
________________
 62
     7
 10
170.0
 20
147.5
 30
0.0
 11
171.0163521732656
 21
146.9132087991736
 31
0.0
  0
LINE
  5
73
  8
0
  6
________________
 62
     7
 10
160.6875010442774
 20
142.2
 30
0.0
 11
160.6875010442774
 21
142.7
 31
0.0
  0
LINE
  5
74
  8
0
  6
________________
 62
     7
 10
294.9345484915694
 20
153.0
 30
0.0
 11
294.9345484915694
 21
152.8
 31
0.0
  0
ARC
  5
75
  8
0
  6
________________
 62
     7
 10
235.0000000000001
 20
147.5
 30
0.0
 40
72.49999999999994
 50
4.19225870836208
 51
4.350756341028909
  0
LINE
  5
76
  8
0
  6
________________
 62
     7
 10
160.2019385277934
 20
-39.50000875000502
 30
0.0
 11
160.2019385277934
 21
-47.50000875000501
 31
0.0
  0
ARC
  5
77
  8
0
  6
________________
 62
     7
 10
-162.2045483769388
 20
-39.50261814361836
 30
0.0
 40
2.002611549160081
 50
0.0746561576063875
 51
90.0840655448788
210
0.0
220
0.0
230
-1.0
  0
POLYLINE
  5
78
  8
0
  6
________________
 62
     7
 10
0.0
 20
0.0
 30
0.0
 66
     1
 70
     8
  0
VERTEX
  5
79
  8
0
  6
________________
 62
     7
 10
291.144367482411
 20
-5.881974761255064
 30
0.0
 70
    32
  0
VERTEX
  5
7A
  8
0
  6
________________
 62
     7
 10
291.143501524315
 20
-5.923480680583917
 30
0.0
 70
    32
  0
VERTEX
  5
7B
  8
0
  6
________________
 62
     7
 10
291.1409096259593
 20
-5.964950636242638
 30
0.0
 70
    32
  0
VERTEX
  5
7C
  8
0
  6
________________
 62
     7
 10
291.1366007512423
 20
-6.006277491631795
 30
0.0
 70
    32
  0
VERTEX
  5
7D
  8
0
  6
________________
 62
     7
 10
291.1305838640625
 20
-6.047354110151962
 30
0.0
 70
    32
  0
VERTEX
  5
7E
  8
0
  6
________________
 62
     7
 10
291.1226090544669
 20
-6.089324099003542
 30
0.0
 70
    32
  0
VERTEX
  5
7F
  8
0
  6
________________
 62
     7
 10
291.1128384482664
 20
-6.130952915885786
 30
0.0
 70
    32
  0
VERTEX
  5
80
  8
0
  6
________________
 62
     7
 10
291.1013013380901
 20
-6.172127167125334
 30
0.0
 70
    32
  0
VERTEX
  5
81
  8
0
  6
________________
 62
     7
 10
291.088027016567
 20
-6.212733459048867
 30
0.0
 70
    32
  0
VERTEX
  5
82
  8
0
  6
________________
 62
     7
 10
291.0734696481315
 20
-6.251612265039542
 30
0.0
 70
    32
  0
VERTEX
  5
83
  8
0
  6
________________
 62
     7
 10
291.0572962139185
 20
-6.289886013303665
 30
0.0
 70
    32
  0
VERTEX
  5
84
  8
0
  6
________________
 62
     7
 10
291.0395507063718
 20
-6.327456716403723
 30
0.0
 70
    32
  0
VERTEX
  5
85
  8
0
  6
________________
 62
     7
 10
291.020277117935
 20
-6.364226386902184
 30
0.0
 70
    32
  0
VERTEX
  5
86
  8
0
  6
________________
 62
     7
 10
290.9988619892564
 20
-6.401190345182356
 30
0.0
 70
    32
  0
VERTEX
  5
87
  8
0
  6
________________
 62
     7
 10
290.9758663579208
 20
-6.437238691355492
 30
0.0
 70
    32
  0
VERTEX
  5
88
  8
0
  6
________________
 62
     7
 10
290.9513553745201
 20
-6.472274322346469
 30
0.0
 70
    32
  0
VERTEX
  5
89
  8
0
  6
________________
 62
     7
 10
290.9253941896465
 20
-6.506200135080194
 30
0.0
 70
    32
  0
VERTEX
  5
8A
  8
0
  6
________________
 62
     7
 10
290.898781661538
 20
-6.538087620962258
 30
0.0
 70
    32
  0
VERTEX
  5
8B
  8
0
  6
________________
 62
     7
 10
290.8708442138208
 20
-6.56886941338388
 30
0.0
 70
    32
  0
VERTEX
  5
8C
  8
0
  6
________________
 62
     7
 10
290.8416557864722
 20
-6.598467669888676
 30
0.0
 70
    32
  0
VERTEX
  5
8D
  8
0
  6
________________
 62
     7
 10
290.8112903194698
 20
-6.626804548020275
 30
0.0
 70
    32
  0
VERTEX
  5
8E
  8
0
  6
________________
 62
     7
 10
290.7788402212478
 20
-6.654616057931877
 30
0.0
 70
    32
  0
VERTEX
  5
8F
  8
0
  6
________________
 62
     7
 10
290.7452016019047
 20
-6.681040889188257
 30
0.0
 70
    32
  0
VERTEX
  5
90
  8
0
  6
________________
 62
     7
 10
290.7104680043066
 20
-6.706009011524613
 30
0.0
 70
    32
  0
VERTEX
  5
91
  8
0
  6
________________
 62
     7
 10
290.6747329713195
 20
-6.729450394676102
 30
0.0
 70
    32
  0
VERTEX
  5
92
  8
0
  6
________________
 62
     7
 10
290.633442974716
 20
-6.753929077912515
 30
0.0
 70
    32
  0
VERTEX
  5
93
  8
0
  6
________________
 62
     7
 10
290.5910278816934
 20
-6.776401952254978
 30
0.0
 70
    32
  0
SEQEND
  5
94
  8
0
  6
________________
 62
     7
  0
POLYLINE
  5
95
  8
0
  6
________________
 62
     7
 10
0.0
 20
0.0
 30
0.0
 66
     1
 70
     8
  0
VERTEX
  5
96
  8
0
  6
________________
 62
     7
 10
179.3723090538535
 20
-9.11804273875491
 30
0.0
 70
    32
  0
VERTEX
  5
97
  8
0
  6
________________
 62
     7
 10
179.373171090177
 20
-9.076823515749732
 30
0.0
 70
    32
  0
VERTEX
  5
98
  8
0
  6
________________
 62
     7
 10
179.375751015608
 20
-9.035640183068828
 30
0.0
 70
    32
  0
VERTEX
  5
99
  8
0
  6
________________
 62
     7
 10
179.3800395548365
 20
-8.994599550030193
 30
0.0
 70
    32
  0
VERTEX
  5
9A
  8
0
  6
________________
 62
     7
 10
179.3860274325529
 20
-8.953808425951767
 30
0.0
 70
    32
  0
VERTEX
  5
9B
  8
0
  6
________________
 62
     7
 10
179.3939637005406
 20
-8.912127387204913
 30
0.0
 70
    32
  0
VERTEX
  5
9C
  8
0
  6
________________
 62
     7
 10
179.4036855884599
 20
-8.870786317305965
 30
0.0
 70
    32
  0
VERTEX
  5
9D
  8
0
  6
________________
 62
     7
 10
179.4151629370745
 20
-8.829897723529129
 30
0.0
 70
    32
  0
VERTEX
  5
9E
  8
0
  6
________________
 62
     7
 10
179.4283655871481
 20
-8.78957411314863
 30
0.0
 70
    32
  0
VERTEX
  5
9F
  8
0
  6
________________
 62
     7
 10
179.4428389205584
 20
-8.750971502744488
 30
0.0
 70
    32
  0
VERTEX
  5
A0
  8
0
  6
________________
 62
     7
 10
179.4589145081799
 20
-8.712969626065652
 30
0.0
 70
    32
  0
VERTEX
  5
A1
  8
0
  6
________________
 62
     7
 10
179.4765475245835
 20
-8.675664749228998
 30
0.0
 70
    32
  0
VERTEX
  5
A2
  8
0
  6
________________
 62
     7
 10
179.4956931443402
 20
-8.639153138351361
 30
0.0
 70
    32
  0
VERTEX
  5
A3
  8
0
  6
________________
 62
     7
 10
179.5169543718288
 20
-8.602453212510706
 30
0.0
 70
    32
  0
VERTEX
  5
A4
  8
0
  6
________________
 62
     7
 10
179.539776509851
 20
-8.56665757351234
 30
0.0
 70
    32
  0
VERTEX
  5
A5
  8
0
  6
________________
 62
     7
 10
179.5640941203216
 20
-8.531860364580451
 30
0.0
 70
    32
  0
VERTEX
  5
A6
  8
0
  6
________________
 62
     7
 10
179.5898417651549
 20
-8.498155728939228
 30
0.0
 70
    32
  0
VERTEX
  5
A7
  8
0
  6
________________
 62
     7
 10
179.6163445090051
 20
-8.466328662988131
 30
0.0
 70
    32
  0
VERTEX
  5
A8
  8
0
  6
________________
 62
     7
 10
179.6441625941422
 20
-8.435596915139287
 30
0.0
 70
    32
  0
VERTEX
  5
A9
  8
0
  6
________________
 62
     7
 10
179.6732219271417
 20
-8.406035877600837
 30
0.0
 70
    32
  0
VERTEX
  5
AA
  8
0
  6
________________
 62
     7
 10
179.7034484145792
 20
-8.377720942580922
 30
0.0
 70
    32
  0
VERTEX
  5
AB
  8
0
  6
________________
 62
     7
 10
179.7357284288357
 20
-8.349926996484694
 30
0.0
 70
    32
  0
VERTEX
  5
AC
  8
0
  6
________________
 62
     7
 10
179.7691838277839
 20
-8.323498168550463
 30
0.0
 70
    32
  0
VERTEX
  5
AD
  8
0
  6
________________
 62
     7
 10
179.8037224684246
 20
-8.298501287401477
 30
0.0
 70
    32
  0
VERTEX
  5
AE
  8
0
  6
________________
 62
     7
 10
179.8392522077586
 20
-8.275003181660995
 30
0.0
 70
    32
  0
VERTEX
  5
AF
  8
0
  6
________________
 62
     7
 10
179.8843803099855
 20
-8.248122775580049
 30
0.0
 70
    32
  0
VERTEX
  5
B0
  8
0
  6
________________
 62
     7
 10
179.9308400196335
 20
-8.22361554775499
 30
0.0
 70
    32
  0
SEQEND
  5
B1
  8
0
  6
________________
 62
     7
  0
POLYLINE
  5
B2
  8
0
  6
________________
 62
     7
 10
0.0
 20
0.0
 30
0.0
 66
     1
 70
     8
  0
VERTEX
  5
B3
  8
0
  6
________________
 62
     7
 10
179.9308400196333
 20
-6.776401952255033
 30
0.0
 70
    32
  0
VERTEX
  5
B4
  8
0
  6
________________
 62
     7
 10
179.8937300423602
 20
-6.757073106248478
 30
0.0
 70
    32
  0
VERTEX
  5
B5
  8
0
  6
________________
 62
     7
 10
179.8574184522073
 20
-6.736211196155736
 30
0.0
 70
    32
  0
VERTEX
  5
B6
  8
0
  6
________________
 62
     7
 10
179.8219981086007
 20
-6.71386981318016
 30
0.0
 70
    32
  0
VERTEX
  5
B7
  8
0
  6
________________
 62
     7
 10
179.7875618709662
 20
-6.690102548525068
 30
0.0
 70
    32
  0
VERTEX
  5
B8
  8
0
  6
________________
 62
     7
 10
179.753195640274
 20
-6.664177077130288
 30
0.0
 70
    32
  0
VERTEX
  5
B9
  8
0
  6
________________
 62
     7
 10
179.7199365703676
 20
-6.636783773959341
 30
0.0
 70
    32
  0
VERTEX
  5
BA
  8
0
  6
________________
 62
     7
 10
179.6878756276174
 20
-6.607997693883441
 30
0.0
 70
    32
  0
VERTEX
  5
BB
  8
0
  6
________________
 62
     7
 10
179.6571037783938
 20
-6.577893891773774
 30
0.0
 70
    32
  0
VERTEX
  5
BC
  8
0
  6
________________
 62
     7
 10
179.6284595647871
 20
-6.547388839617259
 30
0.0
 70
    32
  0
VERTEX
  5
BD
  8
0
  6
________________
 62
     7
 10
179.6010883464049
 20
-6.51568829684615
 30
0.0
 70
    32
  0
VERTEX
  5
BE
  8
0
  6
________________
 62
     7
 10
179.5750615840577
 20
-6.482875165781193
 30
0.0
 70
    32
  0
VERTEX
  5
BF
  8
0
  6
________________
 62
     7
 10
179.5504507385558
 20
-6.449032348743167
 30
0.0
 70
    32
  0
VERTEX
  5
C0
  8
0
  6
________________
 62
     7
 10
179.5266234296273
 20
-6.413143582530152
 30
0.0
 70
    32
  0
VERTEX
  5
C1
  8
0
  6
________________
 62
     7
 10
179.5043456473473
 20
-6.376225912755995
 30
0.0
 70
    32
  0
VERTEX
  5
C2
  8
0
  6
________________
 62
     7
 10
179.4836792483869
 20
-6.338382821685314
 30
0.0
 70
    32
  0
VERTEX
  5
C3
  8
0
  6
________________
 62
     7
 10
179.4646860894171
 20
-6.299717791582733
 30
0.0
 70
    32
  0
VERTEX
  5
C4
  8
0
  6
________________
 62
     7
 10
179.4479810541634
 20
-6.261690165737521
 30
0.0
 70
    32
  0
VERTEX
  5
C5
  8
0
  6
________________
 62
     7
 10
179.4328657340771
 20
-6.222964104132602
 30
0.0
 70
    32
  0
VERTEX
  5
C6
  8
0
  6
________________
 62
     7
 10
179.4193789149007
 20
-6.183641369020096
 30
0.0
 70
    32
  0
VERTEX
  5
C7
  8
0
  6
________________
 62
     7
 10
179.4075593823771
 20
-6.143823722652098
 30
0.0
 70
    32
  0
VERTEX
  5
C8
  8
0
  6
________________
 62
     7
 10
179.397150948662
 20
-6.102349900504102
 30
0.0
 70
    32
  0
VERTEX
  5
C9
  8
0
  6
________________
 62
     7
 10
179.3885327393712
 20
-6.060426714297656
 30
0.0
 70
    32
  0
VERTEX
  5
CA
  8
0
  6
________________
 62
     7
 10
179.3817271030371
 20
-6.018171481590395
 30
0.0
 70
    32
  0
VERTEX
  5
CB
  8
0
  6
________________
 62
     7
 10
179.3767563881921
 20
-5.975701519939966
 30
0.0
 70
    32
  0
VERTEX
  5
CC
  8
0
  6
________________
 62
     7
 10
179.3734240528563
 20
-5.928943585882459
 30
0.0
 70
    32
  0
VERTEX
  5
CD
  8
0
  6
________________
 62
     7
 10
179.3723090538534
 20
-5.88197476125512
 30
0.0
 70
    32
  0
SEQEND
  5
CE
  8
0
  6
________________
 62
     7
  0
POLYLINE
  5
CF
  8
0
  6
________________
 62
     7
 10
0.0
 20
0.0
 30
0.0
 66
     1
 70
     8
  0
VERTEX
  5
D0
  8
0
  6
________________
 62
     7
 10
290.5910278816934
 20
-8.223615547755045
 30
0.0
 70
    32
  0
VERTEX
  5
D1
  8
0
  6
________________
 62
     7
 10
290.6278250900697
 20
-8.242964006145096
 30
0.0
 70
    32
  0
VERTEX
  5
D2
  8
0
  6
________________
 62
     7
 10
290.6638184683725
 20
-8.263841312607344
 30
0.0
 70
    32
  0
VERTEX
  5
D3
  8
0
  6
________________
 62
     7
 10
290.6989160567794
 20
-8.286191777062108
 30
0.0
 70
    32
  0
VERTEX
  5
D4
  8
0
  6
________________
 62
     7
 10
290.733025895468
 20
-8.309959709429735
 30
0.0
 70
    32
  0
VERTEX
  5
D5
  8
0
  6
________________
 62
     7
 10
290.7670596986978
 20
-8.33588006269572
 30
0.0
 70
    32
  0
VERTEX
  5
D6
  8
0
  6
________________
 62
     7
 10
290.7999848142968
 20
-8.363256238408056
 30
0.0
 70
    32
  0
VERTEX
  5
D7
  8
0
  6
________________
 62
     7
 10
290.8317125500371
 20
-8.392011541510398
 30
0.0
 70
    32
  0
VERTEX
  5
D8
  8
0
  6
________________
 62
     7
 10
290.8621542136909
 20
-8.422069276946422
 30
0.0
 70
    32
  0
VERTEX
  5
D9
  8
0
  6
________________
 62
     7
 10
290.8904750453019
 20
-8.452505374578811
 30
0.0
 70
    32
  0
VERTEX
  5
DA
  8
0
  6
________________
 62
     7
 10
290.9175301270946
 20
-8.4841193256633
 30
0.0
 70
    32
  0
VERTEX
  5
DB
  8
0
  6
________________
 62
     7
 10
290.9432509687834
 20
-8.516827984003452
 30
0.0
 70
    32
  0
VERTEX
  5
DC
  8
0
  6
________________
 62
     7
 10
290.9675690800831
 20
-8.550548203402862
 30
0.0
 70
    32
  0
VERTEX
  5
DD
  8
0
  6
________________
 62
     7
 10
290.9911026715338
 20
-8.586277456823165
 30
0.0
 70
    32
  0
VERTEX
  5
DE
  8
0
  6
________________
 62
     7
 10
291.013106379109
 20
-8.62301446165259
 30
0.0
 70
    32
  0
VERTEX
  5
DF
  8
0
  6
________________
 62
     7
 10
291.0335218195349
 20
-8.660657244905043
 30
0.0
 70
    32
  0
VERTEX
  5
E0
  8
0
  6
________________
 62
     7
 10
291.0522906095376
 20
-8.699103833594457
 30
0.0
 70
    32
  0
VERTEX
  5
E1
  8
0
  6
________________
 62
     7
 10
291.0689188379872
 20
-8.737175605473837
 30
0.0
 70
    32
  0
VERTEX
  5
E2
  8
0
  6
________________
 62
     7
 10
291.0839634808591
 20
-8.77593907908284
 30
0.0
 70
    32
  0
VERTEX
  5
E3
  8
0
  6
________________
 62
     7
 10
291.0973875441031
 20
-8.815293136514274
 30
0.0
 70
    32
  0
VERTEX
  5
E4
  8
0
  6
________________
 62
     7
 10
291.1091540336693
 20
-8.855136659860992
 30
0.0
 70
    32
  0
VERTEX
  5
E5
  8
0
  6
________________
 62
     7
 10
291.1195157529182
 20
-8.896614866508827
 30
0.0
 70
    32
  0
VERTEX
  5
E6
  8
0
  6
________________
 62
     7
 10
291.1281014436231
 20
-8.938536802670573
 30
0.0
 70
    32
  0
VERTEX
  5
E7
  8
0
  6
________________
 62
     7
 10
291.1348899326817
 20
-8.980786994296858
 30
0.0
 70
    32
  0
VERTEX
  5
E8
  8
0
  6
________________
 62
     7
 10
291.139860046992
 20
-9.023249967338344
 30
0.0
 70
    32
  0
VERTEX
  5
E9
  8
0
  6
________________
 62
     7
 10
291.1432393468613
 20
-9.070592831384936
 30
0.0
 70
    32
  0
VERTEX
  5
EA
  8
0
  6
________________
 62
     7
 10
291.144367482411
 20
-9.118042738754946
 30
0.0
 70
    32
  0
SEQEND
  5
EB
  8
0
  6
________________
 62
     7
  0
LINE
  5
EC
  8
0
  6
________________
 62
     7
 10
178.8
 20
-37.500008750005
 30
0.0
 11
178.8
 21
11.49999124999505
 31
0.0
  0
LINE
  5
ED
  8
0
  6
________________
 62
     7
 10
291.1977757566971
 20
-37.500008750005
 30
0.0
 11
291.1977757566971
 21
11.49999124999505
 31
0.0
  0
LINE
  5
EE
  8
0
  6
________________
 62
     7
 10
179.3723090538535
 20
-5.881974761255113
 30
0.0
 11
179.3723090538534
 21
-9.118042738754896
 31
0.0
  0
LINE
  5
EF
  8
0
  6
________________
 62
     7
 10
291.144367482411
 20
-9.118042738754953
 30
0.0
 11
291.144367482411
 21
-5.88197476125505
 31
0.0
  0
LINE
  5
F0
  8
0
  6
________________
 62
     7
 10
237.0
 20
-5.881974761255064
 30
0.0
 11
237.0
 21
-9.118042738754939
 31
0.0
  0
LINE
  5
F1
  8
0
  6
________________
 62
     7
 10
233.0
 20
-9.11804273875491
 30
0.0
 11
233.0
 21
-5.881974761255099
 31
0.0
  0
LINE
  5
F2
  8
0
  6
________________
 62
     7
 10
290.7000000000001
 20
12.36601665377945
 30
0.0
 11
290.7000000000001
 21
12.36471712792523
 31
0.0
  0
POLYLINE
  5
F3
  8
0
  6
________________
 62
     7
 10
0.0
 20
0.0
 30
0.0
 66
     1
 70
     8
  0
VERTEX
  5
F4
  8
0
  6
________________
 62
     7
 10
290.7000000000001
 20
12.36471712792522
 30
0.0
 70
    32
  0
VERTEX
  5
F5
  8
0
  6
________________
 62
     7
 10
290.73537942167
 20
12.34317671200715
 30
0.0
 70
    32
  0
VERTEX
  5
F6
  8
0
  6
________________
 62
     7
 10
290.7698369114974
 20
12.32019031643503
 30
0.0
 70
    32
  0
VERTEX
  5
F7
  8
0
  6
________________
 62
     7
 10
290.8035415144506
 20
12.29562185103213
 30
0.0
 70
    32
  0
VERTEX
  5
F8
  8
0
  6
________________
 62
     7
 10
290.836192815575
 20
12.2696699286075
 30
0.0
 70
    32
  0
VERTEX
  5
F9
  8
0
  6
________________
 62
     7
 10
290.8684066045265
 20
12.24177009448483
 30
0.0
 70
    32
  0
VERTEX
  5
FA
  8
0
  6
________________
 62
     7
 10
290.8994030272987
 20
12.21252371510555
 30
0.0
 70
    32
  0
VERTEX
  5
FB
  8
0
  6
________________
 62
     7
 10
290.9293385179354
 20
12.18175327468839
 30
0.0
 70
    32
  0
VERTEX
  5
FC
  8
0
  6
________________
 62
     7
 10
290.9579264181936
 20
12.14972694879279
 30
0.0
 70
    32
  0
VERTEX
  5
FD
  8
0
  6
________________
 62
     7
 10
290.9841815533189
 20
12.11769007679383
 30
0.0
 70
    32
  0
VERTEX
  5
FE
  8
0
  6
________________
 62
     7
 10
291.0090880481139
 20
12.08459385653285
 30
0.0
 70
    32
  0
VERTEX
  5
FF
  8
0
  6
________________
 62
     7
 10
291.0329970400045
 20
12.04988885959087
 30
0.0
 70
    32
  0
VERTEX
  5
100
  8
0
  6
________________
 62
     7
 10
291.0554424801502
 20
12.01417553073043
 30
0.0
 70
    32
  0
VERTEX
  5
101
  8
0
  6
________________
 62
     7
 10
291.0763666409352
 20
11.97755014218054
 30
0.0
 70
    32
  0
VERTEX
  5
102
  8
0
  6
________________
 62
     7
 10
291.0957117947438
 20
11.94010896617018
 30
0.0
 70
    32
  0
VERTEX
  5
103
  8
0
  6
________________
 62
     7
 10
291.1137743661168
 20
11.90116402904676
 30
0.0
 70
    32
  0
VERTEX
  5
104
  8
0
  6
________________
 62
     7
 10
291.1301495305522
 20
11.86148004495393
 30
0.0
 70
    32
  0
VERTEX
  5
105
  8
0
  6
________________
 62
     7
 10
291.145546290735
 20
11.81893645720297
 30
0.0
 70
    32
  0
VERTEX
  5
106
  8
0
  6
________________
 62
     7
 10
291.1590038893062
 20
11.77574027548972
 30
0.0
 70
    32
  0
VERTEX
  5
107
  8
0
  6
________________
 62
     7
 10
291.1705799147078
 20
11.73161355472419
 30
0.0
 70
    32
  0
VERTEX
  5
108
  8
0
  6
________________
 62
     7
 10
291.1801323535041
 20
11.68700500447059
 30
0.0
 70
    32
  0
VERTEX
  5
109
  8
0
  6
________________
 62
     7
 10
291.1878085788347
 20
11.64082103591164
 30
0.0
 70
    32
  0
VERTEX
  5
10A
  8
0
  6
________________
 62
     7
 10
291.1933158744571
 20
11.59432853030878
 30
0.0
 70
    32
  0
VERTEX
  5
10B
  8
0
  6
________________
 62
     7
 10
291.1966595420427
 20
11.54721254259224
 30
0.0
 70
    32
  0
VERTEX
  5
10C
  8
0
  6
________________
 62
     7
 10
291.1977757566971
 20
11.49999124999502
 30
0.0
 70
    32
  0
SEQEND
  5
10D
  8
0
  6
________________
 62
     7
  0
LINE
  5
10E
  8
0
  6
________________
 62
     7
 10
289.160220071101
 20
-7.49106447809502
 30
0.0
 11
237.0
 21
-7.491064478095013
 31
0.0
  0
LINE
  5
10F
  8
0
  6
________________
 62
     7
 10
290.5910278816934
 20
-6.776401952254971
 30
0.0
 11
289.160220071101
 21
-7.49106447809502
 31
0.0
  0
LINE
  5
110
  8
0
  6
________________
 62
     7
 10
289.160220071101
 20
-7.508953021915003
 30
0.0
 11
290.5910278816934
 21
-8.223615547755045
 31
0.0
  0
LINE
  5
111
  8
0
  6
________________
 62
     7
 10
233.0
 20
-7.491064478095013
 30
0.0
 11
181.3755705097939
 21
-7.491064478095013
 31
0.0
  0
LINE
  5
112
  8
0
  6
________________
 62
     7
 10
181.3755705097939
 20
-7.49106447809502
 30
0.0
 11
179.9308400196333
 21
-6.776401952254922
 31
0.0
  0
LINE
  5
113
  8
0
  6
________________
 62
     7
 10
179.9308400196335
 20
-8.223615547754983
 30
0.0
 11
181.3755705097939
 21
-7.50895302191501
 31
0.0
  0
LINE
  5
114
  8
0
  6
________________
 62
     7
 10
181.3755705097939
 20
-7.491064478095013
 30
0.0
 11
181.3755705097939
 21
-7.508953021915017
 31
0.0
  0
LINE
  5
115
  8
0
  6
________________
 62
     7
 10
289.160220071101
 20
-7.50895302191501
 30
0.0
 11
289.160220071101
 21
-7.491064478095007
 31
0.0
  0
LINE
  5
116
  8
0
  6
________________
 62
     7
 10
160.1537576093496
 20
-47.50000875000501
 30
0.0
 11
160.1537576093495
 21
-39.50000875000502
 31
0.0
  0
ARC
  5
117
  8
0
  6
________________
 62
     7
 10
162.155936920305
 20
-39.50218820562345
 30
0.0
 40
2.002180497169298
 50
89.94155783788696
 51
179.9376311808999
  0
LINE
  5
118
  8
0
  6
________________
 62
     7
 10
291.2
 20
-37.500008750005
 30
0.0
 11
291.2
 21
11.49999124999505
 31
0.0
  0
LINE
  5
119
  8
0
  6
________________
 62
     7
 10
310.0000000000001
 20
-47.50000875000501
 30
0.0
 11
310.0000000000001
 21
-39.50000875000502
 31
0.0
  0
ARC
  5
11A
  8
0
  6
________________
 62
     7
 10
308.0000000000001
 20
-39.50000875000501
 30
0.0
 40
2.000000000000002
 50
359.9999999999998
 51
90.0000000000008
  0
ARC
  5
11B
  8
0
  6
________________
 62
     7
 10
161.9999999999999
 20
-39.50000875000501
 30
0.0
 40
2.0
 50
89.9999999999992
 51
180.0000000000001
  0
LINE
  5
11C
  8
0
  6
________________
 62
     7
 10
160.0
 20
-39.50000875000502
 30
0.0
 11
160.0
 21
-47.50000875000501
 31
0.0
  0
INSERT
  5
120
  8
0
  6
________________
 62
     7
  2
_1551
 10
0.0
 20
0.0
 30
0.0
  0
LINE
  5
121
  8
0
  6
________________
 62
     7
 10
405.500008750005
 20
152.3
 30
0.0
 11
405.500008750005
 21
152.8
 31
0.0
  0
LINE
  5
122
  8
0
  6
________________
 62
     7
 10
355.1339833462206
 20
147.5
 30
0.0
 11
355.1352828720748
 21
147.0
 31
0.0
  0
POLYLINE
  5
123
  8
0
  6
________________
 62
     7
 10
0.0
 20
0.0
 30
0.0
 66
     1
 70
     8
  0
VERTEX
  5
124
  8
0
  6
________________
 62
     7
 10
376.618042738755
 20
91.33559846308334
 30
0.0
 70
    32
  0
VERTEX
  5
125
  8
0
  6
________________
 62
     7
 10
376.5765256893567
 20
91.33646457398703
 30
0.0
 70
    32
  0
VERTEX
  5
126
  8
0
  6
________________
 62
     7
 10
376.5350446065298
 20
91.3390569388442
 30
0.0
 70
    32
  0
VERTEX
  5
127
  8
0
  6
________________
 62
     7
 10
376.4937066397455
 20
91.343366605874
 30
0.0
 70
    32
  0
VERTEX
  5
128
  8
0
  6
________________
 62
     7
 10
376.4526189384754
 20
91.34938462329558
 30
0.0
 70
    32
  0
VERTEX
  5
129
  8
0
  6
________________
 62
     7
 10
376.4106377311221
 20
91.35736093512179
 30
0.0
 70
    32
  0
VERTEX
  5
12A
  8
0
  6
________________
 62
     7
 10
376.3689977430417
 20
91.36713344031747
 30
0.0
 70
    32
  0
VERTEX
  5
12B
  8
0
  6
________________
 62
     7
 10
376.3278124026083
 20
91.37867288006125
 30
0.0
 70
    32
  0
VERTEX
  5
12C
  8
0
  6
________________
 62
     7
 10
376.2871951381957
 20
91.39194999553182
 30
0.0
 70
    32
  0
VERTEX
  5
12D
  8
0
  6
________________
 62
     7
 10
376.248305614254
 20
91.40651063906896
 30
0.0
 70
    32
  0
VERTEX
  5
12E
  8
0
  6
________________
 62
     7
 10
376.2100213173772
 20
91.42268788710145
 30
0.0
 70
    32
  0
VERTEX
  5
12F
  8
0
  6
________________
 62
     7
 10
376.17244030249
 20
91.44043777991104
 30
0.0
 70
    32
  0
VERTEX
  5
130
  8
0
  6
________________
 62
     7
 10
376.135660624517
 20
91.45971635777956
 30
0.0
 70
    32
  0
VERTEX
  5
131
  8
0
  6
________________
 62
     7
 10
376.0986864238739
 20
91.48113749157436
 30
0.0
 70
    32
  0
VERTEX
  5
132
  8
0
  6
________________
 62
     7
 10
376.0626282797924
 20
91.50413989441081
 30
0.0
 70
    32
  0
VERTEX
  5
133
  8
0
  6
________________
 62
     7
 10
376.0275834120758
 20
91.52865842719443
 30
0.0
 70
    32
  0
VERTEX
  5
134
  8
0
  6
________________
 62
     7
 10
375.9936490405277
 20
91.55462795083072
 30
0.0
 70
    32
  0
VERTEX
  5
135
  8
0
  6
________________
 62
     7
 10
375.9617593219803
 20
91.58124471627312
 30
0.0
 70
    32
  0
VERTEX
  5
136
  8
0
  6
________________
 62
     7
 10
375.9309757010435
 20
91.60918677076513
 30
0.0
 70
    32
  0
VERTEX
  5
137
  8
0
  6
________________
 62
     7
 10
375.9013761161322
 20
91.63838018037394
 30
0.0
 70
    32
  0
VERTEX
  5
138
  8
0
  6
________________
 62
     7
 10
375.8730385056618
 20
91.66875101116669
 30
0.0
 70
    32
  0
VERTEX
  5
139
  8
0
  6
________________
 62
     7
 10
375.8452264347801
 20
91.70120768882326
 30
0.0
 70
    32
  0
VERTEX
  5
13A
  8
0
  6
________________
 62
     7
 10
375.8188018864637
 20
91.73485339697979
 30
0.0
 70
    32
  0
VERTEX
  5
13B
  8
0
  6
________________
 62
     7
 10
375.7938350170973
 20
91.76959453738961
 30
0.0
 70
    32
  0
VERTEX
  5
13C
  8
0
  6
________________
 62
     7
 10
375.7703959830651
 20
91.80533751180614
 30
0.0
 70
    32
  0
VERTEX
  5
13D
  8
0
  6
________________
 62
     7
 10
375.7460096742591
 20
91.84647939932019
 30
0.0
 70
    32
  0
VERTEX
  5
13E
  8
0
  6
________________
 62
     7
 10
375.7236155477551
 20
91.8887387218811
 30
0.0
 70
    32
  0
SEQEND
  5
13F
  8
0
  6
________________
 62
     7
  0
POLYLINE
  5
140
  8
0
  6
________________
 62
     7
 10
0.0
 20
0.0
 30
0.0
 66
     1
 70
     8
  0
VERTEX
  5
141
  8
0
  6
________________
 62
     7
 10
374.276401952255
 20
91.88873872188108
 30
0.0
 70
    32
  0
VERTEX
  5
142
  8
0
  6
________________
 62
     7
 10
374.2570526723697
 20
91.85195341128154
 30
0.0
 70
    32
  0
VERTEX
  5
143
  8
0
  6
________________
 62
     7
 10
374.2361746990607
 20
91.81597214572498
 30
0.0
 70
    32
  0
VERTEX
  5
144
  8
0
  6
________________
 62
     7
 10
374.2138238038988
 20
91.7808868505595
 30
0.0
 70
    32
  0
VERTEX
  5
145
  8
0
  6
________________
 62
     7
 10
374.1900557584549
 20
91.74678945113321
 30
0.0
 70
    32
  0
VERTEX
  5
146
  8
0
  6
________________
 62
     7
 10
374.1641355024165
 20
91.71276831920457
 30
0.0
 70
    32
  0
VERTEX
  5
147
  8
0
  6
________________
 62
     7
 10
374.1367598793694
 20
91.67985593972696
 30
0.0
 70
    32
  0
VERTEX
  5
148
  8
0
  6
________________
 62
     7
 10
374.1080056475527
 20
91.64814091783275
 30
0.0
 70
    32
  0
VERTEX
  5
149
  8
0
  6
________________
 62
     7
 10
374.077949565205
 20
91.61771185865429
 30
0.0
 70
    32
  0
VERTEX
  5
14A
  8
0
  6
________________
 62
     7
 10
374.0475160020176
 20
91.58940338033064
 30
0.0
 70
    32
  0
VERTEX
  5
14B
  8
0
  6
________________
 62
     7
 10
374.0159052567902
 20
91.56236038006408
 30
0.0
 70
    32
  0
VERTEX
  5
14C
  8
0
  6
________________
 62
     7
 10
373.9832004849783
 20
91.5366512351882
 30
0.0
 70
    32
  0
VERTEX
  5
14D
  8
0
  6
________________
 62
     7
 10
373.9494848420369
 20
91.51234432303649
 30
0.0
 70
    32
  0
VERTEX
  5
14E
  8
0
  6
________________
 62
     7
 10
373.9137615636143
 20
91.48882196958691
 30
0.0
 70
    32
  0
VERTEX
  5
14F
  8
0
  6
________________
 62
     7
 10
373.8770313374819
 20
91.46682875828112
 30
0.0
 70
    32
  0
VERTEX
  5
150
  8
0
  6
________________
 62
     7
 10
373.8393960795622
 20
91.44642294132476
 30
0.0
 70
    32
  0
VERTEX
  5
151
  8
0
  6
________________
 62
     7
 10
373.8009577057775
 20
91.4276627709234
 30
0.0
 70
    32
  0
VERTEX
  5
152
  8
0
  6
________________
 62
     7
 10
373.7628841392606
 20
91.41103756866814
 30
0.0
 70
    32
  0
VERTEX
  5
153
  8
0
  6
________________
 62
     7
 10
373.7241191316099
 20
91.39599572158757
 30
0.0
 70
    32
  0
VERTEX
  5
154
  8
0
  6
________________
 62
     7
 10
373.6847637763645
 20
91.38257415504351
 30
0.0
 70
    32
  0
VERTEX
  5
155
  8
0
  6
________________
 62
     7
 10
373.6449191670634
 20
91.37080979439786
 30
0.0
 70
    32
  0
VERTEX
  5
156
  8
0
  6
________________
 62
     7
 10
373.6034406950256
 20
91.36044996764163
 30
0.0
 70
    32
  0
VERTEX
  5
157
  8
0
  6
________________
 62
     7
 10
373.5615187127303
 20
91.35186563109026
 30
0.0
 70
    32
  0
VERTEX
  5
158
  8
0
  6
________________
 62
     7
 10
373.5192686243484
 20
91.34507791277494
 30
0.0
 70
    32
  0
VERTEX
  5
159
  8
0
  6
________________
 62
     7
 10
373.4768058340507
 20
91.34010794072677
 30
0.0
 70
    32
  0
VERTEX
  5
15A
  8
0
  6
________________
 62
     7
 10
373.4294974554613
 20
91.33672902072395
 30
0.0
 70
    32
  0
VERTEX
  5
15B
  8
0
  6
________________
 62
     7
 10
373.3819747612551
 20
91.3355984630833
 30
0.0
 70
    32
  0
SEQEND
  5
15C
  8
0
  6
________________
 62
     7
  0
LINE
  5
15D
  8
0
  6
________________
 62
     7
 10
373.381974761255
 20
91.33559846308334
 30
0.0
 11
376.618042738755
 21
91.33559846308331
 31
0.0
  0
LINE
  5
15E
  8
0
  6
________________
 62
     7
 10
376.618042738755
 20
145.0
 30
0.0
 11
373.381974761255
 21
145.0
 31
0.0
  0
LINE
  5
15F
  8
0
  6
________________
 62
     7
 10
375.7236155477551
 20
91.88873872188111
 30
0.0
 11
375.008953021915
 21
93.31901220769329
 31
0.0
  0
LINE
  5
160
  8
0
  6
________________
 62
     7
 10
374.991064478095
 20
145.0
 30
0.0
 11
374.991064478095
 21
93.31901220769329
 31
0.0
  0
LINE
  5
161
  8
0
  6
________________
 62
     7
 10
374.991064478095
 20
93.31901220769329
 30
0.0
 11
374.276401952255
 21
91.88873872188108
 31
0.0
  0
LINE
  5
162
  8
0
  6
________________
 62
     7
 10
374.991064478095
 20
93.31901220769329
 30
0.0
 11
375.008953021915
 21
93.31901220769329
 31
0.0
  0
LINE
  5
163
  8
0
  6
________________
 62
     7
 10
407.500008750005
 20
152.8
 30
0.0
 11
407.500008750005
 21
153.0
 31
0.0
  0
LINE
  5
164
  8
0
  6
________________
 62
     7
 10
376.6180427387549
 20
203.6644015369166
 30
0.0
 11
373.3819747612551
 21
203.6644015369167
 31
0.0
  0
LINE
  5
165
  8
0
  6
________________
 62
     7
 10
373.3819747612551
 20
155.5
 30
0.0
 11
376.6180427387549
 21
155.5
 31
0.0
  0
POLYLINE
  5
166
  8
0
  6
________________
 62
     7
 10
0.0
 20
0.0
 30
0.0
 66
     1
 70
     8
  0
VERTEX
  5
167
  8
0
  6
________________
 62
     7
 10
373.3819747612551
 20
203.6644015369166
 30
0.0
 70
    32
  0
VERTEX
  5
168
  8
0
  6
________________
 62
     7
 10
373.4234918106534
 20
203.6635354260129
 30
0.0
 70
    32
  0
VERTEX
  5
169
  8
0
  6
________________
 62
     7
 10
373.4649728934803
 20
203.6609430611558
 30
0.0
 70
    32
  0
VERTEX
  5
16A
  8
0
  6
________________
 62
     7
 10
373.5063108602645
 20
203.6566333941259
 30
0.0
 70
    32
  0
VERTEX
  5
16B
  8
0
  6
________________
 62
     7
 10
373.5473985615347
 20
203.6506153767044
 30
0.0
 70
    32
  0
VERTEX
  5
16C
  8
0
  6
________________
 62
     7
 10
373.5893797688881
 20
203.6426390648781
 30
0.0
 70
    32
  0
VERTEX
  5
16D
  8
0
  6
________________
 62
     7
 10
373.6310197569683
 20
203.6328665596824
 30
0.0
 70
    32
  0
VERTEX
  5
16E
  8
0
  6
________________
 62
     7
 10
373.6722050974017
 20
203.6213271199387
 30
0.0
 70
    32
  0
VERTEX
  5
16F
  8
0
  6
________________
 62
     7
 10
373.7128223618143
 20
203.6080500044681
 30
0.0
 70
    32
  0
VERTEX
  5
170
  8
0
  6
________________
 62
     7
 10
373.7517118857561
 20
203.593489360931
 30
0.0
 70
    32
  0
VERTEX
  5
171
  8
0
  6
________________
 62
     7
 10
373.7899961826329
 20
203.5773121128985
 30
0.0
 70
    32
  0
VERTEX
  5
172
  8
0
  6
________________
 62
     7
 10
373.8275771975201
 20
203.5595622200888
 30
0.0
 70
    32
  0
VERTEX
  5
173
  8
0
  6
________________
 62
     7
 10
373.8643568754931
 20
203.5402836422204
 30
0.0
 70
    32
  0
VERTEX
  5
174
  8
0
  6
________________
 62
     7
 10
373.9013310761362
 20
203.5188625084255
 30
0.0
 70
    32
  0
VERTEX
  5
175
  8
0
  6
________________
 62
     7
 10
373.9373892202177
 20
203.4958601055891
 30
0.0
 70
    32
  0
VERTEX
  5
176
  8
0
  6
________________
 62
     7
 10
373.9724340879342
 20
203.4713415728055
 30
0.0
 70
    32
  0
VERTEX
  5
177
  8
0
  6
________________
 62
     7
 10
374.0063684594824
 20
203.4453720491692
 30
0.0
 70
    32
  0
VERTEX
  5
178
  8
0
  6
________________
 62
     7
 10
374.0382581780298
 20
203.4187552837268
 30
0.0
 70
    32
  0
VERTEX
  5
179
  8
0
  6
________________
 62
     7
 10
374.0690417989667
 20
203.3908132292348
 30
0.0
 70
    32
  0
VERTEX
  5
17A
  8
0
  6
________________
 62
     7
 10
374.0986413838779
 20
203.361619819626
 30
0.0
 70
    32
  0
VERTEX
  5
17B
  8
0
  6
________________
 62
     7
 10
374.1269789943482
 20
203.3312489888332
 30
0.0
 70
    32
  0
VERTEX
  5
17C
  8
0
  6
________________
 62
     7
 10
374.15479106523
 20
203.2987923111766
 30
0.0
 70
    32
  0
VERTEX
  5
17D
  8
0
  6
________________
 62
     7
 10
374.1812156135464
 20
203.2651466030201
 30
0.0
 70
    32
  0
VERTEX
  5
17E
  8
0
  6
________________
 62
     7
 10
374.2061824829129
 20
203.2304054626103
 30
0.0
 70
    32
  0
VERTEX
  5
17F
  8
0
  6
________________
 62
     7
 10
374.229621516945
 20
203.1946624881938
 30
0.0
 70
    32
  0
VERTEX
  5
180
  8
0
  6
________________
 62
     7
 10
374.2540078257509
 20
203.1535206006797
 30
0.0
 70
    32
  0
VERTEX
  5
181
  8
0
  6
________________
 62
     7
 10
374.276401952255
 20
203.1112612781188
 30
0.0
 70
    32
  0
SEQEND
  5
182
  8
0
  6
________________
 62
     7
  0
POLYLINE
  5
183
  8
0
  6
________________
 62
     7
 10
0.0
 20
0.0
 30
0.0
 66
     1
 70
     8
  0
VERTEX
  5
184
  8
0
  6
________________
 62
     7
 10
375.723615547755
 20
203.1112612781188
 30
0.0
 70
    32
  0
VERTEX
  5
185
  8
0
  6
________________
 62
     7
 10
375.7429648276403
 20
203.1480465887184
 30
0.0
 70
    32
  0
VERTEX
  5
186
  8
0
  6
________________
 62
     7
 10
375.7638428009493
 20
203.1840278542749
 30
0.0
 70
    32
  0
VERTEX
  5
187
  8
0
  6
________________
 62
     7
 10
375.7861936961112
 20
203.2191131494404
 30
0.0
 70
    32
  0
VERTEX
  5
188
  8
0
  6
________________
 62
     7
 10
375.8099617415551
 20
203.2532105488667
 30
0.0
 70
    32
  0
VERTEX
  5
189
  8
0
  6
________________
 62
     7
 10
375.8358819975936
 20
203.2872316807953
 30
0.0
 70
    32
  0
VERTEX
  5
18A
  8
0
  6
________________
 62
     7
 10
375.8632576206406
 20
203.3201440602729
 30
0.0
 70
    32
  0
VERTEX
  5
18B
  8
0
  6
________________
 62
     7
 10
375.8920118524574
 20
203.3518590821672
 30
0.0
 70
    32
  0
VERTEX
  5
18C
  8
0
  6
________________
 62
     7
 10
375.9220679348051
 20
203.3822881413456
 30
0.0
 70
    32
  0
VERTEX
  5
18D
  8
0
  6
________________
 62
     7
 10
375.9525014979924
 20
203.4105966196693
 30
0.0
 70
    32
  0
VERTEX
  5
18E
  8
0
  6
________________
 62
     7
 10
375.9841122432197
 20
203.4376396199358
 30
0.0
 70
    32
  0
VERTEX
  5
18F
  8
0
  6
________________
 62
     7
 10
376.0168170150317
 20
203.4633487648117
 30
0.0
 70
    32
  0
VERTEX
  5
190
  8
0
  6
________________
 62
     7
 10
376.0505326579732
 20
203.4876556769634
 30
0.0
 70
    32
  0
VERTEX
  5
191
  8
0
  6
________________
 62
     7
 10
376.0862559363957
 20
203.511178030413
 30
0.0
 70
    32
  0
VERTEX
  5
192
  8
0
  6
________________
 62
     7
 10
376.1229861625281
 20
203.5331712417188
 30
0.0
 70
    32
  0
VERTEX
  5
193
  8
0
  6
________________
 62
     7
 10
376.1606214204478
 20
203.5535770586752
 30
0.0
 70
    32
  0
VERTEX
  5
194
  8
0
  6
________________
 62
     7
 10
376.1990597942325
 20
203.5723372290765
 30
0.0
 70
    32
  0
VERTEX
  5
195
  8
0
  6
________________
 62
     7
 10
376.2371333607495
 20
203.5889624313318
 30
0.0
 70
    32
  0
VERTEX
  5
196
  8
0
  6
________________
 62
     7
 10
376.2758983684001
 20
203.6040042784124
 30
0.0
 70
    32
  0
VERTEX
  5
197
  8
0
  6
________________
 62
     7
 10
376.3152537236455
 20
203.6174258449564
 30
0.0
 70
    32
  0
VERTEX
  5
198
  8
0
  6
________________
 62
     7
 10
376.3550983329467
 20
203.629190205602
 30
0.0
 70
    32
  0
VERTEX
  5
199
  8
0
  6
________________
 62
     7
 10
376.3965768049844
 20
203.6395500323583
 30
0.0
 70
    32
  0
VERTEX
  5
19A
  8
0
  6
________________
 62
     7
 10
376.4384987872797
 20
203.6481343689097
 30
0.0
 70
    32
  0
VERTEX
  5
19B
  8
0
  6
________________
 62
     7
 10
376.4807488756616
 20
203.654922087225
 30
0.0
 70
    32
  0
VERTEX
  5
19C
  8
0
  6
________________
 62
     7
 10
376.5232116659594
 20
203.6598920592731
 30
0.0
 70
    32
  0
VERTEX
  5
19D
  8
0
  6
________________
 62
     7
 10
376.5705736536591
 20
203.6632728918772
 30
0.0
 70
    32
  0
VERTEX
  5
19E
  8
0
  6
________________
 62
     7
 10
376.6180427387549
 20
203.6644015369166
 30
0.0
 70
    32
  0
SEQEND
  5
19F
  8
0
  6
________________
 62
     7
  0
LINE
  5
1A0
  8
0
  6
________________
 62
     7
 10
374.991064478095
 20
201.6809877923067
 30
0.0
 11
374.991064478095
 21
155.5
 31
0.0
  0
LINE
  5
1A1
  8
0
  6
________________
 62
     7
 10
374.276401952255
 20
203.1112612781188
 30
0.0
 11
374.991064478095
 21
201.6809877923067
 31
0.0
  0
LINE
  5
1A2
  8
0
  6
________________
 62
     7
 10
375.008953021915
 20
201.6809877923067
 30
0.0
 11
375.723615547755
 21
203.1112612781188
 31
0.0
  0
LINE
  5
1A3
  8
0
  6
________________
 62
     7
 10
375.008953021915
 20
201.6809877923067
 30
0.0
 11
374.991064478095
 21
201.6809877923067
 31
0.0
  0
LINE
  5
1A4
  8
0
  6
________________
 62
     7
 10
407.000008750005
 20
72.49999999999999
 30
0.0
 11
415.000008750005
 21
72.49999999999999
 31
0.0
  0
ARC
  5
1A5
  8
0
  6
________________
 62
     7
 10
407.000008750005
 20
74.49999999999993
 30
0.0
 40
2.000000000000002
 50
180.0
 51
270.0000000000001
  0
ARC
  5
1A6
  8
0
  6
________________
 62
     7
 10
356.000008750005
 20
92.29999999999994
 30
0.0
 40
1.000000000000001
 50
180.0
 51
269.9999999999996
  0
LINE
  5
1A7
  8
0
  6
________________
 62
     7
 10
356.000008750005
 20
91.29999999999995
 30
0.0
 11
405.000008750005
 21
91.29999999999995
 31
0.0
  0
ARC
  5
1A8
  8
0
  6
________________
 62
     7
 10
407.000008750005
 20
220.5000000000001
 30
0.0
 40
2.000000000000002
 50
89.9999999999999
 51
180.0
  0
LINE
  5
1A9
  8
0
  6
________________
 62
     7
 10
415.000008750005
 20
222.5
 30
0.0
 11
407.000008750005
 21
222.5
 31
0.0
  0
LINE
  5
1AA
  8
0
  6
________________
 62
     7
 10
405.000008750005
 20
203.7
 30
0.0
 11
356.000008750005
 21
203.7
 31
0.0
  0
ARC
  5
1AB
  8
0
  6
________________
 62
     7
 10
356.000008750005
 20
202.7
 30
0.0
 40
1.000000000000001
 50
90.00000000000043
 51
180.0
  0
INSERT
  5
1AF
  8
0
  6
________________
 62
     7
  2
_1603
 10
0.0
 20
0.0
 30
0.0
  0
TEXT
  5
1B0
  8
0
 62
     7
 10
354.9722727272727
 20
-3.022727272727261
 30
0.0
 40
5.0
  1
GUJ-120
  7
EXPLODED0
  0
LINE
  5
1B1
  8
0
  6
________________
 62
     7
 10
405.000008750005
 20
147.5
 30
0.0
 11
355.000008750005
 21
147.5
 31
0.0
  0
LINE
  5
1B2
  8
0
  6
________________
 62
     7
 10
355.000008750005
 20
92.29999999999993
 30
0.0
 11
355.000008750005
 21
202.7000000000001
 31
0.0
  0
LINE
  5
1B3
  8
0
  6
________________
 62
     7
 10
405.000008750005
 20
74.49999999999987
 30
0.0
 11
405.000008750005
 21
220.5000000000003
 31
0.0
  0
LINE
  5
1B4
  8
0
  6
________________
 62
     7
 10
415.000008750005
 20
72.49999999999987
 30
0.0
 11
415.000008750005
 21
222.5000000000002
 31
0.0
  0
LINE
  5
1B5
  8
0
  6
________________
 62
     7
 10
405.000008750005
 20
153.0
 30
0.0
 11
415.000008750005
 21
153.0
 31
0.0
  0
LINE
  5
1B6
  8
0
  6
________________
 62
     7
 10
415.000008750005
 20
152.8
 30
0.0
 11
405.000008750005
 21
152.8
 31
0.0
  0
LINE
  5
1B7
  8
0
  6
________________
 62
     7
 10
405.000008750005
 20
147.0
 30
0.0
 11
355.1352828720748
 21
147.0
 31
0.0
  0
LINE
  5
1B8
  8
0
  6
________________
 62
     7
 10
405.000008750005
 20
152.3
 30
0.0
 11
415.000008750005
 21
152.3
 31
0.0
  0
LINE
  5
1B9
  8
0
  6
________________
 62
     7
 10
179.7999999999999
 20
12.49999124999501
 30
0.0
 11
290.2000000000001
 21
12.49999124999501
 31
0.0
  0
LINE
  5
1BA
  8
0
  6
________________
 62
     7
 10
159.9999999999999
 20
-47.50000875000501
 30
0.0
 11
310.0000000000001
 21
-47.50000875000501
 31
0.0
  0
LINE
  5
1BB
  8
0
  6
________________
 62
     7
 10
161.9999999999999
 20
-37.50000875000501
 30
0.0
 11
308.0000000000002
 21
-37.50000875000501
 31
0.0
  0
LINE
  5
1BC
  8
0
  6
________________
 62
     7
 10
179.050469170868
 20
142.2
 30
0.0
 11
160.6875010442774
 21
142.2
 31
0.0
  0
LINE
  5
1BD
  8
0
  6
________________
 62
     7
 10
181.5
 20
142.2
 30
0.0
 11
180.3000000000001
 21
142.2
 31
0.0
  0
LINE
  5
1BE
  8
0
  6
________________
 62
     7
 10
290.9302243871772
 20
153.0
 30
0.0
 11
309.7980614722066
 21
153.0
 31
0.0
  0
LINE
  5
1BF
  8
0
  6
________________
 62
     7
 10
179.0053573991226
 20
142.7
 30
0.0
 11
160.1537576093496
 21
142.7
 31
0.0
  0
LINE
  5
1C0
  8
0
  6
________________
 62
     7
 10
178.8
 20
147.5
 30
0.0
 11
180.4999999999999
 21
147.5
 31
0.0
  0
LINE
  5
1C1
  8
0
  6
________________
 62
     7
 10
291.1999999999999
 20
147.5
 30
0.0
 11
289.5000000000001
 21
147.5
 31
0.0
  0
LINE
  5
1C2
  8
0
  6
________________
 62
     7
 10
290.9495308291321
 20
152.8
 30
0.0
 11
309.3124989557227
 21
152.8
 31
0.0
  0
LINE
  5
1C3
  8
0
  6
________________
 62
     7
 10
288.5
 20
152.8
 30
0.0
 11
289.6999999999999
 21
152.8
 31
0.0
  0
LINE
  5
1C4
  8
0
  6
________________
 62
     7
 10
179.0697756128228
 20
142.0
 30
0.0
 11
160.2019385277934
 21
142.0
 31
0.0
  0
LINE
  5
1C5
  8
0
  6
________________
 62
     7
 10
290.9946426008774
 20
152.3
 30
0.0
 11
309.8462423906505
 21
152.3
 31
0.0
  0
ARC
  5
1C6
  8
0
  6
________________
 62
     7
 10
179.7999999999999
 20
11.49999124999502
 30
0.0
 40
1.000000000000001
 50
89.99999999999363
 51
179.9999999999984
  0
ARC
  5
1C7
  8
0
  6
________________
 62
     7
 10
290.1999999999999
 20
11.49999124999502
 30
0.0
 40
1.000000000000021
 50
0.0000000000015916
 51
89.99999999999994
  0
ENDSEC
  0
EOF
