  0
SECTION
  2
HEADER
  9
$ACADVER
  1
AC1006
  9
$DWGCODEPAGE
  3
ansi_932
  9
$INSBASE
 10
0.0
 20
0.0
 30
0.0
  9
$EXTMIN
 10
14.59999999999999
 20
120.0636363636364
  9
$EXTMAX
 10
495.4
 20
289.5
  9
$LIMMIN
 10
0.0
 20
0.0
  9
$LIMMAX
 10
12.0
 20
9.0
  9
$ORTHOMODE
 70
     0
  9
$REGENMODE
 70
     1
  9
$FILLMODE
 70
     1
  9
$QTEXTMODE
 70
     0
  9
$MIRRTEXT
 70
     1
  9
$DRAGMODE
 70
     2
  9
$LTSCALE
 40
1.0
  9
$OSMODE
 70
    37
  9
$ATTMODE
 70
     1
  9
$TEXTSIZE
 40
0.2
  9
$TRACEWID
 40
0.05
  9
$TEXTSTYLE
  7
STANDARD
  9
$CLAYER
  8
0
  9
$CELTYPE
  6
BYLAYER
  9
$CECOLOR
 62
   256
  9
$DIMSCALE
 40
1.0
  9
$DIMASZ
 40
3.0
  9
$DIMEXO
 40
0.0625
  9
$DIMDLI
 40
0.38
  9
$DIMRND
 40
0.0
  9
$DIMDLE
 40
0.0
  9
$DIMEXE
 40
0.18
  9
$DIMTP
 40
0.0
  9
$DIMTM
 40
0.0
  9
$DIMTXT
 40
3.0
  9
$DIMCEN
 40
0.09
  9
$DIMTSZ
 40
0.0
  9
$DIMTOL
 70
     0
  9
$DIMLIM
 70
     0
  9
$DIMTIH
 70
     1
  9
$DIMTOH
 70
     1
  9
$DIMSE1
 70
     0
  9
$DIMSE2
 70
     0
  9
$DIMTAD
 70
     1
  9
$DIMZIN
 70
     0
  9
$DIMBLK
  1

  9
$DIMASO
 70
     1
  9
$DIMSHO
 70
     1
  9
$DIMPOST
  1

  9
$DIMAPOST
  1

  9
$DIMALT
 70
     0
  9
$DIMALTD
 70
     2
  9
$DIMALTF
 40
25.4
  9
$DIMLFAC
 40
1.0
  9
$DIMTOFL
 70
     0
  9
$DIMTVP
 40
0.0
  9
$DIMTIX
 70
     0
  9
$DIMSOXD
 70
     0
  9
$DIMSAH
 70
     0
  9
$DIMBLK1
  1

  9
$DIMBLK2
  1

  9
$LUNITS
 70
     2
  9
$LUPREC
 70
     4
  9
$SKETCHINC
 40
0.1
  9
$FILLETRAD
 40
0.5
  9
$AUNITS
 70
     0
  9
$AUPREC
 70
     0
  9
$MENU
  1
.
  9
$ELEVATION
 40
0.0
  9
$THICKNESS
 40
0.0
  9
$LIMCHECK
 70
     0
  9
$CHAMFERA
 40
0.5
  9
$CHAMFERB
 40
0.5
  9
$SKPOLY
 70
     0
  9
$TDCREATE
 40
2459311.707486088
  9
$TDUPDATE
 40
2459311.7074861
  9
$TDINDWG
 40
0.0000000116
  9
$TDUSRTIMER
 40
0.0000000116
  9
$USRTIMER
 70
     1
  9
$ANGBASE
 50
0.0
  9
$ANGDIR
 70
     0
  9
$PDMODE
 70
     0
  9
$PDSIZE
 40
0.0
  9
$PLINEWID
 40
0.0
  9
$COORDS
 70
     1
  9
$SPLFRAME
 70
     0
  9
$SPLINETYPE
 70
     6
  9
$SPLINESEGS
 70
     8
  9
$ATTDIA
 70
     0
  9
$ATTREQ
 70
     1
  9
$HANDLING
 70
     1
  9
$HANDSEED
  5
E3
  9
$SURFTAB1
 70
     6
  9
$SURFTAB2
 70
     6
  9
$SURFTYPE
 70
     6
  9
$SURFU
 70
     6
  9
$SURFV
 70
     6
  9
$UCSNAME
  2

  9
$UCSORG
 10
0.0
 20
0.0
 30
0.0
  9
$UCSXDIR
 10
1.0
 20
0.0
 30
0.0
  9
$UCSYDIR
 10
0.0
 20
1.0
 30
0.0
  9
$USERI1
 70
     0
  9
$USERI2
 70
     0
  9
$USERI3
 70
     0
  9
$USERI4
 70
     0
  9
$USERI5
 70
     0
  9
$USERR1
 40
0.0
  9
$USERR2
 40
0.0
  9
$USERR3
 40
0.0
  9
$USERR4
 40
0.0
  9
$USERR5
 40
0.0
  9
$WORLDVIEW
 70
     1
  0
ENDSEC
  0
SECTION
  2
TABLES
  0
TABLE
  2
VPORT
 70
     1
  0
VPORT
  2
*ACTIVE
 70
     0
 10
0.0
 20
0.0
 11
1.0
 21
1.0
 12
255.0
 22
204.7818181818182
 13
0.0
 23
0.0
 14
0.5
 24
0.5
 15
0.5
 25
0.5
 16
0.0
 26
0.0
 36
1.0
 17
0.0
 27
0.0
 37
0.0
 40
169.4363636363636
 41
1.6
 42
50.0
 43
0.0
 44
0.0
 50
0.0
 51
0.0
 71
     0
 72
   100
 73
     1
 74
     3
 75
     0
 76
     0
 77
     0
 78
     0
  0
ENDTAB
  0
TABLE
  2
LTYPE
 70
     2
  0
LTYPE
  2
CONTINUOUS
 70
     0
  3
Solid line
 72
    65
 73
     0
 40
0.0
  0
LTYPE
  2
________________
 70
     0
  3

 72
    65
 73
     0
 40
0.0
  0
ENDTAB
  0
TABLE
  2
LAYER
 70
     1
  0
LAYER
  2
0
 70
     0
 62
     7
  6
CONTINUOUS
  0
ENDTAB
  0
TABLE
  2
STYLE
 70
     2
  0
STYLE
  2
STANDARD
 70
     0
 40
0.0
 41
1.0
 50
0.0
 71
     0
 42
0.2
  3
txt
  4

  0
STYLE
  2
EXPLODED0
 70
     0
 40
0.2
 41
1.0
 50
0.0
 71
     0
 42
0.2
  3
ＭＳ ゴシック
  4

  0
ENDTAB
  0
TABLE
  2
VIEW
 70
     0
  0
ENDTAB
  0
TABLE
  2
UCS
 70
     0
  0
ENDTAB
  0
ENDSEC
  0
SECTION
  2
BLOCKS
  0
BLOCK
  8
0
  2
_1423
 70
     0
 10
0.0
 20
0.0
 30
0.0
  0
ENDBLK
  8
0
  0
BLOCK
  8
0
  2
_1834
 70
     0
 10
0.0
 20
0.0
 30
0.0
  0
ENDBLK
  8
0
  0
BLOCK
  8
0
  2
_1871
 70
     0
 10
0.0
 20
0.0
 30
0.0
  0
ENDBLK
  8
0
  0
ENDSEC
  0
SECTION
  2
ENTITIES
  0
INSERT
  5
3C
  8
0
  6
________________
 62
     7
  2
_1423
 10
0.0
 20
0.0
 30
0.0
  0
LINE
  5
3E
  8
0
  6
________________
 62
     7
 10
277.9
 20
185.5
 30
0.0
 11
228.0000000000001
 21
235.4
 31
0.0
  0
LINE
  5
3F
  8
0
  6
________________
 62
     7
 10
271.5707106781186
 20
191.9292893218814
 30
0.0
 11
271.4999999999999
 21
191.9
 31
0.0
  0
LINE
  5
40
  8
0
  6
________________
 62
     7
 10
234.4000000000001
 20
228.9999999999999
 30
0.0
 11
234.4292893218815
 21
229.0707106781186
 31
0.0
  0
LINE
  5
41
  8
0
  6
________________
 62
     7
 10
272.5
 20
191.0000000000001
 30
0.0
 11
272.5
 21
190.9
 31
0.0
  0
LINE
  5
42
  8
0
  6
________________
 62
     7
 10
233.4
 20
229.9999999999999
 30
0.0
 11
233.5000000000001
 21
229.9999999999999
 31
0.0
  0
LINE
  5
43
  8
0
  6
________________
 62
     7
 10
183.5067057378242
 20
236.0
 30
0.0
 11
183.5000033545107
 21
235.5
 31
0.0
  0
LINE
  5
44
  8
0
  6
________________
 62
     7
 10
278.0
 20
141.0000033545107
 30
0.0
 11
278.5
 21
141.0067057378242
 31
0.0
  0
LINE
  5
45
  8
0
  6
________________
 62
     7
 10
228.0
 20
235.5
 30
0.0
 11
278.0
 21
185.5000000000001
 31
0.0
  0
LINE
  5
46
  8
0
  6
________________
 62
     7
 10
188.0
 20
235.5
 30
0.0
 11
188.0
 21
235.4
 31
0.0
  0
LINE
  5
47
  8
0
  6
________________
 62
     7
 10
228.5
 20
235.0
 30
0.0
 11
228.4
 21
235.0
 31
0.0
  0
LINE
  5
48
  8
0
  6
________________
 62
     7
 10
218.0
 20
235.4
 30
0.0
 11
218.0
 21
235.5
 31
0.0
  0
LINE
  5
49
  8
0
  6
________________
 62
     7
 10
278.0
 20
175.5
 30
0.0
 11
277.9
 21
175.5
 31
0.0
  0
LINE
  5
4A
  8
0
  6
________________
 62
     7
 10
277.5
 20
185.9
 30
0.0
 11
277.5
 21
186.0
 31
0.0
  0
LINE
  5
4B
  8
0
  6
________________
 62
     7
 10
277.9
 20
145.5000000000001
 30
0.0
 11
278.0
 21
145.5000000000001
 31
0.0
  0
LINE
  5
4C
  8
0
  6
________________
 62
     7
 10
273.2790628660393
 20
190.2209371339608
 30
0.0
 11
273.2790628660393
 21
190.1209371339608
 31
0.0
  0
LINE
  5
4D
  8
0
  6
________________
 62
     7
 10
273.0
 20
190.4
 30
0.0
 11
273.0
 21
190.5000000000001
 31
0.0
  0
LINE
  5
4E
  8
0
  6
________________
 62
     7
 10
232.6209371339608
 20
230.7790628660393
 30
0.0
 11
232.7209371339608
 21
230.7790628660393
 31
0.0
  0
LINE
  5
4F
  8
0
  6
________________
 62
     7
 10
233.0
 20
230.5
 30
0.0
 11
232.9
 21
230.5
 31
0.0
  0
LINE
  5
50
  8
0
  6
________________
 62
     7
 10
184.0
 20
171.5
 30
0.0
 11
212.0
 21
171.5
 31
0.0
  0
LINE
  5
51
  8
0
  6
________________
 62
     7
 10
183.0
 20
172.5
 30
0.0
 11
184.0
 21
171.5
 31
0.0
  0
LINE
  5
52
  8
0
  6
________________
 62
     7
 10
214.0000000000001
 20
169.5
 30
0.0
 11
214.0000000000001
 21
141.5
 31
0.0
  0
LINE
  5
53
  8
0
  6
________________
 62
     7
 10
214.0000000000001
 20
141.5
 30
0.0
 11
215.0000000000001
 21
140.5
 31
0.0
  0
ARC
  5
54
  8
0
  6
________________
 62
     7
 10
-212.0
 20
169.5
 30
0.0
 40
2.000000000000002
 50
89.9999999999999
 51
180.0
210
0.0
220
0.0
230
-1.0
  0
LINE
  5
55
  8
0
  6
________________
 62
     7
 10
271.4999999999999
 20
289.5
 30
0.0
 11
184.0
 21
289.5
 31
0.0
  0
LINE
  5
56
  8
0
  6
________________
 62
     7
 10
184.0
 20
289.5
 30
0.0
 11
183.0
 21
288.5
 31
0.0
  0
ARC
  5
57
  8
0
  6
________________
 62
     7
 10
271.5
 20
229.0
 30
0.0
 40
60.5
 50
359.9999999999999
 51
90.0
  0
LINE
  5
58
  8
0
  6
________________
 62
     7
 10
332.0
 20
141.5
 30
0.0
 11
332.0
 21
228.9999999999999
 31
0.0
  0
LINE
  5
59
  8
0
  6
________________
 62
     7
 10
330.9999999999999
 20
140.4999999999999
 30
0.0
 11
332.0
 21
141.5
 31
0.0
  0
ARC
  5
5A
  8
0
  6
________________
 62
     7
 10
115.4
 20
225.5114379161375
 30
0.0
 40
19.00000000000001
 50
350.1858570115781
 51
0.0
  0
ARC
  5
5B
  8
0
  6
________________
 62
     7
 10
75.00000000000001
 20
232.5
 30
0.0
 40
59.99999999999998
 50
189.8141429884219
 51
350.1858570115781
  0
ARC
  5
5C
  8
0
  6
________________
 62
     7
 10
34.60000000000002
 20
225.5114379161375
 30
0.0
 40
19.0
 50
180.0
 51
189.8141429884219
  0
LINE
  5
5D
  8
0
  6
________________
 62
     7
 10
15.6
 20
235.3998534403912
 30
0.0
 11
15.6
 21
225.5114379161375
 31
0.0
  0
LINE
  5
5E
  8
0
  6
________________
 62
     7
 10
16.60000000000002
 20
228.5
 30
0.0
 11
18.53540932584384
 21
228.5
 31
0.0
  0
LINE
  5
5F
  8
0
  6
________________
 62
     7
 10
133.4
 20
228.5
 30
0.0
 11
131.4645906741562
 21
228.5
 31
0.0
  0
LINE
  5
60
  8
0
  6
________________
 62
     7
 10
134.4
 20
225.5114379161375
 30
0.0
 11
134.4
 21
235.3998534403912
 31
0.0
  0
LINE
  5
61
  8
0
  6
________________
 62
     7
 10
16.60000000000002
 20
228.5
 30
0.0
 11
16.10000000000002
 21
229.0
 31
0.0
  0
LINE
  5
62
  8
0
  6
________________
 62
     7
 10
133.9
 20
235.2559128488195
 30
0.0
 11
133.9
 21
229.0
 31
0.0
  0
LINE
  5
63
  8
0
  6
________________
 62
     7
 10
133.9
 20
229.0
 30
0.0
 11
133.4
 21
228.5
 31
0.0
  0
LINE
  5
64
  8
0
  6
________________
 62
     7
 10
16.10000000000002
 20
235.2559128488195
 30
0.0
 11
16.10000000000002
 21
229.0
 31
0.0
  0
LINE
  5
65
  8
0
  6
________________
 62
     7
 10
14.60000000000002
 20
235.4
 30
0.0
 11
15.58287990251229
 21
235.4
 31
0.0
  0
ARC
  5
66
  8
0
  6
________________
 62
     7
 10
-34.60000000000002
 20
225.5114379161375
 30
0.0
 40
20.0
 50
350.1858570115781
 51
0.0
210
0.0
220
0.0
230
-1.0
  0
ARC
  5
67
  8
0
  6
________________
 62
     7
 10
-115.4
 20
225.5114379161375
 30
0.0
 40
20.00000000000002
 50
180.0
 51
189.8141429884219
210
0.0
220
0.0
230
-1.0
  0
LINE
  5
68
  8
0
  6
________________
 62
     7
 10
134.4171200974877
 20
235.4
 30
0.0
 11
135.4
 21
235.4
 31
0.0
  0
ARC
  5
69
  8
0
  6
________________
 62
     7
 10
-75.00000000000001
 20
232.5
 30
0.0
 40
60.99999999999996
 50
189.8141429884219
 51
350.1858570115781
210
0.0
220
0.0
230
-1.0
  0
LINE
  5
6A
  8
0
  6
________________
 62
     7
 10
133.9
 20
233.0
 30
0.0
 11
133.0
 21
233.0
 31
0.0
  0
LINE
  5
6B
  8
0
  6
________________
 62
     7
 10
133.0
 20
234.1294117647059
 30
0.0
 11
133.6010956163861
 21
234.9780173407804
 31
0.0
  0
LINE
  5
6C
  8
0
  6
________________
 62
     7
 10
16.10000000000003
 20
233.0
 30
0.0
 11
17.00000000000001
 21
233.0
 31
0.0
  0
LINE
  5
6D
  8
0
  6
________________
 62
     7
 10
17.00000000000001
 20
234.1294117647059
 30
0.0
 11
16.39890438361395
 21
234.9780173407804
 31
0.0
  0
LINE
  5
6E
  8
0
  6
________________
 62
     7
 10
16.60000000000002
 20
230.5
 30
0.0
 11
16.09999999999998
 21
231.0
 31
0.0
  0
LINE
  5
6F
  8
0
  6
________________
 62
     7
 10
133.9
 20
231.0
 30
0.0
 11
133.4
 21
230.5
 31
0.0
  0
LINE
  5
70
  8
0
  6
________________
 62
     7
 10
17.00000000000001
 20
235.0
 30
0.0
 11
17.00000000000001
 21
230.7790628660393
 31
0.0
  0
LINE
  5
71
  8
0
  6
________________
 62
     7
 10
16.50000000000001
 20
235.5
 30
0.0
 11
17.00000000000001
 21
235.0
 31
0.0
  0
ARC
  5
72
  8
0
  6
________________
 62
     7
 10
34.60000000000002
 20
235.4885620838625
 30
0.0
 40
19.0
 50
170.1858570115781
 51
179.9655081915426
  0
ARC
  5
73
  8
0
  6
________________
 62
     7
 10
75.00000000000001
 20
228.5
 30
0.0
 40
59.99999999999999
 50
9.814142988421853
 51
170.1858570115781
  0
ARC
  5
74
  8
0
  6
________________
 62
     7
 10
115.4
 20
235.4885620838625
 30
0.0
 40
19.00000000000001
 50
0.0344918084573679
 51
9.814142988421846
  0
LINE
  5
75
  8
0
  6
________________
 62
     7
 10
133.0
 20
235.0
 30
0.0
 11
133.5
 21
235.5
 31
0.0
  0
LINE
  5
76
  8
0
  6
________________
 62
     7
 10
133.0
 20
235.0
 30
0.0
 11
133.0
 21
230.7790628660393
 31
0.0
  0
LINE
  5
77
  8
0
  6
________________
 62
     7
 10
135.3934597120643
 20
236.0
 30
0.0
 11
134.9
 21
236.0
 31
0.0
  0
LINE
  5
78
  8
0
  6
________________
 62
     7
 10
15.1
 20
236.0
 30
0.0
 11
14.60654028793576
 21
236.0
 31
0.0
  0
ARC
  5
79
  8
0
  6
________________
 62
     7
 10
-75.00000000000001
 20
228.5
 30
0.0
 40
60.99999999999999
 50
9.814142988421853
 51
170.1858570115781
210
0.0
220
0.0
230
-1.0
  0
LINE
  5
7A
  8
0
  6
________________
 62
     7
 10
133.2433287094044
 20
231.1488765584116
 30
0.0
 11
133.9
 21
232.9
 31
0.0
  0
LINE
  5
7B
  8
0
  6
________________
 62
     7
 10
133.9
 20
232.9
 30
0.0
 11
133.0
 21
232.9
 31
0.0
  0
LINE
  5
7C
  8
0
  6
________________
 62
     7
 10
16.75667129059564
 20
231.1488765584116
 30
0.0
 11
16.09999999999999
 21
232.9
 31
0.0
  0
LINE
  5
7D
  8
0
  6
________________
 62
     7
 10
16.09999999999999
 20
232.9
 30
0.0
 11
17.00000000000001
 21
232.9
 31
0.0
  0
INSERT
  5
81
  8
0
  6
________________
 62
     7
  2
_1834
 10
0.0
 20
0.0
 30
0.0
  0
LINE
  5
82
  8
0
  6
________________
 62
     7
 10
374.6065402879358
 20
185.5000000000001
 30
0.0
 11
374.6
 21
185.5000000000001
 31
0.0
  0
LINE
  5
83
  8
0
  6
________________
 62
     7
 10
495.3934597120643
 20
185.5000000000001
 30
0.0
 11
495.4
 21
185.5000000000001
 31
0.0
  0
ARC
  5
84
  8
0
  6
________________
 62
     7
 10
-435.0
 20
228.5
 30
0.0
 40
60.99999999999995
 50
9.814142988421853
 51
170.1858570115781
210
0.0
220
0.0
230
-1.0
  0
ARC
  5
85
  8
0
  6
________________
 62
     7
 10
-394.6
 20
186.2185446973241
 30
0.0
 40
20.00000000000001
 50
358.5346785655667
 51
0.0
210
0.0
220
0.0
230
-1.0
  0
LINE
  5
86
  8
0
  6
________________
 62
     7
 10
374.6065402879358
 20
141.5
 30
0.0
 11
374.6065402879358
 21
185.7071067811866
 31
0.0
  0
ARC
  5
87
  8
0
  6
________________
 62
     7
 10
-394.6
 20
235.4885620838625
 30
0.0
 40
19.99999999999996
 50
0.0
 51
9.81414298842185
210
0.0
220
0.0
230
-1.0
  0
LINE
  5
88
  8
0
  6
________________
 62
     7
 10
375.1
 20
141.0000033545107
 30
0.0
 11
375.1
 21
141.0067057378243
 31
0.0
  0
LINE
  5
89
  8
0
  6
________________
 62
     7
 10
375.1
 20
141.0067057378243
 30
0.0
 11
374.6065402879358
 21
141.5
 31
0.0
  0
ARC
  5
8A
  8
0
  6
________________
 62
     7
 10
-475.4
 20
235.4885620838625
 30
0.0
 40
19.99999999999996
 50
170.1858570115781
 51
180.0
210
0.0
220
0.0
230
-1.0
  0
ARC
  5
8B
  8
0
  6
________________
 62
     7
 10
-475.4
 20
186.2185446973242
 30
0.0
 40
20.00000000000001
 50
180.0
 51
181.4653214344335
210
0.0
220
0.0
230
-1.0
  0
LINE
  5
8C
  8
0
  6
________________
 62
     7
 10
495.3934597120643
 20
185.7071067811866
 30
0.0
 11
495.3934597120643
 21
141.5
 31
0.0
  0
LINE
  5
8D
  8
0
  6
________________
 62
     7
 10
494.9
 20
141.0067057378242
 30
0.0
 11
494.9
 21
141.0000033545107
 31
0.0
  0
LINE
  5
8E
  8
0
  6
________________
 62
     7
 10
495.3934597120643
 20
141.5
 30
0.0
 11
494.9
 21
141.0067057378242
 31
0.0
  0
INSERT
  5
92
  8
0
  6
________________
 62
     7
  2
_1871
 10
0.0
 20
0.0
 30
0.0
  0
LINE
  5
93
  8
0
  6
________________
 62
     7
 10
494.3999965572121
 20
140.5
 30
0.0
 11
375.6000034427879
 21
140.5
 31
0.0
  0
LINE
  5
94
  8
0
  6
________________
 62
     7
 10
495.399998366883
 20
141.5000016331174
 30
0.0
 11
494.3999965572122
 21
140.5
 31
0.0
  0
LINE
  5
95
  8
0
  6
________________
 62
     7
 10
374.6065402879358
 20
141.5
 30
0.0
 11
495.3934597120643
 21
141.5
 31
0.0
  0
LINE
  5
96
  8
0
  6
________________
 62
     7
 10
495.4
 20
235.4885620838625
 30
0.0
 11
495.4
 21
141.5000000000001
 31
0.0
  0
LINE
  5
97
  8
0
  6
________________
 62
     7
 10
375.6000034427879
 20
140.5
 30
0.0
 11
374.600001633117
 21
141.5000016331173
 31
0.0
  0
LINE
  5
98
  8
0
  6
________________
 62
     7
 10
374.6
 20
141.5000000000001
 30
0.0
 11
374.6
 21
235.4885620838625
 31
0.0
  0
LINE
  5
99
  8
0
  6
________________
 62
     7
 10
14.60000163311703
 20
141.5000016331173
 30
0.0
 11
15.60000344278781
 21
140.5
 31
0.0
  0
LINE
  5
9A
  8
0
  6
________________
 62
     7
 10
134.3999965572121
 20
140.5
 30
0.0
 11
135.399998366883
 21
141.5000016331173
 31
0.0
  0
LINE
  5
9B
  8
0
  6
________________
 62
     7
 10
135.4
 20
141.5
 30
0.0
 11
135.4
 21
235.4885620838625
 31
0.0
  0
LINE
  5
9C
  8
0
  6
________________
 62
     7
 10
14.6
 20
141.5
 30
0.0
 11
14.6
 21
235.4885620838625
 31
0.0
  0
LINE
  5
9D
  8
0
  6
________________
 62
     7
 10
134.9
 20
236.0
 30
0.0
 11
134.9
 21
235.4
 31
0.0
  0
LINE
  5
9E
  8
0
  6
________________
 62
     7
 10
15.1
 20
236.0
 30
0.0
 11
15.1
 21
235.4
 31
0.0
  0
LINE
  5
9F
  8
0
  6
________________
 62
     7
 10
16.50000000000001
 20
235.5
 30
0.0
 11
15.1
 21
235.5
 31
0.0
  0
LINE
  5
A0
  8
0
  6
________________
 62
     7
 10
134.9
 20
235.5
 30
0.0
 11
133.5
 21
235.5
 31
0.0
  0
LINE
  5
A1
  8
0
  6
________________
 62
     7
 10
131.5
 20
230.5
 30
0.0
 11
133.4
 21
230.5
 31
0.0
  0
LINE
  5
A2
  8
0
  6
________________
 62
     7
 10
16.60000000000002
 20
230.5
 30
0.0
 11
18.5
 21
230.5
 31
0.0
  0
LINE
  5
A3
  8
0
  6
________________
 62
     7
 10
134.3999999999999
 20
140.5
 30
0.0
 11
15.60000000000003
 21
140.5
 31
0.0
  0
LINE
  5
A4
  8
0
  6
________________
 62
     7
 10
14.6
 20
141.5
 30
0.0
 11
135.3999999999999
 21
141.5
 31
0.0
  0
LINE
  5
A5
  8
0
  6
________________
 62
     7
 10
330.9999999999999
 20
140.5000000000147
 30
0.0
 11
215.0000000000001
 21
140.4999999999826
 31
0.0
  0
LINE
  5
A6
  8
0
  6
________________
 62
     7
 10
183.0
 20
172.5
 30
0.0
 11
183.0
 21
288.5
 31
0.0
  0
LINE
  5
A7
  8
0
  6
________________
 62
     7
 10
183.0
 20
235.5
 30
0.0
 11
228.0000000000001
 21
235.5
 31
0.0
  0
LINE
  5
A8
  8
0
  6
________________
 62
     7
 10
278.0
 20
185.5000000000001
 30
0.0
 11
278.0
 21
140.5
 31
0.0
  0
LINE
  5
A9
  8
0
  6
________________
 62
     7
 10
278.5
 20
141.5
 30
0.0
 11
332.0
 21
141.5
 31
0.0
  0
LINE
  5
AA
  8
0
  6
________________
 62
     7
 10
184.0
 20
289.5
 30
0.0
 11
184.0
 21
236.0
 31
0.0
  0
LINE
  5
AB
  8
0
  6
________________
 62
     7
 10
278.5
 20
141.0067057378243
 30
0.0
 11
278.5
 21
185.7071067811866
 31
0.0
  0
LINE
  5
AC
  8
0
  6
________________
 62
     7
 10
228.2071067811866
 20
236.0
 30
0.0
 11
183.5067057378242
 21
236.0
 31
0.0
  0
LINE
  5
AD
  8
0
  6
________________
 62
     7
 10
278.5
 20
185.7071067811866
 30
0.0
 11
228.2071067811862
 21
235.9999999999997
 31
0.0
  0
LINE
  5
AE
  8
0
  6
________________
 62
     7
 10
214.0000000000001
 20
141.5
 30
0.0
 11
277.9
 21
141.5
 31
0.0
  0
LINE
  5
AF
  8
0
  6
________________
 62
     7
 10
184.0
 20
235.4
 30
0.0
 11
184.0
 21
171.5
 31
0.0
  0
LINE
  5
B0
  8
0
  6
________________
 62
     7
 10
277.9
 20
185.5
 30
0.0
 11
277.9
 21
140.5
 31
0.0
  0
LINE
  5
B1
  8
0
  6
________________
 62
     7
 10
228.0
 20
235.4
 30
0.0
 11
183.0
 21
235.4
 31
0.0
  0
ARC
  5
B2
  8
0
  6
________________
 62
     7
 10
115.4
 20
235.4885620838625
 30
0.0
 40
20.0
 50
359.9999999999999
 51
9.81414298842185
  0
ARC
  5
B3
  8
0
  6
________________
 62
     7
 10
34.59999999999999
 20
235.4885620838625
 30
0.0
 40
20.0
 50
170.1858570115781
 51
180.0
  0
ARC
  5
B4
  8
0
  6
________________
 62
     7
 10
17.69300046816469
 20
231.5
 30
0.0
 40
0.9999999999999959
 50
200.5560452195837
 51
270.0
  0
ARC
  5
B5
  8
0
  6
________________
 62
     7
 10
132.3069995318353
 20
231.5
 30
0.0
 40
0.9999999999999883
 50
270.0
 51
339.4439547804166
  0
CIRCLE
  5
B6
  8
0
  6
________________
 62
     7
 10
-75.00000000000001
 20
230.5
 30
0.0
 40
56.49999999999999
210
0.0
220
0.0
230
-1.0
  0
ARC
  5
B7
  8
0
  6
________________
 62
     7
 10
15.58287990251229
 20
234.4
 30
0.0
 40
1.000000000000015
 50
35.31121343963316
 51
90.00000000000001
  0
CIRCLE
  5
B8
  8
0
  6
________________
 62
     7
 10
134.4171200974877
 20
234.4
 30
0.0
 40
1.000000000000013
  0
TEXT
  5
B9
  8
0
 62
     7
 10
242.4611818181818
 20
119.2681818181818
 30
0.0
 40
7.0
  1
GUM-120
  7
EXPLODED0
  0
ENDSEC
  0
EOF
