  0
SECTION
  2
HEADER
  9
$ACADVER
  1
AC1006
  9
$DWGCODEPAGE
  3
ansi_932
  9
$INSBASE
 10
0.0
 20
0.0
 30
0.0
  9
$EXTMIN
 10
-10.0000197832507
 20
139.7288789781265
  9
$EXTMAX
 10
400.2711210218735
 20
451.0000000000001
  9
$LIMMIN
 10
0.0
 20
0.0
  9
$LIMMAX
 10
12.0
 20
9.0
  9
$ORTHOMODE
 70
     0
  9
$REGENMODE
 70
     1
  9
$FILLMODE
 70
     1
  9
$QTEXTMODE
 70
     0
  9
$MIRRTEXT
 70
     1
  9
$DRAGMODE
 70
     2
  9
$LTSCALE
 40
1.0
  9
$OSMODE
 70
    37
  9
$ATTMODE
 70
     1
  9
$TEXTSIZE
 40
0.2
  9
$TRACEWID
 40
0.05
  9
$TEXTSTYLE
  7
STANDARD
  9
$CLAYER
  8
0
  9
$CELTYPE
  6
BYLAYER
  9
$CECOLOR
 62
   256
  9
$DIMSCALE
 40
1.0
  9
$DIMASZ
 40
3.0
  9
$DIMEXO
 40
0.0625
  9
$DIMDLI
 40
0.38
  9
$DIMRND
 40
0.0
  9
$DIMDLE
 40
0.0
  9
$DIMEXE
 40
0.18
  9
$DIMTP
 40
0.0
  9
$DIMTM
 40
0.0
  9
$DIMTXT
 40
3.0
  9
$DIMCEN
 40
0.09
  9
$DIMTSZ
 40
0.0
  9
$DIMTOL
 70
     0
  9
$DIMLIM
 70
     0
  9
$DIMTIH
 70
     1
  9
$DIMTOH
 70
     1
  9
$DIMSE1
 70
     0
  9
$DIMSE2
 70
     0
  9
$DIMTAD
 70
     1
  9
$DIMZIN
 70
     0
  9
$DIMBLK
  1

  9
$DIMASO
 70
     1
  9
$DIMSHO
 70
     1
  9
$DIMPOST
  1

  9
$DIMAPOST
  1

  9
$DIMALT
 70
     0
  9
$DIMALTD
 70
     2
  9
$DIMALTF
 40
25.4
  9
$DIMLFAC
 40
1.0
  9
$DIMTOFL
 70
     0
  9
$DIMTVP
 40
0.0
  9
$DIMTIX
 70
     0
  9
$DIMSOXD
 70
     0
  9
$DIMSAH
 70
     0
  9
$DIMBLK1
  1

  9
$DIMBLK2
  1

  9
$LUNITS
 70
     2
  9
$LUPREC
 70
     4
  9
$SKETCHINC
 40
0.1
  9
$FILLETRAD
 40
0.5
  9
$AUNITS
 70
     0
  9
$AUPREC
 70
     0
  9
$MENU
  1
.
  9
$ELEVATION
 40
0.0
  9
$THICKNESS
 40
0.0
  9
$LIMCHECK
 70
     0
  9
$CHAMFERA
 40
0.5
  9
$CHAMFERB
 40
0.5
  9
$SKPOLY
 70
     0
  9
$TDCREATE
 40
2459311.711658241
  9
$TDUPDATE
 40
2459311.711658252
  9
$TDINDWG
 40
0.0000000116
  9
$TDUSRTIMER
 40
0.0000000116
  9
$USRTIMER
 70
     1
  9
$ANGBASE
 50
0.0
  9
$ANGDIR
 70
     0
  9
$PDMODE
 70
     0
  9
$PDSIZE
 40
0.0
  9
$PLINEWID
 40
0.0
  9
$COORDS
 70
     1
  9
$SPLFRAME
 70
     0
  9
$SPLINETYPE
 70
     6
  9
$SPLINESEGS
 70
     8
  9
$ATTDIA
 70
     0
  9
$ATTREQ
 70
     1
  9
$HANDLING
 70
     1
  9
$HANDSEED
  5
14F
  9
$SURFTAB1
 70
     6
  9
$SURFTAB2
 70
     6
  9
$SURFTYPE
 70
     6
  9
$SURFU
 70
     6
  9
$SURFV
 70
     6
  9
$UCSNAME
  2

  9
$UCSORG
 10
0.0
 20
0.0
 30
0.0
  9
$UCSXDIR
 10
1.0
 20
0.0
 30
0.0
  9
$UCSYDIR
 10
0.0
 20
1.0
 30
0.0
  9
$USERI1
 70
     0
  9
$USERI2
 70
     0
  9
$USERI3
 70
     0
  9
$USERI4
 70
     0
  9
$USERI5
 70
     0
  9
$USERR1
 40
0.0
  9
$USERR2
 40
0.0
  9
$USERR3
 40
0.0
  9
$USERR4
 40
0.0
  9
$USERR5
 40
0.0
  9
$WORLDVIEW
 70
     1
  0
ENDSEC
  0
SECTION
  2
TABLES
  0
TABLE
  2
VPORT
 70
     1
  0
VPORT
  2
*ACTIVE
 70
     0
 10
0.0
 20
0.0
 11
1.0
 21
1.0
 12
195.1355506193114
 22
295.3644394890633
 13
0.0
 23
0.0
 14
0.5
 24
0.5
 15
0.5
 25
0.5
 16
0.0
 26
0.0
 36
1.0
 17
0.0
 27
0.0
 37
0.0
 40
311.2711210218736
 41
1.6
 42
50.0
 43
0.0
 44
0.0
 50
0.0
 51
0.0
 71
     0
 72
   100
 73
     1
 74
     3
 75
     0
 76
     0
 77
     0
 78
     0
  0
ENDTAB
  0
TABLE
  2
LTYPE
 70
     2
  0
LTYPE
  2
CONTINUOUS
 70
     0
  3
Solid line
 72
    65
 73
     0
 40
0.0
  0
LTYPE
  2
________________
 70
     0
  3

 72
    65
 73
     0
 40
0.0
  0
ENDTAB
  0
TABLE
  2
LAYER
 70
     1
  0
LAYER
  2
0
 70
     0
 62
     7
  6
CONTINUOUS
  0
ENDTAB
  0
TABLE
  2
STYLE
 70
     2
  0
STYLE
  2
STANDARD
 70
     0
 40
0.0
 41
1.0
 50
0.0
 71
     0
 42
0.2
  3
txt
  4

  0
STYLE
  2
EXPLODED0
 70
     0
 40
0.2
 41
1.0
 50
0.0
 71
     0
 42
0.2
  3
ＭＳ ゴシック
  4

  0
ENDTAB
  0
TABLE
  2
VIEW
 70
     0
  0
ENDTAB
  0
TABLE
  2
UCS
 70
     0
  0
ENDTAB
  0
ENDSEC
  0
SECTION
  2
BLOCKS
  0
BLOCK
  8
0
  2
_2837
 70
     0
 10
0.0
 20
0.0
 30
0.0
  0
ENDBLK
  8
0
  0
BLOCK
  8
0
  2
_3293
 70
     0
 10
0.0
 20
0.0
 30
0.0
  0
ENDBLK
  8
0
  0
BLOCK
  8
0
  2
_3387
 70
     0
 10
0.0
 20
0.0
 30
0.0
  0
ENDBLK
  8
0
  0
ENDSEC
  0
SECTION
  2
ENTITIES
  0
TEXT
  5
3B
  8
0
 62
     7
 10
259.9611818181818
 20
176.7681818181818
 30
0.0
 40
7.0
  1
GUT-120
  7
EXPLODED0
  0
INSERT
  5
3D
  8
0
  6
________________
 62
     7
  2
_2837
 10
0.0
 20
0.0
 30
0.0
  0
ARC
  5
3F
  8
0
  6
________________
 62
     7
 10
-94.99998021674932
 20
395.0
 30
0.0
 40
61.00000000000001
 50
188.0427572472444
 51
351.9572427527555
210
0.0
220
0.0
230
-1.0
  0
LINE
  5
40
  8
0
  6
________________
 62
     7
 10
35.99998021674932
 20
392.2453559924999
 30
0.0
 11
35.99998021674932
 21
385.5
 31
0.0
  0
LINE
  5
41
  8
0
  6
________________
 62
     7
 10
38.93528544365704
 20
385.5
 30
0.0
 11
35.99998021674932
 21
385.5
 31
0.0
  0
LINE
  5
42
  8
0
  6
________________
 62
     7
 10
151.5436145557031
 20
397.5
 30
0.0
 11
151.4999802167493
 21
392.5
 31
0.0
  0
LINE
  5
43
  8
0
  6
________________
 62
     7
 10
152.3333135500827
 20
397.5
 30
0.0
 11
151.5436145557031
 21
397.5
 31
0.0
  0
LINE
  5
44
  8
0
  6
________________
 62
     7
 10
152.9999802167493
 20
392.5
 30
0.0
 11
152.9999802167493
 21
397.2453559924999
 31
0.0
  0
LINE
  5
45
  8
0
  6
________________
 62
     7
 10
34.59998021674933
 20
392.2
 30
0.0
 11
34.59998021674932
 21
386.4653646826593
 31
0.0
  0
LINE
  5
46
  8
0
  6
________________
 62
     7
 10
155.3999802167493
 20
392.2
 30
0.0
 11
155.3999802167493
 21
386.4653646826593
 31
0.0
  0
LINE
  5
47
  8
0
  6
________________
 62
     7
 10
35.99998021674933
 20
390.1
 30
0.0
 11
36.99998021674931
 21
390.1
 31
0.0
  0
LINE
  5
48
  8
0
  6
________________
 62
     7
 10
36.99998021674931
 20
390.1
 30
0.0
 11
36.25639047315956
 21
391.8846153846154
 31
0.0
  0
LINE
  5
49
  8
0
  6
________________
 62
     7
 10
152.9999802167493
 20
395.1
 30
0.0
 11
153.9999802167493
 21
395.1
 31
0.0
  0
LINE
  5
4A
  8
0
  6
________________
 62
     7
 10
153.9999802167493
 20
395.1000000000001
 30
0.0
 11
153.2563904731596
 21
396.8846153846154
 31
0.0
  0
LINE
  5
4B
  8
0
  6
________________
 62
     7
 10
175.3999802167494
 20
386.4653646826594
 30
0.0
 11
175.2045271138943
 21
386.4721264931657
 31
0.0
  0
POLYLINE
  5
4C
  8
0
  6
________________
 62
     7
 10
0.0
 20
0.0
 30
0.0
 66
     1
 70
     8
  0
VERTEX
  5
4D
  8
0
  6
________________
 62
     7
 10
155.4009352874387
 20
386.4721264931661
 30
0.0
 70
    32
  0
VERTEX
  5
4E
  8
0
  6
________________
 62
     7
 10
155.5261743441018
 20
386.6075635756815
 30
0.0
 70
    32
  0
VERTEX
  5
4F
  8
0
  6
________________
 62
     7
 10
155.6690073327152
 20
386.6705132147546
 30
0.0
 70
    32
  0
SEQEND
  5
52
  8
0
  6
________________
 62
     7
  0
ARC
  5
50
  8
0
  6
________________
 62
     7
 10
-163.642285224882
 20
314.2704411714635
 30
0.0
 40
72.83778958905506
 50
83.71545327365037
 51
95.79475623543364
210
0.0
220
0.0
230
-1.0
  0
ARC
  5
51
  8
0
  6
________________
 62
     7
 10
-153.4095938007898
 20
72.61288768358015
 30
0.0
 40
314.6150678277425
 50
93.20446695646238
 51
93.9723420318407
210
0.0
220
0.0
230
-1.0
  0
POLYLINE
  5
53
  8
0
  6
________________
 62
     7
 10
0.0
 20
0.0
 30
0.0
 66
     1
 70
     8
  0
VERTEX
  5
54
  8
0
  6
________________
 62
     7
 10
34.59902514605993
 20
386.472126493166
 30
0.0
 70
    32
  0
VERTEX
  5
55
  8
0
  6
________________
 62
     7
 10
34.47378608939682
 20
386.6075635756815
 30
0.0
 70
    32
  0
VERTEX
  5
56
  8
0
  6
________________
 62
     7
 10
34.33095310078343
 20
386.6705132147546
 30
0.0
 70
    32
  0
SEQEND
  5
59
  8
0
  6
________________
 62
     7
  0
ARC
  5
57
  8
0
  6
________________
 62
     7
 10
26.3576752086167
 20
314.2704411714642
 30
0.0
 40
72.83778958905442
 50
83.71545327365033
 51
95.79475623543378
  0
ARC
  5
58
  8
0
  6
________________
 62
     7
 10
36.59036663270881
 20
72.61288768358015
 30
0.0
 40
314.6150678277425
 50
93.20446695646238
 51
93.9723420318407
  0
LINE
  5
5A
  8
0
  6
________________
 62
     7
 10
14.59998021674934
 20
386.4653646826593
 30
0.0
 11
14.79543331960441
 21
386.4721264931657
 31
0.0
  0
LINE
  5
5B
  8
0
  6
________________
 62
     7
 10
199.9999802167493
 20
386.4653646826594
 30
0.0
 11
175.3999802167493
 21
386.4653646826594
 31
0.0
  0
LINE
  5
5C
  8
0
  6
________________
 62
     7
 10
-10.00001978325069
 20
386.4653646826593
 30
0.0
 11
14.59998021674935
 21
386.4653646826593
 31
0.0
  0
ARC
  5
5D
  8
0
  6
________________
 62
     7
 10
-97.90121426565307
 20
389.4000510754186
 30
0.0
 40
2.000051075802544
 50
270.0011227264482
 51
344.9988772735518
210
0.0
220
0.0
230
-1.0
  0
LINE
  5
5E
  8
0
  6
________________
 62
     7
 10
97.90117507410592
 20
387.4
 30
0.0
 11
142.0987853593927
 21
387.4
 31
0.0
  0
ARC
  5
5F
  8
0
  6
________________
 62
     7
 10
-142.0987454084143
 20
389.4000520651287
 30
0.0
 40
2.00005206552773
 50
195.0011444814309
 51
269.9988555185689
210
0.0
220
0.0
230
-1.0
  0
ARC
  5
60
  8
0
  6
________________
 62
     7
 10
147.8743801548629
 20
395.5
 30
0.0
 40
2.000000000000001
 50
89.99999999999962
 51
165.0000000000001
  0
LINE
  5
61
  8
0
  6
________________
 62
     7
 10
151.2783064178723
 20
397.5
 30
0.0
 11
147.8743801548629
 21
397.5
 31
0.0
  0
ARC
  5
62
  8
0
  6
________________
 62
     7
 10
47.87438015486286
 20
395.5
 30
0.0
 40
2.000000000000001
 50
90.00000000000043
 51
165.0000000000001
  0
LINE
  5
63
  8
0
  6
________________
 62
     7
 10
47.87438015486286
 20
397.5
 30
0.0
 11
92.1255802786358
 21
397.5
 31
0.0
  0
ARC
  5
64
  8
0
  6
________________
 62
     7
 10
92.12558027863582
 20
395.5
 30
0.0
 40
2.0
 50
15.0
 51
90.00000000000075
  0
LINE
  5
65
  8
0
  6
________________
 62
     7
 10
-9.866045187035127
 20
392.8
 30
0.0
 11
-9.866045187035127
 21
392.5
 31
0.0
  0
LINE
  5
66
  8
0
  6
________________
 62
     7
 10
199.8660056205457
 20
392.5
 30
0.0
 11
199.8660056205338
 21
392.8
 31
0.0
  0
LINE
  5
67
  8
0
  6
________________
 62
     7
 10
151.0646749898416
 20
399.5
 30
0.0
 11
153.9999802167493
 21
399.5
 31
0.0
  0
LINE
  5
68
  8
0
  6
________________
 62
     7
 10
38.45634587779551
 20
387.5
 30
0.0
 11
38.49998021674932
 21
392.5
 31
0.0
  0
LINE
  5
69
  8
0
  6
________________
 62
     7
 10
37.66664688341599
 20
387.5
 30
0.0
 11
38.45634587779551
 21
387.5
 31
0.0
  0
LINE
  5
6A
  8
0
  6
________________
 62
     7
 10
36.99998021674932
 20
392.5
 30
0.0
 11
36.99998021674931
 21
387.7546440075001
 31
0.0
  0
LINE
  5
6B
  8
0
  6
________________
 62
     7
 10
153.9999802167493
 20
392.7546440075001
 30
0.0
 11
153.9999802167493
 21
399.5
 31
0.0
  0
LINE
  5
6C
  8
0
  6
________________
 62
     7
 10
154.3999802167493
 20
398.4640415877996
 30
0.0
 11
155.3999802167493
 21
398.5346353173407
 31
0.0
  0
LINE
  5
6D
  8
0
  6
________________
 62
     7
 10
155.3999802167493
 20
398.5346353173407
 30
0.0
 11
155.3999802167493
 21
392.8
 31
0.0
  0
LINE
  5
6E
  8
0
  6
________________
 62
     7
 10
154.666646883416
 20
392.5
 30
0.0
 11
154.3999802167493
 21
392.5362111803466
 31
0.0
  0
ARC
  5
6F
  8
0
  6
________________
 62
     7
 10
-94.99998021674934
 20
390.0
 30
0.0
 40
61.00000000000001
 50
8.04275724724444
 51
171.9572427527556
210
0.0
220
0.0
230
-1.0
  0
LINE
  5
70
  8
0
  6
________________
 62
     7
 10
34.59998021674932
 20
398.5346353173407
 30
0.0
 11
35.59998021674933
 21
398.4640415877995
 31
0.0
  0
LINE
  5
71
  8
0
  6
________________
 62
     7
 10
34.59998021674933
 20
392.8
 30
0.0
 11
34.59998021674932
 21
398.5346353173408
 31
0.0
  0
POLYLINE
  5
72
  8
0
  6
________________
 62
     7
 10
0.0
 20
0.0
 30
0.0
 66
     1
 70
     9
  0
VERTEX
  5
73
  8
0
  6
________________
 62
     7
 10
34.59998021674933
 20
392.8
 30
0.0
 70
    32
  0
VERTEX
  5
74
  8
0
  6
________________
 62
     7
 10
34.59998021674934
 20
392.8
 30
0.0
 70
    32
  0
VERTEX
  5
75
  8
0
  6
________________
 62
     7
 10
34.59998021674934
 20
392.8
 30
0.0
 70
    32
  0
VERTEX
  5
76
  8
0
  6
________________
 62
     7
 10
34.59998021674933
 20
392.8
 30
0.0
 70
    32
  0
SEQEND
  5
77
  8
0
  6
________________
 62
     7
  0
POLYLINE
  5
78
  8
0
  6
________________
 62
     7
 10
0.0
 20
0.0
 30
0.0
 66
     1
 70
     8
  0
VERTEX
  5
79
  8
0
  6
________________
 62
     7
 10
155.3999802167493
 20
392.8
 30
0.0
 70
    32
  0
VERTEX
  5
7A
  8
0
  6
________________
 62
     7
 10
155.3999802167493
 20
392.8
 30
0.0
 70
    32
  0
VERTEX
  5
7B
  8
0
  6
________________
 62
     7
 10
155.3999802167493
 20
392.8
 30
0.0
 70
    32
  0
VERTEX
  5
7C
  8
0
  6
________________
 62
     7
 10
155.3999802167493
 20
392.8
 30
0.0
 70
    32
  0
VERTEX
  5
7D
  8
0
  6
________________
 62
     7
 10
155.3999802167493
 20
392.8
 30
0.0
 70
    32
  0
VERTEX
  5
7E
  8
0
  6
________________
 62
     7
 10
155.3999802167493
 20
392.8
 30
0.0
 70
    32
  0
SEQEND
  5
7F
  8
0
  6
________________
 62
     7
  0
LINE
  5
80
  8
0
  6
________________
 62
     7
 10
153.9999802167493
 20
394.9
 30
0.0
 11
152.9999802167493
 21
394.9
 31
0.0
  0
LINE
  5
81
  8
0
  6
________________
 62
     7
 10
152.9999802167493
 20
394.9
 30
0.0
 11
153.7435699603391
 21
393.1153846153846
 31
0.0
  0
LINE
  5
82
  8
0
  6
________________
 62
     7
 10
36.99998021674931
 20
389.9
 30
0.0
 11
35.99998021674932
 21
389.9
 31
0.0
  0
LINE
  5
83
  8
0
  6
________________
 62
     7
 10
35.99998021674932
 20
389.9
 30
0.0
 11
36.74356996033906
 21
388.1153846153846
 31
0.0
  0
POLYLINE
  5
84
  8
0
  6
________________
 62
     7
 10
0.0
 20
0.0
 30
0.0
 66
     1
 70
     8
  0
VERTEX
  5
85
  8
0
  6
________________
 62
     7
 10
34.59902514605993
 20
398.527873506834
 30
0.0
 70
    32
  0
VERTEX
  5
86
  8
0
  6
________________
 62
     7
 10
34.47378608939682
 20
398.3924364243185
 30
0.0
 70
    32
  0
VERTEX
  5
87
  8
0
  6
________________
 62
     7
 10
34.33095310078343
 20
398.3294867852454
 30
0.0
 70
    32
  0
SEQEND
  5
8A
  8
0
  6
________________
 62
     7
  0
ARC
  5
88
  8
0
  6
________________
 62
     7
 10
-26.35767520861668
 20
470.7295588285361
 30
0.0
 40
72.83778958905468
 50
263.7154532736503
 51
275.7947562354337
210
0.0
220
0.0
230
-1.0
  0
ARC
  5
89
  8
0
  6
________________
 62
     7
 10
-36.59036663270881
 20
712.3871123164198
 30
0.0
 40
314.6150678277425
 50
273.2044669564624
 51
273.9723420318408
210
0.0
220
0.0
230
-1.0
  0
POLYLINE
  5
8B
  8
0
  6
________________
 62
     7
 10
0.0
 20
0.0
 30
0.0
 66
     1
 70
     8
  0
VERTEX
  5
8C
  8
0
  6
________________
 62
     7
 10
155.4009352874387
 20
398.527873506834
 30
0.0
 70
    32
  0
VERTEX
  5
8D
  8
0
  6
________________
 62
     7
 10
155.5261743441018
 20
398.3924364243185
 30
0.0
 70
    32
  0
VERTEX
  5
8E
  8
0
  6
________________
 62
     7
 10
155.6690073327152
 20
398.3294867852454
 30
0.0
 70
    32
  0
SEQEND
  5
91
  8
0
  6
________________
 62
     7
  0
ARC
  5
8F
  8
0
  6
________________
 62
     7
 10
163.642285224882
 20
470.7295588285365
 30
0.0
 40
72.83778958905506
 50
263.7154532736504
 51
275.7947562354336
  0
ARC
  5
90
  8
0
  6
________________
 62
     7
 10
153.4095938007898
 20
712.3871123164198
 30
0.0
 40
314.6150678277425
 50
273.2044669564624
 51
273.9723420318408
  0
LINE
  5
92
  8
0
  6
________________
 62
     7
 10
14.59998021674934
 20
398.5346353173407
 30
0.0
 11
14.79543331960441
 21
398.5278735068344
 31
0.0
  0
LINE
  5
93
  8
0
  6
________________
 62
     7
 10
175.3999802167494
 20
398.5346353173407
 30
0.0
 11
175.2045271138943
 21
398.5278735068344
 31
0.0
  0
LINE
  5
94
  8
0
  6
________________
 62
     7
 10
-9.000019783250684
 20
398.5346353173407
 30
0.0
 11
14.59998021674935
 21
398.5346353173407
 31
0.0
  0
LINE
  5
95
  8
0
  6
________________
 62
     7
 10
198.9999802167493
 20
398.5346353173407
 30
0.0
 11
175.3999802167493
 21
398.5346353173407
 31
0.0
  0
LINE
  5
96
  8
0
  6
________________
 62
     7
 10
198.9999802167493
 20
398.5346353173407
 30
0.0
 11
199.9999802167493
 21
398.4640415877994
 31
0.0
  0
LINE
  5
97
  8
0
  6
________________
 62
     7
 10
-10.00001978325069
 20
398.4640415877995
 30
0.0
 11
-9.000019783250698
 21
398.5346353173407
 31
0.0
  0
ARC
  5
98
  8
0
  6
________________
 62
     7
 10
-92.0987461678456
 20
395.5999489245814
 30
0.0
 40
2.000051075802545
 50
90.00112272644824
 51
164.9988772735518
210
0.0
220
0.0
230
-1.0
  0
LINE
  5
99
  8
0
  6
________________
 62
     7
 10
92.09878535939275
 20
397.6
 30
0.0
 11
47.90117507410601
 21
397.6
 31
0.0
  0
ARC
  5
9A
  8
0
  6
________________
 62
     7
 10
-47.90121502508438
 20
395.5999479348713
 30
0.0
 40
2.00005206552773
 50
15.00114448143091
 51
89.99885551856883
210
0.0
220
0.0
230
-1.0
  0
ARC
  5
9B
  8
0
  6
________________
 62
     7
 10
42.1255802786358
 20
389.5
 30
0.0
 40
2.000000000000001
 50
269.9999999999996
 51
345.0000000000001
  0
LINE
  5
9C
  8
0
  6
________________
 62
     7
 10
38.72165401562638
 20
387.5
 30
0.0
 11
42.12558027863579
 21
387.5
 31
0.0
  0
ARC
  5
9D
  8
0
  6
________________
 62
     7
 10
142.1255802786358
 20
389.5
 30
0.0
 40
2.000000000000001
 50
270.0000000000004
 51
345.0
  0
LINE
  5
9E
  8
0
  6
________________
 62
     7
 10
142.1255802786358
 20
387.5
 30
0.0
 11
97.87438015486288
 21
387.5
 31
0.0
  0
ARC
  5
9F
  8
0
  6
________________
 62
     7
 10
97.87438015486285
 20
389.5
 30
0.0
 40
2.0
 50
194.9999999999999
 51
270.0000000000007
  0
LINE
  5
A0
  8
0
  6
________________
 62
     7
 10
90.93557343726286
 20
334.1355555555556
 30
0.0
 11
94.99998021674935
 21
334.0
 31
0.0
  0
LINE
  5
A1
  8
0
  6
________________
 62
     7
 10
99.06438699623583
 20
450.8644444444445
 30
0.0
 11
94.99998021674932
 21
451.0
 31
0.0
  0
ARC
  5
A2
  8
0
  6
________________
 62
     7
 10
198.9999802167494
 20
450.0000000000001
 30
0.0
 40
1.000000000000001
 50
359.9999999999996
 51
89.99999999999841
  0
ARC
  5
A3
  8
0
  6
________________
 62
     7
 10
-9.000019783250684
 20
450.0000000000001
 30
0.0
 40
1.000000000000001
 50
90.0
 51
180.0000000000004
  0
LINE
  5
A4
  8
0
  6
________________
 62
     7
 10
199.9999802167493
 20
260.5288789781266
 30
0.0
 11
175.3999802167493
 21
260.5288789781266
 31
0.0
  0
LINE
  5
A5
  8
0
  6
________________
 62
     7
 10
199.9999802167493
 20
139.7288789781265
 30
0.0
 11
199.9999802167493
 21
260.5288789781266
 31
0.0
  0
LINE
  5
A6
  8
0
  6
________________
 62
     7
 10
199.9999802167493
 20
139.7288789781265
 30
0.0
 11
-10.00001978325069
 21
139.7288789781265
 31
0.0
  0
LINE
  5
A7
  8
0
  6
________________
 62
     7
 10
-10.00001978325069
 20
260.5288789781265
 30
0.0
 11
14.59998021674935
 21
260.5288789781265
 31
0.0
  0
LINE
  5
A8
  8
0
  6
________________
 62
     7
 10
14.59998021674934
 20
260.5288789781265
 30
0.0
 11
14.79543331960441
 21
260.5298340488159
 31
0.0
  0
LINE
  5
A9
  8
0
  6
________________
 62
     7
 10
175.3999802167494
 20
260.5288789781266
 30
0.0
 11
175.2045271138943
 21
260.529834048816
 31
0.0
  0
LINE
  5
AA
  8
0
  6
________________
 62
     7
 10
-10.00001978325069
 20
139.7288789781265
 30
0.0
 11
-10.00001978325069
 21
260.5288789781266
 31
0.0
  0
LINE
  5
AB
  8
0
  6
________________
 62
     7
 10
155.3999802167493
 20
305.1288789781266
 30
0.0
 11
155.3999802167493
 21
280.5288789781266
 31
0.0
  0
LINE
  5
AC
  8
0
  6
________________
 62
     7
 10
155.4009352874387
 20
280.3334258752714
 30
0.0
 11
155.3999802167493
 21
280.5288789781264
 31
0.0
  0
LINE
  5
AD
  8
0
  6
________________
 62
     7
 10
155.3999802167494
 20
305.1288789781266
 30
0.0
 11
34.59998021674929
 21
305.1288789781266
 31
0.0
  0
ARC
  5
AE
  8
0
  6
________________
 62
     7
 10
-14.59989898877818
 20
280.5289602060976
 30
0.0
 40
20.0000820180669
 50
180.5601712222283
 51
269.4398287777717
210
0.0
220
0.0
230
-1.0
  0
ARC
  5
AF
  8
0
  6
________________
 62
     7
 10
175.4000614447205
 20
280.5289602060977
 30
0.0
 40
20.00008201806689
 50
180.5601712222284
 51
269.4398287777717
  0
LINE
  5
B0
  8
0
  6
________________
 62
     7
 10
175.3999802167494
 20
260.5288789781265
 30
0.0
 11
174.4604306028766
 21
260.5509600043427
 31
0.0
  0
LINE
  5
B1
  8
0
  6
________________
 62
     7
 10
15.2610644019244
 20
260.5398077715869
 30
0.0
 11
14.59998021674934
 21
260.5288789781266
 31
0.0
  0
INSERT
  5
B5
  8
0
  6
________________
 62
     7
  2
_3293
 10
0.0
 20
0.0
 30
0.0
  0
LINE
  5
B6
  8
0
  6
________________
 62
     7
 10
283.3274866829197
 20
397.5
 30
0.0
 11
283.3711210218734
 21
392.5
 31
0.0
  0
LINE
  5
B7
  8
0
  6
________________
 62
     7
 10
396.4147553608273
 20
397.5
 30
0.0
 11
396.3711210218735
 21
392.5
 31
0.0
  0
LINE
  5
B8
  8
0
  6
________________
 62
     7
 10
397.2044543552068
 20
397.5
 30
0.0
 11
396.4147553608273
 21
397.5
 31
0.0
  0
LINE
  5
B9
  8
0
  6
________________
 62
     7
 10
397.8711210218735
 20
392.5
 30
0.0
 11
397.8711210218735
 21
397.2453559924999
 31
0.0
  0
LINE
  5
BA
  8
0
  6
________________
 62
     7
 10
397.8711210218735
 20
392.5
 30
0.0
 11
399.7711210218735
 21
392.5
 31
0.0
  0
LINE
  5
BB
  8
0
  6
________________
 62
     7
 10
399.7711210218735
 20
392.2
 30
0.0
 11
400.2711210218735
 21
392.2
 31
0.0
  0
LINE
  5
BC
  8
0
  6
________________
 62
     7
 10
400.2711210218735
 20
392.2
 30
0.0
 11
400.2711210218735
 21
386.4653646826593
 31
0.0
  0
LINE
  5
BD
  8
0
  6
________________
 62
     7
 10
281.8711210218735
 20
392.5
 30
0.0
 11
281.8711210218735
 21
397.2453559924999
 31
0.0
  0
LINE
  5
BE
  8
0
  6
________________
 62
     7
 10
282.5377876885402
 20
397.5
 30
0.0
 11
283.3274866829197
 21
397.5
 31
0.0
  0
ARC
  5
BF
  8
0
  6
________________
 62
     7
 10
-339.8711210218735
 20
395.0
 30
0.0
 40
61.00000000000001
 50
188.0427572472444
 51
351.9572427527556
210
0.0
220
0.0
230
-1.0
  0
LINE
  5
C0
  8
0
  6
________________
 62
     7
 10
279.4711210218734
 20
386.4653646826594
 30
0.0
 11
279.4711210218735
 21
392.2
 31
0.0
  0
LINE
  5
C1
  8
0
  6
________________
 62
     7
 10
397.8711210218735
 20
395.1
 30
0.0
 11
398.8711210218735
 21
395.1
 31
0.0
  0
LINE
  5
C2
  8
0
  6
________________
 62
     7
 10
398.8711210218735
 20
395.1
 30
0.0
 11
398.1275312782838
 21
396.8846153846154
 31
0.0
  0
LINE
  5
C3
  8
0
  6
________________
 62
     7
 10
281.8711210218735
 20
395.1
 30
0.0
 11
280.8711210218735
 21
395.1
 31
0.0
  0
LINE
  5
C4
  8
0
  6
________________
 62
     7
 10
280.8711210218735
 20
395.1
 30
0.0
 11
281.6147107654633
 21
396.8846153846154
 31
0.0
  0
ARC
  5
C5
  8
0
  6
________________
 62
     7
 10
-270.9607506726474
 20
276.2406120329653
 30
0.0
 40
110.8085971578245
 50
84.1499633114574
 51
94.07426753711232
210
0.0
220
0.0
230
-1.0
  0
POLYLINE
  5
C6
  8
0
  6
________________
 62
     7
 10
0.0
 20
0.0
 30
0.0
 66
     1
 70
     8
  0
VERTEX
  5
C7
  8
0
  6
________________
 62
     7
 10
278.833642807707
 20
386.7691729279427
 30
0.0
 70
    32
  0
VERTEX
  5
C8
  8
0
  6
________________
 62
     7
 10
278.9801443369348
 20
386.7360662604247
 30
0.0
 70
    32
  0
VERTEX
  5
C9
  8
0
  6
________________
 62
     7
 10
279.147962861821
 20
386.6889345939825
 30
0.0
 70
    32
  0
VERTEX
  5
CA
  8
0
  6
________________
 62
     7
 10
279.2812163441093
 20
386.6390524616419
 30
0.0
 70
    32
  0
VERTEX
  5
CB
  8
0
  6
________________
 62
     7
 10
279.3803742338424
 20
386.5859583954132
 30
0.0
 70
    32
  0
VERTEX
  5
CC
  8
0
  6
________________
 62
     7
 10
279.4701659511841
 20
386.4721264931655
 30
0.0
 70
    32
  0
SEQEND
  5
CD
  8
0
  6
________________
 62
     7
  0
LINE
  5
CE
  8
0
  6
________________
 62
     7
 10
259.6665741247285
 20
386.4721264931655
 30
0.0
 11
259.4711210218735
 21
386.4653646826588
 31
0.0
  0
LINE
  5
CF
  8
0
  6
________________
 62
     7
 10
234.8711210218734
 20
386.4653646826593
 30
0.0
 11
259.4711210218734
 21
386.4653646826593
 31
0.0
  0
LINE
  5
D0
  8
0
  6
________________
 62
     7
 10
235.0050956180891
 20
392.8
 30
0.0
 11
235.0050956180891
 21
392.5
 31
0.0
  0
LINE
  5
D1
  8
0
  6
________________
 62
     7
 10
279.4711210218734
 20
398.5346353173407
 30
0.0
 11
280.4711210218735
 21
398.4640415877994
 31
0.0
  0
ARC
  5
D2
  8
0
  6
________________
 62
     7
 10
-339.8711210218735
 20
390.0
 30
0.0
 40
61.00000000000001
 50
8.042757247244396
 51
171.9572427527555
210
0.0
220
0.0
230
-1.0
  0
LINE
  5
D3
  8
0
  6
________________
 62
     7
 10
399.2711210218735
 20
398.4640415877995
 30
0.0
 11
400.2711210218735
 21
398.5346353173407
 31
0.0
  0
LINE
  5
D4
  8
0
  6
________________
 62
     7
 10
400.2711210218735
 20
398.5346353173407
 30
0.0
 11
400.2711210218735
 21
392.8
 31
0.0
  0
LINE
  5
D5
  8
0
  6
________________
 62
     7
 10
400.2711210218735
 20
392.8
 30
0.0
 11
399.7711210218735
 21
392.8
 31
0.0
  0
LINE
  5
D6
  8
0
  6
________________
 62
     7
 10
399.5377876885402
 20
392.5
 30
0.0
 11
399.2711210218735
 21
392.5362111803466
 31
0.0
  0
LINE
  5
D7
  8
0
  6
________________
 62
     7
 10
395.9358157949658
 20
399.5
 30
0.0
 11
398.8711210218735
 21
399.5
 31
0.0
  0
LINE
  5
D8
  8
0
  6
________________
 62
     7
 10
280.8711210218735
 20
392.7546440075001
 30
0.0
 11
280.8711210218735
 21
399.5
 31
0.0
  0
LINE
  5
D9
  8
0
  6
________________
 62
     7
 10
398.8711210218735
 20
392.7546440075001
 30
0.0
 11
398.8711210218735
 21
399.5
 31
0.0
  0
LINE
  5
DA
  8
0
  6
________________
 62
     7
 10
283.8064262487812
 20
399.5
 30
0.0
 11
280.8711210218735
 21
399.5
 31
0.0
  0
LINE
  5
DB
  8
0
  6
________________
 62
     7
 10
279.4711210218735
 20
392.8
 30
0.0
 11
279.4711210218734
 21
398.5346353173407
 31
0.0
  0
LINE
  5
DC
  8
0
  6
________________
 62
     7
 10
280.4711210218735
 20
392.5362111803466
 30
0.0
 11
280.2044543552068
 21
392.5
 31
0.0
  0
POLYLINE
  5
DD
  8
0
  6
________________
 62
     7
 10
0.0
 20
0.0
 30
0.0
 66
     1
 70
     9
  0
VERTEX
  5
DE
  8
0
  6
________________
 62
     7
 10
279.4711210218735
 20
392.8
 30
0.0
 70
    32
  0
VERTEX
  5
DF
  8
0
  6
________________
 62
     7
 10
279.4711210218735
 20
392.8
 30
0.0
 70
    32
  0
VERTEX
  5
E0
  8
0
  6
________________
 62
     7
 10
279.4711210218735
 20
392.8
 30
0.0
 70
    32
  0
SEQEND
  5
E1
  8
0
  6
________________
 62
     7
  0
LINE
  5
E2
  8
0
  6
________________
 62
     7
 10
280.8711210218735
 20
397.6
 30
0.0
 11
283.6017687952839
 21
397.6
 31
0.0
  0
LINE
  5
E3
  8
0
  6
________________
 62
     7
 10
280.8711210218735
 20
394.9
 30
0.0
 11
281.8711210218735
 21
394.9
 31
0.0
  0
LINE
  5
E4
  8
0
  6
________________
 62
     7
 10
281.8711210218735
 20
394.9
 30
0.0
 11
281.1275312782838
 21
393.1153846153846
 31
0.0
  0
LINE
  5
E5
  8
0
  6
________________
 62
     7
 10
398.8711210218735
 20
394.9
 30
0.0
 11
397.8711210218735
 21
394.9
 31
0.0
  0
LINE
  5
E6
  8
0
  6
________________
 62
     7
 10
397.8711210218735
 20
394.9
 30
0.0
 11
398.6147107654632
 21
393.1153846153846
 31
0.0
  0
LINE
  5
E7
  8
0
  6
________________
 62
     7
 10
396.1404732484631
 20
397.6
 30
0.0
 11
398.8711210218735
 21
397.6
 31
0.0
  0
LINE
  5
E8
  8
0
  6
________________
 62
     7
 10
259.6665741247285
 20
398.5278735068346
 30
0.0
 11
259.4711210218735
 21
398.5346353173412
 31
0.0
  0
ARC
  5
E9
  8
0
  6
________________
 62
     7
 10
270.9607506726476
 20
508.7593879670291
 30
0.0
 40
110.8085971578188
 50
264.149963311457
 51
274.0742675371123
  0
POLYLINE
  5
EA
  8
0
  6
________________
 62
     7
 10
0.0
 20
0.0
 30
0.0
 66
     1
 70
     8
  0
VERTEX
  5
EB
  8
0
  6
________________
 62
     7
 10
278.833642807707
 20
398.2308270720573
 30
0.0
 70
    32
  0
VERTEX
  5
EC
  8
0
  6
________________
 62
     7
 10
278.9801443369348
 20
398.2639337395753
 30
0.0
 70
    32
  0
VERTEX
  5
ED
  8
0
  6
________________
 62
     7
 10
279.147962861821
 20
398.3110654060175
 30
0.0
 70
    32
  0
VERTEX
  5
EE
  8
0
  6
________________
 62
     7
 10
279.2812163441093
 20
398.3609475383582
 30
0.0
 70
    32
  0
VERTEX
  5
EF
  8
0
  6
________________
 62
     7
 10
279.3803742338424
 20
398.4140416045868
 30
0.0
 70
    32
  0
VERTEX
  5
F0
  8
0
  6
________________
 62
     7
 10
279.4701659511841
 20
398.5278735068346
 30
0.0
 70
    32
  0
SEQEND
  5
F1
  8
0
  6
________________
 62
     7
  0
LINE
  5
F2
  8
0
  6
________________
 62
     7
 10
235.8711210218734
 20
398.5346353173407
 30
0.0
 11
259.4711210218734
 21
398.5346353173407
 31
0.0
  0
LINE
  5
F3
  8
0
  6
________________
 62
     7
 10
234.8711210218734
 20
398.4640415877996
 30
0.0
 11
235.8711210218734
 21
398.5346353173407
 31
0.0
  0
LINE
  5
F4
  8
0
  6
________________
 62
     7
 10
356.3508118203794
 20
446.2432215100621
 30
0.0
 11
352.368693546518
 21
447.3004598981829
 31
0.0
  0
LINE
  5
F5
  8
0
  6
________________
 62
     7
 10
348.8504486855124
 20
447.9819117161559
 30
0.0
 11
344.8690420636563
 21
448.4785108656946
 31
0.0
  0
LINE
  5
F6
  8
0
  6
________________
 62
     7
 10
334.8711210218735
 20
448.6994468999476
 30
0.0
 11
334.2081412338808
 21
448.6994468999476
 31
0.0
  0
LINE
  5
F7
  8
0
  6
________________
 62
     7
 10
335.806714242387
 20
334.1355555555556
 30
0.0
 11
339.8711210218735
 21
334.0
 31
0.0
  0
LINE
  5
F8
  8
0
  6
________________
 62
     7
 10
234.8711210218734
 20
334.0
 30
0.0
 11
339.8711210218735
 21
334.0
 31
0.0
  0
LINE
  5
F9
  8
0
  6
________________
 62
     7
 10
339.8711210218735
 20
451.0
 30
0.0
 11
235.8711210218734
 21
451.0
 31
0.0
  0
ARC
  5
FA
  8
0
  6
________________
 62
     7
 10
235.8711210218734
 20
450.0000000000001
 30
0.0
 40
1.000000000000001
 50
90.0
 51
180.0
  0
LINE
  5
FB
  8
0
  6
________________
 62
     7
 10
352.3682922464756
 20
447.6004033366093
 30
0.0
 11
352.3682922464756
 21
447.3004033366093
 31
0.0
  0
LINE
  5
FC
  8
0
  6
________________
 62
     7
 10
344.866409060606
 20
448.7785053709673
 30
0.0
 11
344.866409060606
 21
448.4785053709672
 31
0.0
  0
INSERT
  5
100
  8
0
  6
________________
 62
     7
  2
_3387
 10
0.0
 20
0.0
 30
0.0
  0
LINE
  5
101
  8
0
  6
________________
 62
     7
 10
348.8529926834335
 20
447.9819158339042
 30
0.0
 11
348.8529926834335
 21
448.2815021441273
 31
0.0
  0
LINE
  5
102
  8
0
  6
________________
 62
     7
 10
356.3510424773965
 20
446.2432988955467
 30
0.0
 11
356.3510424773965
 21
446.5431511740368
 31
0.0
  0
LINE
  5
103
  8
0
  6
________________
 62
     7
 10
234.8711210218734
 20
333.9999999999999
 30
0.0
 11
234.8711210218734
 21
450.0
 31
0.0
  0
LINE
  5
104
  8
0
  6
________________
 62
     7
 10
281.8711210218735
 20
392.5
 30
0.0
 11
234.8711210218734
 21
392.5
 31
0.0
  0
LINE
  5
105
  8
0
  6
________________
 62
     7
 10
279.9711210218735
 20
392.8
 30
0.0
 11
235.005095618089
 21
392.8
 31
0.0
  0
LINE
  5
106
  8
0
  6
________________
 62
     7
 10
399.7711210218735
 20
392.8
 30
0.0
 11
399.7711210218735
 21
392.2
 31
0.0
  0
LINE
  5
107
  8
0
  6
________________
 62
     7
 10
279.9711210218735
 20
392.2
 30
0.0
 11
279.9711210218735
 21
392.8
 31
0.0
  0
LINE
  5
108
  8
0
  6
________________
 62
     7
 10
234.8711210218734
 20
392.2
 30
0.0
 11
279.9711210218735
 21
392.2
 31
0.0
  0
LINE
  5
109
  8
0
  6
________________
 62
     7
 10
34.59998021674932
 20
305.1288789781266
 30
0.0
 11
34.59998021674932
 21
280.3334258752714
 31
0.0
  0
LINE
  5
10A
  8
0
  6
________________
 62
     7
 10
198.9999802167494
 20
451.0
 30
0.0
 11
-9.000019783250684
 21
451.0
 31
0.0
  0
LINE
  5
10B
  8
0
  6
________________
 62
     7
 10
-10.0000197832507
 20
334.0
 30
0.0
 11
199.9999802167493
 21
334.0
 31
0.0
  0
LINE
  5
10C
  8
0
  6
________________
 62
     7
 10
144.0306370119708
 20
388.882361909795
 30
0.0
 11
146.366521098148
 21
397.6
 31
0.0
  0
LINE
  5
10D
  8
0
  6
________________
 62
     7
 10
94.03063701197084
 20
396.117638090205
 30
0.0
 11
95.96932342152783
 21
388.882361909795
 31
0.0
  0
LINE
  5
10E
  8
0
  6
________________
 62
     7
 10
45.96932342152785
 20
396.117638090205
 30
0.0
 11
43.63343933535059
 21
387.4
 31
0.0
  0
LINE
  5
10F
  8
0
  6
________________
 62
     7
 10
38.54999021674681
 20
392.5
 30
0.0
 11
151.4499702167518
 21
392.5
 31
0.0
  0
LINE
  5
110
  8
0
  6
________________
 62
     7
 10
146.3665210981481
 20
397.6
 30
0.0
 11
153.9999802167493
 21
397.6
 31
0.0
  0
LINE
  5
111
  8
0
  6
________________
 62
     7
 10
-10.00001978325069
 20
333.9999999999999
 30
0.0
 11
-10.00001978325069
 21
450.0
 31
0.0
  0
LINE
  5
112
  8
0
  6
________________
 62
     7
 10
36.99998021674932
 20
392.5
 30
0.0
 11
-10.00001978325068
 21
392.5
 31
0.0
  0
LINE
  5
113
  8
0
  6
________________
 62
     7
 10
199.9999802167493
 20
449.9999999999999
 30
0.0
 11
199.9999802167493
 21
334.0
 31
0.0
  0
LINE
  5
114
  8
0
  6
________________
 62
     7
 10
199.9999802167493
 20
392.5
 30
0.0
 11
152.9999802167493
 21
392.5
 31
0.0
  0
LINE
  5
115
  8
0
  6
________________
 62
     7
 10
199.8660056205338
 20
392.8
 30
0.0
 11
154.8999802167494
 21
392.8
 31
0.0
  0
LINE
  5
116
  8
0
  6
________________
 62
     7
 10
35.09998021674935
 20
392.8
 30
0.0
 11
-9.866045187035127
 21
392.8
 31
0.0
  0
LINE
  5
117
  8
0
  6
________________
 62
     7
 10
154.8999802167493
 20
392.8
 30
0.0
 11
154.8999802167493
 21
392.2
 31
0.0
  0
LINE
  5
118
  8
0
  6
________________
 62
     7
 10
35.09998021674935
 20
392.2
 30
0.0
 11
35.09998021674935
 21
392.8
 31
0.0
  0
LINE
  5
119
  8
0
  6
________________
 62
     7
 10
43.63343933535059
 20
387.4
 30
0.0
 11
35.99998021674932
 21
387.4
 31
0.0
  0
LINE
  5
11A
  8
0
  6
________________
 62
     7
 10
35.09998021674935
 20
392.2
 30
0.0
 11
-10.00001978325069
 21
392.2
 31
0.0
  0
LINE
  5
11B
  8
0
  6
________________
 62
     7
 10
199.9999802167493
 20
392.2
 30
0.0
 11
154.8999802167493
 21
392.2
 31
0.0
  0
CIRCLE
  5
11C
  8
0
  6
________________
 62
     7
 10
339.8711210218735
 20
392.5
 30
0.0
 40
56.50000000000001
  0
ARC
  5
11D
  8
0
  6
________________
 62
     7
 10
399.5377876885402
 20
393.5
 30
0.0
 40
1.000000000000039
 50
202.6198649480417
 51
254.5339900465784
  0
ARC
  5
11E
  8
0
  6
________________
 62
     7
 10
280.2044543552068
 20
393.5
 30
0.0
 40
1.000000000000017
 50
285.4660099534185
 51
337.3801350519601
  0
ARC
  5
11F
  8
0
  6
________________
 62
     7
 10
282.5377876885402
 20
396.5
 30
0.0
 40
0.9999999999999796
 50
90.0
 51
157.3801350519601
  0
ARC
  5
120
  8
0
  6
________________
 62
     7
 10
397.2044543552068
 20
396.5
 30
0.0
 40
0.9999999999999881
 50
22.61986494804027
 51
90.00000000000001
  0
CIRCLE
  5
121
  8
0
  6
________________
 62
     7
 10
-94.99998021674932
 20
392.5
 30
0.0
 40
56.50000000000001
210
0.0
220
0.0
230
-1.0
  0
ARC
  5
122
  8
0
  6
________________
 62
     7
 10
37.66664688341599
 20
388.5
 30
0.0
 40
0.999999999999998
 50
202.6198649480402
 51
270.0
  0
ARC
  5
123
  8
0
  6
________________
 62
     7
 10
154.666646883416
 20
393.5
 30
0.0
 40
0.9999999999999996
 50
202.6198649480405
 51
254.5339900465799
  0
ARC
  5
124
  8
0
  6
________________
 62
     7
 10
152.3333135500827
 20
396.5
 30
0.0
 40
0.999999999999998
 50
22.61986494804022
 51
90.0
  0
ARC
  5
125
  8
0
  6
________________
 62
     7
 10
35.33331355008264
 20
391.5
 30
0.0
 40
0.9999999999999996
 50
22.61986494804049
 51
90.0
  0
ENDSEC
  0
EOF
