  0
SECTION
  2
HEADER
  9
$ACADVER
  1
AC1004
  9
$INSBASE
 10
0.0
 20
0.0
  9
$EXTMIN
 10
-186.9260852219545
 20
59.38409090909091
  9
$EXTMAX
 10
-97.27391477804548
 20
195.8
  9
$LIMMIN
 10
0.0
 20
0.0
  9
$LIMMAX
 10
12.0
 20
9.0
  9
$ORTHOMODE
 70
     0
  9
$REGENMODE
 70
     1
  9
$FILLMODE
 70
     1
  9
$QTEXTMODE
 70
     0
  9
$DRAGMODE
 70
     2
  9
$LTSCALE
 40
1.0
  9
$OSMODE
 70
    37
  9
$ATTMODE
 70
     1
  9
$TEXTSIZE
 40
0.2
  9
$TRACEWID
 40
0.05
  9
$TEXTSTYLE
  7
STANDARD
  9
$CLAYER
  8
0
  9
$CELTYPE
  6
BYLAYER
  9
$CECOLOR
 62
   256
  9
$DIMSCALE
 40
1.0
  9
$DIMASZ
 40
3.0
  9
$DIMEXO
 40
0.0625
  9
$DIMDLI
 40
0.38
  9
$DIMRND
 40
0.0
  9
$DIMDLE
 40
0.0
  9
$DIMEXE
 40
1.5
  9
$DIMTP
 40
0.0
  9
$DIMTM
 40
0.0
  9
$DIMTXT
 40
3.0
  9
$DIMCEN
 40
0.09
  9
$DIMTSZ
 40
0.0
  9
$DIMTOL
 70
     0
  9
$DIMLIM
 70
     0
  9
$DIMTIH
 70
     1
  9
$DIMTOH
 70
     1
  9
$DIMSE1
 70
     0
  9
$DIMSE2
 70
     0
  9
$DIMTAD
 70
     1
  9
$DIMZIN
 70
     0
  9
$DIMBLK
  1

  9
$DIMASO
 70
     1
  9
$DIMSHO
 70
     1
  9
$DIMPOST
  1

  9
$DIMAPOST
  1

  9
$DIMALT
 70
     0
  9
$DIMALTD
 70
     2
  9
$DIMALTF
 40
25.4
  9
$DIMLFAC
 40
1.0
  9
$DIMTOFL
 70
     0
  9
$DIMTVP
 40
0.0
  9
$DIMTIX
 70
     0
  9
$DIMSOXD
 70
     0
  9
$DIMSAH
 70
     0
  9
$DIMBLK1
  1

  9
$DIMBLK2
  1

  9
$LUNITS
 70
     2
  9
$LUPREC
 70
     4
  9
$SKETCHINC
 40
0.1
  9
$FILLETRAD
 40
0.5
  9
$AUNITS
 70
     0
  9
$AUPREC
 70
     0
  9
$MENU
  1
.
  9
$ELEVATION
 40
0.0
  9
$THICKNESS
 40
0.0
  9
$LIMCHECK
 70
     0
  9
$CHAMFERA
 40
0.0
  9
$CHAMFERB
 40
0.0
  9
$SKPOLY
 70
     0
  9
$TDCREATE
 40
2459758.400965197
  9
$TDUPDATE
 40
2459758.400965405
  9
$TDINDWG
 40
0.0000000116
  9
$TDUSRTIMER
 40
0.0000000116
  9
$USRTIMER
 70
     1
  9
$ANGBASE
 50
0.0
  9
$ANGDIR
 70
     0
  9
$PDMODE
 70
     0
  9
$PDSIZE
 40
0.0
  9
$PLINEWID
 40
0.0
  9
$COORDS
 70
     1
  9
$SPLFRAME
 70
     0
  9
$SPLINETYPE
 70
     6
  9
$SPLINESEGS
 70
     8
  9
$ATTDIA
 70
     0
  9
$ATTREQ
 70
     1
  9
$SURFTAB1
 70
     6
  9
$SURFTAB2
 70
     6
  9
$SURFTYPE
 70
     6
  9
$SURFU
 70
     6
  9
$SURFV
 70
     6
  9
$UCSNAME
  2

  9
$UCSORG
 10
0.0
 20
0.0
 30
0.0
  9
$UCSXDIR
 10
1.0
 20
0.0
 30
0.0
  9
$UCSYDIR
 10
0.0
 20
1.0
 30
0.0
  9
$USERI1
 70
     0
  9
$USERI2
 70
     0
  9
$USERI3
 70
     0
  9
$USERI4
 70
     0
  9
$USERI5
 70
     0
  9
$USERR1
 40
0.0
  9
$USERR2
 40
0.0
  9
$USERR3
 40
0.0
  9
$USERR4
 40
0.0
  9
$USERR5
 40
0.0
  9
$WORLDVIEW
 70
     1
  0
ENDSEC
  0
SECTION
  2
TABLES
  0
TABLE
  2
LTYPE
 70
     1
  0
LTYPE
  2
CONTINUOUS
 70
     0
  3
Solid line
 72
    65
 73
     0
 40
0.0
  0
ENDTAB
  0
TABLE
  2
LAYER
 70
     2
  0
LAYER
  2
0
 70
     0
 62
     7
  6
CONTINUOUS
  0
LAYER
  2
1
 70
     0
 62
     7
  6
CONTINUOUS
  0
ENDTAB
  0
TABLE
  2
STYLE
 70
     2
  0
STYLE
  2
STANDARD
 70
     0
 40
0.0
 41
1.0
 50
0.0
 71
     0
 42
0.2
  3
txt
  4

  0
STYLE
  2
ＭＳ_ゴシック
 70
     0
 40
0.0
 41
1.0
 50
0.0
 71
     0
 42
0.2
  3
ＭＳ ゴシック.shx
  4

  0
ENDTAB
  0
TABLE
  2
VIEW
 70
     0
  0
ENDTAB
  0
ENDSEC
  0
SECTION
  2
BLOCKS
  0
BLOCK
  8
0
  2
D_FRAME_VIEW_3197
 70
     0
 10
0.0
 20
0.0
  0
LINE
  8
1
  6
CONTINUOUS
 62
     7
 10
-140.3260852219545
 20
93.35
 11
-140.3260852219545
 21
100.45
  0
LINE
  8
1
  6
CONTINUOUS
 62
     7
 10
-140.3260852219545
 20
100.45
 11
-140.3260852219545
 21
107.55
  0
ARC
  8
1
  6
CONTINUOUS
 62
     7
 10
-138.2326485703506
 20
96.1198729810778
 40
3.072171329847708
 50
151.977215072356
 51
208.0227849276441
  0
ARC
  8
1
  6
CONTINUOUS
 62
     7
 10
-129.5525875676107
 20
100.45
 40
11.75211540337072
 50
165.7805336528608
 51
194.2194663471392
  0
ARC
  8
1
  6
CONTINUOUS
 62
     7
 10
-138.2326485703506
 20
104.7801270189222
 40
3.072171329847708
 50
151.977215072356
 51
208.0227849276441
  0
ARC
  8
1
  6
CONTINUOUS
 62
     7
 10
-142.3399822806926
 20
96.01768393378153
 40
2.887911492575254
 50
147.643592953361
 51
177.9721595785993
  0
LINE
  8
1
  6
CONTINUOUS
 62
     7
 10
-145.2260852219545
 20
100.45
 11
-145.2260852219545
 21
96.11987298107778
  0
ARC
  8
1
  6
CONTINUOUS
 62
     7
 10
-135.1700302500288
 20
100.5277582082146
 40
10.05635559918878
 50
180.443029435954
 51
197.1449243380388
  0
ARC
  8
1
  6
CONTINUOUS
 62
     7
 10
-134.8976009680747
 20
100.3300968351968
 40
10.32918020714003
 50
163.0771618937447
 51
179.3348843322629
  0
ARC
  8
1
  6
CONTINUOUS
 62
     7
 10
-142.4141251201956
 20
104.8593761918423
 40
2.813076615610122
 50
181.6143335512139
 51
212.7699139168265
  0
LINE
  8
1
  6
CONTINUOUS
 62
     7
 10
-145.2260852219545
 20
100.45
 11
-145.2260852219545
 21
104.7801270189222
  0
LINE
  8
1
  6
CONTINUOUS
 62
     7
 10
-144.7795032345693
 20
97.56324865405188
 11
-140.9446410752453
 21
97.56324865405188
  0
LINE
  8
1
  6
CONTINUOUS
 62
     7
 10
-144.7795032345693
 20
103.3367513459481
 11
-140.9446410752453
 21
103.3367513459481
  0
ARC
  8
1
  6
CONTINUOUS
 62
     7
 10
-142.3399822806928
 20
104.677937971626
 40
2.887911492575038
 50
147.6435929533596
 51
177.9721595786003
  0
LINE
  8
1
  6
CONTINUOUS
 62
     7
 10
-144.7795032345693
 20
106.2235026918962
 11
-140.9446410752453
 21
106.2235026918962
  0
LINE
  8
1
  6
CONTINUOUS
 62
     7
 10
-144.7795032345693
 20
94.67649730810375
 11
-140.9446410752453
 21
94.67649730810375
  0
ARC
  8
1
  6
CONTINUOUS
 62
     7
 10
-142.4141251201958
 20
96.19912215399785
 40
2.813076615609953
 50
181.6143335512123
 51
212.7699139168269
  0
LINE
  8
1
  6
CONTINUOUS
 62
     7
 10
-145.2260852219545
 20
105.45
 11
-145.2260852219545
 21
104.7801270189222
  0
LINE
  8
1
  6
CONTINUOUS
 62
     7
 10
-145.2260852219545
 20
96.11987298107778
 11
-145.2260852219545
 21
95.44999999999999
  0
LINE
  8
1
  6
CONTINUOUS
 62
     7
 10
-129.9400533880722
 20
96.99999999913476
 11
-129.9400533880769
 21
97.071760812813
  0
LINE
  8
1
  6
CONTINUOUS
 62
     7
 10
-131.3260802363784
 20
94.65333209887274
 11
-131.3260802367572
 21
100.4499999990447
  0
LINE
  8
1
  6
CONTINUOUS
 62
     7
 10
-129.9400533883428
 20
101.1499999991354
 11
-129.375200878675
 21
101.1499999991723
  0
LINE
  8
1
  6
CONTINUOUS
 62
     7
 10
-129.940053388252
 20
99.7499999991351
 11
-129.9400533883435
 21
101.1499999991355
  0
LINE
  8
1
  6
CONTINUOUS
 62
     7
 10
-129.3752008785836
 20
99.74999999917209
 11
-129.9400533882513
 21
99.74999999913518
  0
ARC
  8
1
  6
CONTINUOUS
 62
     7
 10
-139.3260802367582
 20
100.4499999985218
 40
9.97546991374432
 50
340.2050712637288
 51
355.9761259878705
  0
LINE
  8
1
  6
CONTINUOUS
 62
     7
 10
-129.9400533885185
 20
103.8282391854576
 11
-129.9400533885232
 21
103.8999999991358
  0
ARC
  8
1
  6
CONTINUOUS
 62
     7
 10
-139.3260802367582
 20
100.4499999985218
 40
9.975469913744297
 50
4.023874019619452
 51
19.79492874376115
  0
LINE
  8
1
  6
CONTINUOUS
 62
     7
 10
-131.3260802367572
 20
100.4499999990447
 11
-131.3260802371361
 21
106.2466678995235
  0
LINE
  8
1
  6
CONTINUOUS
 62
     7
 10
-145.426080236955
 20
103.4499999981235
 11
-145.4260802367589
 21
100.449999998123
  0
LINE
  8
1
  6
CONTINUOUS
 62
     7
 10
-145.4260802367589
 20
100.449999998123
 11
-145.4260802365628
 21
97.44999999812255
  0
LINE
  8
1
  6
CONTINUOUS
 62
     7
 10
-145.9260802365956
 20
97.94999999809002
 11
-145.926080236759
 21
100.4499999980904
  0
LINE
  8
1
  6
CONTINUOUS
 62
     7
 10
-145.926080236759
 20
100.4499999980904
 11
-145.9260802369224
 21
102.9499999980908
  0
LINE
  8
1
  6
CONTINUOUS
 62
     7
 10
-133.9260802370909
 20
105.5499999990052
 11
-129.5379195198917
 21
106.7258041197891
  0
LINE
  8
1
  6
CONTINUOUS
 62
     7
 10
-129.5379195190521
 20
94.17419587886707
 11
-133.9260802364242
 21
95.34999999900532
  0
LINE
  8
1
  6
CONTINUOUS
 62
     7
 10
-134.1849039178696
 20
94.38407541502296
 11
-129.7967385641026
 21
93.20827005255664
  0
ARC
  8
1
  6
CONTINUOUS
 62
     7
 10
-133.9260848728348
 20
95.35000124133015
 40
0.9999999999999931
 50
179.9999739598822
 51
255.0000000040176
  0
LINE
  8
1
  6
CONTINUOUS
 62
     7
 10
-134.9260802370801
 20
105.5500004535552
 11
-134.9260848728347
 21
95.35000169581593
  0
ARC
  8
1
  6
CONTINUOUS
 62
     7
 10
-133.9260802370802
 20
105.5499999990694
 40
0.9999999999999929
 50
105.0000000038134
 51
179.999973959882
  0
LINE
  8
1
  6
CONTINUOUS
 62
     7
 10
-129.7967385650722
 20
107.6917299460792
 11
-134.184899282247
 21
106.5159258253412
  0
LINE
  8
1
  6
CONTINUOUS
 62
     7
 10
-133.9260802364242
 20
95.34999999900532
 11
-133.9260802370909
 21
105.5499999990052
  0
LINE
  8
1
  6
CONTINUOUS
 62
     7
 10
-129.7967385650722
 20
107.6917299460792
 11
-128.8308127388003
 21
107.9505489912461
  0
LINE
  8
1
  6
CONTINUOUS
 62
     7
 10
-128.8308127388003
 20
107.9505489912461
 11
-128.5719936936221
 21
106.9846231649639
  0
LINE
  8
1
  6
CONTINUOUS
 62
     7
 10
-128.5719936936221
 20
106.9846231649639
 11
-129.5379195198917
 21
106.7258041197891
  0
LINE
  8
1
  6
CONTINUOUS
 62
     7
 10
-129.5379195190521
 20
94.17419587886707
 11
-128.5719936927443
 21
93.91537683383429
  0
LINE
  8
1
  6
CONTINUOUS
 62
     7
 10
-128.5719936927443
 20
93.91537683383434
 11
-128.8308127377953
 21
92.94945100752184
  0
LINE
  8
1
  6
CONTINUOUS
 62
     7
 10
-128.8308127377954
 20
92.94945100752184
 11
-129.7967385641026
 21
93.20827005255664
  0
LINE
  8
1
  6
CONTINUOUS
 62
     7
 10
-126.9323826296196
 20
92.71840365047652
 11
-126.9124934456236
 21
92.6729698201341
  0
ARC
  8
1
  6
CONTINUOUS
 62
     7
 10
-118.1172157121925
 20
96.39393603763864
 40
9.54999999999994
 50
202.9314770426728
 51
324.7307241034056
  0
ARC
  8
1
  6
CONTINUOUS
 62
     7
 10
-118.1172157121925
 20
96.39393603753872
 40
9.549999999999958
 50
324.7307241038949
 51
324.7444435274401
  0
LINE
  8
1
  6
CONTINUOUS
 62
     7
 10
-127.6987187751483
 20
91.97836143691374
 11
-126.9323826296196
 21
92.71840365047652
  0
ARC
  8
1
  6
CONTINUOUS
 62
     7
 10
-118.1172157127228
 20
104.5060639625385
 40
9.549999999999947
 50
90.0
 51
157.0685229652743
  0
LINE
  8
1
  6
CONTINUOUS
 62
     7
 10
-126.9323826306304
 20
108.1815963484483
 11
-127.6987187762877
 21
108.9216385619417
  0
ARC
  8
1
  6
CONTINUOUS
 62
     7
 10
-118.1172157127228
 20
104.5060639625385
 40
9.549999999999944
 50
35.2555564800502
 51
90.00000000000001
  0
LINE
  8
1
  6
CONTINUOUS
 62
     7
 10
-126.9124934800855
 20
108.22703019296
 11
-126.9323826306304
 21
108.1815963484483
  0
ARC
  8
1
  6
CONTINUOUS
 62
     7
 10
-127.5856694493349
 20
110.2026316868471
 40
0.9999999999999922
 50
148.967347135392
 51
226.0000000037448
  0
ARC
  8
1
  6
CONTINUOUS
 62
     7
 10
-118.1172157127228
 20
104.5060639625385
 40
12.04999999999995
 50
36.92817412019641
 51
148.9673471353922
  0
LINE
  8
1
  6
CONTINUOUS
 62
     7
 10
-101.3017050664847
 20
113.6705092736033
 11
-108.4845744491069
 21
111.7458652226895
  0
LINE
  8
1
  6
CONTINUOUS
 62
     7
 10
-99.46458775932702
 20
112.6098491019539
 11
-101.3017050664847
 21
113.6705092736033
  0
LINE
  8
1
  6
CONTINUOUS
 62
     7
 10
-128.2803278197468
 20
109.483291886463
 11
-127.6987187762877
 21
108.9216385619417
  0
LINE
  8
1
  6
CONTINUOUS
 62
     7
 10
-101.3017050647564
 20
87.22949072867213
 11
-99.46458775774113
 21
88.29015090056271
  0
LINE
  8
1
  6
CONTINUOUS
 62
     7
 10
-101.3017050647564
 20
87.22949072867213
 11
-108.4845744476303
 21
89.15413477864696
  0
ARC
  8
1
  6
CONTINUOUS
 62
     7
 10
-118.1172157121925
 20
96.39393603753872
 40
12.04999999999996
 50
211.0326528720977
 51
323.0718258872935
  0
ARC
  8
1
  6
CONTINUOUS
 62
     7
 10
-127.5856694480599
 20
90.69736831199236
 40
1.000000000000021
 50
134.0000000037448
 51
211.0326528720979
  0
LINE
  8
1
  6
CONTINUOUS
 62
     7
 10
-128.280327818566
 20
91.41670811228562
 11
-127.6987187751483
 21
91.97836143691374
  0
LINE
  8
1
  6
CONTINUOUS
 62
     7
 10
-97.53273610678636
 20
113.1274871922839
 11
-97.27391706162322
 21
112.1615613660008
  0
LINE
  8
1
  6
CONTINUOUS
 62
     7
 10
-97.27391706162322
 20
112.1615613660008
 11
-98.23984288789542
 21
111.9027423208353
  0
ARC
  8
1
  6
CONTINUOUS
 62
     7
 10
-98.49866193305597
 20
112.8686681471088
 40
1.000000000002562
 50
195.0000000031663
 51
285.0000000034427
  0
LINE
  8
1
  6
CONTINUOUS
 62
     7
 10
-99.46458775932702
 20
112.6098491019539
 11
-97.53273610678636
 21
113.1274871922839
  0
LINE
  8
1
  6
CONTINUOUS
 62
     7
 10
-98.23984288789542
 20
111.9027423208353
 11
-108.1688127554276
 21
109.2422828625105
  0
LINE
  8
1
  6
CONTINUOUS
 62
     7
 10
-98.2398408066745
 20
88.99726544357485
 11
-108.1688142644261
 21
91.65771754365596
  0
ARC
  8
1
  6
CONTINUOUS
 62
     7
 10
-98.49866193145748
 20
88.03133185553975
 40
1.000000000002547
 50
75.00000000404668
 51
165.0000000043233
  0
LINE
  8
1
  6
CONTINUOUS
 62
     7
 10
-97.27391477804548
 20
88.7384471536153
 11
-97.53273610512909
 21
87.77251281058403
  0
LINE
  8
1
  6
CONTINUOUS
 62
     7
 10
-97.53273610512909
 20
87.77251281058403
 11
-99.46458775774113
 21
88.29015090056271
  0
LINE
  8
1
  6
CONTINUOUS
 62
     7
 10
-98.2398408066745
 20
88.99726544357485
 11
-97.27391477804548
 21
88.7384471536153
  0
ARC
  8
1
  6
CONTINUOUS
 62
     7
 10
-108.6864508457586
 20
111.1741345150549
 40
2.000000000000002
 50
215.2951713203277
 51
270.0
  0
ARC
  8
1
  6
CONTINUOUS
 62
     7
 10
-108.6864508457586
 20
111.1741345150549
 40
2.000000000000004
 50
270.0
 51
285.0000000037355
  0
ARC
  8
1
  6
CONTINUOUS
 62
     7
 10
-108.6864508443567
 20
89.72586548635499
 40
1.99999999999999
 50
75.0000447927816
 51
144.704828689496
  0
ARC
  8
1
  6
CONTINUOUS
 62
     7
 10
-128.7544364610169
 20
109.0062901335432
 40
1.000000000000012
 50
285.0000000038131
 51
337.068522965274
  0
ARC
  8
1
  6
CONTINUOUS
 62
     7
 10
-118.1172157127228
 20
104.5060639625385
 40
10.54999999999995
 50
155.2576880989286
 51
157.0685229652743
  0
ARC
  8
1
  6
CONTINUOUS
 62
     7
 10
-128.7544364610169
 20
109.0062901335432
 40
2.000000000000011
 50
285.0000000042929
 51
335.6476515719602
  0
LINE
  8
1
  6
CONTINUOUS
 62
     7
 10
-128.4956174158501
 20
108.0403643072713
 11
-128.8308127388003
 21
107.9505489912461
  0
LINE
  8
1
  6
CONTINUOUS
 62
     7
 10
-128.5719936936221
 20
106.9846231649639
 11
-128.236798370687
 21
107.074438481078
  0
ARC
  8
1
  6
CONTINUOUS
 62
     7
 10
-118.1172157121925
 20
96.39393603763864
 40
10.54999999999995
 50
202.9314770426728
 51
204.7423119089749
  0
ARC
  8
1
  6
CONTINUOUS
 62
     7
 10
-128.7544364598983
 20
91.89370986514335
 40
1.00000000000001
 50
22.93147704267301
 51
75.00000000401792
  0
ARC
  8
1
  6
CONTINUOUS
 62
     7
 10
-128.7544364598983
 20
91.89370986514335
 40
1.999999999999995
 50
24.35234843553364
 51
75.00000000413715
  0
LINE
  8
1
  6
CONTINUOUS
 62
     7
 10
-128.2367983698328
 20
93.82556151775884
 11
-128.5719936927443
 21
93.91537683383429
  0
LINE
  8
1
  6
CONTINUOUS
 62
     7
 10
-128.8308127377954
 20
92.94945100752184
 11
-128.495617414861
 21
92.85963569146008
  0
LINE
  8
1
  6
CONTINUOUS
 62
     7
 10
-134.9260802370909
 20
105.5500004535552
 11
-134.9260802371411
 21
106.3173270804397
  0
LINE
  8
1
  6
CONTINUOUS
 62
     7
 10
-135.9260850396309
 20
106.3173272630854
 11
-134.9260802371411
 21
106.3173270804398
  0
ARC
  8
1
  6
CONTINUOUS
 62
     7
 10
-135.9260852222756
 20
105.3173272630856
 40
1.000000000000018
 50
89.99998953522727
 51
180.0000000037463
  0
ARC
  8
1
  6
CONTINUOUS
 62
     7
 10
-135.9260850583169
 20
95.58267452938466
 40
1.000000000000005
 50
180.0000000037421
 51
269.9999801775368
  0
LINE
  8
1
  6
CONTINUOUS
 62
     7
 10
-134.9260852215741
 20
94.58267434673999
 11
-134.9260852216242
 21
95.35000169581605
  0
LINE
  8
1
  6
CONTINUOUS
 62
     7
 10
-135.9260854042841
 20
94.58267452938469
 11
-134.9260852215741
 21
94.5826743467399
  0
LINE
  8
1
  6
CONTINUOUS
 62
     7
 10
-134.1849039178696
 20
94.38407541502296
 11
-134.1962123902853
 21
94.38710551107353
  0
LINE
  8
1
  6
CONTINUOUS
 62
     7
 10
-134.1962123902853
 20
94.38710551107353
 11
-134.9260852215741
 21
94.5826743467399
  0
LINE
  8
1
  6
CONTINUOUS
 62
     7
 10
-134.9260802371411
 20
106.3173270804398
 11
-134.1962075425261
 21
106.5128957861309
  0
LINE
  8
1
  6
CONTINUOUS
 62
     7
 10
-100.6893326307805
 20
113.3169558830563
 11
-100.4478511742004
 21
113.3816606443509
  0
LINE
  8
1
  6
CONTINUOUS
 62
     7
 10
-139.2260852219545
 20
125.45
 11
-136.9260852219545
 21
125.45
  0
LINE
  8
1
  6
CONTINUOUS
 62
     7
 10
-136.9260852219545
 20
125.45
 11
-136.9260852219545
 21
122.45
  0
LINE
  8
1
  6
CONTINUOUS
 62
     7
 10
-139.2260852219545
 20
122.45
 11
-139.2260852219545
 21
125.45
  0
LINE
  8
1
  6
CONTINUOUS
 62
     7
 10
-136.9260852219545
 20
122.45
 11
-136.9260852219545
 21
78.45
  0
LINE
  8
1
  6
CONTINUOUS
 62
     7
 10
-139.2260852219545
 20
122.45
 11
-139.2260852219545
 21
78.45
  0
LINE
  8
1
  6
CONTINUOUS
 62
     7
 10
-136.9260852219545
 20
78.45
 11
-136.9260852219545
 21
75.45
  0
LINE
  8
1
  6
CONTINUOUS
 62
     7
 10
-136.9260852219545
 20
75.45
 11
-139.2260852219545
 21
75.45
  0
LINE
  8
1
  6
CONTINUOUS
 62
     7
 10
-139.2260852219545
 20
75.45
 11
-139.2260852219545
 21
78.45
  0
LINE
  8
1
  6
CONTINUOUS
 62
     7
 10
-139.2260852219545
 20
125.45
 11
-139.8525926373649
 21
125.45
  0
LINE
  8
1
  6
CONTINUOUS
 62
     7
 10
-139.8525926373649
 20
75.45
 11
-139.2260852219545
 21
75.45
  0
POLYLINE
  8
1
  6
CONTINUOUS
 62
     7
 66
     1
  0
VERTEX
  8
1
  6
CONTINUOUS
 62
     7
 10
-162.342869552788
 20
75.45
  0
VERTEX
  8
1
  6
CONTINUOUS
 62
     7
 10
-162.2254916832574
 20
75.46675314730882
  0
VERTEX
  8
1
  6
CONTINUOUS
 62
     7
 10
-162.1061381683027
 20
75.51824585258149
  0
VERTEX
  8
1
  6
CONTINUOUS
 62
     7
 10
-161.9890304019838
 20
75.60415820990133
  0
VERTEX
  8
1
  6
CONTINUOUS
 62
     7
 10
-161.9146153862308
 20
75.67871215146373
  0
SEQEND
  8
1
  6
CONTINUOUS
 62
     7
  0
ARC
  8
1
  6
CONTINUOUS
 62
     7
 10
-163.9740658639092
 20
77.20818724033316
 40
2.565273926402778
 50
323.4001401382798
 51
359.2394812164056
  0
LINE
  8
1
  6
CONTINUOUS
 62
     7
 10
-163.2927391989531
 20
75.45
 11
-162.342869552788
 21
75.45
  0
LINE
  8
1
  6
CONTINUOUS
 62
     7
 10
-163.2927391989531
 20
125.45
 11
-162.342869552788
 21
125.45
  0
ARC
  8
1
  6
CONTINUOUS
 62
     7
 10
-163.9573410721776
 20
123.6919991108977
 40
2.548548134776019
 50
0.7613203953990553
 51
37.55531012413614
  0
POLYLINE
  8
1
  6
CONTINUOUS
 62
     7
 66
     1
  0
VERTEX
  8
1
  6
CONTINUOUS
 62
     7
 10
-161.9369405285548
 20
125.2454080199101
  0
VERTEX
  8
1
  6
CONTINUOUS
 62
     7
 10
-162.0442781178237
 20
125.3409378984083
  0
VERTEX
  8
1
  6
CONTINUOUS
 62
     7
 10
-162.1564890824802
 20
125.4077727937555
  0
VERTEX
  8
1
  6
CONTINUOUS
 62
     7
 10
-162.2695221683915
 20
125.4434474288048
  0
VERTEX
  8
1
  6
CONTINUOUS
 62
     7
 10
-162.342869552788
 20
125.45
  0
SEQEND
  8
1
  6
CONTINUOUS
 62
     7
  0
ARC
  8
1
  6
CONTINUOUS
 62
     7
 10
-148.0253888612067
 20
123.577841033035
 40
13.38444757812226
 50
179.3663426543097
 51
224.3256653615525
  0
ARC
  8
1
  6
CONTINUOUS
 62
     7
 10
-153.9981732160833
 20
118.6733005370425
 40
5.723399850613096
 50
230.9957878672282
 51
270.3375324724627
  0
ARC
  8
1
  6
CONTINUOUS
 62
     7
 10
-142.0010288403986
 20
123.5421103739262
 40
1.908153702223457
 50
90.95323625416542
 51
174.4739583664916
  0
ARC
  8
1
  6
CONTINUOUS
 62
     7
 10
-142.0016715017413
 20
77.35719351218823
 40
1.907447097507887
 50
185.5070879456085
 51
269.0657174337355
  0
ARC
  8
1
  6
CONTINUOUS
 62
     7
 10
-156.2453586165226
 20
75.95406335842128
 40
12.40518831708636
 50
5.644276837542298
 51
72.66943273199216
  0
ARC
  8
1
  6
CONTINUOUS
 62
     7
 10
-153.9824295296737
 20
81.2091671255247
 40
6.74085674651945
 50
77.73154980837516
 51
89.84751567061201
  0
LINE
  8
1
  6
CONTINUOUS
 62
     7
 10
-142.0327735411981
 20
125.45
 11
-139.8525926373649
 21
125.45
  0
LINE
  8
1
  6
CONTINUOUS
 62
     7
 10
-142.0327735411981
 20
75.45
 11
-139.8525926373649
 21
75.45
  0
ARC
  8
1
  6
CONTINUOUS
 62
     7
 10
-153.6322852941873
 20
81.19149725044514
 40
6.766662339307846
 50
92.8140265518139
 51
163.4567618563377
  0
ARC
  8
1
  6
CONTINUOUS
 62
     7
 10
-142.4284558978241
 20
76.1664363761016
 40
19.00729325933185
 50
158.546658850583
 51
176.9609493022236
  0
ARC
  8
1
  6
CONTINUOUS
 62
     7
 10
-146.2517933531036
 20
77.36484693064894
 40
13.45314388477934
 50
136.3027197450923
 51
180.8122403865533
  0
ARC
  8
1
  6
CONTINUOUS
 62
     7
 10
-152.3853353236785
 20
82.2938371422089
 40
5.6536911815152
 50
97.67648087140225
 51
129.459172067039
  0
ARC
  8
1
  6
CONTINUOUS
 62
     7
 10
-151.6370114151585
 20
120.1157025777087
 40
7.269902023305883
 50
192.1015295235597
 51
258.0472149642596
  0
ARC
  8
1
  6
CONTINUOUS
 62
     7
 10
-139.3553535052899
 20
124.8669862205297
 40
20.38020381077926
 50
183.2097720633739
 51
197.9336512047075
  0
ARC
  8
1
  6
CONTINUOUS
 62
     7
 10
-155.1199794726161
 20
123.7445889339369
 40
10.85626010443835
 50
276.1100450428601
 51
340.0614094440688
  0
ARC
  8
1
  6
CONTINUOUS
 62
     7
 10
-157.4432833647586
 20
125.4733164533152
 40
13.65524088301344
 50
336.564787459621
 51
352.6477266483952
  0
LINE
  8
1
  6
CONTINUOUS
 62
     7
 10
-160.6072944174475
 20
75.45
 11
-162.342869552788
 21
75.45
  0
ARC
  8
1
  6
CONTINUOUS
 62
     7
 10
-162.3152442136235
 20
77.20703829590728
 40
2.611865992336386
 50
323.6354983876711
 51
359.27825473761
  0
POLYLINE
  8
1
  6
CONTINUOUS
 62
     7
 66
     1
  0
VERTEX
  8
1
  6
CONTINUOUS
 62
     7
 10
-160.2120095996061
 20
75.65841047737803
  0
VERTEX
  8
1
  6
CONTINUOUS
 62
     7
 10
-160.3155779462045
 20
75.56192748071817
  0
VERTEX
  8
1
  6
CONTINUOUS
 62
     7
 10
-160.4236827442404
 20
75.49410695965344
  0
VERTEX
  8
1
  6
CONTINUOUS
 62
     7
 10
-160.5338935048276
 20
75.45707061168673
  0
VERTEX
  8
1
  6
CONTINUOUS
 62
     7
 10
-160.6072944174475
 20
75.45
  0
SEQEND
  8
1
  6
CONTINUOUS
 62
     7
  0
LINE
  8
1
  6
CONTINUOUS
 62
     7
 10
-162.342869552788
 20
125.45
 11
-160.6072944174475
 21
125.45
  0
POLYLINE
  8
1
  6
CONTINUOUS
 62
     7
 66
     1
  0
VERTEX
  8
1
  6
CONTINUOUS
 62
     7
 10
-160.6072944174475
 20
125.45
  0
VERTEX
  8
1
  6
CONTINUOUS
 62
     7
 10
-160.4936265079166
 20
125.4330783203207
  0
VERTEX
  8
1
  6
CONTINUOUS
 62
     7
 10
-160.3778396696322
 20
125.3810339814561
  0
VERTEX
  8
1
  6
CONTINUOUS
 62
     7
 10
-160.2640352600696
 20
125.2941198249438
  0
VERTEX
  8
1
  6
CONTINUOUS
 62
     7
 10
-160.1916244796175
 20
125.218626164291
  0
SEQEND
  8
1
  6
CONTINUOUS
 62
     7
  0
ARC
  8
1
  6
CONTINUOUS
 62
     7
 10
-162.3354279737725
 20
123.6915776716682
 40
2.632065827515132
 50
0.7463365087106696
 51
35.46257689765821
  0
LINE
  8
1
  6
CONTINUOUS
 62
     7
 10
-163.2927391989531
 20
125.45
 11
-164.220372364195
 21
125.45
  0
LINE
  8
1
  6
CONTINUOUS
 62
     7
 10
-164.220372364195
 20
75.45
 11
-163.2927391989531
 21
75.45
  0
ARC
  8
1
  6
CONTINUOUS
 62
     7
 10
-170.0260852219545
 20
117.95
 40
2.599999999999991
 50
270.0000000000001
 51
89.99999999999962
  0
LINE
  8
1
  6
CONTINUOUS
 62
     7
 10
-170.0260852219545
 20
120.55
 11
-179.8260852219545
 21
120.5500000000001
  0
ARC
  8
1
  6
CONTINUOUS
 62
     7
 10
-179.8260852219545
 20
117.95
 40
2.600000000000019
 50
90.0
 51
269.9999999999995
  0
LINE
  8
1
  6
CONTINUOUS
 62
     7
 10
-179.8260852219545
 20
115.35
 11
-170.0260852219545
 21
115.35
  0
ARC
  8
1
  6
CONTINUOUS
 62
     7
 10
-172.9260852219545
 20
100.45
 40
5.499999999999977
 50
270.0
 51
90.00000000000016
  0
LINE
  8
1
  6
CONTINUOUS
 62
     7
 10
-172.9260852219546
 20
105.95
 11
-176.9260852219545
 21
105.95
  0
ARC
  8
1
  6
CONTINUOUS
 62
     7
 10
-176.9260852219545
 20
100.45
 40
5.500000000000004
 50
90.0
 51
270.0000000000001
  0
LINE
  8
1
  6
CONTINUOUS
 62
     7
 10
-176.9260852219545
 20
94.94999999999999
 11
-172.9260852219545
 21
94.95000000000002
  0
ARC
  8
1
  6
CONTINUOUS
 62
     7
 10
-170.0260852219545
 20
82.95
 40
2.600000000000005
 50
270.0000000000002
 51
89.9999999999993
  0
LINE
  8
1
  6
CONTINUOUS
 62
     7
 10
-170.0260852219545
 20
85.55
 11
-179.8260852219545
 21
85.55
  0
ARC
  8
1
  6
CONTINUOUS
 62
     7
 10
-179.8260852219545
 20
82.95
 40
2.599999999999991
 50
90.00000000000021
 51
269.9999999999998
  0
LINE
  8
1
  6
CONTINUOUS
 62
     7
 10
-179.8260852219545
 20
80.35000000000001
 11
-170.0260852219545
 21
80.35000000000001
  0
LINE
  8
1
  6
CONTINUOUS
 62
     7
 10
-186.9260852219545
 20
122.45
 11
-186.9260852219545
 21
78.45
  0
ARC
  8
1
  6
CONTINUOUS
 62
     7
 10
-183.9260852219545
 20
78.45
 40
3.000000000000003
 50
180.0
 51
270.0
  0
ARC
  8
1
  6
CONTINUOUS
 62
     7
 10
-183.9260852219545
 20
122.45
 40
3.000000000000003
 50
90.0
 51
180.0
  0
LINE
  8
1
  6
CONTINUOUS
 62
     7
 10
-183.9260852219545
 20
125.45
 11
-164.220372364195
 21
125.45
  0
LINE
  8
1
  6
CONTINUOUS
 62
     7
 10
-183.9260852219545
 20
75.45
 11
-164.220372364195
 21
75.45
  0
LINE
  8
1
  6
CONTINUOUS
 62
     7
 10
-139.2260852219545
 20
107.55
 11
-140.3260852219545
 21
107.55
  0
LINE
  8
1
  6
CONTINUOUS
 62
     7
 10
-140.3260852219545
 20
93.35
 11
-139.2260852219545
 21
93.35
  0
LINE
  8
1
  6
CONTINUOUS
 62
     7
 10
-140.3260852219545
 20
107.55
 11
-140.9446410752453
 21
106.2235026918962
  0
LINE
  8
1
  6
CONTINUOUS
 62
     7
 10
-140.9446410752453
 20
94.67649730810375
 11
-140.3260852219545
 21
93.35
  0
LINE
  8
1
  6
CONTINUOUS
 62
     7
 10
-144.7795032345693
 20
106.2235026918962
 11
-145.2260852219545
 21
105.45
  0
LINE
  8
1
  6
CONTINUOUS
 62
     7
 10
-145.2260852219545
 20
95.44999999999999
 11
-144.7795032345693
 21
94.67649730810375
  0
ARC
  8
1
  6
CONTINUOUS
 62
     7
 10
-139.3260802367582
 20
100.4499999985218
 40
10.00000000000088
 50
20.18179577061948
 51
35.66233868958331
  0
ARC
  8
1
  6
CONTINUOUS
 62
     7
 10
-139.3260802367582
 20
100.4499999985218
 40
10.00000000000091
 50
324.3376613197339
 51
339.8182042368706
  0
LINE
  8
1
  6
CONTINUOUS
 62
     7
 10
-145.4260802365647
 20
97.4499999981228
 11
-145.2260852219554
 21
97.44999999813588
  0
LINE
  8
1
  6
CONTINUOUS
 62
     7
 10
-145.2260852219554
 20
103.4499999981364
 11
-145.4260802369569
 21
103.4499999981233
  0
LINE
  8
1
  6
CONTINUOUS
 62
     7
 10
-145.426080236955
 20
103.4499999981233
 11
-145.9260802369224
 21
102.9499999980906
  0
LINE
  8
1
  6
CONTINUOUS
 62
     7
 10
-145.9260802365956
 20
97.94999999809016
 11
-145.4260802365628
 21
97.44999999812278
  0
LINE
  8
1
  6
CONTINUOUS
 62
     7
 10
-100.3831464129082
 20
113.1401791877799
 11
-100.4478511742001
 21
113.3816606443501
  0
ENDBLK
  8
0
  0
BLOCK
  8
0
  2
D_FRAME_VIEW_2738
 70
     0
 10
0.0
 20
0.0
  0
ARC
  8
1
  6
CONTINUOUS
 62
     7
 10
-132.4328827664472
 20
160.3
 40
8.871303709567933
 50
163.6318878435414
 51
196.3681121564585
  0
ARC
  8
1
  6
CONTINUOUS
 62
     7
 10
-132.4328827664472
 20
155.3
 40
8.871303709567934
 50
163.6318878435415
 51
196.3681121564585
  0
LINE
  8
1
  6
CONTINUOUS
 62
     7
 10
-140.3260852219545
 20
150.7
 11
-140.3260852219545
 21
164.9
  0
LINE
  8
1
  6
CONTINUOUS
 62
     7
 10
-144.7795032345693
 20
157.8
 11
-140.9446410752453
 21
157.8
  0
ARC
  8
1
  6
CONTINUOUS
 62
     7
 10
-137.5766651430912
 20
160.3765501941738
 40
7.649803100416698
 50
180.5733580580529
 51
199.682799942363
  0
ARC
  8
1
  6
CONTINUOUS
 62
     7
 10
-137.391821463084
 20
160.1904306626369
 40
7.835029935057171
 50
160.5451235887139
 51
179.1987184108702
  0
LINE
  8
1
  6
CONTINUOUS
 62
     7
 10
-144.7795032345693
 20
162.8
 11
-140.9446410752453
 21
162.8
  0
ARC
  8
1
  6
CONTINUOUS
 62
     7
 10
-137.391821463084
 20
155.1904306626369
 40
7.835029935057157
 50
160.5451235887138
 51
179.1987184108702
  0
LINE
  8
1
  6
CONTINUOUS
 62
     7
 10
-145.2260852219545
 20
160.3
 11
-145.2260852219545
 21
155.3
  0
LINE
  8
1
  6
CONTINUOUS
 62
     7
 10
-144.7795032345693
 20
152.8
 11
-140.9446410752453
 21
152.8
  0
ARC
  8
1
  6
CONTINUOUS
 62
     7
 10
-137.5766651430912
 20
155.3765501941738
 40
7.649803100416698
 50
180.5733580580529
 51
199.6827999423631
  0
LINE
  8
1
  6
CONTINUOUS
 62
     7
 10
-145.2260852219545
 20
162.8
 11
-144.7795032345693
 21
162.8
  0
LINE
  8
1
  6
CONTINUOUS
 62
     7
 10
-145.2260852219545
 20
162.8
 11
-145.2260852219545
 21
160.3
  0
LINE
  8
1
  6
CONTINUOUS
 62
     7
 10
-144.7795032345693
 20
152.8
 11
-145.2260852219545
 21
152.8
  0
LINE
  8
1
  6
CONTINUOUS
 62
     7
 10
-145.2260852219545
 20
152.8
 11
-145.2260852219545
 21
155.3
  0
LINE
  8
1
  6
CONTINUOUS
 62
     7
 10
-145.4260802367589
 20
160.8
 11
-145.4260802367589
 21
154.7999999999992
  0
LINE
  8
1
  6
CONTINUOUS
 62
     7
 10
-145.926080236759
 20
155.2999999999992
 11
-145.926080236759
 21
160.3
  0
LINE
  8
1
  6
CONTINUOUS
 62
     7
 10
-108.4845744491069
 20
151.7999999999996
 11
-108.4845744491069
 21
150.7999999999996
  0
LINE
  8
1
  6
CONTINUOUS
 62
     7
 10
-108.4845744491067
 20
150.7999999999996
 11
-128.4425430906575
 21
150.7999999999996
  0
LINE
  8
1
  6
CONTINUOUS
 62
     7
 10
-108.4845744491067
 20
151.7999999999996
 11
-128.4425430906575
 21
151.7999999999996
  0
LINE
  8
1
  6
CONTINUOUS
 62
     7
 10
-108.484574449107
 20
163.7999999999997
 11
-108.484574449107
 21
164.7999999999997
  0
LINE
  8
1
  6
CONTINUOUS
 62
     7
 10
-108.4845744491067
 20
163.7999999999997
 11
-128.4425430906575
 21
163.7999999999997
  0
LINE
  8
1
  6
CONTINUOUS
 62
     7
 10
-108.4845744491067
 20
164.7999999999997
 11
-128.4425430906575
 21
164.7999999999997
  0
LINE
  8
1
  6
CONTINUOUS
 62
     7
 10
-101.3017050664847
 20
150.7999999999996
 11
-101.3017050664847
 21
151.7999999999996
  0
LINE
  8
1
  6
CONTINUOUS
 62
     7
 10
-101.3017050664847
 20
151.7999999999996
 11
-108.4845744491069
 21
151.7999999999996
  0
LINE
  8
1
  6
CONTINUOUS
 62
     7
 10
-101.3017050664847
 20
150.7999999999996
 11
-108.4845744491069
 21
150.7999999999996
  0
LINE
  8
1
  6
CONTINUOUS
 62
     7
 10
-99.46458775932702
 20
150.7999999999996
 11
-99.46458775933073
 21
151.7999999999996
  0
LINE
  8
1
  6
CONTINUOUS
 62
     7
 10
-101.3017050664847
 20
151.7999999999996
 11
-99.46458775933073
 21
151.7999999999996
  0
LINE
  8
1
  6
CONTINUOUS
 62
     7
 10
-99.46458775932702
 20
150.7999999999996
 11
-101.3017050664847
 21
150.7999999999996
  0
LINE
  8
1
  6
CONTINUOUS
 62
     7
 10
-101.3017050664847
 20
163.7999999999997
 11
-101.3017050664847
 21
164.7999999999997
  0
LINE
  8
1
  6
CONTINUOUS
 62
     7
 10
-101.3017050664847
 20
163.7999999999997
 11
-108.484574449107
 21
163.7999999999997
  0
LINE
  8
1
  6
CONTINUOUS
 62
     7
 10
-101.3017050664847
 20
164.7999999999997
 11
-108.484574449107
 21
164.7999999999997
  0
LINE
  8
1
  6
CONTINUOUS
 62
     7
 10
-99.46458775933073
 20
163.7999999999997
 11
-99.46458775933073
 21
164.7999999999997
  0
LINE
  8
1
  6
CONTINUOUS
 62
     7
 10
-99.46458775933073
 20
163.7999999999997
 11
-101.3017050664847
 21
163.7999999999997
  0
LINE
  8
1
  6
CONTINUOUS
 62
     7
 10
-101.3017050664847
 20
164.7999999999997
 11
-99.46458775933073
 21
164.7999999999997
  0
POLYLINE
  8
1
  6
CONTINUOUS
 62
     7
 66
     1
  0
VERTEX
  8
1
  6
CONTINUOUS
 62
     7
 10
-100.1890321290349
 20
157.7999999999997
  0
VERTEX
  8
1
  6
CONTINUOUS
 62
     7
 10
-100.24935210922
 20
158.4340435465521
  0
VERTEX
  8
1
  6
CONTINUOUS
 62
     7
 10
-100.4279939867645
 20
159.0437211551862
  0
VERTEX
  8
1
  6
CONTINUOUS
 62
     7
 10
-100.718092654498
 20
159.6056032573134
  0
VERTEX
  8
1
  6
CONTINUOUS
 62
     7
 10
-101.1084997833086
 20
160.0980970388559
  0
VERTEX
  8
1
  6
CONTINUOUS
 62
     7
 10
-101.584212246179
 20
160.5022762399829
  0
VERTEX
  8
1
  6
CONTINUOUS
 62
     7
 10
-102.1269486799437
 20
160.8026084806613
  0
VERTEX
  8
1
  6
CONTINUOUS
 62
     7
 10
-102.7158520278233
 20
160.9875521613102
  0
VERTEX
  8
1
  6
CONTINUOUS
 62
     7
 10
-103.3282910644195
 20
161.0499999999997
  0
SEQEND
  8
1
  6
CONTINUOUS
 62
     7
  0
POLYLINE
  8
1
  6
CONTINUOUS
 62
     7
 66
     1
  0
VERTEX
  8
1
  6
CONTINUOUS
 62
     7
 10
-103.587110109585
 20
161.0499999999997
  0
VERTEX
  8
1
  6
CONTINUOUS
 62
     7
 10
-104.1995491461812
 20
160.9875521613102
  0
VERTEX
  8
1
  6
CONTINUOUS
 62
     7
 10
-104.7884524940607
 20
160.8026084806613
  0
VERTEX
  8
1
  6
CONTINUOUS
 62
     7
 10
-105.3311889278255
 20
160.5022762399829
  0
VERTEX
  8
1
  6
CONTINUOUS
 62
     7
 10
-105.8069013906959
 20
160.0980970388559
  0
VERTEX
  8
1
  6
CONTINUOUS
 62
     7
 10
-106.1973085195065
 20
159.6056032573134
  0
VERTEX
  8
1
  6
CONTINUOUS
 62
     7
 10
-106.48740718724
 20
159.0437211551862
  0
VERTEX
  8
1
  6
CONTINUOUS
 62
     7
 10
-106.6660490647845
 20
158.4340435465521
  0
VERTEX
  8
1
  6
CONTINUOUS
 62
     7
 10
-106.7263690449696
 20
157.7999999999997
  0
SEQEND
  8
1
  6
CONTINUOUS
 62
     7
  0
POLYLINE
  8
1
  6
CONTINUOUS
 62
     7
 66
     1
  0
VERTEX
  8
1
  6
CONTINUOUS
 62
     7
 10
-103.587110109585
 20
154.5499999999997
  0
VERTEX
  8
1
  6
CONTINUOUS
 62
     7
 10
-102.9746710729888
 20
154.6124478386892
  0
VERTEX
  8
1
  6
CONTINUOUS
 62
     7
 10
-102.3857677251092
 20
154.797391519338
  0
VERTEX
  8
1
  6
CONTINUOUS
 62
     7
 10
-101.8430312913445
 20
155.0977237600164
  0
VERTEX
  8
1
  6
CONTINUOUS
 62
     7
 10
-101.3673188284741
 20
155.5019029611434
  0
VERTEX
  8
1
  6
CONTINUOUS
 62
     7
 10
-100.9769116996634
 20
155.994396742686
  0
VERTEX
  8
1
  6
CONTINUOUS
 62
     7
 10
-100.68681303193
 20
156.5562788448131
  0
VERTEX
  8
1
  6
CONTINUOUS
 62
     7
 10
-100.5081711543855
 20
157.1659564534473
  0
VERTEX
  8
1
  6
CONTINUOUS
 62
     7
 10
-100.4478511742004
 20
157.7999999999997
  0
VERTEX
  8
1
  6
CONTINUOUS
 62
     7
 10
-100.5081711543855
 20
158.4340435465521
  0
VERTEX
  8
1
  6
CONTINUOUS
 62
     7
 10
-100.68681303193
 20
159.0437211551862
  0
VERTEX
  8
1
  6
CONTINUOUS
 62
     7
 10
-100.9769116996634
 20
159.6056032573134
  0
VERTEX
  8
1
  6
CONTINUOUS
 62
     7
 10
-101.3673188284741
 20
160.0980970388559
  0
VERTEX
  8
1
  6
CONTINUOUS
 62
     7
 10
-101.8430312913445
 20
160.5022762399829
  0
VERTEX
  8
1
  6
CONTINUOUS
 62
     7
 10
-102.3857677251092
 20
160.8026084806613
  0
VERTEX
  8
1
  6
CONTINUOUS
 62
     7
 10
-102.9746710729888
 20
160.9875521613102
  0
VERTEX
  8
1
  6
CONTINUOUS
 62
     7
 10
-103.587110109585
 20
161.0499999999997
  0
SEQEND
  8
1
  6
CONTINUOUS
 62
     7
  0
POLYLINE
  8
1
  6
CONTINUOUS
 62
     7
 66
     1
  0
VERTEX
  8
1
  6
CONTINUOUS
 62
     7
 10
-103.3282910644195
 20
154.5499999999997
  0
VERTEX
  8
1
  6
CONTINUOUS
 62
     7
 10
-102.7158520278233
 20
154.6124478386892
  0
VERTEX
  8
1
  6
CONTINUOUS
 62
     7
 10
-102.1269486799437
 20
154.797391519338
  0
VERTEX
  8
1
  6
CONTINUOUS
 62
     7
 10
-101.584212246179
 20
155.0977237600164
  0
VERTEX
  8
1
  6
CONTINUOUS
 62
     7
 10
-101.1084997833086
 20
155.5019029611434
  0
VERTEX
  8
1
  6
CONTINUOUS
 62
     7
 10
-100.718092654498
 20
155.994396742686
  0
VERTEX
  8
1
  6
CONTINUOUS
 62
     7
 10
-100.4279939867645
 20
156.5562788448131
  0
VERTEX
  8
1
  6
CONTINUOUS
 62
     7
 10
-100.24935210922
 20
157.1659564534473
  0
VERTEX
  8
1
  6
CONTINUOUS
 62
     7
 10
-100.1890321290349
 20
157.7999999999997
  0
SEQEND
  8
1
  6
CONTINUOUS
 62
     7
  0
POLYLINE
  8
1
  6
CONTINUOUS
 62
     7
 66
     1
  0
VERTEX
  8
1
  6
CONTINUOUS
 62
     7
 10
-106.7263690449696
 20
157.7999999999997
  0
VERTEX
  8
1
  6
CONTINUOUS
 62
     7
 10
-106.6660490647845
 20
157.1659564534473
  0
VERTEX
  8
1
  6
CONTINUOUS
 62
     7
 10
-106.48740718724
 20
156.5562788448131
  0
VERTEX
  8
1
  6
CONTINUOUS
 62
     7
 10
-106.1973085195065
 20
155.994396742686
  0
VERTEX
  8
1
  6
CONTINUOUS
 62
     7
 10
-105.8069013906959
 20
155.5019029611434
  0
VERTEX
  8
1
  6
CONTINUOUS
 62
     7
 10
-105.3311889278255
 20
155.0977237600164
  0
VERTEX
  8
1
  6
CONTINUOUS
 62
     7
 10
-104.7884524940607
 20
154.797391519338
  0
VERTEX
  8
1
  6
CONTINUOUS
 62
     7
 10
-104.1995491461812
 20
154.6124478386892
  0
VERTEX
  8
1
  6
CONTINUOUS
 62
     7
 10
-103.587110109585
 20
154.5499999999997
  0
SEQEND
  8
1
  6
CONTINUOUS
 62
     7
  0
POLYLINE
  8
1
  6
CONTINUOUS
 62
     7
 66
     1
  0
VERTEX
  8
1
  6
CONTINUOUS
 62
     7
 10
-103.587110109585
 20
160.0499999999997
  0
VERTEX
  8
1
  6
CONTINUOUS
 62
     7
 10
-104.01110636569
 20
160.006766880907
  0
VERTEX
  8
1
  6
CONTINUOUS
 62
     7
 10
-104.4188086834528
 20
159.8787289481501
  0
VERTEX
  8
1
  6
CONTINUOUS
 62
     7
 10
-104.7945492914438
 20
159.6708066276804
  0
VERTEX
  8
1
  6
CONTINUOUS
 62
     7
 10
-105.1238886888156
 20
159.3909902576694
  0
VERTEX
  8
1
  6
CONTINUOUS
 62
     7
 10
-105.394170547223
 20
159.0500330242938
  0
VERTEX
  8
1
  6
CONTINUOUS
 62
     7
 10
-105.5950080864231
 20
158.6610377228211
  0
VERTEX
  8
1
  6
CONTINUOUS
 62
     7
 10
-105.7186832324154
 20
158.2389532245359
  0
VERTEX
  8
1
  6
CONTINUOUS
 62
     7
 10
-105.7604432186974
 20
157.7999999999997
  0
SEQEND
  8
1
  6
CONTINUOUS
 62
     7
  0
LINE
  8
1
  6
CONTINUOUS
 62
     7
 10
-97.53273610678636
 20
152.7999999999996
 11
-97.27391706162322
 21
152.7999999999996
  0
LINE
  8
1
  6
CONTINUOUS
 62
     7
 10
-97.27391706162322
 20
152.7999999999996
 11
-98.23984288789542
 21
151.7999999999996
  0
LINE
  8
1
  6
CONTINUOUS
 62
     7
 10
-99.46458775933073
 20
150.7999999999996
 11
-99.34786411455381
 21
150.843059664265
  0
ARC
  8
1
  6
CONTINUOUS
 62
     7
 10
-103.1113222350266
 20
156.3206366978853
 40
6.6458609061428
 50
304.4916425535586
 51
317.1392901023337
  0
LINE
  8
1
  6
CONTINUOUS
 62
     7
 10
-99.46458775932702
 20
150.7999999999996
 11
-97.53273610678636
 21
152.7999999999996
  0
LINE
  8
1
  6
CONTINUOUS
 62
     7
 10
-97.53273610678636
 20
162.7999999999997
 11
-99.46458775933073
 21
164.7999999999997
  0
LINE
  8
1
  6
CONTINUOUS
 62
     7
 10
-97.53273610678636
 20
152.7999999999996
 11
-97.53273610678636
 21
162.7999999999997
  0
LINE
  8
1
  6
CONTINUOUS
 62
     7
 10
-97.27391706162322
 20
162.7999999999997
 11
-97.53273610678636
 21
162.7999999999997
  0
LINE
  8
1
  6
CONTINUOUS
 62
     7
 10
-97.27391706162322
 20
152.7999999999996
 11
-97.27391706162322
 21
162.7999999999997
  0
ARC
  8
1
  6
CONTINUOUS
 62
     7
 10
-102.649856480718
 20
159.774822490527
 40
5.970785029763229
 50
42.38782393415368
 51
56.97254411035189
  0
LINE
  8
1
  6
CONTINUOUS
 62
     7
 10
-99.39553467456464
 20
164.7807852804046
 11
-99.46458775933074
 21
164.7999999999997
  0
LINE
  8
1
  6
CONTINUOUS
 62
     7
 10
-98.23984288789542
 20
163.7999999999997
 11
-97.27391706162322
 21
162.7999999999997
  0
POLYLINE
  8
1
  6
CONTINUOUS
 62
     7
 66
     1
  0
VERTEX
  8
1
  6
CONTINUOUS
 62
     7
 10
-105.7604432186974
 20
157.7999999999997
  0
VERTEX
  8
1
  6
CONTINUOUS
 62
     7
 10
-105.7186832324154
 20
157.3610467754634
  0
VERTEX
  8
1
  6
CONTINUOUS
 62
     7
 10
-105.5950080864231
 20
156.9389622771782
  0
VERTEX
  8
1
  6
CONTINUOUS
 62
     7
 10
-105.394170547223
 20
156.5499669757056
  0
VERTEX
  8
1
  6
CONTINUOUS
 62
     7
 10
-105.1238886888156
 20
156.2090097423299
  0
VERTEX
  8
1
  6
CONTINUOUS
 62
     7
 10
-104.7945492914438
 20
155.9291933723189
  0
VERTEX
  8
1
  6
CONTINUOUS
 62
     7
 10
-104.4188086834528
 20
155.7212710518493
  0
VERTEX
  8
1
  6
CONTINUOUS
 62
     7
 10
-104.01110636569
 20
155.5932331190924
  0
VERTEX
  8
1
  6
CONTINUOUS
 62
     7
 10
-103.587110109585
 20
155.5499999999997
  0
SEQEND
  8
1
  6
CONTINUOUS
 62
     7
  0
POLYLINE
  8
1
  6
CONTINUOUS
 62
     7
 66
     1
  0
VERTEX
  8
1
  6
CONTINUOUS
 62
     7
 10
-103.587110109585
 20
155.5499999999997
  0
VERTEX
  8
1
  6
CONTINUOUS
 62
     7
 10
-103.1631138534799
 20
155.5932331190924
  0
VERTEX
  8
1
  6
CONTINUOUS
 62
     7
 10
-102.7554115357171
 20
155.7212710518493
  0
VERTEX
  8
1
  6
CONTINUOUS
 62
     7
 10
-102.3796709277262
 20
155.9291933723189
  0
VERTEX
  8
1
  6
CONTINUOUS
 62
     7
 10
-102.0503315303543
 20
156.2090097423299
  0
VERTEX
  8
1
  6
CONTINUOUS
 62
     7
 10
-101.780049671947
 20
156.5499669757056
  0
VERTEX
  8
1
  6
CONTINUOUS
 62
     7
 10
-101.5792121327469
 20
156.9389622771782
  0
VERTEX
  8
1
  6
CONTINUOUS
 62
     7
 10
-101.4555369867545
 20
157.3610467754634
  0
VERTEX
  8
1
  6
CONTINUOUS
 62
     7
 10
-101.4137770004726
 20
157.7999999999997
  0
VERTEX
  8
1
  6
CONTINUOUS
 62
     7
 10
-101.4555369867545
 20
158.238953224536
  0
VERTEX
  8
1
  6
CONTINUOUS
 62
     7
 10
-101.5792121327469
 20
158.6610377228211
  0
VERTEX
  8
1
  6
CONTINUOUS
 62
     7
 10
-101.780049671947
 20
159.0500330242938
  0
VERTEX
  8
1
  6
CONTINUOUS
 62
     7
 10
-102.0503315303544
 20
159.3909902576694
  0
VERTEX
  8
1
  6
CONTINUOUS
 62
     7
 10
-102.3796709277262
 20
159.6708066276804
  0
VERTEX
  8
1
  6
CONTINUOUS
 62
     7
 10
-102.7554115357172
 20
159.8787289481501
  0
VERTEX
  8
1
  6
CONTINUOUS
 62
     7
 10
-103.1631138534799
 20
160.006766880907
  0
VERTEX
  8
1
  6
CONTINUOUS
 62
     7
 10
-103.587110109585
 20
160.0499999999997
  0
SEQEND
  8
1
  6
CONTINUOUS
 62
     7
  0
LINE
  8
1
  6
CONTINUOUS
 62
     7
 10
-128.5856694493349
 20
151.7999999999996
 11
-128.4425430906572
 21
151.7999999999996
  0
LINE
  8
1
  6
CONTINUOUS
 62
     7
 10
-128.4425430906572
 20
150.7999999999996
 11
-128.5856694493349
 21
150.7999999999996
  0
LINE
  8
1
  6
CONTINUOUS
 62
     7
 10
-128.5856694493349
 20
164.7999999999997
 11
-128.4425430906572
 21
164.7999999999997
  0
LINE
  8
1
  6
CONTINUOUS
 62
     7
 10
-128.4425430906572
 20
163.7999999999997
 11
-128.5856694493349
 21
163.7999999999997
  0
LINE
  8
1
  6
CONTINUOUS
 62
     7
 10
-129.7967385650722
 20
165.2999999999997
 11
-134.184899282247
 21
165.2999999999997
  0
POLYLINE
  8
1
  6
CONTINUOUS
 62
     7
 66
     1
  0
VERTEX
  8
1
  6
CONTINUOUS
 62
     7
 10
-128.8308127388003
 20
164.2999999999997
  0
VERTEX
  8
1
  6
CONTINUOUS
 62
     7
 10
-128.8493727327034
 20
164.4950903220158
  0
VERTEX
  8
1
  6
CONTINUOUS
 62
     7
 10
-128.9043394642555
 20
164.6826834323648
  0
VERTEX
  8
1
  6
CONTINUOUS
 62
     7
 10
-128.9936005927889
 20
164.8555702330193
  0
VERTEX
  8
1
  6
CONTINUOUS
 62
     7
 10
-129.1137258631921
 20
165.0071067811863
  0
VERTEX
  8
1
  6
CONTINUOUS
 62
     7
 10
-129.2600989286907
 20
165.1314696123023
  0
VERTEX
  8
1
  6
CONTINUOUS
 62
     7
 10
-129.4270947544644
 20
165.223879532511
  0
VERTEX
  8
1
  6
CONTINUOUS
 62
     7
 10
-129.6082957845811
 20
165.2807852804029
  0
VERTEX
  8
1
  6
CONTINUOUS
 62
     7
 10
-129.7967385650722
 20
165.2999999999997
  0
SEQEND
  8
1
  6
CONTINUOUS
 62
     7
  0
LINE
  8
1
  6
CONTINUOUS
 62
     7
 10
-128.8308127388003
 20
163.7999999999997
 11
-128.8308127388003
 21
164.2999999999997
  0
LINE
  8
1
  6
CONTINUOUS
 62
     7
 10
-128.8308127388003
 20
151.7999999999996
 11
-128.8308127388003
 21
151.2999999999996
  0
POLYLINE
  8
1
  6
CONTINUOUS
 62
     7
 66
     1
  0
VERTEX
  8
1
  6
CONTINUOUS
 62
     7
 10
-129.7967385650722
 20
150.2999999999996
  0
VERTEX
  8
1
  6
CONTINUOUS
 62
     7
 10
-129.6082957845811
 20
150.3192147195963
  0
VERTEX
  8
1
  6
CONTINUOUS
 62
     7
 10
-129.4270947544644
 20
150.3761204674883
  0
VERTEX
  8
1
  6
CONTINUOUS
 62
     7
 10
-129.2600989286907
 20
150.468530387697
  0
VERTEX
  8
1
  6
CONTINUOUS
 62
     7
 10
-129.1137258631921
 20
150.592893218813
  0
VERTEX
  8
1
  6
CONTINUOUS
 62
     7
 10
-128.9936005927889
 20
150.74442976698
  0
VERTEX
  8
1
  6
CONTINUOUS
 62
     7
 10
-128.9043394642555
 20
150.9173165676345
  0
VERTEX
  8
1
  6
CONTINUOUS
 62
     7
 10
-128.8493727327034
 20
151.1049096779834
  0
VERTEX
  8
1
  6
CONTINUOUS
 62
     7
 10
-128.8308127388003
 20
151.2999999999996
  0
SEQEND
  8
1
  6
CONTINUOUS
 62
     7
  0
LINE
  8
1
  6
CONTINUOUS
 62
     7
 10
-129.7967385650722
 20
150.2999999999996
 11
-134.184899282247
 21
150.2999999999996
  0
LINE
  8
1
  6
CONTINUOUS
 62
     7
 10
-134.9260802371411
 20
155.2999999999995
 11
-134.9260798883411
 21
160.2999999999992
  0
LINE
  8
1
  6
CONTINUOUS
 62
     7
 10
-128.5856694480599
 20
163.7999999999997
 11
-128.8308127388003
 21
163.7999999999997
  0
LINE
  8
1
  6
CONTINUOUS
 62
     7
 10
-128.5856694480599
 20
151.7999999999996
 11
-128.8308127388003
 21
151.7999999999996
  0
LINE
  8
1
  6
CONTINUOUS
 62
     7
 10
-129.5379195198917
 20
150.2999999999996
 11
-129.7967385650721
 21
150.2999999999996
  0
POLYLINE
  8
1
  6
CONTINUOUS
 62
     7
 66
     1
  0
VERTEX
  8
1
  6
CONTINUOUS
 62
     7
 10
-129.5379195198917
 20
150.2999999999996
  0
VERTEX
  8
1
  6
CONTINUOUS
 62
     7
 10
-129.3457056035655
 20
150.3199993911733
  0
VERTEX
  8
1
  6
CONTINUOUS
 62
     7
 10
-129.1611800098425
 20
150.3791976133998
  0
VERTEX
  8
1
  6
CONTINUOUS
 62
     7
 10
-128.9917235377837
 20
150.4752268098729
  0
VERTEX
  8
1
  6
CONTINUOUS
 62
     7
 10
-128.8441142399322
 20
150.6042459296638
  0
VERTEX
  8
1
  6
CONTINUOUS
 62
     7
 10
-128.7242563084653
 20
150.7610943650814
  0
VERTEX
  8
1
  6
CONTINUOUS
 62
     7
 10
-128.6369439146963
 20
150.9394983696959
  0
VERTEX
  8
1
  6
CONTINUOUS
 62
     7
 10
-128.5856694480599
 20
151.1323220005568
  0
SEQEND
  8
1
  6
CONTINUOUS
 62
     7
  0
LINE
  8
1
  6
CONTINUOUS
 62
     7
 10
-129.7967385650722
 20
165.2999999999997
 11
-129.5379195198917
 21
165.2999999999997
  0
POLYLINE
  8
1
  6
CONTINUOUS
 62
     7
 66
     1
  0
VERTEX
  8
1
  6
CONTINUOUS
 62
     7
 10
-128.5856694480599
 20
164.4676779994425
  0
VERTEX
  8
1
  6
CONTINUOUS
 62
     7
 10
-128.6369439146964
 20
164.6605016303034
  0
VERTEX
  8
1
  6
CONTINUOUS
 62
     7
 10
-128.7242563084653
 20
164.8389056349179
  0
VERTEX
  8
1
  6
CONTINUOUS
 62
     7
 10
-128.8441142399322
 20
164.9957540703356
  0
VERTEX
  8
1
  6
CONTINUOUS
 62
     7
 10
-128.9917235377837
 20
165.1247731901265
  0
VERTEX
  8
1
  6
CONTINUOUS
 62
     7
 10
-129.1611800098425
 20
165.2208023865995
  0
VERTEX
  8
1
  6
CONTINUOUS
 62
     7
 10
-129.3457056035655
 20
165.280000608826
  0
VERTEX
  8
1
  6
CONTINUOUS
 62
     7
 10
-129.5379195198917
 20
165.2999999999997
  0
SEQEND
  8
1
  6
CONTINUOUS
 62
     7
  0
LINE
  8
1
  6
CONTINUOUS
 62
     7
 10
-134.9260802370104
 20
153.7250344907861
 11
-134.9260802370104
 21
155.2999999999995
  0
LINE
  8
1
  6
CONTINUOUS
 62
     7
 10
-134.9260798882104
 20
160.2999999999992
 11
-134.9260798882104
 21
161.8749655092128
  0
LINE
  8
1
  6
CONTINUOUS
 62
     7
 10
-134.184899282247
 20
150.2999999999996
 11
-134.9260802370801
 21
150.2999999999996
  0
LINE
  8
1
  6
CONTINUOUS
 62
     7
 10
-134.9260802370801
 20
165.2999999999997
 11
-134.184899282247
 21
165.2999999999997
  0
ARC
  8
1
  6
CONTINUOUS
 62
     7
 10
-135.9260853599681
 20
154.3000000522028
 40
1.000000000000001
 50
180.0000000000002
 51
270.0000049019372
  0
LINE
  8
1
  6
CONTINUOUS
 62
     7
 10
-134.9260802370104
 20
153.2999999999996
 11
-134.9260802370104
 21
153.725034490786
  0
LINE
  8
1
  6
CONTINUOUS
 62
     7
 10
-135.9260852744132
 20
153.3000000522028
 11
-134.9260802370104
 21
153.2999999999996
  0
ARC
  8
1
  6
CONTINUOUS
 62
     7
 10
-135.9260852222102
 20
161.3000000522023
 40
1.000000000000001
 50
89.99999700899644
 51
180.0000000000055
  0
LINE
  8
1
  6
CONTINUOUS
 62
     7
 10
-134.9260798882104
 20
161.8749655092128
 11
-134.9260798882104
 21
162.2999999999991
  0
LINE
  8
1
  6
CONTINUOUS
 62
     7
 10
-135.9260851700074
 20
162.3000000522023
 11
-134.9260798882103
 21
162.2999999999992
  0
LINE
  8
1
  6
CONTINUOUS
 62
     7
 10
-134.9260852216242
 20
153.7250339255509
 11
-134.9260851783408
 21
153.2999999999999
  0
LINE
  8
1
  6
CONTINUOUS
 62
     7
 10
-134.9260851783408
 20
153.2999999999999
 11
-134.9260848728347
 21
150.2999999999996
  0
LINE
  8
1
  6
CONTINUOUS
 62
     7
 10
-134.9260848728347
 20
165.2999999999997
 11
-134.9260808117855
 21
162.2999999999992
  0
LINE
  8
1
  6
CONTINUOUS
 62
     7
 10
-134.9260808117855
 20
162.2999999999992
 11
-134.9260802364242
 21
161.8749660744471
  0
LINE
  8
1
  6
CONTINUOUS
 62
     7
 10
-142.1948819859314
 20
173.0224997777561
 11
-140.2971984058576
 21
172.118790804507
  0
LINE
  8
1
  6
CONTINUOUS
 62
     7
 10
-142.0327735411981
 20
170.3832156691665
 11
-143.9003144602777
 21
171.3170673034097
  0
LINE
  8
1
  6
CONTINUOUS
 62
     7
 10
-160.6072944174475
 20
192.4288868160969
 11
-159.7035854441984
 21
190.5312032360232
  0
LINE
  8
1
  6
CONTINUOUS
 62
     7
 10
-161.4090179185448
 20
188.8257707616768
 11
-162.3428695527881
 21
190.6933116807564
  0
LINE
  8
1
  6
CONTINUOUS
 62
     7
 10
-136.9260852219545
 20
148.8
 11
-136.9260852219545
 21
145.8
  0
LINE
  8
1
  6
CONTINUOUS
 62
     7
 10
-136.9260852219545
 20
145.8
 11
-139.2260852219545
 21
145.8
  0
LINE
  8
1
  6
CONTINUOUS
 62
     7
 10
-139.2260852219545
 20
145.8
 11
-139.2260852219545
 21
148.8
  0
ARC
  8
1
  6
CONTINUOUS
 62
     7
 10
-140.2260852219545
 20
168.5057128577596
 40
3.299999999999997
 50
0.0
 51
68.06882403571947
  0
LINE
  8
1
  6
CONTINUOUS
 62
     7
 10
-136.9260852219545
 20
148.8
 11
-136.9260852219545
 21
168.5057128577596
  0
LINE
  8
1
  6
CONTINUOUS
 62
     7
 10
-139.2260852219545
 20
168.5057128577596
 11
-139.2260852219545
 21
148.8
  0
ARC
  8
1
  6
CONTINUOUS
 62
     7
 10
-140.2260852219545
 20
168.5057128577596
 40
0.9999999999999984
 50
0.0
 51
68.06882403571956
  0
ARC
  8
1
  6
CONTINUOUS
 62
     7
 10
-124.053856309224
 20
208.6722289127305
 40
40.0
 50
246.0409540522302
 51
248.0688240357194
  0
ARC
  8
1
  6
CONTINUOUS
 62
     7
 10
-124.053856309224
 20
208.6722289127305
 40
42.3
 50
244.847215856254
 51
248.0688240357194
  0
LINE
  8
1
  6
CONTINUOUS
 62
     7
 10
-183.9260852219545
 20
193.5
 11
-164.220372364195
 21
193.5
  0
ARC
  8
1
  6
CONTINUOUS
 62
     7
 10
-164.220372364195
 20
192.5
 40
3.299999999999999
 50
21.93117596428065
 51
90.00000000000001
  0
ARC
  8
1
  6
CONTINUOUS
 62
     7
 10
-164.220372364195
 20
192.5
 40
1.000000000000001
 50
21.93117596428044
 51
90.0
  0
LINE
  8
1
  6
CONTINUOUS
 62
     7
 10
-164.220372364195
 20
195.8
 11
-183.9260852219545
 21
195.8
  0
ARC
  8
1
  6
CONTINUOUS
 62
     7
 10
-124.053856309224
 20
208.6722289127305
 40
40.0
 50
201.9311759642805
 51
203.9590459477698
  0
ARC
  8
1
  6
CONTINUOUS
 62
     7
 10
-124.053856309224
 20
208.6722289127305
 40
42.3
 50
201.9311759642807
 51
205.1527841437461
  0
LINE
  8
1
  6
CONTINUOUS
 62
     7
 10
-183.9260852219545
 20
193.5
 11
-186.9260852219545
 21
193.5
  0
LINE
  8
1
  6
CONTINUOUS
 62
     7
 10
-186.9260852219545
 20
193.5
 11
-186.9260852219545
 21
195.8
  0
LINE
  8
1
  6
CONTINUOUS
 62
     7
 10
-186.9260852219545
 20
195.8
 11
-183.9260852219545
 21
195.8
  0
ARC
  8
1
  6
CONTINUOUS
 62
     7
 10
-124.0511445637874
 20
208.6749406581672
 40
40.00364668845723
 50
206.9718115613267
 51
243.0281884386733
  0
ARC
  8
1
  6
CONTINUOUS
 62
     7
 10
-124.050984031453
 20
208.6751011905015
 40
42.30388415242459
 50
207.9829130285585
 51
242.0170869714416
  0
LINE
  8
1
  6
CONTINUOUS
 62
     7
 10
-140.3260852219545
 20
164.9
 11
-141.30533130408
 21
162.8
  0
LINE
  8
1
  6
CONTINUOUS
 62
     7
 10
-141.30533130408
 20
152.8
 11
-140.3260852219545
 21
150.7
  0
LINE
  8
1
  6
CONTINUOUS
 62
     7
 10
-139.2260852219545
 20
164.9
 11
-140.3260852219545
 21
164.9
  0
LINE
  8
1
  6
CONTINUOUS
 62
     7
 10
-140.3260852219545
 20
150.7
 11
-139.2260852219545
 21
150.7
  0
LINE
  8
1
  6
CONTINUOUS
 62
     7
 10
-145.4260802367608
 20
154.7999999999993
 11
-145.2261052219554
 21
154.7999999999993
  0
LINE
  8
1
  6
CONTINUOUS
 62
     7
 10
-145.2261052219554
 20
160.7999999999999
 11
-145.4260802367608
 21
160.7999999999999
  0
LINE
  8
1
  6
CONTINUOUS
 62
     7
 10
-145.4260802367589
 20
160.7999999999999
 11
-145.926080236759
 21
160.2999999999998
  0
LINE
  8
1
  6
CONTINUOUS
 62
     7
 10
-145.926080236759
 20
155.2999999999994
 11
-145.4260802367589
 21
154.7999999999993
  0
LINE
  8
1
  6
CONTINUOUS
 62
     7
 10
-103.5871101095848
 20
154.5499999999997
 11
-103.3282910644193
 21
154.5499999999997
  0
LINE
  8
1
  6
CONTINUOUS
 62
     7
 10
-103.3282910644193
 20
161.0499999999997
 11
-103.5871101095848
 21
161.0499999999997
  0
LINE
  8
1
  6
CONTINUOUS
 62
     7
 10
-103.4581503680079
 20
155.554152692149
 11
-103.4699253332817
 21
155.5549407872754
  0
ARC
  8
1
  6
CONTINUOUS
 62
     7
 10
-103.2578781964433
 20
157.7548774978459
 40
2.210132466337055
 50
178.8301567390872
 51
264.49439197733
  0
ARC
  8
1
  6
CONTINUOUS
 62
     7
 10
-103.2483774896261
 20
157.8408401990103
 40
2.219548276513336
 50
99.73340075517149
 51
181.0543150255997
  0
LINE
  8
1
  6
CONTINUOUS
 62
     7
 10
-103.623623132518
 20
160.0284382560729
 11
-103.4543736804317
 21
160.0460855469534
  0
LINE
  8
1
  6
CONTINUOUS
 62
     7
 10
-128.5856694493349
 20
151.7999999999996
 11
-128.5856694493349
 21
150.7999999999996
  0
LINE
  8
1
  6
CONTINUOUS
 62
     7
 10
-128.5856694493349
 20
164.7999999999998
 11
-128.5856694493349
 21
163.7999999999997
  0
ENDBLK
  8
0
  0
ENDSEC
  0
SECTION
  2
ENTITIES
  0
TEXT
  8
1
  6
CONTINUOUS
 62
     7
 10
-153.8301144179067
 20
58.81403338752032
 40
5.0
  1
HT-MKB-1419
  0
INSERT
  8
1
  6
CONTINUOUS
 62
     7
  2
D_FRAME_VIEW_3197
 10
0.0
 20
0.0
 30
0.0
  0
INSERT
  8
1
  6
CONTINUOUS
 62
     7
  2
D_FRAME_VIEW_2738
 10
0.0
 20
0.0
 30
0.0
  0
ENDSEC
  0
EOF
