  0
SECTION
  2
HEADER
  9
$ACADVER
  1
AC1004
  9
$INSBASE
 10
0.0
 20
0.0
  9
$EXTMIN
 10
-290.2782503943199
 20
70.42045454545453
  9
$EXTMAX
 10
-194.12174960568
 20
201.05
  9
$LIMMIN
 10
0.0
 20
0.0
  9
$LIMMAX
 10
12.0
 20
9.0
  9
$ORTHOMODE
 70
     0
  9
$REGENMODE
 70
     1
  9
$FILLMODE
 70
     1
  9
$QTEXTMODE
 70
     0
  9
$DRAGMODE
 70
     2
  9
$LTSCALE
 40
1.0
  9
$OSMODE
 70
    37
  9
$ATTMODE
 70
     1
  9
$TEXTSIZE
 40
0.2
  9
$TRACEWID
 40
0.05
  9
$TEXTSTYLE
  7
STANDARD
  9
$CLAYER
  8
0
  9
$CELTYPE
  6
BYLAYER
  9
$CECOLOR
 62
   256
  9
$DIMSCALE
 40
1.0
  9
$DIMASZ
 40
3.0
  9
$DIMEXO
 40
0.0625
  9
$DIMDLI
 40
0.38
  9
$DIMRND
 40
0.0
  9
$DIMDLE
 40
0.0
  9
$DIMEXE
 40
1.5
  9
$DIMTP
 40
0.0
  9
$DIMTM
 40
0.0
  9
$DIMTXT
 40
3.0
  9
$DIMCEN
 40
0.09
  9
$DIMTSZ
 40
0.0
  9
$DIMTOL
 70
     0
  9
$DIMLIM
 70
     0
  9
$DIMTIH
 70
     1
  9
$DIMTOH
 70
     1
  9
$DIMSE1
 70
     0
  9
$DIMSE2
 70
     0
  9
$DIMTAD
 70
     1
  9
$DIMZIN
 70
     0
  9
$DIMBLK
  1

  9
$DIMASO
 70
     1
  9
$DIMSHO
 70
     1
  9
$DIMPOST
  1

  9
$DIMAPOST
  1

  9
$DIMALT
 70
     0
  9
$DIMALTD
 70
     2
  9
$DIMALTF
 40
25.4
  9
$DIMLFAC
 40
1.0
  9
$DIMTOFL
 70
     0
  9
$DIMTVP
 40
0.0
  9
$DIMTIX
 70
     0
  9
$DIMSOXD
 70
     0
  9
$DIMSAH
 70
     0
  9
$DIMBLK1
  1

  9
$DIMBLK2
  1

  9
$LUNITS
 70
     2
  9
$LUPREC
 70
     4
  9
$SKETCHINC
 40
0.1
  9
$FILLETRAD
 40
0.5
  9
$AUNITS
 70
     0
  9
$AUPREC
 70
     0
  9
$MENU
  1
.
  9
$ELEVATION
 40
0.0
  9
$THICKNESS
 40
0.0
  9
$LIMCHECK
 70
     0
  9
$CHAMFERA
 40
0.0
  9
$CHAMFERB
 40
0.0
  9
$SKPOLY
 70
     0
  9
$TDCREATE
 40
2459758.418357361
  9
$TDUPDATE
 40
2459758.418357523
  9
$TDINDWG
 40
0.0000000116
  9
$TDUSRTIMER
 40
0.0000000116
  9
$USRTIMER
 70
     1
  9
$ANGBASE
 50
0.0
  9
$ANGDIR
 70
     0
  9
$PDMODE
 70
     0
  9
$PDSIZE
 40
0.0
  9
$PLINEWID
 40
0.0
  9
$COORDS
 70
     1
  9
$SPLFRAME
 70
     0
  9
$SPLINETYPE
 70
     6
  9
$SPLINESEGS
 70
     8
  9
$ATTDIA
 70
     0
  9
$ATTREQ
 70
     1
  9
$SURFTAB1
 70
     6
  9
$SURFTAB2
 70
     6
  9
$SURFTYPE
 70
     6
  9
$SURFU
 70
     6
  9
$SURFV
 70
     6
  9
$UCSNAME
  2

  9
$UCSORG
 10
0.0
 20
0.0
 30
0.0
  9
$UCSXDIR
 10
1.0
 20
0.0
 30
0.0
  9
$UCSYDIR
 10
0.0
 20
1.0
 30
0.0
  9
$USERI1
 70
     0
  9
$USERI2
 70
     0
  9
$USERI3
 70
     0
  9
$USERI4
 70
     0
  9
$USERI5
 70
     0
  9
$USERR1
 40
0.0
  9
$USERR2
 40
0.0
  9
$USERR3
 40
0.0
  9
$USERR4
 40
0.0
  9
$USERR5
 40
0.0
  9
$WORLDVIEW
 70
     1
  0
ENDSEC
  0
SECTION
  2
TABLES
  0
TABLE
  2
LTYPE
 70
     1
  0
LTYPE
  2
CONTINUOUS
 70
     0
  3
Solid line
 72
    65
 73
     0
 40
0.0
  0
ENDTAB
  0
TABLE
  2
LAYER
 70
     2
  0
LAYER
  2
0
 70
     0
 62
     7
  6
CONTINUOUS
  0
LAYER
  2
1
 70
     0
 62
     7
  6
CONTINUOUS
  0
ENDTAB
  0
TABLE
  2
STYLE
 70
     2
  0
STYLE
  2
STANDARD
 70
     0
 40
0.0
 41
1.0
 50
0.0
 71
     0
 42
0.2
  3
txt
  4

  0
STYLE
  2
ＭＳ_ゴシック
 70
     0
 40
0.0
 41
1.0
 50
0.0
 71
     0
 42
0.2
  3
ＭＳ ゴシック.shx
  4

  0
ENDTAB
  0
TABLE
  2
VIEW
 70
     0
  0
ENDTAB
  0
ENDSEC
  0
SECTION
  2
BLOCKS
  0
BLOCK
  8
0
  2
D_FRAME_VIEW_2738
 70
     0
 10
0.0
 20
0.0
  0
LINE
  8
1
  6
CONTINUOUS
 62
     7
 10
-205.7241345304186
 20
157.0500000000026
 11
-233.2598964132526
 21
157.0500000000026
  0
LINE
  8
1
  6
CONTINUOUS
 62
     7
 10
-205.7241345304186
 20
156.050000000003
 11
-233.2598964132526
 21
156.050000000003
  0
LINE
  8
1
  6
CONTINUOUS
 62
     7
 10
-205.7241345304186
 20
169.0499999999975
 11
-233.2598964132526
 21
169.0499999999975
  0
LINE
  8
1
  6
CONTINUOUS
 62
     7
 10
-205.7241345304186
 20
170.049999999997
 11
-233.2598964132526
 21
170.049999999997
  0
LINE
  8
1
  6
CONTINUOUS
 62
     7
 10
-197.8875764001629
 20
156.050000000003
 11
-197.8875764001629
 21
157.0500000000026
  0
LINE
  8
1
  6
CONTINUOUS
 62
     7
 10
-197.8875764001629
 20
157.0500000000026
 11
-204.6181848660256
 21
157.0500000000026
  0
LINE
  8
1
  6
CONTINUOUS
 62
     7
 10
-197.8875764001629
 20
156.050000000003
 11
-204.6181848660256
 21
156.050000000003
  0
LINE
  8
1
  6
CONTINUOUS
 62
     7
 10
-196.3267308242334
 20
156.050000000003
 11
-196.326730824237
 21
157.0500000000026
  0
LINE
  8
1
  6
CONTINUOUS
 62
     7
 10
-197.8875764001629
 20
157.0500000000026
 11
-196.326730824237
 21
157.0500000000026
  0
LINE
  8
1
  6
CONTINUOUS
 62
     7
 10
-196.3267308242334
 20
156.050000000003
 11
-197.8875764001629
 21
156.050000000003
  0
LINE
  8
1
  6
CONTINUOUS
 62
     7
 10
-197.8875764001629
 20
169.0499999999975
 11
-197.8875764001629
 21
170.049999999997
  0
LINE
  8
1
  6
CONTINUOUS
 62
     7
 10
-197.8875764001629
 20
169.0499999999975
 11
-204.6181848660256
 21
169.0499999999975
  0
LINE
  8
1
  6
CONTINUOUS
 62
     7
 10
-197.8875764001629
 20
170.049999999997
 11
-204.6181848660256
 21
170.049999999997
  0
LINE
  8
1
  6
CONTINUOUS
 62
     7
 10
-196.326730824237
 20
169.0499999999975
 11
-196.326730824237
 21
170.049999999997
  0
LINE
  8
1
  6
CONTINUOUS
 62
     7
 10
-196.326730824237
 20
169.0499999999975
 11
-197.8875764001629
 21
169.0499999999975
  0
LINE
  8
1
  6
CONTINUOUS
 62
     7
 10
-197.8875764001629
 20
170.049999999997
 11
-196.326730824237
 21
170.049999999997
  0
POLYLINE
  8
1
  6
CONTINUOUS
 62
     7
 66
     1
  0
VERTEX
  8
1
  6
CONTINUOUS
 62
     7
 10
-197.043959391195
 20
163.05
  0
VERTEX
  8
1
  6
CONTINUOUS
 62
     7
 10
-197.1036785563323
 20
163.6840435465522
  0
VERTEX
  8
1
  6
CONTINUOUS
 62
     7
 10
-197.280541077719
 20
164.2937211551862
  0
VERTEX
  8
1
  6
CONTINUOUS
 62
     7
 10
-197.5677502278438
 20
164.8556032573132
  0
VERTEX
  8
1
  6
CONTINUOUS
 62
     7
 10
-197.954268720136
 20
165.3480970388556
  0
VERTEX
  8
1
  6
CONTINUOUS
 62
     7
 10
-198.4252428656991
 20
165.7522762399825
  0
VERTEX
  8
1
  6
CONTINUOUS
 62
     7
 10
-198.9625733922444
 20
166.0526084806608
  0
VERTEX
  8
1
  6
CONTINUOUS
 62
     7
 10
-199.5456109889752
 20
166.2375521613096
  0
VERTEX
  8
1
  6
CONTINUOUS
 62
     7
 10
-200.1519498480203
 20
166.2999999999991
  0
SEQEND
  8
1
  6
CONTINUOUS
 62
     7
  0
POLYLINE
  8
1
  6
CONTINUOUS
 62
     7
 66
     1
  0
VERTEX
  8
1
  6
CONTINUOUS
 62
     7
 10
-200.4443215527839
 20
166.2999999999991
  0
VERTEX
  8
1
  6
CONTINUOUS
 62
     7
 10
-201.050660411831
 20
166.2375521613121
  0
VERTEX
  8
1
  6
CONTINUOUS
 62
     7
 10
-201.633698008564
 20
166.052608480665
  0
VERTEX
  8
1
  6
CONTINUOUS
 62
     7
 10
-202.1710285351117
 20
165.7522762399876
  0
VERTEX
  8
1
  6
CONTINUOUS
 62
     7
 10
-202.6420026806771
 20
165.3480970388608
  0
VERTEX
  8
1
  6
CONTINUOUS
 62
     7
 10
-203.0285211729714
 20
164.8556032573177
  0
VERTEX
  8
1
  6
CONTINUOUS
 62
     7
 10
-203.3157303230977
 20
164.2937211551896
  0
VERTEX
  8
1
  6
CONTINUOUS
 62
     7
 10
-203.4925928444854
 20
163.684043546554
  0
VERTEX
  8
1
  6
CONTINUOUS
 62
     7
 10
-203.5523120096231
 20
163.05
  0
SEQEND
  8
1
  6
CONTINUOUS
 62
     7
  0
POLYLINE
  8
1
  6
CONTINUOUS
 62
     7
 66
     1
  0
VERTEX
  8
1
  6
CONTINUOUS
 62
     7
 10
-200.4443215527978
 20
159.8000000000009
  0
VERTEX
  8
1
  6
CONTINUOUS
 62
     7
 10
-199.8379826937536
 20
159.8624478386903
  0
VERTEX
  8
1
  6
CONTINUOUS
 62
     7
 10
-199.2549450970236
 20
160.0473915193385
  0
VERTEX
  8
1
  6
CONTINUOUS
 62
     7
 10
-198.7176145704789
 20
160.347723760016
  0
VERTEX
  8
1
  6
CONTINUOUS
 62
     7
 10
-198.2466404249161
 20
160.7519029611418
  0
VERTEX
  8
1
  6
CONTINUOUS
 62
     7
 10
-197.8601219326237
 20
161.2443967426831
  0
VERTEX
  8
1
  6
CONTINUOUS
 62
     7
 10
-197.5729127824985
 20
161.8062788448088
  0
VERTEX
  8
1
  6
CONTINUOUS
 62
     7
 10
-197.3960502611111
 20
162.4159564534415
  0
VERTEX
  8
1
  6
CONTINUOUS
 62
     7
 10
-197.3363310959726
 20
163.0499999999927
  0
VERTEX
  8
1
  6
CONTINUOUS
 62
     7
 10
-197.3960502611084
 20
163.6840435465442
  0
VERTEX
  8
1
  6
CONTINUOUS
 62
     7
 10
-197.5729127824932
 20
164.2937211551778
  0
VERTEX
  8
1
  6
CONTINUOUS
 62
     7
 10
-197.860121932616
 20
164.8556032573049
  0
VERTEX
  8
1
  6
CONTINUOUS
 62
     7
 10
-198.2466404249062
 20
165.3480970388479
  0
VERTEX
  8
1
  6
CONTINUOUS
 62
     7
 10
-198.7176145704673
 20
165.7522762399759
  0
VERTEX
  8
1
  6
CONTINUOUS
 62
     7
 10
-199.2549450970107
 20
166.0526084806559
  0
VERTEX
  8
1
  6
CONTINUOUS
 62
     7
 10
-199.8379826937399
 20
166.2375521613069
  0
VERTEX
  8
1
  6
CONTINUOUS
 62
     7
 10
-200.4443215527839
 20
166.2999999999991
  0
SEQEND
  8
1
  6
CONTINUOUS
 62
     7
  0
POLYLINE
  8
1
  6
CONTINUOUS
 62
     7
 66
     1
  0
VERTEX
  8
1
  6
CONTINUOUS
 62
     7
 10
-200.1519498480056
 20
159.8000000000009
  0
VERTEX
  8
1
  6
CONTINUOUS
 62
     7
 10
-199.5456109889627
 20
159.862447838693
  0
VERTEX
  8
1
  6
CONTINUOUS
 62
     7
 10
-198.9625733922344
 20
160.0473915193436
  0
VERTEX
  8
1
  6
CONTINUOUS
 62
     7
 10
-198.4252428656917
 20
160.3477237600228
  0
VERTEX
  8
1
  6
CONTINUOUS
 62
     7
 10
-197.954268720131
 20
160.7519029611498
  0
VERTEX
  8
1
  6
CONTINUOUS
 62
     7
 10
-197.5677502278409
 20
161.2443967426916
  0
VERTEX
  8
1
  6
CONTINUOUS
 62
     7
 10
-197.2805410777178
 20
161.8062788448173
  0
VERTEX
  8
1
  6
CONTINUOUS
 62
     7
 10
-197.1036785563322
 20
162.4159564534496
  0
VERTEX
  8
1
  6
CONTINUOUS
 62
     7
 10
-197.0439593911952
 20
163.05
  0
SEQEND
  8
1
  6
CONTINUOUS
 62
     7
  0
POLYLINE
  8
1
  6
CONTINUOUS
 62
     7
 66
     1
  0
VERTEX
  8
1
  6
CONTINUOUS
 62
     7
 10
-203.5523120096229
 20
163.05
  0
VERTEX
  8
1
  6
CONTINUOUS
 62
     7
 10
-203.4925928444855
 20
162.4159564534478
  0
VERTEX
  8
1
  6
CONTINUOUS
 62
     7
 10
-203.3157303230988
 20
161.8062788448138
  0
VERTEX
  8
1
  6
CONTINUOUS
 62
     7
 10
-203.0285211729741
 20
161.2443967426868
  0
VERTEX
  8
1
  6
CONTINUOUS
 62
     7
 10
-202.6420026806819
 20
160.7519029611444
  0
VERTEX
  8
1
  6
CONTINUOUS
 62
     7
 10
-202.1710285351188
 20
160.3477237600175
  0
VERTEX
  8
1
  6
CONTINUOUS
 62
     7
 10
-201.6336980085736
 20
160.0473915193392
  0
VERTEX
  8
1
  6
CONTINUOUS
 62
     7
 10
-201.0506604118429
 20
159.8624478386904
  0
VERTEX
  8
1
  6
CONTINUOUS
 62
     7
 10
-200.4443215527978
 20
159.8000000000009
  0
SEQEND
  8
1
  6
CONTINUOUS
 62
     7
  0
POLYLINE
  8
1
  6
CONTINUOUS
 62
     7
 66
     1
  0
VERTEX
  8
1
  6
CONTINUOUS
 62
     7
 10
-200.4443215527978
 20
165.2999999999994
  0
VERTEX
  8
1
  6
CONTINUOUS
 62
     7
 10
-200.8640946090598
 20
165.2567668809066
  0
VERTEX
  8
1
  6
CONTINUOUS
 62
     7
 10
-201.267736022181
 20
165.1287289481498
  0
VERTEX
  8
1
  6
CONTINUOUS
 62
     7
 10
-201.63973407902
 20
164.9208066276802
  0
VERTEX
  8
1
  6
CONTINUOUS
 62
     7
 10
-201.9657931028714
 20
164.6409902576693
  0
VERTEX
  8
1
  6
CONTINUOUS
 62
     7
 10
-202.2333828283045
 20
164.3000330242938
  0
VERTEX
  8
1
  6
CONTINUOUS
 62
     7
 10
-202.432219932237
 20
163.9110377228212
  0
VERTEX
  8
1
  6
CONTINUOUS
 62
     7
 10
-202.5546632162739
 20
163.4889532245362
  0
VERTEX
  8
1
  6
CONTINUOUS
 62
     7
 10
-202.5960072536767
 20
163.05
  0
SEQEND
  8
1
  6
CONTINUOUS
 62
     7
  0
LINE
  8
1
  6
CONTINUOUS
 62
     7
 10
-194.121749607585
 20
168.0499999999979
 11
-194.4141213123453
 21
168.0499999999979
  0
LINE
  8
1
  6
CONTINUOUS
 62
     7
 10
-194.4141213123453
 20
168.0499999999979
 11
-196.326730824237
 21
170.049999999997
  0
ARC
  8
1
  6
CONTINUOUS
 62
     7
 10
-199.1177601929399
 20
165.4096590014084
 40
5.43795051229693
 50
42.02328270684973
 51
58.18904211298346
  0
LINE
  8
1
  6
CONTINUOUS
 62
     7
 10
-196.2513168064625
 20
170.0307852803917
 11
-196.326730824237
 21
170.049999999997
  0
LINE
  8
1
  6
CONTINUOUS
 62
     7
 10
-195.0780543635283
 20
169.0499999999975
 11
-194.121749607585
 21
168.0499999999979
  0
LINE
  8
1
  6
CONTINUOUS
 62
     7
 10
-194.121749607585
 20
158.0500000000022
 11
-194.121749607585
 21
168.0499999999979
  0
LINE
  8
1
  6
CONTINUOUS
 62
     7
 10
-194.4141213123453
 20
158.0500000000022
 11
-194.1217496075849
 21
158.0500000000022
  0
LINE
  8
1
  6
CONTINUOUS
 62
     7
 10
-194.4141213123453
 20
158.0500000000022
 11
-194.4141213123453
 21
168.0499999999979
  0
LINE
  8
1
  6
CONTINUOUS
 62
     7
 10
-194.121749607585
 20
158.0500000000022
 11
-195.0780543635283
 21
157.0500000000026
  0
LINE
  8
1
  6
CONTINUOUS
 62
     7
 10
-196.326730824237
 20
156.050000000003
 11
-196.2270310397041
 21
156.0799687468187
  0
ARC
  8
1
  6
CONTINUOUS
 62
     7
 10
-199.3690732459128
 20
160.9671177043479
 40
5.810047689879668
 50
302.7377446418022
 51
317.6081632396833
  0
LINE
  8
1
  6
CONTINUOUS
 62
     7
 10
-196.3267308242334
 20
156.050000000003
 11
-194.4141213123453
 21
158.0500000000022
  0
POLYLINE
  8
1
  6
CONTINUOUS
 62
     7
 66
     1
  0
VERTEX
  8
1
  6
CONTINUOUS
 62
     7
 10
-202.5960072536768
 20
163.05
  0
VERTEX
  8
1
  6
CONTINUOUS
 62
     7
 10
-202.5546632162741
 20
162.6110467754638
  0
VERTEX
  8
1
  6
CONTINUOUS
 62
     7
 10
-202.4322199322371
 20
162.1889622771788
  0
VERTEX
  8
1
  6
CONTINUOUS
 62
     7
 10
-202.2333828283046
 20
161.7999669757062
  0
VERTEX
  8
1
  6
CONTINUOUS
 62
     7
 10
-201.9657931028715
 20
161.4590097423307
  0
VERTEX
  8
1
  6
CONTINUOUS
 62
     7
 10
-201.6397340790201
 20
161.1791933723198
  0
VERTEX
  8
1
  6
CONTINUOUS
 62
     7
 10
-201.267736022181
 20
160.9712710518502
  0
VERTEX
  8
1
  6
CONTINUOUS
 62
     7
 10
-200.8640946090597
 20
160.8432331190934
  0
VERTEX
  8
1
  6
CONTINUOUS
 62
     7
 10
-200.4443215527977
 20
160.8000000000007
  0
SEQEND
  8
1
  6
CONTINUOUS
 62
     7
  0
POLYLINE
  8
1
  6
CONTINUOUS
 62
     7
 66
     1
  0
VERTEX
  8
1
  6
CONTINUOUS
 62
     7
 10
-200.4443215527976
 20
160.8000000000007
  0
VERTEX
  8
1
  6
CONTINUOUS
 62
     7
 10
-200.0245484965357
 20
160.8432331190934
  0
VERTEX
  8
1
  6
CONTINUOUS
 62
     7
 10
-199.6209070834144
 20
160.9712710518503
  0
VERTEX
  8
1
  6
CONTINUOUS
 62
     7
 10
-199.2489090265754
 20
161.1791933723199
  0
VERTEX
  8
1
  6
CONTINUOUS
 62
     7
 10
-198.922850002724
 20
161.4590097423308
  0
VERTEX
  8
1
  6
CONTINUOUS
 62
     7
 10
-198.6552602772909
 20
161.7999669757064
  0
VERTEX
  8
1
  6
CONTINUOUS
 62
     7
 10
-198.4564231733584
 20
162.1889622771789
  0
VERTEX
  8
1
  6
CONTINUOUS
 62
     7
 10
-198.3339798893215
 20
162.6110467754639
  0
VERTEX
  8
1
  6
CONTINUOUS
 62
     7
 10
-198.2926358519188
 20
163.0500000000001
  0
VERTEX
  8
1
  6
CONTINUOUS
 62
     7
 10
-198.3339798893216
 20
163.4889532245362
  0
VERTEX
  8
1
  6
CONTINUOUS
 62
     7
 10
-198.4564231733585
 20
163.9110377228213
  0
VERTEX
  8
1
  6
CONTINUOUS
 62
     7
 10
-198.655260277291
 20
164.3000330242938
  0
VERTEX
  8
1
  6
CONTINUOUS
 62
     7
 10
-198.9228500027241
 20
164.6409902576693
  0
VERTEX
  8
1
  6
CONTINUOUS
 62
     7
 10
-199.2489090265755
 20
164.9208066276802
  0
VERTEX
  8
1
  6
CONTINUOUS
 62
     7
 10
-199.6209070834146
 20
165.1287289481498
  0
VERTEX
  8
1
  6
CONTINUOUS
 62
     7
 10
-200.0245484965358
 20
165.2567668809066
  0
VERTEX
  8
1
  6
CONTINUOUS
 62
     7
 10
-200.4443215527978
 20
165.2999999999994
  0
SEQEND
  8
1
  6
CONTINUOUS
 62
     7
  0
LINE
  8
1
  6
CONTINUOUS
 62
     7
 10
-205.7241345304147
 20
169.0499999999975
 11
-204.6181848660258
 21
169.0499999999975
  0
LINE
  8
1
  6
CONTINUOUS
 62
     7
 10
-204.6181848660258
 20
170.049999999997
 11
-205.7241345304149
 21
170.049999999997
  0
LINE
  8
1
  6
CONTINUOUS
 62
     7
 10
-204.6181848660258
 20
157.0500000000026
 11
-205.7241345304149
 21
157.0500000000026
  0
LINE
  8
1
  6
CONTINUOUS
 62
     7
 10
-205.7241345304147
 20
156.050000000003
 11
-204.6181848660258
 21
156.050000000003
  0
LINE
  8
1
  6
CONTINUOUS
 62
     7
 10
-233.2969736062244
 20
157.0500000000026
 11
-233.2598964132559
 21
157.0500000000026
  0
LINE
  8
1
  6
CONTINUOUS
 62
     7
 10
-233.2598964132559
 20
156.050000000003
 11
-233.2969736062244
 21
156.050000000003
  0
LINE
  8
1
  6
CONTINUOUS
 62
     7
 10
-233.2969736062244
 20
170.049999999997
 11
-233.2598964132559
 21
170.049999999997
  0
LINE
  8
1
  6
CONTINUOUS
 62
     7
 10
-233.2598964132559
 20
169.0499999999975
 11
-233.2969736062244
 21
169.0499999999975
  0
LINE
  8
1
  6
CONTINUOUS
 62
     7
 10
-234.2871796770932
 20
170.5499999999968
 11
-237.5706220994244
 21
170.5499999999968
  0
POLYLINE
  8
1
  6
CONTINUOUS
 62
     7
 66
     1
  0
VERTEX
  8
1
  6
CONTINUOUS
 62
     7
 10
-233.3308749211502
 20
169.5499999999973
  0
VERTEX
  8
1
  6
CONTINUOUS
 62
     7
 10
-233.3492500488847
 20
169.7450903220133
  0
VERTEX
  8
1
  6
CONTINUOUS
 62
     7
 10
-233.4036692862343
 20
169.9326834323622
  0
VERTEX
  8
1
  6
CONTINUOUS
 62
     7
 10
-233.4920413324262
 20
170.1055702330167
  0
VERTEX
  8
1
  6
CONTINUOUS
 62
     7
 10
-233.610970099285
 20
170.2571067811836
  0
VERTEX
  8
1
  6
CONTINUOUS
 62
     7
 10
-233.7558852209962
 20
170.3814696122996
  0
VERTEX
  8
1
  6
CONTINUOUS
 62
     7
 10
-233.9212176907019
 20
170.4738795325082
  0
VERTEX
  8
1
  6
CONTINUOUS
 62
     7
 10
-234.1006138743107
 20
170.5307852804002
  0
VERTEX
  8
1
  6
CONTINUOUS
 62
     7
 10
-234.2871796770932
 20
170.5499999999969
  0
SEQEND
  8
1
  6
CONTINUOUS
 62
     7
  0
LINE
  8
1
  6
CONTINUOUS
 62
     7
 10
-233.3308749211506
 20
169.0499999999975
 11
-233.3308749211506
 21
169.5499999999973
  0
LINE
  8
1
  6
CONTINUOUS
 62
     7
 10
-233.3308749211506
 20
157.0500000000026
 11
-233.3308749211506
 21
156.5500000000027
  0
POLYLINE
  8
1
  6
CONTINUOUS
 62
     7
 66
     1
  0
VERTEX
  8
1
  6
CONTINUOUS
 62
     7
 10
-234.2871796770932
 20
155.5500000000031
  0
VERTEX
  8
1
  6
CONTINUOUS
 62
     7
 10
-234.1006138743107
 20
155.5692147195998
  0
VERTEX
  8
1
  6
CONTINUOUS
 62
     7
 10
-233.9212176907019
 20
155.6261204674918
  0
VERTEX
  8
1
  6
CONTINUOUS
 62
     7
 10
-233.7558852209962
 20
155.7185303877005
  0
VERTEX
  8
1
  6
CONTINUOUS
 62
     7
 10
-233.6109700992849
 20
155.8428932188164
  0
VERTEX
  8
1
  6
CONTINUOUS
 62
     7
 10
-233.4920413324262
 20
155.9944297669833
  0
VERTEX
  8
1
  6
CONTINUOUS
 62
     7
 10
-233.4036692862342
 20
156.1673165676378
  0
VERTEX
  8
1
  6
CONTINUOUS
 62
     7
 10
-233.3492500488847
 20
156.3549096779867
  0
VERTEX
  8
1
  6
CONTINUOUS
 62
     7
 10
-233.3308749211502
 20
156.5500000000027
  0
SEQEND
  8
1
  6
CONTINUOUS
 62
     7
  0
LINE
  8
1
  6
CONTINUOUS
 62
     7
 10
-234.2871796770932
 20
155.5500000000033
 11
-237.5706220994244
 21
155.5500000000033
  0
LINE
  8
1
  6
CONTINUOUS
 62
     7
 10
-238.2782503946828
 20
165.5499999999989
 11
-238.2782503946828
 21
160.5500000000011
  0
LINE
  8
1
  6
CONTINUOUS
 62
     7
 10
-233.2969736050256
 20
157.0500000000026
 11
-233.3308749211506
 21
157.0500000000026
  0
LINE
  8
1
  6
CONTINUOUS
 62
     7
 10
-233.2969736050256
 20
169.0499999999975
 11
-233.3308749211506
 21
169.0499999999975
  0
LINE
  8
1
  6
CONTINUOUS
 62
     7
 10
-233.9948079723116
 20
155.5500000000033
 11
-234.2871796770932
 21
155.5500000000033
  0
POLYLINE
  8
1
  6
CONTINUOUS
 62
     7
 66
     1
  0
VERTEX
  8
1
  6
CONTINUOUS
 62
     7
 10
-233.9948079723117
 20
155.5500000000031
  0
VERTEX
  8
1
  6
CONTINUOUS
 62
     7
 10
-233.7959810335658
 20
155.5718523992693
  0
VERTEX
  8
1
  6
CONTINUOUS
 62
     7
 10
-233.6058437861207
 20
155.6364545423604
  0
VERTEX
  8
1
  6
CONTINUOUS
 62
     7
 10
-233.4327061400693
 20
155.740983005628
  0
VERTEX
  8
1
  6
CONTINUOUS
 62
     7
 10
-233.2841350413507
 20
155.8808693936441
  0
VERTEX
  8
1
  6
CONTINUOUS
 62
     7
 10
-233.1666237599023
 20
156.0500000000029
  0
SEQEND
  8
1
  6
CONTINUOUS
 62
     7
  0
LINE
  8
1
  6
CONTINUOUS
 62
     7
 10
-234.2871796770932
 20
170.5499999999968
 11
-233.9948079723116
 21
170.5499999999968
  0
POLYLINE
  8
1
  6
CONTINUOUS
 62
     7
 66
     1
  0
VERTEX
  8
1
  6
CONTINUOUS
 62
     7
 10
-233.1666237599023
 20
170.0499999999971
  0
VERTEX
  8
1
  6
CONTINUOUS
 62
     7
 10
-233.2841350413507
 20
170.2191306063559
  0
VERTEX
  8
1
  6
CONTINUOUS
 62
     7
 10
-233.4327061400692
 20
170.3590169943719
  0
VERTEX
  8
1
  6
CONTINUOUS
 62
     7
 10
-233.6058437861206
 20
170.4635454576396
  0
VERTEX
  8
1
  6
CONTINUOUS
 62
     7
 10
-233.7959810335657
 20
170.5281476007307
  0
VERTEX
  8
1
  6
CONTINUOUS
 62
     7
 10
-233.9948079723116
 20
170.5499999999969
  0
SEQEND
  8
1
  6
CONTINUOUS
 62
     7
  0
LINE
  8
1
  6
CONTINUOUS
 62
     7
 10
-238.2782503945563
 20
167.1031586871727
 11
-238.2782503945563
 21
165.5499999999991
  0
LINE
  8
1
  6
CONTINUOUS
 62
     7
 10
-238.2782503945563
 20
160.5500000000011
 11
-238.2782503945563
 21
158.9968413128276
  0
LINE
  8
1
  6
CONTINUOUS
 62
     7
 10
-238.278250394636
 20
155.5500000000033
 11
-238.278250394636
 21
158.9968413128269
  0
LINE
  8
1
  6
CONTINUOUS
 62
     7
 10
-237.5706220994242
 20
155.5500000000033
 11
-238.2782503946358
 21
155.5500000000033
  0
LINE
  8
1
  6
CONTINUOUS
 62
     7
 10
-238.278250394636
 20
167.1031586871732
 11
-238.278250394636
 21
170.5499999999968
  0
LINE
  8
1
  6
CONTINUOUS
 62
     7
 10
-238.2782503946359
 20
170.5499999999968
 11
-237.5706220994242
 21
170.5499999999968
  0
LINE
  8
1
  6
CONTINUOUS
 62
     7
 10
-238.2782503945563
 20
167.5499999999981
 11
-239.2782503945558
 21
167.5499999999981
  0
LINE
  8
1
  6
CONTINUOUS
 62
     7
 10
-238.2782503945563
 20
158.5500000000019
 11
-239.2782503945558
 21
158.5500000000019
  0
ARC
  8
1
  6
CONTINUOUS
 62
     7
 10
-239.2782503945558
 20
166.5499999999985
 40
0.9999999999997095
 50
90.0
 51
180.0
  0
ARC
  8
1
  6
CONTINUOUS
 62
     7
 10
-239.2782503945558
 20
159.5500000000015
 40
0.9999999999997095
 50
180.0
 51
270.0
  0
ARC
  8
1
  6
CONTINUOUS
 62
     7
 10
-235.7850479388126
 20
165.55
 40
8.871303709567933
 50
163.6318878435414
 51
196.3681121564585
  0
ARC
  8
1
  6
CONTINUOUS
 62
     7
 10
-235.7850479388126
 20
160.55
 40
8.871303709567934
 50
163.6318878435415
 51
196.3681121564585
  0
LINE
  8
1
  6
CONTINUOUS
 62
     7
 10
-243.6782503943199
 20
155.95
 11
-243.6782503943199
 21
170.15
  0
ARC
  8
1
  6
CONTINUOUS
 62
     7
 10
-240.7439866354495
 20
160.4404306626369
 40
7.835029935057157
 50
160.5451235887138
 51
179.1987184108702
  0
LINE
  8
1
  6
CONTINUOUS
 62
     7
 10
-248.5782503943199
 20
165.55
 11
-248.5782503943199
 21
160.55
  0
ARC
  8
1
  6
CONTINUOUS
 62
     7
 10
-240.9288303154567
 20
165.6265501941738
 40
7.649803100416698
 50
180.5733580580529
 51
199.682799942363
  0
LINE
  8
1
  6
CONTINUOUS
 62
     7
 10
-248.1316684069347
 20
163.05
 11
-244.2968062476107
 21
163.05
  0
ARC
  8
1
  6
CONTINUOUS
 62
     7
 10
-240.7439866354494
 20
165.4404306626369
 40
7.835029935057171
 50
160.5451235887139
 51
179.1987184108702
  0
LINE
  8
1
  6
CONTINUOUS
 62
     7
 10
-248.1316684069347
 20
168.05
 11
-244.2968062476107
 21
168.05
  0
LINE
  8
1
  6
CONTINUOUS
 62
     7
 10
-248.1316684069347
 20
158.05
 11
-244.2968062476107
 21
158.05
  0
ARC
  8
1
  6
CONTINUOUS
 62
     7
 10
-240.8815103795554
 20
160.6350030865809
 40
7.697209389097172
 50
180.6327510218185
 51
199.6234069785974
  0
LINE
  8
1
  6
CONTINUOUS
 62
     7
 10
-248.1316684069347
 20
158.05
 11
-248.5782503943199
 21
158.05
  0
LINE
  8
1
  6
CONTINUOUS
 62
     7
 10
-248.5782503943199
 20
158.05
 11
-248.5782503943199
 21
160.55
  0
LINE
  8
1
  6
CONTINUOUS
 62
     7
 10
-248.5782503943199
 20
168.05
 11
-248.1316684069347
 21
168.05
  0
LINE
  8
1
  6
CONTINUOUS
 62
     7
 10
-248.5782503943199
 20
168.05
 11
-248.5782503943199
 21
165.55
  0
LINE
  8
1
  6
CONTINUOUS
 62
     7
 10
-248.7782454091243
 20
166.0500000000001
 11
-248.7782454091243
 21
160.0499999999992
  0
LINE
  8
1
  6
CONTINUOUS
 62
     7
 10
-249.2782454091244
 20
160.5499999999992
 11
-249.2782454091244
 21
165.55
  0
LINE
  8
1
  6
CONTINUOUS
 62
     7
 10
-245.5470471582968
 20
178.2724997777561
 11
-243.649363578223
 21
177.368790804507
  0
LINE
  8
1
  6
CONTINUOUS
 62
     7
 10
-245.3849387135636
 20
175.6332156691665
 11
-247.2524796326431
 21
176.5670673034097
  0
LINE
  8
1
  6
CONTINUOUS
 62
     7
 10
-263.9594595898129
 20
197.6788868160969
 11
-263.0557506165638
 21
195.7812032360232
  0
LINE
  8
1
  6
CONTINUOUS
 62
     7
 10
-264.7611830909102
 20
194.0757707616768
 11
-265.6950347251534
 21
195.9433116807564
  0
LINE
  8
1
  6
CONTINUOUS
 62
     7
 10
-287.2782503943199
 20
198.75
 11
-290.2782503943199
 21
198.75
  0
LINE
  8
1
  6
CONTINUOUS
 62
     7
 10
-290.2782503943199
 20
198.75
 11
-290.2782503943199
 21
201.05
  0
LINE
  8
1
  6
CONTINUOUS
 62
     7
 10
-290.2782503943199
 20
201.05
 11
-287.2782503943199
 21
201.05
  0
LINE
  8
1
  6
CONTINUOUS
 62
     7
 10
-240.2782503943199
 20
154.05
 11
-240.2782503943199
 21
151.05
  0
LINE
  8
1
  6
CONTINUOUS
 62
     7
 10
-240.2782503943199
 20
151.05
 11
-242.5782503943199
 21
151.05
  0
LINE
  8
1
  6
CONTINUOUS
 62
     7
 10
-242.57825039432
 20
151.05
 11
-242.57825039432
 21
154.05
  0
ARC
  8
1
  6
CONTINUOUS
 62
     7
 10
-243.5782503943199
 20
173.7557128577596
 40
3.299999999999997
 50
0.0
 51
68.06882403571947
  0
LINE
  8
1
  6
CONTINUOUS
 62
     7
 10
-240.2782503943199
 20
154.05
 11
-240.2782503943199
 21
173.7557128577596
  0
LINE
  8
1
  6
CONTINUOUS
 62
     7
 10
-242.57825039432
 20
173.7557128577596
 11
-242.57825039432
 21
154.05
  0
ARC
  8
1
  6
CONTINUOUS
 62
     7
 10
-243.5782503943199
 20
173.7557128577596
 40
0.9999999999999984
 50
0.0
 51
68.06882403571956
  0
ARC
  8
1
  6
CONTINUOUS
 62
     7
 10
-227.4060214815894
 20
213.9222289127305
 40
40.0
 50
246.0409540522302
 51
248.0688240357194
  0
ARC
  8
1
  6
CONTINUOUS
 62
     7
 10
-227.4060214815894
 20
213.9222289127305
 40
42.3
 50
244.847215856254
 51
248.0688240357194
  0
ARC
  8
1
  6
CONTINUOUS
 62
     7
 10
-267.5725375365604
 20
197.75
 40
1.000000000000001
 50
21.93117596428044
 51
90.0
  0
ARC
  8
1
  6
CONTINUOUS
 62
     7
 10
-267.5725375365604
 20
197.75
 40
3.299999999999999
 50
21.93117596428065
 51
90.00000000000001
  0
LINE
  8
1
  6
CONTINUOUS
 62
     7
 10
-267.5725375365604
 20
201.05
 11
-287.2782503943199
 21
201.05
  0
LINE
  8
1
  6
CONTINUOUS
 62
     7
 10
-287.2782503943199
 20
198.75
 11
-267.5725375365604
 21
198.75
  0
ARC
  8
1
  6
CONTINUOUS
 62
     7
 10
-227.4060214815894
 20
213.9222289127305
 40
40.0
 50
201.9311759642805
 51
203.9590459477698
  0
ARC
  8
1
  6
CONTINUOUS
 62
     7
 10
-227.4060214815894
 20
213.9222289127305
 40
42.3
 50
201.9311759642807
 51
205.1527841437461
  0
ARC
  8
1
  6
CONTINUOUS
 62
     7
 10
-227.4033097361528
 20
213.9249406581672
 40
40.00364668845723
 50
206.9718115613267
 51
243.0281884386733
  0
ARC
  8
1
  6
CONTINUOUS
 62
     7
 10
-227.4031492038185
 20
213.9251011905015
 40
42.30388415242459
 50
207.9829130285585
 51
242.0170869714416
  0
LINE
  8
1
  6
CONTINUOUS
 62
     7
 10
-200.4443215528157
 20
159.800000000001
 11
-200.1519498480384
 21
159.800000000001
  0
LINE
  8
1
  6
CONTINUOUS
 62
     7
 10
-200.1519498480384
 20
166.2999999999991
 11
-200.4443215528157
 21
166.2999999999991
  0
ARC
  8
1
  6
CONTINUOUS
 62
     7
 10
-200.0601650702851
 20
162.9930564668603
 40
2.20051213323897
 50
178.5171686579365
 51
263.8108506227009
  0
ARC
  8
1
  6
CONTINUOUS
 62
     7
 10
-200.0597068965905
 20
163.1081452029567
 40
2.201001570969011
 50
97.48566527436537
 51
181.5137937176489
  0
LINE
  8
1
  6
CONTINUOUS
 62
     7
 10
-200.3464492882128
 20
165.2903887082179
 11
-200.2963850347479
 21
165.29470487334
  0
LINE
  8
1
  6
CONTINUOUS
 62
     7
 10
-233.2969736062247
 20
157.0500000000026
 11
-233.2969736062247
 21
156.0500000000036
  0
LINE
  8
1
  6
CONTINUOUS
 62
     7
 10
-233.2969736062247
 20
170.0499999999965
 11
-233.2969736062247
 21
169.0499999999975
  0
LINE
  8
1
  6
CONTINUOUS
 62
     7
 10
-243.6782503943199
 20
170.15
 11
-244.6574964764454
 21
168.05
  0
LINE
  8
1
  6
CONTINUOUS
 62
     7
 10
-244.6574964764454
 20
158.05
 11
-243.6782503943199
 21
155.95
  0
LINE
  8
1
  6
CONTINUOUS
 62
     7
 10
-242.57825039432
 20
170.15
 11
-243.6782503943199
 21
170.15
  0
LINE
  8
1
  6
CONTINUOUS
 62
     7
 10
-243.6782503943199
 20
155.95
 11
-242.57825039432
 21
155.95
  0
LINE
  8
1
  6
CONTINUOUS
 62
     7
 10
-248.7782454091262
 20
160.0499999999994
 11
-248.5782703943209
 21
160.0499999999994
  0
LINE
  8
1
  6
CONTINUOUS
 62
     7
 10
-248.5782703943208
 20
166.0499999999999
 11
-248.7782454091262
 21
166.0499999999999
  0
LINE
  8
1
  6
CONTINUOUS
 62
     7
 10
-248.7782454091243
 20
166.0499999999999
 11
-249.2782454091244
 21
165.5499999999998
  0
LINE
  8
1
  6
CONTINUOUS
 62
     7
 10
-249.2782454091244
 20
160.5499999999994
 11
-248.7782454091243
 21
160.0499999999993
  0
ENDBLK
  8
0
  0
BLOCK
  8
0
  2
D_FRAME_VIEW_3198
 70
     0
 10
0.0
 20
0.0
  0
LINE
  8
1
  6
CONTINUOUS
 62
     7
 10
-233.0385032155563
 20
104.5537792050947
 11
-233.3308749202201
 21
103.5974744490873
  0
LINE
  8
1
  6
CONTINUOUS
 62
     7
 10
-233.3308749202195
 20
103.5974744490871
 11
-234.2871796761997
 21
103.8898461537544
  0
LINE
  8
1
  6
CONTINUOUS
 62
     7
 10
-233.9948079715392
 20
104.8461509097512
 11
-233.0385032155554
 21
104.5537792050947
  0
LINE
  8
1
  6
CONTINUOUS
 62
     7
 10
-234.2871796770932
 20
118.0101538443235
 11
-233.3308749211496
 21
118.3025255491115
  0
LINE
  8
1
  6
CONTINUOUS
 62
     7
 10
-233.3308749211505
 20
118.3025255491115
 11
-233.0385032163657
 21
117.3462207931411
  0
LINE
  8
1
  6
CONTINUOUS
 62
     7
 10
-233.0385032163651
 20
117.3462207931413
 11
-233.9948079723116
 21
117.0538490883636
  0
ARC
  8
1
  6
CONTINUOUS
 62
     7
 10
-237.278250393991
 20
105.8499999988743
 40
0.9999999999997233
 50
180.0000000036252
 51
253.0000000033431
  0
LINE
  8
1
  6
CONTINUOUS
 62
     7
 10
-238.278250394636
 20
116.0499999987618
 11
-238.2782503939906
 21
105.849999998811
  0
ARC
  8
1
  6
CONTINUOUS
 62
     7
 10
-237.2782503946364
 20
116.0499999988251
 40
0.9999999999997209
 50
107.0000000039076
 51
180.0000000036254
  0
LINE
  8
1
  6
CONTINUOUS
 62
     7
 10
-237.2782457576904
 20
105.8499985813903
 11
-237.2782503946364
 21
116.0499999988497
  0
LINE
  8
1
  6
CONTINUOUS
 62
     7
 10
-234.2871796770932
 20
118.0101538443235
 11
-237.5706220994244
 21
117.0063047547681
  0
LINE
  8
1
  6
CONTINUOUS
 62
     7
 10
-237.2782503946364
 20
116.0499999988497
 11
-233.9948079723116
 21
117.0538490883635
  0
LINE
  8
1
  6
CONTINUOUS
 62
     7
 10
-234.2871796761997
 20
103.8898461537543
 11
-237.570622098658
 21
104.8936952428941
  0
LINE
  8
1
  6
CONTINUOUS
 62
     7
 10
-237.2782457576904
 20
105.8499985813903
 11
-233.9948079715392
 21
104.8461509097512
  0
ARC
  8
1
  6
CONTINUOUS
 62
     7
 10
-218.3345929042737
 20
116.5086293558484
 40
13.24999999999615
 50
90.0
 51
169.2478067084971
  0
LINE
  8
1
  6
CONTINUOUS
 62
     7
 10
-231.4272726209999
 20
118.6977689820106
 11
-232.3176115794022
 21
119.254114509849
  0
ARC
  8
1
  6
CONTINUOUS
 62
     7
 10
-218.3345929042737
 20
116.5086293558484
 40
13.24999999999615
 50
32.20628753720244
 51
90.0
  0
LINE
  8
1
  6
CONTINUOUS
 62
     7
 10
-231.3519660573463
 20
118.9805711418775
 11
-231.4272726209999
 21
118.6977689820106
  0
LINE
  8
1
  6
CONTINUOUS
 62
     7
 10
-231.4272726200504
 20
103.2022310164183
 11
-231.3519660563483
 21
102.9194288565683
  0
ARC
  8
1
  6
CONTINUOUS
 62
     7
 10
-218.3345929035702
 20
105.3913706442483
 40
13.24999999999614
 50
190.7521932987542
 51
327.7937124697305
  0
LINE
  8
1
  6
CONTINUOUS
 62
     7
 10
-232.3176115783513
 20
102.6458854884781
 11
-231.4272726200195
 21
103.2022310164291
  0
POLYLINE
  8
1
  6
CONTINUOUS
 62
     7
 66
     1
  0
VERTEX
  8
1
  6
CONTINUOUS
 62
     7
 10
-196.326730824237
 20
126.3741832980065
  0
VERTEX
  8
1
  6
CONTINUOUS
 62
     7
 10
-196.3112329136827
 20
126.3276118222091
  0
VERTEX
  8
1
  6
CONTINUOUS
 62
     7
 10
-196.2934685170332
 20
126.2818568902216
  0
VERTEX
  8
1
  6
CONTINUOUS
 62
     7
 10
-196.2734804302758
 20
126.237028729683
  0
VERTEX
  8
1
  6
CONTINUOUS
 62
     7
 10
-196.2513168064625
 20
126.1932353355584
  0
VERTEX
  8
1
  6
CONTINUOUS
 62
     7
 10
-196.2270310397041
 20
126.1505822099702
  0
VERTEX
  8
1
  6
CONTINUOUS
 62
     7
 10
-196.20068163654
 20
126.1091721080337
  0
VERTEX
  8
1
  6
CONTINUOUS
 62
     7
 10
-196.1723320749903
 20
126.0691047903117
  0
VERTEX
  8
1
  6
CONTINUOUS
 62
     7
 10
-196.142050651632
 20
126.0304767824821
  0
VERTEX
  8
1
  6
CONTINUOUS
 62
     7
 10
-196.1099103170664
 20
125.9933811427991
  0
VERTEX
  8
1
  6
CONTINUOUS
 62
     7
 10
-196.0759885001743
 20
125.9579072379079
  0
VERTEX
  8
1
  6
CONTINUOUS
 62
     7
 10
-196.0403669215841
 20
125.9241405275525
  0
VERTEX
  8
1
  6
CONTINUOUS
 62
     7
 10
-196.0031313967985
 20
125.8921623586958
  0
VERTEX
  8
1
  6
CONTINUOUS
 62
     7
 10
-195.9643716294582
 20
125.8620497695475
  0
VERTEX
  8
1
  6
CONTINUOUS
 62
     7
 10
-195.9241809952377
 20
125.8338753039725
  0
VERTEX
  8
1
  6
CONTINUOUS
 62
     7
 10
-195.8826563168952
 20
125.807706836726
  0
VERTEX
  8
1
  6
CONTINUOUS
 62
     7
 10
-195.8398976310177
 20
125.7836074099377
  0
VERTEX
  8
1
  6
CONTINUOUS
 62
     7
 10
-195.796007947025
 20
125.7616350812377
  0
VERTEX
  8
1
  6
CONTINUOUS
 62
     7
 10
-195.7510929990099
 20
125.7418427838903
  0
VERTEX
  8
1
  6
CONTINUOUS
 62
     7
 10
-195.7052609910163
 20
125.7242781992735
  0
VERTEX
  8
1
  6
CONTINUOUS
 62
     7
 10
-195.6586223363659
 20
125.70898364201
  0
VERTEX
  8
1
  6
CONTINUOUS
 62
     7
 10
-195.6112893916628
 20
125.6959959580279
  0
VERTEX
  8
1
  6
CONTINUOUS
 62
     7
 10
-195.5633761861166
 20
125.6853464357956
  0
VERTEX
  8
1
  6
CONTINUOUS
 62
     7
 10
-195.5149981468363
 20
125.6770607309448
  0
VERTEX
  8
1
  6
CONTINUOUS
 62
     7
 10
-195.4662718207557
 20
125.6711588044644
  0
VERTEX
  8
1
  6
CONTINUOUS
 62
     7
 10
-195.4173145938624
 20
125.6676548746121
  0
VERTEX
  8
1
  6
CONTINUOUS
 62
     7
 10
-195.3682444084041
 20
125.6665573826618
  0
VERTEX
  8
1
  6
CONTINUOUS
 62
     7
 10
-195.3191794787556
 20
125.6678689725679
  0
VERTEX
  8
1
  6
CONTINUOUS
 62
     7
 10
-195.2702380066301
 20
125.6715864845954
  0
VERTEX
  8
1
  6
CONTINUOUS
 62
     7
 10
-195.2215378963205
 20
125.677700962932
  0
VERTEX
  8
1
  6
CONTINUOUS
 62
     7
 10
-195.1731964706583
 20
125.686197677264
  0
VERTEX
  8
1
  6
CONTINUOUS
 62
     7
 10
-195.125330188372
 20
125.6970561582624
  0
VERTEX
  8
1
  6
CONTINUOUS
 62
     7
 10
-195.0780543635284
 20
125.7102502468952
  0
SEQEND
  8
1
  6
CONTINUOUS
 62
     7
  0
LINE
  8
1
  6
CONTINUOUS
 62
     7
 10
-195.0780543635283
 20
125.7102502468945
 11
-204.8462952781221
 21
122.7237992946772
  0
ARC
  8
1
  6
CONTINUOUS
 62
     7
 10
-205.4310386876936
 20
124.6364088065647
 40
1.999999999999419
 50
212.2062875372025
 51
270.0
  0
ARC
  8
1
  6
CONTINUOUS
 62
     7
 10
-205.4310386876936
 20
124.6364088065647
 40
1.999999999999409
 50
270.0
 51
287.0000000037737
  0
ARC
  8
1
  6
CONTINUOUS
 62
     7
 10
-205.4310386859615
 20
97.26359119506486
 40
1.999999999999424
 50
73.00000000347667
 51
147.7937124697302
  0
LINE
  8
1
  6
CONTINUOUS
 62
     7
 10
-204.8462952766153
 20
99.17620070708125
 11
-195.0780543616604
 21
96.18974975614522
  0
POLYLINE
  8
1
  6
CONTINUOUS
 62
     7
 66
     1
  0
VERTEX
  8
1
  6
CONTINUOUS
 62
     7
 10
-195.0780543616604
 20
96.18974975614447
  0
VERTEX
  8
1
  6
CONTINUOUS
 62
     7
 10
-195.1253301865057
 20
96.20294384477134
  0
VERTEX
  8
1
  6
CONTINUOUS
 62
     7
 10
-195.1731964687933
 20
96.2138023257636
  0
VERTEX
  8
1
  6
CONTINUOUS
 62
     7
 10
-195.2215378944564
 20
96.22229904008944
  0
VERTEX
  8
1
  6
CONTINUOUS
 62
     7
 10
-195.2702380047665
 20
96.22841351841987
  0
VERTEX
  8
1
  6
CONTINUOUS
 62
     7
 10
-195.3191794768923
 20
96.23213103044101
  0
VERTEX
  8
1
  6
CONTINUOUS
 62
     7
 10
-195.3682444065406
 20
96.23344262034075
  0
VERTEX
  8
1
  6
CONTINUOUS
 62
     7
 10
-195.4173145919983
 20
96.23234512838418
  0
VERTEX
  8
1
  6
CONTINUOUS
 62
     7
 10
-195.4662718188906
 20
96.22884119852554
  0
VERTEX
  8
1
  6
CONTINUOUS
 62
     7
 10
-195.5149981449699
 20
96.22293927203876
  0
VERTEX
  8
1
  6
CONTINUOUS
 62
     7
 10
-195.5633761842486
 20
96.2146535671817
  0
VERTEX
  8
1
  6
CONTINUOUS
 62
     7
 10
-195.6112893897927
 20
96.20400404494309
  0
VERTEX
  8
1
  6
CONTINUOUS
 62
     7
 10
-195.6586223344935
 20
96.1910163609548
  0
VERTEX
  8
1
  6
CONTINUOUS
 62
     7
 10
-195.7052609891412
 20
96.17572180368516
  0
VERTEX
  8
1
  6
CONTINUOUS
 62
     7
 10
-195.7510929971317
 20
96.15815721906226
  0
VERTEX
  8
1
  6
CONTINUOUS
 62
     7
 10
-195.7960079451433
 20
96.13836492170893
  0
VERTEX
  8
1
  6
CONTINUOUS
 62
     7
 10
-195.8398976291323
 20
96.11639259300308
  0
VERTEX
  8
1
  6
CONTINUOUS
 62
     7
 10
-195.8826563150057
 20
96.09229316620909
  0
VERTEX
  8
1
  6
CONTINUOUS
 62
     7
 10
-195.9241809933439
 20
96.06612469895703
  0
VERTEX
  8
1
  6
CONTINUOUS
 62
     7
 10
-195.9643716275598
 20
96.03795023337655
  0
VERTEX
  8
1
  6
CONTINUOUS
 62
     7
 10
-196.0031313948951
 20
96.00783764422302
  0
VERTEX
  8
1
  6
CONTINUOUS
 62
     7
 10
-196.0403669196755
 20
95.97585947536125
  0
VERTEX
  8
1
  6
CONTINUOUS
 62
     7
 10
-196.0759884982603
 20
95.94209276500101
  0
VERTEX
  8
1
  6
CONTINUOUS
 62
     7
 10
-196.1099103151466
 20
95.90661886010513
  0
VERTEX
  8
1
  6
CONTINUOUS
 62
     7
 10
-196.1420506497064
 20
95.86952322041766
  0
VERTEX
  8
1
  6
CONTINUOUS
 62
     7
 10
-196.1723320730585
 20
95.83089521258384
  0
VERTEX
  8
1
  6
CONTINUOUS
 62
     7
 10
-196.2006816346018
 20
95.79082789485787
  0
VERTEX
  8
1
  6
CONTINUOUS
 62
     7
 10
-196.2270310377592
 20
95.74941779291768
  0
VERTEX
  8
1
  6
CONTINUOUS
 62
     7
 10
-196.2513168045109
 20
95.70676466732594
  0
VERTEX
  8
1
  6
CONTINUOUS
 62
     7
 10
-196.2734804283174
 20
95.66297127319811
  0
VERTEX
  8
1
  6
CONTINUOUS
 62
     7
 10
-196.2934685150677
 20
95.61814311265657
  0
VERTEX
  8
1
  6
CONTINUOUS
 62
     7
 10
-196.3112329117101
 20
95.5723881806665
  0
VERTEX
  8
1
  6
CONTINUOUS
 62
     7
 10
-196.3267308222571
 20
95.52581670486664
  0
SEQEND
  8
1
  6
CONTINUOUS
 62
     7
  0
ARC
  8
1
  6
CONTINUOUS
 62
     7
 10
-232.296973606225
 20
120.4203968762423
 40
0.9999999999996995
 50
164.3489983253293
 51
238.000000003636
  0
ARC
  8
1
  6
CONTINUOUS
 62
     7
 10
-218.3345929042737
 20
116.5086293558484
 40
15.49999999999548
 50
35.55300453852188
 51
164.348998325329
  0
ARC
  8
1
  6
CONTINUOUS
 62
     7
 10
-204.9105565708113
 20
126.1026508545591
 40
0.9999999999997272
 50
215.5530045385218
 51
287.0000000037733
  0
LINE
  8
1
  6
CONTINUOUS
 62
     7
 10
-197.8875764001628
 20
127.2040996120015
 11
-204.6181848660256
 21
125.1463460986154
  0
LINE
  8
1
  6
CONTINUOUS
 62
     7
 10
-196.3267308242334
 20
126.3741832980076
 11
-197.8875764001628
 21
127.2040996120015
  0
LINE
  8
1
  6
CONTINUOUS
 62
     7
 10
-232.8268928704043
 20
119.5723487800524
 11
-232.3176115794022
 21
119.254114509849
  0
LINE
  8
1
  6
CONTINUOUS
 62
     7
 10
-194.4141213123453
 20
126.9589267075619
 11
-194.1217496075849
 21
126.0026219516803
  0
LINE
  8
1
  6
CONTINUOUS
 62
     7
 10
-194.1217496075849
 20
126.0026219516803
 11
-195.0780543635283
 21
125.7102502468945
  0
LINE
  8
1
  6
CONTINUOUS
 62
     7
 10
-196.3267308242334
 20
126.3741832980076
 11
-194.4141213123453
 21
126.9589267075619
  0
LINE
  8
1
  6
CONTINUOUS
 62
     7
 10
-197.8875763981059
 20
94.69590039068262
 11
-204.6181848642291
 21
96.75365390321703
  0
ARC
  8
1
  6
CONTINUOUS
 62
     7
 10
-204.9105565688937
 20
95.79734914723628
 40
0.9999999999997056
 50
73.00000000347723
 51
144.4469954687287
  0
ARC
  8
1
  6
CONTINUOUS
 62
     7
 10
-218.3345929035702
 20
105.3913706442483
 40
15.49999999999551
 50
195.6510016819218
 51
324.4469954687289
  0
ARC
  8
1
  6
CONTINUOUS
 62
     7
 10
-232.2969736050265
 20
101.4796031220874
 40
0.9999999999996879
 50
122.0000000036142
 51
195.6510016819219
  0
LINE
  8
1
  6
CONTINUOUS
 62
     7
 10
-197.8875763981059
 20
94.69590039068262
 11
-196.326730822285
 21
95.5258167048752
  0
LINE
  8
1
  6
CONTINUOUS
 62
     7
 10
-232.8268928693131
 20
102.3276512182102
 11
-232.3176115783513
 21
102.6458854884781
  0
LINE
  8
1
  6
CONTINUOUS
 62
     7
 10
-194.12174960568
 20
95.89737805148037
 11
-194.4141240098931
 21
94.941064465554
  0
LINE
  8
1
  6
CONTINUOUS
 62
     7
 10
-194.4141240098931
 20
94.941064465554
 11
-195.3704260662742
 21
95.23344500021
  0
LINE
  8
1
  6
CONTINUOUS
 62
     7
 10
-195.0780543616604
 20
96.18974975614522
 11
-194.12174960568
 21
95.89737805148037
  0
LINE
  8
1
  6
CONTINUOUS
 62
     7
 10
-195.3704260662742
 20
95.23344500021
 11
-196.326730822285
 21
95.5258167048752
  0
ARC
  8
1
  6
CONTINUOUS
 62
     7
 10
-233.3170920407471
 20
119.3524311550002
 40
0.9999999999997224
 50
287.0000000039073
 51
349.2057002786084
  0
ARC
  8
1
  6
CONTINUOUS
 62
     7
 10
-218.3345929042737
 20
116.5086293558484
 40
14.24999999999585
 50
168.8916119484457
 51
169.2559313223205
  0
ARC
  8
1
  6
CONTINUOUS
 62
     7
 10
-233.3170920407471
 20
119.3524311550002
 40
1.999999999999414
 50
287.000000003277
 51
340.8931368760959
  0
LINE
  8
1
  6
CONTINUOUS
 62
     7
 10
-233.0247203359592
 20
118.3961263990572
 11
-233.3308749211505
 21
118.3025255491115
  0
LINE
  8
1
  6
CONTINUOUS
 62
     7
 10
-233.0385032163657
 20
117.3462207931411
 11
-232.7323486311949
 21
117.4398216431163
  0
ARC
  8
1
  6
CONTINUOUS
 62
     7
 10
-218.3345929035702
 20
105.3913706442483
 40
14.24999999999586
 50
190.7506562768875
 51
191.1083880588054
  0
ARC
  8
1
  6
CONTINUOUS
 62
     7
 10
-233.3170920396838
 20
102.5475688431003
 40
0.9999999999997133
 50
10.70042653844138
 51
73.00000000334393
  0
ARC
  8
1
  6
CONTINUOUS
 62
     7
 10
-233.3170920396838
 20
102.5475688431003
 40
1.999999999999408
 50
19.1068631338627
 51
73.00000000397259
  0
LINE
  8
1
  6
CONTINUOUS
 62
     7
 10
-233.33087492022
 20
103.5974744490874
 11
-233.0247203349999
 21
103.5038735991358
  0
LINE
  8
1
  6
CONTINUOUS
 62
     7
 10
-232.7323486303709
 20
104.4601783550668
 11
-233.0385032155563
 21
104.5537792050947
  0
LINE
  8
1
  6
CONTINUOUS
 62
     7
 10
-238.2782503946828
 20
116.7899610737852
 11
-238.278250394636
 21
116.0499999987614
  0
LINE
  8
1
  6
CONTINUOUS
 62
     7
 10
-238.2782503946828
 20
116.7899610737864
 11
-239.2782503946824
 21
116.7899610737231
  0
LINE
  8
1
  6
CONTINUOUS
 62
     7
 10
-238.2782503939906
 20
105.8499999988114
 11
-238.2782503939438
 21
105.1100389237878
  0
LINE
  8
1
  6
CONTINUOUS
 62
     7
 10
-238.2782503939438
 20
105.1100389237864
 11
-239.2782503939434
 21
105.1100389237232
  0
ARC
  8
1
  6
CONTINUOUS
 62
     7
 10
-239.2782503940066
 20
106.1100389237232
 40
0.9999999999996956
 50
180.0000000036254
 51
270.0000000036255
  0
ARC
  8
1
  6
CONTINUOUS
 62
     7
 10
-239.2782503946191
 20
115.7899610737231
 40
0.9999999999996956
 50
90.00000000362542
 51
180.0000000036254
  0
LINE
  8
1
  6
CONTINUOUS
 62
     7
 10
-237.5706220986575
 20
104.8936952428943
 11
-237.583453522864
 21
104.8976182029602
  0
LINE
  8
1
  6
CONTINUOUS
 62
     7
 10
-237.583453522864
 20
104.8976182029602
 11
-238.2782503939438
 21
105.1100389237864
  0
LINE
  8
1
  6
CONTINUOUS
 62
     7
 10
-238.2782503946828
 20
116.7899610737864
 11
-237.5834535236298
 21
117.002381794702
  0
LINE
  8
1
  6
CONTINUOUS
 62
     7
 10
-237.5834535236298
 20
117.002381794702
 11
-237.570622099424
 21
117.0063047547695
  0
LINE
  8
1
  6
CONTINUOUS
 62
     7
 10
-197.5754072849286
 20
127.038116349184
 11
-197.3363310959716
 21
127.1112092753693
  0
LINE
  8
1
  6
CONTINUOUS
 62
     7
 10
-243.6782503943199
 20
103.85
 11
-243.6782503943199
 21
110.95
  0
ARC
  8
1
  6
CONTINUOUS
 62
     7
 10
-241.584813742716
 20
106.6198729810778
 40
3.072171329847708
 50
151.977215072356
 51
208.0227849276441
  0
ARC
  8
1
  6
CONTINUOUS
 62
     7
 10
-232.9120884771452
 20
110.95
 40
11.7450045571079
 50
165.7717432953879
 51
194.2282567046121
  0
ARC
  8
1
  6
CONTINUOUS
 62
     7
 10
-241.584813742716
 20
115.2801270189222
 40
3.072171329847708
 50
151.977215072356
 51
208.0227849276441
  0
LINE
  8
1
  6
CONTINUOUS
 62
     7
 10
-243.6782503943199
 20
110.95
 11
-243.6782503943199
 21
118.05
  0
ARC
  8
1
  6
CONTINUOUS
 62
     7
 10
-245.6921474530579
 20
106.5176839337815
 40
2.887911492575254
 50
147.643592953361
 51
177.9721595785993
  0
ARC
  8
1
  6
CONTINUOUS
 62
     7
 10
-238.5221954223942
 20
111.0277582082146
 40
10.05635559918878
 50
180.443029435954
 51
197.1449243380388
  0
LINE
  8
1
  6
CONTINUOUS
 62
     7
 10
-248.5782503943199
 20
110.95
 11
-248.5782503943199
 21
106.6198729810778
  0
ARC
  8
1
  6
CONTINUOUS
 62
     7
 10
-238.3711214645309
 20
110.8488705691688
 40
10.20762989881174
 50
162.9796985038626
 51
179.4323477221447
  0
ARC
  8
1
  6
CONTINUOUS
 62
     7
 10
-245.766290292561
 20
115.3593761918423
 40
2.813076615610122
 50
181.6143335512139
 51
212.7699139168265
  0
LINE
  8
1
  6
CONTINUOUS
 62
     7
 10
-248.5782503943199
 20
110.95
 11
-248.5782503943199
 21
115.2801270189222
  0
LINE
  8
1
  6
CONTINUOUS
 62
     7
 10
-248.1316684069347
 20
113.8367513459481
 11
-244.2968062476107
 21
113.8367513459481
  0
ARC
  8
1
  6
CONTINUOUS
 62
     7
 10
-245.6921474530582
 20
115.177937971626
 40
2.887911492575038
 50
147.6435929533596
 51
177.9721595786003
  0
LINE
  8
1
  6
CONTINUOUS
 62
     7
 10
-248.1316684069347
 20
116.7235026918962
 11
-244.2968062476107
 21
116.7235026918962
  0
LINE
  8
1
  6
CONTINUOUS
 62
     7
 10
-248.1316684069347
 20
108.0632486540519
 11
-244.2968062476107
 21
108.0632486540519
  0
LINE
  8
1
  6
CONTINUOUS
 62
     7
 10
-248.1316684069347
 20
105.1764973081037
 11
-244.2968062476107
 21
105.1764973081037
  0
ARC
  8
1
  6
CONTINUOUS
 62
     7
 10
-245.7662902925612
 20
106.6991221539978
 40
2.813076615609953
 50
181.6143335512123
 51
212.7699139168269
  0
LINE
  8
1
  6
CONTINUOUS
 62
     7
 10
-248.5782503943199
 20
115.95
 11
-248.5782503943199
 21
115.2801270189222
  0
LINE
  8
1
  6
CONTINUOUS
 62
     7
 10
-248.5782503943199
 20
106.6198729810778
 11
-248.5782503943199
 21
105.95
  0
LINE
  8
1
  6
CONTINUOUS
 62
     7
 10
-234.6782454087373
 20
105.0550987031079
 11
-234.6782454091226
 21
110.9499999990447
  0
LINE
  8
1
  6
CONTINUOUS
 62
     7
 10
-234.6782454091226
 20
110.9499999990447
 11
-234.678245409508
 21
116.844901294913
  0
LINE
  8
1
  6
CONTINUOUS
 62
     7
 10
-233.2922185604376
 20
107.4999999991348
 11
-233.2922185604423
 21
107.571760812813
  0
LINE
  8
1
  6
CONTINUOUS
 62
     7
 10
-233.2922185607082
 20
111.6499999991354
 11
-232.7273660510404
 21
111.6499999991723
  0
LINE
  8
1
  6
CONTINUOUS
 62
     7
 10
-233.2922185606174
 20
110.2499999991351
 11
-233.2922185607088
 21
111.6499999991355
  0
LINE
  8
1
  6
CONTINUOUS
 62
     7
 10
-232.7273660509489
 20
110.2499999991721
 11
-233.2922185606167
 21
110.2499999991352
  0
ARC
  8
1
  6
CONTINUOUS
 62
     7
 10
-242.6782454091236
 20
110.9499999985218
 40
9.97546991374432
 50
340.2050712637288
 51
355.9761259878705
  0
LINE
  8
1
  6
CONTINUOUS
 62
     7
 10
-233.292218560884
 20
114.3282391854576
 11
-233.2922185608886
 21
114.3999999991358
  0
ARC
  8
1
  6
CONTINUOUS
 62
     7
 10
-242.6782454091236
 20
110.9499999985218
 40
9.975469913744297
 50
4.023874019619452
 51
19.79492874376115
  0
LINE
  8
1
  6
CONTINUOUS
 62
     7
 10
-248.7782454093204
 20
113.9499999981235
 11
-248.7782454091243
 21
110.949999998123
  0
LINE
  8
1
  6
CONTINUOUS
 62
     7
 10
-248.7782454091243
 20
110.949999998123
 11
-248.7782454089282
 21
107.9499999981225
  0
LINE
  8
1
  6
CONTINUOUS
 62
     7
 10
-249.278245408961
 20
108.44999999809
 11
-249.2782454091244
 21
110.9499999980904
  0
LINE
  8
1
  6
CONTINUOUS
 62
     7
 10
-249.2782454091244
 20
110.9499999980904
 11
-249.2782454092878
 21
113.4499999980908
  0
LINE
  8
1
  6
CONTINUOUS
 62
     7
 10
-242.5782503943199
 20
135.95
 11
-240.2782503943199
 21
135.95
  0
LINE
  8
1
  6
CONTINUOUS
 62
     7
 10
-240.2782503943199
 20
135.95
 11
-240.2782503943199
 21
132.95
  0
LINE
  8
1
  6
CONTINUOUS
 62
     7
 10
-242.5782503943199
 20
132.95
 11
-242.5782503943199
 21
135.95
  0
LINE
  8
1
  6
CONTINUOUS
 62
     7
 10
-240.2782503943199
 20
132.95
 11
-240.2782503943199
 21
88.95
  0
LINE
  8
1
  6
CONTINUOUS
 62
     7
 10
-242.5782503943199
 20
132.95
 11
-242.5782503943199
 21
88.95
  0
LINE
  8
1
  6
CONTINUOUS
 62
     7
 10
-240.2782503943199
 20
88.95
 11
-240.2782503943199
 21
85.95
  0
LINE
  8
1
  6
CONTINUOUS
 62
     7
 10
-240.2782503943199
 20
85.95
 11
-242.5782503943199
 21
85.95
  0
LINE
  8
1
  6
CONTINUOUS
 62
     7
 10
-242.5782503943199
 20
85.95
 11
-242.5782503943199
 21
88.95
  0
LINE
  8
1
  6
CONTINUOUS
 62
     7
 10
-242.5782503943199
 20
135.95
 11
-243.2047578097303
 21
135.95
  0
LINE
  8
1
  6
CONTINUOUS
 62
     7
 10
-243.2047578097303
 20
85.95
 11
-242.5782503943199
 21
85.95
  0
POLYLINE
  8
1
  6
CONTINUOUS
 62
     7
 66
     1
  0
VERTEX
  8
1
  6
CONTINUOUS
 62
     7
 10
-265.6950347251534
 20
85.95
  0
VERTEX
  8
1
  6
CONTINUOUS
 62
     7
 10
-265.5776568556228
 20
85.96675314730882
  0
VERTEX
  8
1
  6
CONTINUOUS
 62
     7
 10
-265.4583033406681
 20
86.01824585258149
  0
VERTEX
  8
1
  6
CONTINUOUS
 62
     7
 10
-265.3411955743492
 20
86.10415820990131
  0
VERTEX
  8
1
  6
CONTINUOUS
 62
     7
 10
-265.2667805585963
 20
86.17871215146371
  0
SEQEND
  8
1
  6
CONTINUOUS
 62
     7
  0
ARC
  8
1
  6
CONTINUOUS
 62
     7
 10
-267.3262310362741
 20
87.70818724033298
 40
2.565273926402247
 50
323.4001401382761
 51
359.2394812164095
  0
LINE
  8
1
  6
CONTINUOUS
 62
     7
 10
-266.6449043713185
 20
85.95
 11
-265.6950347251534
 21
85.95
  0
LINE
  8
1
  6
CONTINUOUS
 62
     7
 10
-266.6449043713185
 20
135.95
 11
-265.6950347251534
 21
135.95
  0
ARC
  8
1
  6
CONTINUOUS
 62
     7
 10
-267.3095062445432
 20
134.1919991108977
 40
2.548548134776242
 50
0.7613203954002368
 51
37.55531012413372
  0
POLYLINE
  8
1
  6
CONTINUOUS
 62
     7
 66
     1
  0
VERTEX
  8
1
  6
CONTINUOUS
 62
     7
 10
-265.2891057009202
 20
135.7454080199101
  0
VERTEX
  8
1
  6
CONTINUOUS
 62
     7
 10
-265.3964432901892
 20
135.8409378984083
  0
VERTEX
  8
1
  6
CONTINUOUS
 62
     7
 10
-265.5086542548456
 20
135.9077727937555
  0
VERTEX
  8
1
  6
CONTINUOUS
 62
     7
 10
-265.6216873407569
 20
135.9434474288048
  0
VERTEX
  8
1
  6
CONTINUOUS
 62
     7
 10
-265.6950347251534
 20
135.95
  0
SEQEND
  8
1
  6
CONTINUOUS
 62
     7
  0
ARC
  8
1
  6
CONTINUOUS
 62
     7
 10
-251.377554033572
 20
134.077841033035
 40
13.38444757812229
 50
179.3663426543097
 51
224.3256653615524
  0
ARC
  8
1
  6
CONTINUOUS
 62
     7
 10
-257.3503383884487
 20
129.1733005370426
 40
5.723399850613244
 50
230.9957878672291
 51
270.3375324724625
  0
ARC
  8
1
  6
CONTINUOUS
 62
     7
 10
-245.353194012764
 20
134.0421103739262
 40
1.908153702223457
 50
90.95323625416542
 51
174.4739583664916
  0
ARC
  8
1
  6
CONTINUOUS
 62
     7
 10
-245.3538366741067
 20
87.85719351218822
 40
1.907447097507887
 50
185.5070879456085
 51
269.0657174337355
  0
ARC
  8
1
  6
CONTINUOUS
 62
     7
 10
-259.597523788888
 20
86.45406335842128
 40
12.40518831708636
 50
5.644276837542298
 51
72.66943273199216
  0
ARC
  8
1
  6
CONTINUOUS
 62
     7
 10
-257.3345947020391
 20
91.7091671255247
 40
6.740856746519455
 50
77.73154980837491
 51
89.84751567061176
  0
LINE
  8
1
  6
CONTINUOUS
 62
     7
 10
-245.3849387135635
 20
135.95
 11
-243.2047578097303
 21
135.95
  0
LINE
  8
1
  6
CONTINUOUS
 62
     7
 10
-245.3849387135635
 20
85.95
 11
-243.2047578097303
 21
85.95
  0
ARC
  8
1
  6
CONTINUOUS
 62
     7
 10
-256.9844504665527
 20
91.6914972504452
 40
6.766662339307776
 50
92.81402655181368
 51
163.4567618563381
  0
ARC
  8
1
  6
CONTINUOUS
 62
     7
 10
-245.7806210701895
 20
86.66643637610146
 40
19.00729325933176
 50
158.5466588505825
 51
176.9609493022231
  0
ARC
  8
1
  6
CONTINUOUS
 62
     7
 10
-249.6039585254687
 20
87.86484693064881
 40
13.45314388477964
 50
136.3027197450929
 51
180.8122403865528
  0
ARC
  8
1
  6
CONTINUOUS
 62
     7
 10
-255.7375004960439
 20
92.79383714220893
 40
5.65369118151516
 50
97.67648087140168
 51
129.459172067039
  0
ARC
  8
1
  6
CONTINUOUS
 62
     7
 10
-254.9891765875239
 20
130.6157025777087
 40
7.269902023305894
 50
192.1015295235597
 51
258.0472149642591
  0
ARC
  8
1
  6
CONTINUOUS
 62
     7
 10
-242.7075186776553
 20
135.3669862205297
 40
20.38020381077926
 50
183.2097720633739
 51
197.9336512047075
  0
ARC
  8
1
  6
CONTINUOUS
 62
     7
 10
-258.4721446449814
 20
134.2445889339369
 40
10.85626010443835
 50
276.11004504286
 51
340.0614094440687
  0
ARC
  8
1
  6
CONTINUOUS
 62
     7
 10
-260.7954485371241
 20
135.9733164533152
 40
13.65524088301347
 50
336.564787459621
 51
352.6477266483952
  0
LINE
  8
1
  6
CONTINUOUS
 62
     7
 10
-263.9594595898129
 20
85.95
 11
-265.6950347251534
 21
85.95
  0
ARC
  8
1
  6
CONTINUOUS
 62
     7
 10
-265.6674093859886
 20
87.70703829590722
 40
2.611865992336136
 50
323.6354983876681
 51
359.2782547376108
  0
POLYLINE
  8
1
  6
CONTINUOUS
 62
     7
 66
     1
  0
VERTEX
  8
1
  6
CONTINUOUS
 62
     7
 10
-263.5641747719715
 20
86.15841047737803
  0
VERTEX
  8
1
  6
CONTINUOUS
 62
     7
 10
-263.6677431185699
 20
86.06192748071817
  0
VERTEX
  8
1
  6
CONTINUOUS
 62
     7
 10
-263.7758479166058
 20
85.99410695965342
  0
VERTEX
  8
1
  6
CONTINUOUS
 62
     7
 10
-263.886058677193
 20
85.95707061168672
  0
VERTEX
  8
1
  6
CONTINUOUS
 62
     7
 10
-263.9594595898129
 20
85.95
  0
SEQEND
  8
1
  6
CONTINUOUS
 62
     7
  0
LINE
  8
1
  6
CONTINUOUS
 62
     7
 10
-265.6950347251534
 20
135.95
 11
-263.9594595898129
 21
135.95
  0
POLYLINE
  8
1
  6
CONTINUOUS
 62
     7
 66
     1
  0
VERTEX
  8
1
  6
CONTINUOUS
 62
     7
 10
-263.9594595898129
 20
135.95
  0
VERTEX
  8
1
  6
CONTINUOUS
 62
     7
 10
-263.845791680282
 20
135.9330783203207
  0
VERTEX
  8
1
  6
CONTINUOUS
 62
     7
 10
-263.7300048419976
 20
135.8810339814561
  0
VERTEX
  8
1
  6
CONTINUOUS
 62
     7
 10
-263.616200432435
 20
135.7941198249438
  0
VERTEX
  8
1
  6
CONTINUOUS
 62
     7
 10
-263.5437896519829
 20
135.718626164291
  0
SEQEND
  8
1
  6
CONTINUOUS
 62
     7
  0
ARC
  8
1
  6
CONTINUOUS
 62
     7
 10
-265.6875931461387
 20
134.1915776716679
 40
2.632065827515942
 50
0.7463365087171497
 51
35.46257689765383
  0
LINE
  8
1
  6
CONTINUOUS
 62
     7
 10
-267.5725375365604
 20
85.95
 11
-266.6449043713185
 21
85.95
  0
LINE
  8
1
  6
CONTINUOUS
 62
     7
 10
-266.6449043713185
 20
135.95
 11
-267.5725375365604
 21
135.95
  0
LINE
  8
1
  6
CONTINUOUS
 62
     7
 10
-290.2782503943199
 20
132.95
 11
-290.2782503943199
 21
88.95
  0
ARC
  8
1
  6
CONTINUOUS
 62
     7
 10
-273.3782503943199
 20
128.45
 40
2.599999999999991
 50
270.0000000000001
 51
89.99999999999962
  0
LINE
  8
1
  6
CONTINUOUS
 62
     7
 10
-273.3782503943199
 20
131.05
 11
-283.1782503943199
 21
131.05
  0
ARC
  8
1
  6
CONTINUOUS
 62
     7
 10
-283.1782503943199
 20
128.45
 40
2.600000000000019
 50
90.0
 51
269.9999999999995
  0
LINE
  8
1
  6
CONTINUOUS
 62
     7
 10
-283.1782503943199
 20
125.85
 11
-273.3782503943199
 21
125.85
  0
ARC
  8
1
  6
CONTINUOUS
 62
     7
 10
-276.27825039432
 20
110.95
 40
5.499999999999977
 50
270.0
 51
90.00000000000016
  0
LINE
  8
1
  6
CONTINUOUS
 62
     7
 10
-276.27825039432
 20
116.45
 11
-280.2782503943199
 21
116.45
  0
ARC
  8
1
  6
CONTINUOUS
 62
     7
 10
-280.2782503943199
 20
110.95
 40
5.500000000000004
 50
90.0
 51
270.0000000000001
  0
LINE
  8
1
  6
CONTINUOUS
 62
     7
 10
-280.2782503943199
 20
105.45
 11
-276.27825039432
 21
105.45
  0
ARC
  8
1
  6
CONTINUOUS
 62
     7
 10
-273.3782503943199
 20
93.45
 40
2.600000000000005
 50
270.0000000000002
 51
89.9999999999993
  0
LINE
  8
1
  6
CONTINUOUS
 62
     7
 10
-273.3782503943199
 20
96.05
 11
-283.1782503943199
 21
96.05
  0
ARC
  8
1
  6
CONTINUOUS
 62
     7
 10
-283.1782503943199
 20
93.45
 40
2.599999999999991
 50
90.00000000000021
 51
269.9999999999998
  0
LINE
  8
1
  6
CONTINUOUS
 62
     7
 10
-283.1782503943199
 20
90.85
 11
-273.3782503943199
 21
90.85
  0
ARC
  8
1
  6
CONTINUOUS
 62
     7
 10
-287.2782503943199
 20
88.95
 40
3.000000000000003
 50
180.0
 51
270.0
  0
ARC
  8
1
  6
CONTINUOUS
 62
     7
 10
-287.2782503943199
 20
132.95
 40
3.000000000000003
 50
90.0
 51
180.0
  0
LINE
  8
1
  6
CONTINUOUS
 62
     7
 10
-287.2782503943199
 20
85.95
 11
-267.5725375365604
 21
85.95
  0
LINE
  8
1
  6
CONTINUOUS
 62
     7
 10
-287.2782503943199
 20
135.95
 11
-267.5725375365604
 21
135.95
  0
LINE
  8
1
  6
CONTINUOUS
 62
     7
 10
-197.2632381697845
 20
126.8721330864004
 11
-197.3363310959914
 21
127.1112092754282
  0
LINE
  8
1
  6
CONTINUOUS
 62
     7
 10
-243.6782503943199
 20
118.05
 11
-244.2968062476107
 21
116.7235026918962
  0
LINE
  8
1
  6
CONTINUOUS
 62
     7
 10
-244.2968062476107
 20
105.1764973081037
 11
-243.6782503943199
 21
103.85
  0
LINE
  8
1
  6
CONTINUOUS
 62
     7
 10
-242.5782503943199
 20
118.05
 11
-243.6782503943199
 21
118.05
  0
LINE
  8
1
  6
CONTINUOUS
 62
     7
 10
-243.6782503943199
 20
103.85
 11
-242.5782503943199
 21
103.85
  0
LINE
  8
1
  6
CONTINUOUS
 62
     7
 10
-248.1316684069347
 20
116.7235026918962
 11
-248.5782503943199
 21
115.95
  0
LINE
  8
1
  6
CONTINUOUS
 62
     7
 10
-248.5782503943199
 20
105.95
 11
-248.1316684069347
 21
105.1764973081037
  0
ARC
  8
1
  6
CONTINUOUS
 62
     7
 10
-242.6782454091236
 20
110.9499999985218
 40
10.00000000000088
 50
20.18179577061948
 51
36.25875191737251
  0
ARC
  8
1
  6
CONTINUOUS
 62
     7
 10
-242.6782454091236
 20
110.9499999985218
 40
10.0000000000009
 50
323.7412480897178
 51
339.8182042368706
  0
LINE
  8
1
  6
CONTINUOUS
 62
     7
 10
-248.77824540893
 20
107.9499999981228
 11
-248.5782503943208
 21
107.9499999981359
  0
LINE
  8
1
  6
CONTINUOUS
 62
     7
 10
-248.5782503943208
 20
113.9499999981364
 11
-248.7782454093222
 21
113.9499999981233
  0
LINE
  8
1
  6
CONTINUOUS
 62
     7
 10
-248.7782454093204
 20
113.9499999981233
 11
-249.2782454092878
 21
113.4499999980906
  0
LINE
  8
1
  6
CONTINUOUS
 62
     7
 10
-249.278245408961
 20
108.4499999980901
 11
-248.7782454089282
 21
107.9499999981228
  0
ENDBLK
  8
0
  0
ENDSEC
  0
SECTION
  2
ENTITIES
  0
INSERT
  8
1
  6
CONTINUOUS
 62
     7
  2
D_FRAME_VIEW_2738
 10
0.0
 20
0.0
 30
0.0
  0
TEXT
  8
1
  6
CONTINUOUS
 62
     7
 10
-246.508068650744
 20
70.07842003251218
 40
3.0
  1
HT-MKB-2225
  0
INSERT
  8
1
  6
CONTINUOUS
 62
     7
  2
D_FRAME_VIEW_3198
 10
0.0
 20
0.0
 30
0.0
  0
ENDSEC
  0
EOF
