  0
SECTION
  2
HEADER
  9
$ACADVER
  1
AC1004
  9
$INSBASE
 10
0.0
 20
0.0
  9
$EXTMIN
 10
-454.1222788351453
 20
69.62045454545452
  9
$EXTMAX
 10
-350.2777211648547
 20
205.95
  9
$LIMMIN
 10
0.0
 20
0.0
  9
$LIMMAX
 10
12.0
 20
9.0
  9
$ORTHOMODE
 70
     0
  9
$REGENMODE
 70
     1
  9
$FILLMODE
 70
     1
  9
$QTEXTMODE
 70
     0
  9
$DRAGMODE
 70
     2
  9
$LTSCALE
 40
1.0
  9
$OSMODE
 70
    37
  9
$ATTMODE
 70
     1
  9
$TEXTSIZE
 40
0.2
  9
$TRACEWID
 40
0.05
  9
$TEXTSTYLE
  7
STANDARD
  9
$CLAYER
  8
0
  9
$CELTYPE
  6
BYLAYER
  9
$CECOLOR
 62
   256
  9
$DIMSCALE
 40
1.0
  9
$DIMASZ
 40
3.0
  9
$DIMEXO
 40
0.0625
  9
$DIMDLI
 40
0.38
  9
$DIMRND
 40
0.0
  9
$DIMDLE
 40
0.0
  9
$DIMEXE
 40
1.5
  9
$DIMTP
 40
0.0
  9
$DIMTM
 40
0.0
  9
$DIMTXT
 40
3.0
  9
$DIMCEN
 40
0.09
  9
$DIMTSZ
 40
0.0
  9
$DIMTOL
 70
     0
  9
$DIMLIM
 70
     0
  9
$DIMTIH
 70
     1
  9
$DIMTOH
 70
     1
  9
$DIMSE1
 70
     0
  9
$DIMSE2
 70
     0
  9
$DIMTAD
 70
     1
  9
$DIMZIN
 70
     0
  9
$DIMBLK
  1

  9
$DIMASO
 70
     1
  9
$DIMSHO
 70
     1
  9
$DIMPOST
  1

  9
$DIMAPOST
  1

  9
$DIMALT
 70
     0
  9
$DIMALTD
 70
     2
  9
$DIMALTF
 40
25.4
  9
$DIMLFAC
 40
1.0
  9
$DIMTOFL
 70
     0
  9
$DIMTVP
 40
0.0
  9
$DIMTIX
 70
     0
  9
$DIMSOXD
 70
     0
  9
$DIMSAH
 70
     0
  9
$DIMBLK1
  1

  9
$DIMBLK2
  1

  9
$LUNITS
 70
     2
  9
$LUPREC
 70
     4
  9
$SKETCHINC
 40
0.1
  9
$FILLETRAD
 40
0.5
  9
$AUNITS
 70
     0
  9
$AUPREC
 70
     0
  9
$MENU
  1
.
  9
$ELEVATION
 40
0.0
  9
$THICKNESS
 40
0.0
  9
$LIMCHECK
 70
     0
  9
$CHAMFERA
 40
0.0
  9
$CHAMFERB
 40
0.0
  9
$SKPOLY
 70
     0
  9
$TDCREATE
 40
2459758.421947384
  9
$TDUPDATE
 40
2459758.421947558
  9
$TDINDWG
 40
0.0000000116
  9
$TDUSRTIMER
 40
0.0000000116
  9
$USRTIMER
 70
     1
  9
$ANGBASE
 50
0.0
  9
$ANGDIR
 70
     0
  9
$PDMODE
 70
     0
  9
$PDSIZE
 40
0.0
  9
$PLINEWID
 40
0.0
  9
$COORDS
 70
     1
  9
$SPLFRAME
 70
     0
  9
$SPLINETYPE
 70
     6
  9
$SPLINESEGS
 70
     8
  9
$ATTDIA
 70
     0
  9
$ATTREQ
 70
     1
  9
$SURFTAB1
 70
     6
  9
$SURFTAB2
 70
     6
  9
$SURFTYPE
 70
     6
  9
$SURFU
 70
     6
  9
$SURFV
 70
     6
  9
$UCSNAME
  2

  9
$UCSORG
 10
0.0
 20
0.0
 30
0.0
  9
$UCSXDIR
 10
1.0
 20
0.0
 30
0.0
  9
$UCSYDIR
 10
0.0
 20
1.0
 30
0.0
  9
$USERI1
 70
     0
  9
$USERI2
 70
     0
  9
$USERI3
 70
     0
  9
$USERI4
 70
     0
  9
$USERI5
 70
     0
  9
$USERR1
 40
0.0
  9
$USERR2
 40
0.0
  9
$USERR3
 40
0.0
  9
$USERR4
 40
0.0
  9
$USERR5
 40
0.0
  9
$WORLDVIEW
 70
     1
  0
ENDSEC
  0
SECTION
  2
TABLES
  0
TABLE
  2
LTYPE
 70
     1
  0
LTYPE
  2
CONTINUOUS
 70
     0
  3
Solid line
 72
    65
 73
     0
 40
0.0
  0
ENDTAB
  0
TABLE
  2
LAYER
 70
     2
  0
LAYER
  2
0
 70
     0
 62
     7
  6
CONTINUOUS
  0
LAYER
  2
1
 70
     0
 62
     7
  6
CONTINUOUS
  0
ENDTAB
  0
TABLE
  2
STYLE
 70
     2
  0
STYLE
  2
STANDARD
 70
     0
 40
0.0
 41
1.0
 50
0.0
 71
     0
 42
0.2
  3
txt
  4

  0
STYLE
  2
ＭＳ_ゴシック
 70
     0
 40
0.0
 41
1.0
 50
0.0
 71
     0
 42
0.2
  3
ＭＳ ゴシック.shx
  4

  0
ENDTAB
  0
TABLE
  2
VIEW
 70
     0
  0
ENDTAB
  0
ENDSEC
  0
SECTION
  2
BLOCKS
  0
BLOCK
  8
0
  2
D_FRAME_VIEW_3687
 70
     0
 10
0.0
 20
0.0
  0
LINE
  8
1
  6
CONTINUOUS
 62
     7
 10
-402.1222788352917
 20
113.3826013164834
 11
-402.122278835426
 21
115.4855934750735
  0
LINE
  8
1
  6
CONTINUOUS
 62
     7
 10
-400.922278745663
 20
115.8524703203596
 11
-400.9222777896159
 21
113.7494784540214
  0
LINE
  8
1
  6
CONTINUOUS
 62
     7
 10
-402.1222788348468
 20
106.4144771959077
 11
-402.1222788349811
 21
108.5174693544822
  0
LINE
  8
1
  6
CONTINUOUS
 62
     7
 10
-400.9222752442898
 20
108.1505914390543
 11
-400.9222742882424
 21
106.0475989882278
  0
LINE
  8
1
  6
CONTINUOUS
 62
     7
 10
-402.1222788349811
 20
108.5174693544822
 11
-402.1222788352917
 21
113.3826013164834
  0
LINE
  8
1
  6
CONTINUOUS
 62
     7
 10
-400.9222777896159
 20
113.7494784540214
 11
-400.9222752442898
 21
108.1505914390543
  0
LINE
  8
1
  6
CONTINUOUS
 62
     7
 10
-395.5617011911815
 20
103.1026643844514
 11
-395.4715315467864
 21
102.6619342665842
  0
ARC
  8
1
  6
CONTINUOUS
 62
     7
 10
-378.9184461252332
 20
104.4557811891001
 40
16.64999999999447
 50
186.1849691900371
 51
329.6507318858268
  0
LINE
  8
1
  6
CONTINUOUS
 62
     7
 10
-396.6678271178965
 20
102.5631707228472
 11
-395.5617011911815
 21
103.1026643844514
  0
ARC
  8
1
  6
CONTINUOUS
 62
     7
 10
-397.8575617766841
 20
119.4966382492908
 40
2.399999999999189
 50
343.0596410105986
 51
353.815030817279
  0
LINE
  8
1
  6
CONTINUOUS
 62
     7
 10
-395.5617011921835
 20
118.7973356134235
 11
-396.668224561793
 21
119.3370231207046
  0
ARC
  8
1
  6
CONTINUOUS
 62
     7
 10
-378.9184461260624
 20
117.4442188108999
 40
16.64999999999447
 50
90.0
 51
173.8150308172789
  0
ARC
  8
1
  6
CONTINUOUS
 62
     7
 10
-378.9184461260624
 20
117.4442188108999
 40
16.64999999999451
 50
30.3492681214893
 51
90.0
  0
ARC
  8
1
  6
CONTINUOUS
 62
     7
 10
-362.4798695624851
 20
127.0710397557493
 40
2.399999999999181
 50
210.3888375099465
 51
270.0
  0
ARC
  8
1
  6
CONTINUOUS
 62
     7
 10
-362.4798695624851
 20
127.0710397557493
 40
2.399999999999169
 50
270.0
 51
287.0000000038301
  0
LINE
  8
1
  6
CONTINUOUS
 62
     7
 10
-351.9990786721664
 20
127.7656788819122
 11
-361.7781774709972
 21
124.7759083414851
  0
ARC
  8
1
  6
CONTINUOUS
 62
     7
 10
-352.3499247178328
 20
128.913244589068
 40
1.200000000040076
 50
197.0000000024118
 51
286.9999999999661
  0
LINE
  8
1
  6
CONTINUOUS
 62
     7
 10
-361.7781774692014
 20
97.12409166080293
 11
-351.999078669909
 21
94.13432112149144
  0
ARC
  8
1
  6
CONTINUOUS
 62
     7
 10
-352.3499247155037
 20
92.98675541431365
 40
1.199999999999695
 50
73.00000000361767
 51
163.0000000049043
  0
ARC
  8
1
  6
CONTINUOUS
 62
     7
 10
-362.4798695604267
 20
94.82896024634967
 40
2.39999999999918
 50
73.00000000348587
 51
149.6111624973693
  0
ARC
  8
1
  6
CONTINUOUS
 62
     7
 10
-397.0498222903588
 20
120.8582630971474
 40
1.199999999999584
 50
169.3363576404676
 51
244.000000003669
  0
LINE
  8
1
  6
CONTINUOUS
 62
     7
 10
-355.7451080542777
 20
129.7574780354058
 11
-362.2074317239701
 21
127.7817474155901
  0
LINE
  8
1
  6
CONTINUOUS
 62
     7
 10
-353.4974904249732
 20
128.5623985433525
 11
-355.7451080542777
 21
129.7574780354058
  0
ARC
  8
1
  6
CONTINUOUS
 62
     7
 10
-378.9184461260624
 20
117.4442188108999
 40
19.64999999999353
 50
31.74117089011746
 51
169.3363576404677
  0
LINE
  8
1
  6
CONTINUOUS
 62
     7
 10
-397.5758676664365
 20
119.7797102415548
 11
-396.668224561793
 21
119.3370231207046
  0
LINE
  8
1
  6
CONTINUOUS
 62
     7
 10
-350.6285761571421
 20
129.439513657706
 11
-350.277730111469
 21
128.2919479505284
  0
LINE
  8
1
  6
CONTINUOUS
 62
     7
 10
-350.277730111469
 20
128.2919479505284
 11
-351.9990786721664
 21
127.7656788819122
  0
LINE
  8
1
  6
CONTINUOUS
 62
     7
 10
-353.4974904249732
 20
128.5623985433525
 11
-350.6285761571421
 21
129.439513657706
  0
LINE
  8
1
  6
CONTINUOUS
 62
     7
 10
-355.7451080518762
 20
92.14252196755312
 11
-353.4974904226661
 21
93.33760145987561
  0
LINE
  8
1
  6
CONTINUOUS
 62
     7
 10
-355.7451080518762
 20
92.14252196755312
 11
-362.2074317218209
 21
94.1182525865437
  0
ARC
  8
1
  6
CONTINUOUS
 62
     7
 10
-378.9184461252332
 20
104.4557811891001
 40
19.6499999999935
 50
190.6636423668484
 51
328.2588291171984
  0
ARC
  8
1
  6
CONTINUOUS
 62
     7
 10
-397.0498222890936
 20
101.0417369005374
 40
1.199999999999603
 50
116.0000000036473
 51
190.6636423668483
  0
LINE
  8
1
  6
CONTINUOUS
 62
     7
 10
-397.5758676653091
 20
102.1202897560628
 11
-396.6678271178965
 21
102.5631707228472
  0
LINE
  8
1
  6
CONTINUOUS
 62
     7
 10
-350.2777211648547
 20
93.6081199926285
 11
-351.9990589096919
 21
94.13438575424917
  0
LINE
  8
1
  6
CONTINUOUS
 62
     7
 10
-350.6285706376652
 20
92.46054307559264
 11
-350.2777211648547
 21
93.6081199926285
  0
LINE
  8
1
  6
CONTINUOUS
 62
     7
 10
-352.3499078695153
 20
92.98681051505876
 11
-350.6285706376652
 21
92.46054307559264
  0
LINE
  8
1
  6
CONTINUOUS
 62
     7
 10
-352.3499247155116
 20
92.98675541428773
 11
-353.4974904226661
 21
93.33760145987561
  0
LINE
  8
1
  6
CONTINUOUS
 62
     7
 10
-400.9222788354625
 20
116.049999998594
 11
-400.9222793975134
 21
117.286328411042
  0
POLYLINE
  8
1
  6
CONTINUOUS
 62
     7
 66
     1
  0
VERTEX
  8
1
  6
CONTINUOUS
 62
     7
 10
-401.4642866262979
 20
117.1206201715885
  0
VERTEX
  8
1
  6
CONTINUOUS
 62
     7
 10
-401.5073584763766
 20
117.0976988328212
  0
VERTEX
  8
1
  6
CONTINUOUS
 62
     7
 10
-401.5494978652696
 20
117.0730250917351
  0
VERTEX
  8
1
  6
CONTINUOUS
 62
     7
 10
-401.5906010831811
 20
117.0466626327877
  0
VERTEX
  8
1
  6
CONTINUOUS
 62
     7
 10
-401.6305644203152
 20
117.0186751404368
  0
VERTEX
  8
1
  6
CONTINUOUS
 62
     7
 10
-401.6704219752298
 20
116.9882275756903
  0
VERTEX
  8
1
  6
CONTINUOUS
 62
     7
 10
-401.7090032815231
 20
116.9561155179708
  0
VERTEX
  8
1
  6
CONTINUOUS
 62
     7
 10
-401.7462051467817
 20
116.9224302672448
  0
VERTEX
  8
1
  6
CONTINUOUS
 62
     7
 10
-401.7819243785928
 20
116.8872631234791
  0
VERTEX
  8
1
  6
CONTINUOUS
 62
     7
 10
-401.8152217847577
 20
116.8516490140879
  0
VERTEX
  8
1
  6
CONTINUOUS
 62
     7
 10
-401.8470535840597
 20
116.814703053453
  0
VERTEX
  8
1
  6
CONTINUOUS
 62
     7
 10
-401.8773347556262
 20
116.7765372857159
  0
VERTEX
  8
1
  6
CONTINUOUS
 62
     7
 10
-401.9059802785848
 20
116.7372637550181
  0
VERTEX
  8
1
  6
CONTINUOUS
 62
     7
 10
-401.9337967177792
 20
116.6956117584263
  0
VERTEX
  8
1
  6
CONTINUOUS
 62
     7
 10
-401.9598189445106
 20
116.652893189469
  0
VERTEX
  8
1
  6
CONTINUOUS
 62
     7
 10
-401.9839742439825
 20
116.6092725549275
  0
VERTEX
  8
1
  6
CONTINUOUS
 62
     7
 10
-402.0061899013985
 20
116.5649143615828
  0
VERTEX
  8
1
  6
CONTINUOUS
 62
     7
 10
-402.0248220637316
 20
116.5236919937048
  0
VERTEX
  8
1
  6
CONTINUOUS
 62
     7
 10
-402.0418162237663
 20
116.4819844141966
  0
VERTEX
  8
1
  6
CONTINUOUS
 62
     7
 10
-402.0571472371305
 20
116.4399478907086
  0
VERTEX
  8
1
  6
CONTINUOUS
 62
     7
 10
-402.0707899594518
 20
116.3977386908912
  0
VERTEX
  8
1
  6
CONTINUOUS
 62
     7
 10
-402.0831385793021
 20
116.3539541571574
  0
VERTEX
  8
1
  6
CONTINUOUS
 62
     7
 10
-402.0937272622443
 20
116.3101522124833
  0
VERTEX
  8
1
  6
CONTINUOUS
 62
     7
 10
-402.1025771443271
 20
116.2665164152776
  0
VERTEX
  8
1
  6
CONTINUOUS
 62
     7
 10
-402.1097093615988
 20
116.2232303239492
  0
VERTEX
  8
1
  6
CONTINUOUS
 62
     7
 10
-402.1153133075439
 20
116.1791006158021
  0
VERTEX
  8
1
  6
CONTINUOUS
 62
     7
 10
-402.1192244830929
 20
116.1355635225387
  0
VERTEX
  8
1
  6
CONTINUOUS
 62
     7
 10
-402.1215305417514
 20
116.0923535928552
  0
VERTEX
  8
1
  6
CONTINUOUS
 62
     7
 10
-402.1222788354619
 20
116.0499999985871
  0
SEQEND
  8
1
  6
CONTINUOUS
 62
     7
  0
LINE
  8
1
  6
CONTINUOUS
 62
     7
 10
-402.1222788354619
 20
116.0499999985861
 11
-402.122278835426
 21
115.4855934750708
  0
LINE
  8
1
  6
CONTINUOUS
 62
     7
 10
-400.922278745663
 20
115.8524703203569
 11
-400.9222788354625
 21
116.049999998594
  0
LINE
  8
1
  6
CONTINUOUS
 62
     7
 10
-400.9222741984428
 20
105.8500692550936
 11
-400.9222736363919
 21
104.6137404990306
  0
ARC
  8
1
  6
CONTINUOUS
 62
     7
 10
-400.9218485616254
 20
105.8501576599301
 40
1.200430276337043
 50
180.0041518529601
 51
202.854451278819
  0
ARC
  8
1
  6
CONTINUOUS
 62
     7
 10
-400.9222281952313
 20
105.8501179010079
 40
1.200065009161086
 50
202.859741724707
 51
243.1477785726047
  0
LINE
  8
1
  6
CONTINUOUS
 62
     7
 10
-402.1222788348468
 20
106.4144771959104
 11
-402.1222788348107
 21
105.8500706725468
  0
LINE
  8
1
  6
CONTINUOUS
 62
     7
 10
-400.9222741984428
 20
105.8500692550936
 11
-400.9222742882424
 21
106.0475989882305
  0
ARC
  8
1
  6
CONTINUOUS
 62
     7
 10
-399.4252859820941
 20
96.21729714908491
 40
8.779642884022401
 50
75.01968356838412
 51
97.53471815583598
  0
POLYLINE
  8
1
  6
CONTINUOUS
 62
     7
 66
     1
  0
VERTEX
  8
1
  6
CONTINUOUS
 62
     7
 10
-400.5765336034579
 20
104.9211329750452
  0
VERTEX
  8
1
  6
CONTINUOUS
 62
     7
 10
-400.705111732596
 20
104.8758313248226
  0
VERTEX
  8
1
  6
CONTINUOUS
 62
     7
 10
-400.8076727612168
 20
104.8179595940158
  0
VERTEX
  8
1
  6
CONTINUOUS
 62
     7
 10
-400.8831315272217
 20
104.7418656518761
  0
VERTEX
  8
1
  6
CONTINUOUS
 62
     7
 10
-400.9201579804518
 20
104.6456932629354
  0
VERTEX
  8
1
  6
CONTINUOUS
 62
     7
 10
-400.9222736363919
 20
104.6137404990306
  0
SEQEND
  8
1
  6
CONTINUOUS
 62
     7
  0
LINE
  8
1
  6
CONTINUOUS
 62
     7
 10
-397.155860740046
 20
104.6985611021594
 11
-400.9222741984428
 21
105.8500692550925
  0
ARC
  8
1
  6
CONTINUOUS
 62
     7
 10
-399.2614323143753
 20
123.6955474555278
 40
6.826855613372387
 50
257.8299641808144
 51
287.9642482954043
  0
POLYLINE
  8
1
  6
CONTINUOUS
 62
     7
 66
     1
  0
VERTEX
  8
1
  6
CONTINUOUS
 62
     7
 10
-400.7006263560778
 20
117.0221166979518
  0
VERTEX
  8
1
  6
CONTINUOUS
 62
     7
 10
-400.8006363045303
 20
117.0770604277495
  0
VERTEX
  8
1
  6
CONTINUOUS
 62
     7
 10
-400.8771154441653
 20
117.1496706519815
  0
VERTEX
  8
1
  6
CONTINUOUS
 62
     7
 10
-400.9190187733251
 20
117.246870619738
  0
VERTEX
  8
1
  6
CONTINUOUS
 62
     7
 10
-400.9222793975134
 20
117.286328411042
  0
SEQEND
  8
1
  6
CONTINUOUS
 62
     7
  0
LINE
  8
1
  6
CONTINUOUS
 62
     7
 10
-397.1558696851947
 20
117.2015068350487
 11
-400.9222788354625
 21
116.0499999985952
  0
POLYLINE
  8
1
  6
CONTINUOUS
 62
     7
 66
     1
  0
VERTEX
  8
1
  6
CONTINUOUS
 62
     7
 10
-404.1222788354411
 20
115.7379532884908
  0
VERTEX
  8
1
  6
CONTINUOUS
 62
     7
 10
-404.1222548343646
 20
115.7455428872673
  0
VERTEX
  8
1
  6
CONTINUOUS
 62
     7
 10
-404.1212583346174
 20
115.7874282890193
  0
VERTEX
  8
1
  6
CONTINUOUS
 62
     7
 10
-404.118798235753
 20
115.8292841413922
  0
VERTEX
  8
1
  6
CONTINUOUS
 62
     7
 10
-404.1148531901927
 20
115.8712424735113
  0
VERTEX
  8
1
  6
CONTINUOUS
 62
     7
 10
-404.1094309989256
 20
115.9130810725898
  0
VERTEX
  8
1
  6
CONTINUOUS
 62
     7
 10
-404.1024311450559
 20
115.9553011412866
  0
VERTEX
  8
1
  6
CONTINUOUS
 62
     7
 10
-404.0939176433887
 20
115.9973034451347
  0
VERTEX
  8
1
  6
CONTINUOUS
 62
     7
 10
-404.0838441254461
 20
116.0392266105313
  0
VERTEX
  8
1
  6
CONTINUOUS
 62
     7
 10
-404.0722503789519
 20
116.0808314726434
  0
VERTEX
  8
1
  6
CONTINUOUS
 62
     7
 10
-404.0575796029123
 20
116.1266580946815
  0
VERTEX
  8
1
  6
CONTINUOUS
 62
     7
 10
-404.0410454786827
 20
116.171959276971
  0
VERTEX
  8
1
  6
CONTINUOUS
 62
     7
 10
-404.0225447497433
 20
116.2169252249384
  0
VERTEX
  8
1
  6
CONTINUOUS
 62
     7
 10
-404.0021847816805
 20
116.2612153140165
  0
VERTEX
  8
1
  6
CONTINUOUS
 62
     7
 10
-403.9795468219659
 20
116.3055653797461
  0
VERTEX
  8
1
  6
CONTINUOUS
 62
     7
 10
-403.9550177375694
 20
116.3490591386711
  0
VERTEX
  8
1
  6
CONTINUOUS
 62
     7
 10
-403.9284406791003
 20
116.3918931456919
  0
VERTEX
  8
1
  6
CONTINUOUS
 62
     7
 10
-403.9000003715337
 20
116.4336979240918
  0
VERTEX
  8
1
  6
CONTINUOUS
 62
     7
 10
-403.872438809393
 20
116.4708893542268
  0
VERTEX
  8
1
  6
CONTINUOUS
 62
     7
 10
-403.8433785848895
 20
116.5070925812616
  0
VERTEX
  8
1
  6
CONTINUOUS
 62
     7
 10
-403.8126636764758
 20
116.5424494154559
  0
VERTEX
  8
1
  6
CONTINUOUS
 62
     7
 10
-403.7804967988432
 20
116.5766796606906
  0
VERTEX
  8
1
  6
CONTINUOUS
 62
     7
 10
-403.7462637391853
 20
116.610333904031
  0
VERTEX
  8
1
  6
CONTINUOUS
 62
     7
 10
-403.7106046637689
 20
116.6426866130289
  0
VERTEX
  8
1
  6
CONTINUOUS
 62
     7
 10
-403.6733138766091
 20
116.6738728024232
  0
VERTEX
  8
1
  6
CONTINUOUS
 62
     7
 10
-403.6346768706508
 20
116.7036080091739
  0
VERTEX
  8
1
  6
CONTINUOUS
 62
     7
 10
-403.5970292446227
 20
116.7302793521977
  0
VERTEX
  8
1
  6
CONTINUOUS
 62
     7
 10
-403.5582820897104
 20
116.7555484244435
  0
VERTEX
  8
1
  6
CONTINUOUS
 62
     7
 10
-403.51823008059
 20
116.7795103783418
  0
VERTEX
  8
1
  6
CONTINUOUS
 62
     7
 10
-403.477175901646
 20
116.8019501146514
  0
VERTEX
  8
1
  6
CONTINUOUS
 62
     7
 10
-403.4343127255614
 20
116.8232275489112
  0
VERTEX
  8
1
  6
CONTINUOUS
 62
     7
 10
-403.3905373647332
 20
116.8428215837704
  0
VERTEX
  8
1
  6
CONTINUOUS
 62
     7
 10
-403.3456000824276
 20
116.8608058898568
  0
VERTEX
  8
1
  6
CONTINUOUS
 62
     7
 10
-403.2998860450547
 20
116.8769935842761
  0
VERTEX
  8
1
  6
CONTINUOUS
 62
     7
 10
-403.2550275041352
 20
116.8908961638842
  0
VERTEX
  8
1
  6
CONTINUOUS
 62
     7
 10
-403.2095910281137
 20
116.9030505823335
  0
VERTEX
  8
1
  6
CONTINUOUS
 62
     7
 10
-403.1633288688706
 20
116.9134930669317
  0
VERTEX
  8
1
  6
CONTINUOUS
 62
     7
 10
-403.1166380166276
 20
116.9221088985646
  0
VERTEX
  8
1
  6
CONTINUOUS
 62
     7
 10
-403.0685531834978
 20
116.9290043277433
  0
VERTEX
  8
1
  6
CONTINUOUS
 62
     7
 10
-403.0201947094316
 20
116.9339518176718
  0
VERTEX
  8
1
  6
CONTINUOUS
 62
     7
 10
-402.9712834707547
 20
116.9369517278187
  0
VERTEX
  8
1
  6
CONTINUOUS
 62
     7
 10
-402.9222788355183
 20
116.9379532885674
  0
SEQEND
  8
1
  6
CONTINUOUS
 62
     7
  0
POLYLINE
  8
1
  6
CONTINUOUS
 62
     7
 66
     1
  0
VERTEX
  8
1
  6
CONTINUOUS
 62
     7
 10
-404.1222788348297
 20
106.1621173823909
  0
VERTEX
  8
1
  6
CONTINUOUS
 62
     7
 10
-404.122254834247
 20
106.1545278618206
  0
VERTEX
  8
1
  6
CONTINUOUS
 62
     7
 10
-404.1212583220999
 20
106.1126420935677
  0
VERTEX
  8
1
  6
CONTINUOUS
 62
     7
 10
-404.118798185119
 20
106.0707858743018
  0
VERTEX
  8
1
  6
CONTINUOUS
 62
     7
 10
-404.1148530749782
 20
106.0288271721762
  0
VERTEX
  8
1
  6
CONTINUOUS
 62
     7
 10
-404.1094307926988
 20
105.9869882046294
  0
VERTEX
  8
1
  6
CONTINUOUS
 62
     7
 10
-404.1024308181751
 20
105.944767758208
  0
VERTEX
  8
1
  6
CONTINUOUS
 62
     7
 10
-404.0939171678643
 20
105.9027650804448
  0
VERTEX
  8
1
  6
CONTINUOUS
 62
     7
 10
-404.0838434715752
 20
105.8608415418803
  0
VERTEX
  8
1
  6
CONTINUOUS
 62
     7
 10
-404.0722495179956
 20
105.8192363129126
  0
VERTEX
  8
1
  6
CONTINUOUS
 62
     7
 10
-404.05757864829
 20
105.773409789945
  0
VERTEX
  8
1
  6
CONTINUOUS
 62
     7
 10
-404.041044435193
 20
105.7281087057752
  0
VERTEX
  8
1
  6
CONTINUOUS
 62
     7
 10
-404.022543621935
 20
105.6831428567645
  0
VERTEX
  8
1
  6
CONTINUOUS
 62
     7
 10
-404.0021835735562
 20
105.6388528649656
  0
VERTEX
  8
1
  6
CONTINUOUS
 62
     7
 10
-403.9795455379203
 20
105.594502900686
  0
VERTEX
  8
1
  6
CONTINUOUS
 62
     7
 10
-403.9550163809904
 20
105.5510092408507
  0
VERTEX
  8
1
  6
CONTINUOUS
 62
     7
 10
-403.9284392530619
 20
105.5081753321581
  0
VERTEX
  8
1
  6
CONTINUOUS
 62
     7
 10
-403.8999988783431
 20
105.4663706494444
  0
VERTEX
  8
1
  6
CONTINUOUS
 62
     7
 10
-403.8724373116084
 20
105.4291793759074
  0
VERTEX
  8
1
  6
CONTINUOUS
 62
     7
 10
-403.8433770892576
 20
105.3929762993818
  0
VERTEX
  8
1
  6
CONTINUOUS
 62
     7
 10
-403.8126621902376
 20
105.3576196113427
  0
VERTEX
  8
1
  6
CONTINUOUS
 62
     7
 10
-403.7804953276689
 20
105.3233895056088
  0
VERTEX
  8
1
  6
CONTINUOUS
 62
     7
 10
-403.746262291689
 20
105.2897354003829
  0
VERTEX
  8
1
  6
CONTINUOUS
 62
     7
 10
-403.7106032448032
 20
105.2573828221461
  0
VERTEX
  8
1
  6
CONTINUOUS
 62
     7
 10
-403.6733124915101
 20
105.226196757618
  0
VERTEX
  8
1
  6
CONTINUOUS
 62
     7
 10
-403.6346755231453
 20
105.1964616682104
  0
VERTEX
  8
1
  6
CONTINUOUS
 62
     7
 10
-403.5970279636797
 20
105.16979044825
  0
VERTEX
  8
1
  6
CONTINUOUS
 62
     7
 10
-403.5582808792648
 20
105.1445214904385
  0
VERTEX
  8
1
  6
CONTINUOUS
 62
     7
 10
-403.5182289452576
 20
105.1205596434342
  0
VERTEX
  8
1
  6
CONTINUOUS
 62
     7
 10
-403.4771748444007
 20
105.098120005327
  0
VERTEX
  8
1
  6
CONTINUOUS
 62
     7
 10
-403.4343117524286
 20
105.0768426632853
  0
VERTEX
  8
1
  6
CONTINUOUS
 62
     7
 10
-403.390536477939
 20
105.0572487116883
  0
VERTEX
  8
1
  6
CONTINUOUS
 62
     7
 10
-403.3455992847615
 20
105.0392644806835
  0
VERTEX
  8
1
  6
CONTINUOUS
 62
     7
 10
-403.299885337988
 20
105.0230768525596
  0
VERTEX
  8
1
  6
CONTINUOUS
 62
     7
 10
-403.255026882845
 20
105.0091743280177
  0
VERTEX
  8
1
  6
CONTINUOUS
 62
     7
 10
-403.2095904933479
 20
104.9970199569794
  0
VERTEX
  8
1
  6
CONTINUOUS
 62
     7
 10
-403.1633284216522
 20
104.9865775125245
  0
VERTEX
  8
1
  6
CONTINUOUS
 62
     7
 10
-403.1166376573534
 20
104.9779617136019
  0
VERTEX
  8
1
  6
CONTINUOUS
 62
     7
 10
-403.0685529135488
 20
104.9710663102146
  0
VERTEX
  8
1
  6
CONTINUOUS
 62
     7
 10
-403.0201945289816
 20
104.9661188386398
  0
VERTEX
  8
1
  6
CONTINUOUS
 62
     7
 10
-402.9712833801248
 20
104.9631189395379
  0
VERTEX
  8
1
  6
CONTINUOUS
 62
     7
 10
-402.9222788347537
 20
104.9621173824675
  0
SEQEND
  8
1
  6
CONTINUOUS
 62
     7
  0
LINE
  8
1
  6
CONTINUOUS
 62
     7
 10
-402.122278835529
 20
116.9379532886153
 11
-401.4895083289579
 21
117.1314106468426
  0
LINE
  8
1
  6
CONTINUOUS
 62
     7
 10
-401.4895083289579
 20
117.1314106468426
 11
-401.2731248812169
 21
117.1975657057927
  0
LINE
  8
1
  6
CONTINUOUS
 62
     7
 10
-401.2731248804242
 20
104.7025049654502
 11
-401.4920595307941
 21
104.7694400052892
  0
LINE
  8
1
  6
CONTINUOUS
 62
     7
 10
-401.4920595307941
 20
104.7694400052892
 11
-402.1222788347644
 21
104.9621173825217
  0
LINE
  8
1
  6
CONTINUOUS
 62
     7
 10
-402.1222788347541
 20
104.9621173825186
 11
-402.9222788347537
 21
104.9621173824675
  0
LINE
  8
1
  6
CONTINUOUS
 62
     7
 10
-402.1222788355187
 20
116.9379532886185
 11
-402.9222788355183
 21
116.9379532885674
  0
LINE
  8
1
  6
CONTINUOUS
 62
     7
 10
-397.5067157309403
 20
118.3490725421586
 11
-401.2731248812064
 21
117.1975657057959
  0
ARC
  8
1
  6
CONTINUOUS
 62
     7
 10
-397.8575617766841
 20
119.4966382492908
 40
1.199999999999619
 50
287.0000000038225
 51
352.3562857475315
  0
ARC
  8
1
  6
CONTINUOUS
 62
     7
 10
-397.8575617766841
 20
119.4966382492908
 40
2.399999999999192
 50
287.0000000040201
 51
343.0596410105983
  0
ARC
  8
1
  6
CONTINUOUS
 62
     7
 10
-400.9222788354626
 20
116.0499999986637
 40
1.199999999999596
 50
107.0000000038225
 51
116.8510828711281
  0
ARC
  8
1
  6
CONTINUOUS
 62
     7
 10
-397.8575528311928
 20
102.4034296877908
 40
1.199999999999598
 50
7.640839604090672
 51
73.00000000323774
  0
ARC
  8
1
  6
CONTINUOUS
 62
     7
 10
-362.4798606160267
 20
94.82902818584948
 40
2.399999999999167
 50
73.00000000394125
 51
149.6803310353948
  0
LINE
  8
1
  6
CONTINUOUS
 62
     7
 10
-351.9990589096919
 20
94.13438575424917
 11
-361.7781685248476
 21
97.12415960021694
  0
ARC
  8
1
  6
CONTINUOUS
 62
     7
 10
-378.9184371808332
 20
104.4558491285999
 40
16.64999999999451
 50
186.1849691900368
 51
329.6407616467043
  0
ARC
  8
1
  6
CONTINUOUS
 62
     7
 10
-397.8575528311928
 20
102.4034296877908
 40
2.399999999999169
 50
15.95414771326729
 51
73.00000000468651
  0
LINE
  8
1
  6
CONTINUOUS
 62
     7
 10
-401.2731248804138
 20
104.702504965447
 11
-397.5067067856117
 21
103.5509953948965
  0
ARC
  8
1
  6
CONTINUOUS
 62
     7
 10
-400.9222788348113
 20
105.8500706726224
 40
1.199999999999623
 50
243.1489171691718
 51
253.0000000032373
  0
LINE
  8
1
  6
CONTINUOUS
 62
     7
 10
-354.9959021779185
 20
129.3591182047216
 11
-353.8961517085085
 21
129.6953456652463
  0
LINE
  8
1
  6
CONTINUOUS
 62
     7
 10
-407.5222788351452
 20
103.849999999959
 11
-407.5222788351452
 21
110.949999999959
  0
ARC
  8
1
  6
CONTINUOUS
 62
     7
 10
-405.429286193725
 20
106.6198729810368
 40
3.071779382133934
 50
151.9733240879337
 51
208.0266759120663
  0
ARC
  8
1
  6
CONTINUOUS
 62
     7
 10
-396.7572353438051
 20
110.949999999959
 40
11.74392044303837
 50
165.7704021591125
 51
194.2295978408876
  0
ARC
  8
1
  6
CONTINUOUS
 62
     7
 10
-405.429286193725
 20
115.2801270188812
 40
3.071779382133934
 50
151.9733240879337
 51
208.0266759120663
  0
LINE
  8
1
  6
CONTINUOUS
 62
     7
 10
-407.5222788351452
 20
110.949999999959
 11
-407.5222788351452
 21
118.049999999959
  0
ARC
  8
1
  6
CONTINUOUS
 62
     7
 10
-409.5361758938843
 20
106.5176839337408
 40
2.887911492574301
 50
147.6435929533559
 51
177.9721595786045
  0
ARC
  8
1
  6
CONTINUOUS
 62
     7
 10
-402.3662238632194
 20
111.0277582081736
 40
10.05635559918898
 50
180.443029435954
 51
197.1449243380386
  0
LINE
  8
1
  6
CONTINUOUS
 62
     7
 10
-412.4222788351453
 20
110.949999999959
 11
-412.4222788351453
 21
106.6198729810368
  0
ARC
  8
1
  6
CONTINUOUS
 62
     7
 10
-402.2151499053561
 20
110.8488705691278
 40
10.2076298988119
 50
162.9796985038628
 51
179.4323477221447
  0
ARC
  8
1
  6
CONTINUOUS
 62
     7
 10
-409.6103187333873
 20
115.359376191801
 40
2.813076615609198
 50
181.6143335512085
 51
212.7699139168316
  0
LINE
  8
1
  6
CONTINUOUS
 62
     7
 10
-412.4222788351453
 20
110.949999999959
 11
-412.4222788351453
 21
115.2801270188812
  0
LINE
  8
1
  6
CONTINUOUS
 62
     7
 10
-411.9756968477601
 20
113.8367513459071
 11
-408.140834688436
 21
113.8367513459071
  0
ARC
  8
1
  6
CONTINUOUS
 62
     7
 10
-409.5361758938841
 20
115.1779379715852
 40
2.887911492574417
 50
147.6435929533563
 51
177.9721595786037
  0
LINE
  8
1
  6
CONTINUOUS
 62
     7
 10
-411.9756968477601
 20
116.7235026918553
 11
-408.140834688436
 21
116.7235026918553
  0
LINE
  8
1
  6
CONTINUOUS
 62
     7
 10
-411.9756968477601
 20
105.1764973080627
 11
-408.140834688436
 21
105.1764973080627
  0
ARC
  8
1
  6
CONTINUOUS
 62
     7
 10
-409.610318733387
 20
106.6991221539567
 40
2.813076615609422
 50
181.6143335512095
 51
212.7699139168302
  0
LINE
  8
1
  6
CONTINUOUS
 62
     7
 10
-411.9756968477601
 20
108.0632486540109
 11
-408.140834688436
 21
108.0632486540109
  0
LINE
  8
1
  6
CONTINUOUS
 62
     7
 10
-412.4222788351453
 20
115.949999999959
 11
-412.4222788351453
 21
115.2801270188812
  0
LINE
  8
1
  6
CONTINUOUS
 62
     7
 10
-412.4222788351453
 20
106.6198729810368
 11
-412.4222788351453
 21
105.949999999959
  0
LINE
  8
1
  6
CONTINUOUS
 62
     7
 10
-397.1362470012629
 20
107.4999999990938
 11
-397.1362470012676
 21
107.571760812772
  0
LINE
  8
1
  6
CONTINUOUS
 62
     7
 10
-398.5222738495667
 20
105.1163155131568
 11
-398.522273849948
 21
110.9499999990037
  0
LINE
  8
1
  6
CONTINUOUS
 62
     7
 10
-397.1362470015335
 20
111.6499999990944
 11
-396.5713944918657
 21
111.6499999991313
  0
LINE
  8
1
  6
CONTINUOUS
 62
     7
 10
-397.1362470014427
 20
110.2499999990941
 11
-397.1362470015342
 21
111.6499999990945
  0
LINE
  8
1
  6
CONTINUOUS
 62
     7
 10
-396.5713944917743
 20
110.2499999991311
 11
-397.1362470014421
 21
110.2499999990942
  0
ARC
  8
1
  6
CONTINUOUS
 62
     7
 10
-406.5222738499489
 20
110.9499999984808
 40
9.97546991374431
 50
340.2050712637288
 51
355.9761259878705
  0
LINE
  8
1
  6
CONTINUOUS
 62
     7
 10
-397.1362470017093
 20
114.3282391854166
 11
-397.136247001714
 21
114.3999999990948
  0
ARC
  8
1
  6
CONTINUOUS
 62
     7
 10
-406.5222738499489
 20
110.9499999984808
 40
9.975469913744323
 50
4.023874019619452
 51
19.79492874376115
  0
LINE
  8
1
  6
CONTINUOUS
 62
     7
 10
-398.522273849948
 20
110.9499999990037
 11
-398.5222738503293
 21
116.7837551583897
  0
LINE
  8
1
  6
CONTINUOUS
 62
     7
 10
-412.6222738501457
 20
113.9499999980825
 11
-412.6222738499496
 21
110.9499999980821
  0
LINE
  8
1
  6
CONTINUOUS
 62
     7
 10
-412.6222738499496
 20
110.9499999980821
 11
-412.6222738497536
 21
107.9499999980815
  0
LINE
  8
1
  6
CONTINUOUS
 62
     7
 10
-413.1222738497863
 20
108.449999998049
 11
-413.1222738499497
 21
110.9499999980494
  0
LINE
  8
1
  6
CONTINUOUS
 62
     7
 10
-413.1222738499497
 20
110.9499999980494
 11
-413.1222738501131
 21
113.4499999980498
  0
LINE
  8
1
  6
CONTINUOUS
 62
     7
 10
-406.4222788351452
 20
135.949999999959
 11
-404.1222788351453
 21
135.949999999959
  0
LINE
  8
1
  6
CONTINUOUS
 62
     7
 10
-404.1222788351453
 20
135.949999999959
 11
-404.1222788351453
 21
132.949999999959
  0
LINE
  8
1
  6
CONTINUOUS
 62
     7
 10
-406.4222788351452
 20
132.949999999959
 11
-406.4222788351452
 21
135.949999999959
  0
LINE
  8
1
  6
CONTINUOUS
 62
     7
 10
-404.1222788351453
 20
132.949999999959
 11
-404.1222788351453
 21
88.94999999995899
  0
LINE
  8
1
  6
CONTINUOUS
 62
     7
 10
-406.4222788351452
 20
132.949999999959
 11
-406.4222788351452
 21
88.94999999995899
  0
LINE
  8
1
  6
CONTINUOUS
 62
     7
 10
-404.1222788351453
 20
88.949999999959
 11
-404.1222788351453
 21
85.949999999959
  0
LINE
  8
1
  6
CONTINUOUS
 62
     7
 10
-404.1222788351453
 20
85.949999999959
 11
-406.4222788351452
 21
85.949999999959
  0
LINE
  8
1
  6
CONTINUOUS
 62
     7
 10
-406.4222788351452
 20
85.949999999959
 11
-406.4222788351452
 21
88.949999999959
  0
LINE
  8
1
  6
CONTINUOUS
 62
     7
 10
-406.4222788351452
 20
135.949999999959
 11
-407.0487862505556
 21
135.949999999959
  0
LINE
  8
1
  6
CONTINUOUS
 62
     7
 10
-407.0487862505556
 20
85.949999999959
 11
-406.4222788351452
 21
85.949999999959
  0
POLYLINE
  8
1
  6
CONTINUOUS
 62
     7
 66
     1
  0
VERTEX
  8
1
  6
CONTINUOUS
 62
     7
 10
-429.5390631659788
 20
85.949999999959
  0
VERTEX
  8
1
  6
CONTINUOUS
 62
     7
 10
-429.4216852964482
 20
85.96675314726782
  0
VERTEX
  8
1
  6
CONTINUOUS
 62
     7
 10
-429.3023317814934
 20
86.01824585254049
  0
VERTEX
  8
1
  6
CONTINUOUS
 62
     7
 10
-429.1852240151745
 20
86.10415820986032
  0
VERTEX
  8
1
  6
CONTINUOUS
 62
     7
 10
-429.1108089994216
 20
86.17871215142273
  0
SEQEND
  8
1
  6
CONTINUOUS
 62
     7
  0
ARC
  8
1
  6
CONTINUOUS
 62
     7
 10
-431.1702594770995
 20
87.70818724029199
 40
2.565273926402247
 50
323.4001401382761
 51
359.2394812164095
  0
LINE
  8
1
  6
CONTINUOUS
 62
     7
 10
-430.4889328121439
 20
85.949999999959
 11
-429.5390631659787
 21
85.949999999959
  0
LINE
  8
1
  6
CONTINUOUS
 62
     7
 10
-430.4889328121439
 20
135.949999999959
 11
-429.5390631659787
 21
135.949999999959
  0
ARC
  8
1
  6
CONTINUOUS
 62
     7
 10
-431.1535346853684
 20
134.1919991108568
 40
2.548548134776074
 50
0.7613203953987268
 51
37.55531012413477
  0
POLYLINE
  8
1
  6
CONTINUOUS
 62
     7
 66
     1
  0
VERTEX
  8
1
  6
CONTINUOUS
 62
     7
 10
-429.1331341417455
 20
135.745408019869
  0
VERTEX
  8
1
  6
CONTINUOUS
 62
     7
 10
-429.2404717310145
 20
135.8409378983673
  0
VERTEX
  8
1
  6
CONTINUOUS
 62
     7
 10
-429.3526826956709
 20
135.9077727937145
  0
VERTEX
  8
1
  6
CONTINUOUS
 62
     7
 10
-429.4657157815823
 20
135.9434474287638
  0
VERTEX
  8
1
  6
CONTINUOUS
 62
     7
 10
-429.5390631659788
 20
135.949999999959
  0
SEQEND
  8
1
  6
CONTINUOUS
 62
     7
  0
ARC
  8
1
  6
CONTINUOUS
 62
     7
 10
-415.2215824743973
 20
134.077841032994
 40
13.3844475781224
 50
179.3663426543099
 51
224.3256653615522
  0
ARC
  8
1
  6
CONTINUOUS
 62
     7
 10
-421.194366829274
 20
129.1733005370017
 40
5.723399850613244
 50
230.9957878672291
 51
270.3375324724625
  0
ARC
  8
1
  6
CONTINUOUS
 62
     7
 10
-409.1972224535895
 20
134.0421103738852
 40
1.9081537022234
 50
90.95323625416212
 51
174.473958366493
  0
ARC
  8
1
  6
CONTINUOUS
 62
     7
 10
-409.197865114932
 20
87.85719351214718
 40
1.907447097507826
 50
185.507087945607
 51
269.0657174337371
  0
ARC
  8
1
  6
CONTINUOUS
 62
     7
 10
-423.4415522297134
 20
86.45406335838028
 40
12.40518831708636
 50
5.644276837542298
 51
72.66943273199216
  0
ARC
  8
1
  6
CONTINUOUS
 62
     7
 10
-421.1786231428642
 20
91.70916712548501
 40
6.740856746518134
 50
77.7315498083744
 51
89.8475156706136
  0
LINE
  8
1
  6
CONTINUOUS
 62
     7
 10
-409.2289671543889
 20
135.949999999959
 11
-407.0487862505557
 21
135.949999999959
  0
LINE
  8
1
  6
CONTINUOUS
 62
     7
 10
-409.2289671543888
 20
85.949999999959
 11
-407.0487862505556
 21
85.949999999959
  0
ARC
  8
1
  6
CONTINUOUS
 62
     7
 10
-420.8284789073782
 20
91.6914972504043
 40
6.766662339307676
 50
92.81402655181327
 51
163.4567618563387
  0
ARC
  8
1
  6
CONTINUOUS
 62
     7
 10
-409.6246495110149
 20
86.66643637606046
 40
19.00729325933176
 50
158.5466588505825
 51
176.9609493022231
  0
ARC
  8
1
  6
CONTINUOUS
 62
     7
 10
-413.4474251597582
 20
87.86469467778062
 40
13.45370347751332
 50
136.3053405941431
 51
180.8115581302089
  0
ARC
  8
1
  6
CONTINUOUS
 62
     7
 10
-419.5815643940758
 20
92.79388336447347
 40
5.653640636661694
 50
97.67612487964546
 51
129.462645115949
  0
ARC
  8
1
  6
CONTINUOUS
 62
     7
 10
-418.8326083014363
 20
130.6163008840014
 40
7.270610935815818
 50
192.1051538267796
 51
258.0435932201804
  0
ARC
  8
1
  6
CONTINUOUS
 62
     7
 10
-406.5521310088568
 20
135.3668772467253
 40
20.37961473489909
 50
183.2095580864706
 51
197.9338651816111
  0
ARC
  8
1
  6
CONTINUOUS
 62
     7
 10
-422.3161730858068
 20
134.2445889338958
 40
10.85626010443826
 50
276.1100450428601
 51
340.0614094440691
  0
ARC
  8
1
  6
CONTINUOUS
 62
     7
 10
-424.6394769779474
 20
135.9733164532736
 40
13.65524088301144
 50
336.5647874596198
 51
352.6477266483965
  0
LINE
  8
1
  6
CONTINUOUS
 62
     7
 10
-427.8034880306383
 20
85.949999999959
 11
-429.5390631659788
 21
85.949999999959
  0
ARC
  8
1
  6
CONTINUOUS
 62
     7
 10
-429.511437826814
 20
87.70703829586623
 40
2.611865992336136
 50
323.6354983876681
 51
359.2782547376108
  0
POLYLINE
  8
1
  6
CONTINUOUS
 62
     7
 66
     1
  0
VERTEX
  8
1
  6
CONTINUOUS
 62
     7
 10
-427.4082032127969
 20
86.15841047733703
  0
VERTEX
  8
1
  6
CONTINUOUS
 62
     7
 10
-427.5117715593952
 20
86.06192748067717
  0
VERTEX
  8
1
  6
CONTINUOUS
 62
     7
 10
-427.6198763574312
 20
85.99410695961242
  0
VERTEX
  8
1
  6
CONTINUOUS
 62
     7
 10
-427.7300871180183
 20
85.95707061164573
  0
VERTEX
  8
1
  6
CONTINUOUS
 62
     7
 10
-427.8034880306383
 20
85.949999999959
  0
SEQEND
  8
1
  6
CONTINUOUS
 62
     7
  0
LINE
  8
1
  6
CONTINUOUS
 62
     7
 10
-429.5390631659788
 20
135.949999999959
 11
-427.8034880306383
 21
135.949999999959
  0
POLYLINE
  8
1
  6
CONTINUOUS
 62
     7
 66
     1
  0
VERTEX
  8
1
  6
CONTINUOUS
 62
     7
 10
-427.8034880306383
 20
135.949999999959
  0
VERTEX
  8
1
  6
CONTINUOUS
 62
     7
 10
-427.6898201211073
 20
135.9330783202797
  0
VERTEX
  8
1
  6
CONTINUOUS
 62
     7
 10
-427.5740332828229
 20
135.8810339814151
  0
VERTEX
  8
1
  6
CONTINUOUS
 62
     7
 10
-427.4602288732603
 20
135.7941198249029
  0
VERTEX
  8
1
  6
CONTINUOUS
 62
     7
 10
-427.3878180928083
 20
135.71862616425
  0
SEQEND
  8
1
  6
CONTINUOUS
 62
     7
  0
ARC
  8
1
  6
CONTINUOUS
 62
     7
 10
-429.5316215869639
 20
134.1915776716269
 40
2.632065827515766
 50
0.7463365087156717
 51
35.46257689765469
  0
LINE
  8
1
  6
CONTINUOUS
 62
     7
 10
-431.4165659773857
 20
85.949999999959
 11
-430.4889328121439
 21
85.949999999959
  0
LINE
  8
1
  6
CONTINUOUS
 62
     7
 10
-430.4889328121439
 20
135.949999999959
 11
-431.4165659773857
 21
135.949999999959
  0
ARC
  8
1
  6
CONTINUOUS
 62
     7
 10
-451.1222788351453
 20
88.949999999959
 40
3.000000000000003
 50
180.0
 51
270.0
  0
LINE
  8
1
  6
CONTINUOUS
 62
     7
 10
-454.1222788351453
 20
132.949999999959
 11
-454.1222788351453
 21
88.94999999995899
  0
ARC
  8
1
  6
CONTINUOUS
 62
     7
 10
-451.1222788351453
 20
132.949999999959
 40
3.000000000000003
 50
90.0
 51
180.0
  0
ARC
  8
1
  6
CONTINUOUS
 62
     7
 10
-437.2222788351453
 20
128.449999999959
 40
2.599999999999991
 50
270.0000000000001
 51
89.99999999999962
  0
LINE
  8
1
  6
CONTINUOUS
 62
     7
 10
-437.2222788351452
 20
131.049999999959
 11
-447.0222788351453
 21
131.0499999999591
  0
ARC
  8
1
  6
CONTINUOUS
 62
     7
 10
-447.0222788351453
 20
128.449999999959
 40
2.600000000000005
 50
90.0
 51
269.9999999999995
  0
LINE
  8
1
  6
CONTINUOUS
 62
     7
 10
-447.0222788351453
 20
125.8499999999591
 11
-437.2222788351453
 21
125.849999999959
  0
ARC
  8
1
  6
CONTINUOUS
 62
     7
 10
-440.1222788351453
 20
110.949999999959
 40
5.500000000000004
 50
270.0
 51
90.00000000000016
  0
LINE
  8
1
  6
CONTINUOUS
 62
     7
 10
-440.1222788351453
 20
116.449999999959
 11
-444.1222788351453
 21
116.449999999959
  0
ARC
  8
1
  6
CONTINUOUS
 62
     7
 10
-444.1222788351453
 20
110.949999999959
 40
5.499999999999991
 50
90.0
 51
270.0000000000001
  0
LINE
  8
1
  6
CONTINUOUS
 62
     7
 10
-444.1222788351453
 20
105.449999999959
 11
-440.1222788351453
 21
105.449999999959
  0
ARC
  8
1
  6
CONTINUOUS
 62
     7
 10
-437.2222788351453
 20
93.449999999959
 40
2.600000000000005
 50
270.0000000000002
 51
89.9999999999993
  0
LINE
  8
1
  6
CONTINUOUS
 62
     7
 10
-437.2222788351452
 20
96.049999999959
 11
-447.0222788351453
 21
96.049999999959
  0
ARC
  8
1
  6
CONTINUOUS
 62
     7
 10
-447.0222788351453
 20
93.449999999959
 40
2.600000000000005
 50
90.00000000000021
 51
269.9999999999998
  0
LINE
  8
1
  6
CONTINUOUS
 62
     7
 10
-447.0222788351453
 20
90.84999999995901
 11
-437.2222788351453
 21
90.84999999995901
  0
LINE
  8
1
  6
CONTINUOUS
 62
     7
 10
-451.1222788351453
 20
85.949999999959
 11
-431.4165659773857
 21
85.949999999959
  0
LINE
  8
1
  6
CONTINUOUS
 62
     7
 10
-451.1222788351453
 20
135.949999999959
 11
-431.4165659773857
 21
135.949999999959
  0
LINE
  8
1
  6
CONTINUOUS
 62
     7
 10
-353.5599242480088
 20
128.5955951959092
 11
-353.8961517085364
 21
129.695345665329
  0
LINE
  8
1
  6
CONTINUOUS
 62
     7
 10
-407.5222788351452
 20
118.049999999959
 11
-408.140834688436
 21
116.7235026918553
  0
LINE
  8
1
  6
CONTINUOUS
 62
     7
 10
-408.140834688436
 20
105.1764973080627
 11
-407.5222788351452
 21
103.849999999959
  0
LINE
  8
1
  6
CONTINUOUS
 62
     7
 10
-406.4222788351452
 20
118.049999999959
 11
-407.5222788351452
 21
118.049999999959
  0
LINE
  8
1
  6
CONTINUOUS
 62
     7
 10
-407.5222788351452
 20
103.849999999959
 11
-406.4222788351452
 21
103.849999999959
  0
LINE
  8
1
  6
CONTINUOUS
 62
     7
 10
-411.9756968477601
 20
116.7235026918553
 11
-412.4222788351453
 21
115.949999999959
  0
LINE
  8
1
  6
CONTINUOUS
 62
     7
 10
-412.4222788351453
 20
105.949999999959
 11
-411.9756968477601
 21
105.1764973080627
  0
ARC
  8
1
  6
CONTINUOUS
 62
     7
 10
-406.5222738499489
 20
110.9499999984808
 40
10.00000000000088
 50
20.18179577061948
 51
35.90423922514877
  0
ARC
  8
1
  6
CONTINUOUS
 62
     7
 10
-406.5222738499489
 20
110.9499999984808
 40
10.00000000000089
 50
324.0961700957344
 51
339.8182042368706
  0
LINE
  8
1
  6
CONTINUOUS
 62
     7
 10
-412.6222738497554
 20
107.9499999980818
 11
-412.4222788351462
 21
107.9499999980949
  0
LINE
  8
1
  6
CONTINUOUS
 62
     7
 10
-412.4222788351462
 20
113.9499999980954
 11
-412.6222738501476
 21
113.9499999980823
  0
LINE
  8
1
  6
CONTINUOUS
 62
     7
 10
-412.6222738501457
 20
113.9499999980823
 11
-413.1222738501131
 21
113.4499999980496
  0
LINE
  8
1
  6
CONTINUOUS
 62
     7
 10
-413.1222738497863
 20
108.4499999980492
 11
-412.6222738497536
 21
107.9499999980818
  0
ENDBLK
  8
0
  0
BLOCK
  8
0
  2
D_FRAME_VIEW_3201
 70
     0
 10
0.0
 20
0.0
  0
LINE
  8
1
  6
CONTINUOUS
 62
     7
 10
-362.2074317239701
 20
160.1500000000038
 11
-362.2074317239701
 21
158.9500000000044
  0
LINE
  8
1
  6
CONTINUOUS
 62
     7
 10
-362.2074317239749
 20
158.9500000000044
 11
-398.2290987888452
 21
158.9500000000044
  0
LINE
  8
1
  6
CONTINUOUS
 62
     7
 10
-362.2074317239749
 20
160.1500000000038
 11
-398.2290987888452
 21
160.1500000000038
  0
LINE
  8
1
  6
CONTINUOUS
 62
     7
 10
-362.2074317239701
 20
175.7499999999962
 11
-362.2074317239701
 21
176.9499999999956
  0
LINE
  8
1
  6
CONTINUOUS
 62
     7
 10
-362.2074317239749
 20
175.7499999999962
 11
-398.2290987888452
 21
175.7499999999962
  0
LINE
  8
1
  6
CONTINUOUS
 62
     7
 10
-362.2074317239749
 20
176.9499999999956
 11
-398.2290987888452
 21
176.9499999999956
  0
LINE
  8
1
  6
CONTINUOUS
 62
     7
 10
-355.7451080542777
 20
175.7499999999962
 11
-355.7451080542777
 21
176.9499999999956
  0
LINE
  8
1
  6
CONTINUOUS
 62
     7
 10
-353.4974904249732
 20
175.7499999999962
 11
-353.4974904249732
 21
176.9499999999956
  0
LINE
  8
1
  6
CONTINUOUS
 62
     7
 10
-353.4974904249732
 20
175.7499999999962
 11
-355.7451080542777
 21
175.7499999999962
  0
LINE
  8
1
  6
CONTINUOUS
 62
     7
 10
-355.7451080542777
 20
176.9499999999956
 11
-353.4974904249732
 21
176.9499999999956
  0
LINE
  8
1
  6
CONTINUOUS
 62
     7
 10
-355.7451080542777
 20
175.7499999999962
 11
-362.2074317239701
 21
175.7499999999962
  0
LINE
  8
1
  6
CONTINUOUS
 62
     7
 10
-355.7451080542777
 20
176.9499999999956
 11
-362.2074317239701
 21
176.9499999999956
  0
LINE
  8
1
  6
CONTINUOUS
 62
     7
 10
-355.7451080542777
 20
158.9500000000044
 11
-355.7451080542777
 21
160.1500000000038
  0
LINE
  8
1
  6
CONTINUOUS
 62
     7
 10
-355.7451080542777
 20
158.9500000000044
 11
-362.2074317239701
 21
158.9500000000044
  0
LINE
  8
1
  6
CONTINUOUS
 62
     7
 10
-355.7451080542777
 20
160.1500000000038
 11
-362.2074317239701
 21
160.1500000000038
  0
LINE
  8
1
  6
CONTINUOUS
 62
     7
 10
-353.4974904249732
 20
158.9500000000044
 11
-353.4974904249732
 21
160.1500000000038
  0
LINE
  8
1
  6
CONTINUOUS
 62
     7
 10
-353.4974904249732
 20
158.9500000000044
 11
-355.7451080542777
 21
158.9500000000044
  0
LINE
  8
1
  6
CONTINUOUS
 62
     7
 10
-355.7451080542777
 20
160.1500000000038
 11
-353.4974904249732
 21
160.1500000000038
  0
POLYLINE
  8
1
  6
CONTINUOUS
 62
     7
 66
     1
  0
VERTEX
  8
1
  6
CONTINUOUS
 62
     7
 10
-357.1954031165173
 20
170.1999999999993
  0
VERTEX
  8
1
  6
CONTINUOUS
 62
     7
 10
-357.6151761727783
 20
170.1567668809066
  0
VERTEX
  8
1
  6
CONTINUOUS
 62
     7
 10
-358.0188175858987
 20
170.0287289481497
  0
VERTEX
  8
1
  6
CONTINUOUS
 62
     7
 10
-358.3908156427369
 20
169.8208066276801
  0
VERTEX
  8
1
  6
CONTINUOUS
 62
     7
 10
-358.7168746665876
 20
169.5409902576692
  0
VERTEX
  8
1
  6
CONTINUOUS
 62
     7
 10
-358.9844643920201
 20
169.2000330242937
  0
VERTEX
  8
1
  6
CONTINUOUS
 62
     7
 10
-359.1833014959522
 20
168.8110377228212
  0
VERTEX
  8
1
  6
CONTINUOUS
 62
     7
 10
-359.3057447799888
 20
168.3889532245362
  0
VERTEX
  8
1
  6
CONTINUOUS
 62
     7
 10
-359.3470888173915
 20
167.95
  0
SEQEND
  8
1
  6
CONTINUOUS
 62
     7
  0
POLYLINE
  8
1
  6
CONTINUOUS
 62
     7
 66
     1
  0
VERTEX
  8
1
  6
CONTINUOUS
 62
     7
 10
-360.4946545245244
 20
167.95
  0
VERTEX
  8
1
  6
CONTINUOUS
 62
     7
 10
-360.4312603338403
 20
167.2769383890446
  0
VERTEX
  8
1
  6
CONTINUOUS
 62
     7
 10
-360.2435139649841
 20
166.6297421583409
  0
VERTEX
  8
1
  6
CONTINUOUS
 62
     7
 10
-359.9386304056216
 20
166.033282696083
  0
VERTEX
  8
1
  6
CONTINUOUS
 62
     7
 10
-359.5283261599583
 20
165.5104816049072
  0
VERTEX
  8
1
  6
CONTINUOUS
 62
     7
 10
-359.028368990054
 20
165.0814298375572
  0
VERTEX
  8
1
  6
CONTINUOUS
 62
     7
 10
-358.4579719695688
 20
164.7626156128371
  0
VERTEX
  8
1
  6
CONTINUOUS
 62
     7
 10
-357.8390551361176
 20
164.56629078261
  0
VERTEX
  8
1
  6
CONTINUOUS
 62
     7
 10
-357.1954031165173
 20
164.5000000000011
  0
SEQEND
  8
1
  6
CONTINUOUS
 62
     7
  0
POLYLINE
  8
1
  6
CONTINUOUS
 62
     7
 66
     1
  0
VERTEX
  8
1
  6
CONTINUOUS
 62
     7
 10
-353.5453056627687
 20
167.95
  0
VERTEX
  8
1
  6
CONTINUOUS
 62
     7
 10
-353.6086998534528
 20
168.6230616109554
  0
VERTEX
  8
1
  6
CONTINUOUS
 62
     7
 10
-353.796446222309
 20
169.2702578416591
  0
VERTEX
  8
1
  6
CONTINUOUS
 62
     7
 10
-354.1013297816716
 20
169.866717303917
  0
VERTEX
  8
1
  6
CONTINUOUS
 62
     7
 10
-354.5116340273348
 20
170.3895183950928
  0
VERTEX
  8
1
  6
CONTINUOUS
 62
     7
 10
-355.0115911972392
 20
170.8185701624429
  0
VERTEX
  8
1
  6
CONTINUOUS
 62
     7
 10
-355.5819882177245
 20
171.1373843871629
  0
VERTEX
  8
1
  6
CONTINUOUS
 62
     7
 10
-356.2009050511758
 20
171.3337092173901
  0
VERTEX
  8
1
  6
CONTINUOUS
 62
     7
 10
-356.8445570707761
 20
171.3999999999989
  0
SEQEND
  8
1
  6
CONTINUOUS
 62
     7
  0
POLYLINE
  8
1
  6
CONTINUOUS
 62
     7
 66
     1
  0
VERTEX
  8
1
  6
CONTINUOUS
 62
     7
 10
-357.1954031164977
 20
171.3999999999989
  0
VERTEX
  8
1
  6
CONTINUOUS
 62
     7
 10
-357.8390551361008
 20
171.3337092173936
  0
VERTEX
  8
1
  6
CONTINUOUS
 62
     7
 10
-358.4579719695553
 20
171.1373843871688
  0
VERTEX
  8
1
  6
CONTINUOUS
 62
     7
 10
-359.028368990044
 20
170.81857016245
  0
VERTEX
  8
1
  6
CONTINUOUS
 62
     7
 10
-359.5283261599516
 20
170.3895183951001
  0
VERTEX
  8
1
  6
CONTINUOUS
 62
     7
 10
-359.9386304056177
 20
169.8667173039234
  0
VERTEX
  8
1
  6
CONTINUOUS
 62
     7
 10
-360.2435139649825
 20
169.2702578416639
  0
VERTEX
  8
1
  6
CONTINUOUS
 62
     7
 10
-360.43126033384
 20
168.6230616109579
  0
VERTEX
  8
1
  6
CONTINUOUS
 62
     7
 10
-360.4946545245247
 20
167.95
  0
SEQEND
  8
1
  6
CONTINUOUS
 62
     7
  0
POLYLINE
  8
1
  6
CONTINUOUS
 62
     7
 66
     1
  0
VERTEX
  8
1
  6
CONTINUOUS
 62
     7
 10
-357.1954031165173
 20
164.5000000000011
  0
VERTEX
  8
1
  6
CONTINUOUS
 62
     7
 10
-356.5517510969182
 20
164.5662907826097
  0
VERTEX
  8
1
  6
CONTINUOUS
 62
     7
 10
-355.932834263468
 20
164.7626156128361
  0
VERTEX
  8
1
  6
CONTINUOUS
 62
     7
 10
-355.3624372429834
 20
165.081429837555
  0
VERTEX
  8
1
  6
CONTINUOUS
 62
     7
 10
-354.8624800730795
 20
165.5104816049036
  0
VERTEX
  8
1
  6
CONTINUOUS
 62
     7
 10
-354.4521758274162
 20
166.0332826960777
  0
VERTEX
  8
1
  6
CONTINUOUS
 62
     7
 10
-354.1472922680531
 20
166.6297421583338
  0
VERTEX
  8
1
  6
CONTINUOUS
 62
     7
 10
-353.9595458991957
 20
167.2769383890358
  0
VERTEX
  8
1
  6
CONTINUOUS
 62
     7
 10
-353.8961517085099
 20
167.9499999999898
  0
VERTEX
  8
1
  6
CONTINUOUS
 62
     7
 10
-353.9595458991919
 20
168.6230616109441
  0
VERTEX
  8
1
  6
CONTINUOUS
 62
     7
 10
-354.1472922680456
 20
169.2702578416473
  0
VERTEX
  8
1
  6
CONTINUOUS
 62
     7
 10
-354.4521758274053
 20
169.8667173039053
  0
VERTEX
  8
1
  6
CONTINUOUS
 62
     7
 10
-354.8624800730656
 20
170.3895183950819
  0
VERTEX
  8
1
  6
CONTINUOUS
 62
     7
 10
-355.3624372429671
 20
170.8185701624336
  0
VERTEX
  8
1
  6
CONTINUOUS
 62
     7
 10
-355.9328342634498
 20
171.137384387156
  0
VERTEX
  8
1
  6
CONTINUOUS
 62
     7
 10
-356.551751096899
 20
171.3337092173863
  0
VERTEX
  8
1
  6
CONTINUOUS
 62
     7
 10
-357.1954031164977
 20
171.3999999999989
  0
SEQEND
  8
1
  6
CONTINUOUS
 62
     7
  0
POLYLINE
  8
1
  6
CONTINUOUS
 62
     7
 66
     1
  0
VERTEX
  8
1
  6
CONTINUOUS
 62
     7
 10
-356.8445570707556
 20
164.5000000000011
  0
VERTEX
  8
1
  6
CONTINUOUS
 62
     7
 10
-356.2009050511583
 20
164.5662907826136
  0
VERTEX
  8
1
  6
CONTINUOUS
 62
     7
 10
-355.5819882177104
 20
164.7626156128433
  0
VERTEX
  8
1
  6
CONTINUOUS
 62
     7
 10
-355.0115911972287
 20
165.0814298375646
  0
VERTEX
  8
1
  6
CONTINUOUS
 62
     7
 10
-354.5116340273278
 20
165.5104816049148
  0
VERTEX
  8
1
  6
CONTINUOUS
 62
     7
 10
-354.1013297816676
 20
166.0332826960897
  0
VERTEX
  8
1
  6
CONTINUOUS
 62
     7
 10
-353.7964462223073
 20
166.6297421583458
  0
VERTEX
  8
1
  6
CONTINUOUS
 62
     7
 10
-353.6086998534526
 20
167.2769383890472
  0
VERTEX
  8
1
  6
CONTINUOUS
 62
     7
 10
-353.545305662769
 20
167.95
  0
SEQEND
  8
1
  6
CONTINUOUS
 62
     7
  0
LINE
  8
1
  6
CONTINUOUS
 62
     7
 10
-350.6285761571421
 20
173.9499999999971
 11
-353.4974904249732
 21
176.9499999999956
  0
LINE
  8
1
  6
CONTINUOUS
 62
     7
 10
-350.6285761571421
 20
161.9500000000029
 11
-350.6285761571421
 21
173.9499999999971
  0
LINE
  8
1
  6
CONTINUOUS
 62
     7
 10
-353.4974904249732
 20
158.9500000000044
 11
-350.6285761571421
 21
161.9500000000029
  0
LINE
  8
1
  6
CONTINUOUS
 62
     7
 10
-350.277730111469
 20
173.9499999999971
 11
-350.628576157142
 21
173.9499999999971
  0
LINE
  8
1
  6
CONTINUOUS
 62
     7
 10
-350.277730111469
 20
161.9500000000029
 11
-350.277730111469
 21
173.9499999999971
  0
LINE
  8
1
  6
CONTINUOUS
 62
     7
 10
-350.6285761571421
 20
161.9500000000029
 11
-350.277730111469
 21
161.9500000000029
  0
ARC
  8
1
  6
CONTINUOUS
 62
     7
 10
-356.8467256677433
 20
171.3815908014781
 40
6.525540615108123
 50
42.02328270656425
 51
58.18904211177825
  0
LINE
  8
1
  6
CONTINUOUS
 62
     7
 10
-353.4069936036682
 20
176.9269423364846
 11
-353.4974904249731
 21
176.9499999999956
  0
LINE
  8
1
  6
CONTINUOUS
 62
     7
 10
-351.9990786721664
 20
175.7499999999962
 11
-350.2777301114691
 21
173.9499999999971
  0
LINE
  8
1
  6
CONTINUOUS
 62
     7
 10
-350.277730111469
 20
161.9500000000029
 11
-351.9990786721663
 21
160.1500000000038
  0
LINE
  8
1
  6
CONTINUOUS
 62
     7
 10
-353.4974904249732
 20
158.9500000000044
 11
-353.3778506835634
 21
158.9859624961647
  0
ARC
  8
1
  6
CONTINUOUS
 62
     7
 10
-356.9004171746479
 20
164.5569289381255
 40
6.59121701824211
 50
302.3054938442713
 51
318.040414038668
  0
POLYLINE
  8
1
  6
CONTINUOUS
 62
     7
 66
     1
  0
VERTEX
  8
1
  6
CONTINUOUS
 62
     7
 10
-359.3470888173916
 20
167.95
  0
VERTEX
  8
1
  6
CONTINUOUS
 62
     7
 10
-359.305744779989
 20
167.5110467754638
  0
VERTEX
  8
1
  6
CONTINUOUS
 62
     7
 10
-359.1833014959523
 20
167.0889622771788
  0
VERTEX
  8
1
  6
CONTINUOUS
 62
     7
 10
-358.9844643920202
 20
166.6999669757062
  0
VERTEX
  8
1
  6
CONTINUOUS
 62
     7
 10
-358.7168746665876
 20
166.3590097423307
  0
VERTEX
  8
1
  6
CONTINUOUS
 62
     7
 10
-358.3908156427369
 20
166.0791933723198
  0
VERTEX
  8
1
  6
CONTINUOUS
 62
     7
 10
-358.0188175858987
 20
165.8712710518502
  0
VERTEX
  8
1
  6
CONTINUOUS
 62
     7
 10
-357.6151761727782
 20
165.7432331190934
  0
VERTEX
  8
1
  6
CONTINUOUS
 62
     7
 10
-357.1954031165171
 20
165.7000000000008
  0
SEQEND
  8
1
  6
CONTINUOUS
 62
     7
  0
POLYLINE
  8
1
  6
CONTINUOUS
 62
     7
 66
     1
  0
VERTEX
  8
1
  6
CONTINUOUS
 62
     7
 10
-357.1954031165171
 20
165.7000000000008
  0
VERTEX
  8
1
  6
CONTINUOUS
 62
     7
 10
-356.775630060256
 20
165.7432331190935
  0
VERTEX
  8
1
  6
CONTINUOUS
 62
     7
 10
-356.3719886471357
 20
165.8712710518504
  0
VERTEX
  8
1
  6
CONTINUOUS
 62
     7
 10
-355.9999905902975
 20
166.07919337232
  0
VERTEX
  8
1
  6
CONTINUOUS
 62
     7
 10
-355.6739315664468
 20
166.3590097423309
  0
VERTEX
  8
1
  6
CONTINUOUS
 62
     7
 10
-355.4063418410143
 20
166.6999669757064
  0
VERTEX
  8
1
  6
CONTINUOUS
 62
     7
 10
-355.2075047370822
 20
167.088962277179
  0
VERTEX
  8
1
  6
CONTINUOUS
 62
     7
 10
-355.0850614530456
 20
167.511046775464
  0
VERTEX
  8
1
  6
CONTINUOUS
 62
     7
 10
-355.043717415643
 20
167.9500000000001
  0
VERTEX
  8
1
  6
CONTINUOUS
 62
     7
 10
-355.0850614530456
 20
168.3889532245362
  0
VERTEX
  8
1
  6
CONTINUOUS
 62
     7
 10
-355.2075047370823
 20
168.8110377228213
  0
VERTEX
  8
1
  6
CONTINUOUS
 62
     7
 10
-355.4063418410144
 20
169.2000330242938
  0
VERTEX
  8
1
  6
CONTINUOUS
 62
     7
 10
-355.6739315664469
 20
169.5409902576693
  0
VERTEX
  8
1
  6
CONTINUOUS
 62
     7
 10
-355.9999905902976
 20
169.8208066276801
  0
VERTEX
  8
1
  6
CONTINUOUS
 62
     7
 10
-356.3719886471358
 20
170.0287289481497
  0
VERTEX
  8
1
  6
CONTINUOUS
 62
     7
 10
-356.7756300602562
 20
170.1567668809066
  0
VERTEX
  8
1
  6
CONTINUOUS
 62
     7
 10
-357.1954031165173
 20
170.1999999999993
  0
SEQEND
  8
1
  6
CONTINUOUS
 62
     7
  0
LINE
  8
1
  6
CONTINUOUS
 62
     7
 10
-398.249822290358
 20
160.1500000000038
 11
-398.2290987888493
 21
160.1500000000038
  0
LINE
  8
1
  6
CONTINUOUS
 62
     7
 10
-398.2290987888493
 20
158.9500000000044
 11
-398.249822290358
 21
158.9500000000044
  0
LINE
  8
1
  6
CONTINUOUS
 62
     7
 10
-398.249822290358
 20
176.9499999999956
 11
-398.2290987888493
 21
176.9499999999956
  0
LINE
  8
1
  6
CONTINUOUS
 62
     7
 10
-398.2290987888493
 20
175.7499999999962
 11
-398.249822290358
 21
175.7499999999962
  0
LINE
  8
1
  6
CONTINUOUS
 62
     7
 10
-402.1222788355208
 20
162.6448689558536
 11
-401.2731248812083
 21
162.95320875622
  0
LINE
  8
1
  6
CONTINUOUS
 62
     7
 10
-402.1222788355187
 20
162.6448689558547
 11
-402.1222788355187
 21
173.2551310441453
  0
LINE
  8
1
  6
CONTINUOUS
 62
     7
 10
-401.2731248812083
 20
172.94679124378
 11
-402.1222788355208
 21
173.2551310441464
  0
LINE
  8
1
  6
CONTINUOUS
 62
     7
 10
-398.2498222890932
 20
160.1500000000038
 11
-401.2731248812064
 21
160.1500000000038
  0
LINE
  8
1
  6
CONTINUOUS
 62
     7
 10
-398.2498222903584
 20
175.7499999999962
 11
-401.2731248812063
 21
175.7499999999962
  0
LINE
  8
1
  6
CONTINUOUS
 62
     7
 10
-400.9222793975134
 20
176.3268800824047
 11
-400.9222793975134
 21
175.7499999999953
  0
LINE
  8
1
  6
CONTINUOUS
 62
     7
 10
-398.2498222903584
 20
175.9175546771011
 11
-400.9222788354625
 21
176.3268800824049
  0
LINE
  8
1
  6
CONTINUOUS
 62
     7
 10
-400.9222793975134
 20
159.5731199175953
 11
-400.9222793975134
 21
160.1500000000047
  0
LINE
  8
1
  6
CONTINUOUS
 62
     7
 10
-398.2498222890932
 20
159.9824453230927
 11
-400.9222788354625
 21
159.5731199175951
  0
LINE
  8
1
  6
CONTINUOUS
 62
     7
 10
-400.9222793975134
 20
176.3268800824047
 11
-400.9222793975134
 21
176.6418918918876
  0
POLYLINE
  8
1
  6
CONTINUOUS
 62
     7
 66
     1
  0
VERTEX
  8
1
  6
CONTINUOUS
 62
     7
 10
-402.1222788354619
 20
176.0015318027947
  0
VERTEX
  8
1
  6
CONTINUOUS
 62
     7
 10
-402.1072634279813
 20
175.9005258313955
  0
VERTEX
  8
1
  6
CONTINUOUS
 62
     7
 10
-402.0435648004873
 20
175.8177516225827
  0
VERTEX
  8
1
  6
CONTINUOUS
 62
     7
 10
-401.9492360804645
 20
175.7779870454058
  0
SEQEND
  8
1
  6
CONTINUOUS
 62
     7
  0
ARC
  8
1
  6
CONTINUOUS
 62
     7
 10
-401.554148638709
 20
178.408411738203
 40
2.659930102673764
 50
261.4580777171152
 51
271.9360260430193
  0
LINE
  8
1
  6
CONTINUOUS
 62
     7
 10
-402.1222788355175
 20
176.6418918918875
 11
-402.1222788355175
 21
176.0015318027939
  0
LINE
  8
1
  6
CONTINUOUS
 62
     7
 10
-400.9222793975134
 20
159.2581081081124
 11
-400.9222793975134
 21
159.5731199175952
  0
LINE
  8
1
  6
CONTINUOUS
 62
     7
 10
-402.1222788355175
 20
159.8984681972061
 11
-402.1222788355175
 21
159.2581081081125
  0
ARC
  8
1
  6
CONTINUOUS
 62
     7
 10
-401.5596080868233
 20
157.4492289267517
 40
2.702452695414333
 50
87.97863233635917
 51
97.9588933883556
  0
POLYLINE
  8
1
  6
CONTINUOUS
 62
     7
 66
     1
  0
VERTEX
  8
1
  6
CONTINUOUS
 62
     7
 10
-401.9337967177792
 20
160.1256506871279
  0
VERTEX
  8
1
  6
CONTINUOUS
 62
     7
 10
-402.0418162237663
 20
160.0834324809906
  0
VERTEX
  8
1
  6
CONTINUOUS
 62
     7
 10
-402.1097093615988
 20
159.9923127232193
  0
VERTEX
  8
1
  6
CONTINUOUS
 62
     7
 10
-402.1222788354619
 20
159.8984681972053
  0
SEQEND
  8
1
  6
CONTINUOUS
 62
     7
  0
LINE
  8
1
  6
CONTINUOUS
 62
     7
 10
-402.1222788354619
 20
159.8984681972053
 11
-402.1222788354619
 21
161.7863971575657
  0
POLYLINE
  8
1
  6
CONTINUOUS
 62
     7
 66
     1
  0
VERTEX
  8
1
  6
CONTINUOUS
 62
     7
 10
-402.1222788354619
 20
161.7863971575657
  0
VERTEX
  8
1
  6
CONTINUOUS
 62
     7
 10
-402.1125072552998
 20
161.9161043799491
  0
VERTEX
  8
1
  6
CONTINUOUS
 62
     7
 10
-402.0835125284783
 20
162.0497942093467
  0
SEQEND
  8
1
  6
CONTINUOUS
 62
     7
  0
ARC
  8
1
  6
CONTINUOUS
 62
     7
 10
-400.6841309950879
 20
161.6210424786474
 40
1.463590353402057
 50
126.7309393618831
 51
162.9656381692992
  0
POLYLINE
  8
1
  6
CONTINUOUS
 62
     7
 66
     1
  0
VERTEX
  8
1
  6
CONTINUOUS
 62
     7
 10
-401.5594429346353
 20
162.7940410852354
  0
VERTEX
  8
1
  6
CONTINUOUS
 62
     7
 10
-401.4364158870289
 20
162.8750930028504
  0
VERTEX
  8
1
  6
CONTINUOUS
 62
     7
 10
-401.315867525171
 20
162.935817911759
  0
VERTEX
  8
1
  6
CONTINUOUS
 62
     7
 10
-401.2731248812064
 20
162.9532087562211
  0
SEQEND
  8
1
  6
CONTINUOUS
 62
     7
  0
LINE
  8
1
  6
CONTINUOUS
 62
     7
 10
-401.2731248812062
 20
160.1500000000038
 11
-401.4642866262976
 21
160.1500000000038
  0
POLYLINE
  8
1
  6
CONTINUOUS
 62
     7
 66
     1
  0
VERTEX
  8
1
  6
CONTINUOUS
 62
     7
 10
-401.2731248812064
 20
172.9467912437789
  0
VERTEX
  8
1
  6
CONTINUOUS
 62
     7
 10
-401.3662973995642
 20
172.9874702559156
  0
VERTEX
  8
1
  6
CONTINUOUS
 62
     7
 10
-401.4957352580187
 20
173.0614898151852
  0
SEQEND
  8
1
  6
CONTINUOUS
 62
     7
  0
ARC
  8
1
  6
CONTINUOUS
 62
     7
 10
-400.6693134838382
 20
174.2952079674402
 40
1.484935496256739
 50
203.546527819426
 51
236.1833445101192
  0
POLYLINE
  8
1
  6
CONTINUOUS
 62
     7
 66
     1
  0
VERTEX
  8
1
  6
CONTINUOUS
 62
     7
 10
-402.030607255135
 20
173.7019856682371
  0
VERTEX
  8
1
  6
CONTINUOUS
 62
     7
 10
-402.0790419216502
 20
173.834876618953
  0
VERTEX
  8
1
  6
CONTINUOUS
 62
     7
 10
-402.1077390830598
 20
173.9546459694032
  0
VERTEX
  8
1
  6
CONTINUOUS
 62
     7
 10
-402.1206377894057
 20
174.0611705781241
  0
VERTEX
  8
1
  6
CONTINUOUS
 62
     7
 10
-402.1222788354619
 20
174.1136028424343
  0
SEQEND
  8
1
  6
CONTINUOUS
 62
     7
  0
LINE
  8
1
  6
CONTINUOUS
 62
     7
 10
-402.1222788355187
 20
173.2551310441453
 11
-402.9222788355183
 21
173.2551310441453
  0
LINE
  8
1
  6
CONTINUOUS
 62
     7
 10
-402.1222788354619
 20
174.1136028424343
 11
-402.1222788354619
 21
176.0015318027947
  0
LINE
  8
1
  6
CONTINUOUS
 62
     7
 10
-401.4642866262976
 20
175.7499999999962
 11
-401.2731248812062
 21
175.7499999999962
  0
LINE
  8
1
  6
CONTINUOUS
 62
     7
 10
-402.1222788355187
 20
162.6448689558547
 11
-402.9222788355183
 21
162.6448689558547
  0
POLYLINE
  8
1
  6
CONTINUOUS
 62
     7
 66
     1
  0
VERTEX
  8
1
  6
CONTINUOUS
 62
     7
 10
-404.1222788354411
 20
163.1213870219494
  0
VERTEX
  8
1
  6
CONTINUOUS
 62
     7
 10
-404.0873357302075
 20
163.0030522706177
  0
VERTEX
  8
1
  6
CONTINUOUS
 62
     7
 10
-404.0021847816805
 20
162.9080600394736
  0
VERTEX
  8
1
  6
CONTINUOUS
 62
     7
 10
-403.9000003715337
 20
162.8396923085081
  0
SEQEND
  8
1
  6
CONTINUOUS
 62
     7
  0
ARC
  8
1
  6
CONTINUOUS
 62
     7
 10
-402.9925978804991
 20
164.8427334308383
 40
2.198989090123415
 50
245.6288835330992
 51
271.8325109000382
  0
ARC
  8
1
  6
CONTINUOUS
 62
     7
 10
-402.9670226674406
 20
170.8339395593963
 40
2.421604884434283
 50
88.94128945777635
 51
110.3752192917567
  0
POLYLINE
  8
1
  6
CONTINUOUS
 62
     7
 66
     1
  0
VERTEX
  8
1
  6
CONTINUOUS
 62
     7
 10
-403.8101446928854
 20
173.1040310700023
  0
VERTEX
  8
1
  6
CONTINUOUS
 62
     7
 10
-403.9276597160328
 20
173.044293375825
  0
VERTEX
  8
1
  6
CONTINUOUS
 62
     7
 10
-404.0210001463143
 20
172.9756458515474
  0
VERTEX
  8
1
  6
CONTINUOUS
 62
     7
 10
-404.087097332787
 20
172.8973402693206
  0
VERTEX
  8
1
  6
CONTINUOUS
 62
     7
 10
-404.1222548343646
 20
172.781774471811
  0
VERTEX
  8
1
  6
CONTINUOUS
 62
     7
 10
-404.1222788354411
 20
172.7786129780506
  0
SEQEND
  8
1
  6
CONTINUOUS
 62
     7
  0
LINE
  8
1
  6
CONTINUOUS
 62
     7
 10
-400.9222752442898
 20
159.2581081081123
 11
-400.9222752442898
 21
157.9500000000036
  0
LINE
  8
1
  6
CONTINUOUS
 62
     7
 10
-400.9222777896159
 20
159.2581081081123
 11
-400.9222777896159
 21
157.9500000000036
  0
LINE
  8
1
  6
CONTINUOUS
 62
     7
 10
-400.9222736363919
 20
159.2581081081124
 11
-400.9222736363919
 21
159.5731199175952
  0
LINE
  8
1
  6
CONTINUOUS
 62
     7
 10
-400.9222777896159
 20
177.9499999999964
 11
-400.9222777896159
 21
176.6418918918877
  0
LINE
  8
1
  6
CONTINUOUS
 62
     7
 10
-400.9222752442898
 20
177.9499999999964
 11
-400.9222752442898
 21
176.6418918918877
  0
LINE
  8
1
  6
CONTINUOUS
 62
     7
 10
-400.9222736363919
 20
176.3268800824047
 11
-400.9222736363919
 21
176.6418918918876
  0
LINE
  8
1
  6
CONTINUOUS
 62
     7
 10
-400.9222777896159
 20
157.9500000000048
 11
-402.1222788352917
 21
157.9500000000048
  0
LINE
  8
1
  6
CONTINUOUS
 62
     7
 10
-402.1222788352917
 20
157.9500000000031
 11
-402.1222788352917
 21
159.2581081081121
  0
LINE
  8
1
  6
CONTINUOUS
 62
     7
 10
-402.1222788352917
 20
177.9499999999951
 11
-400.9222777896159
 21
177.9499999999951
  0
LINE
  8
1
  6
CONTINUOUS
 62
     7
 10
-402.1222788352917
 20
176.6418918918879
 11
-402.1222788352917
 21
177.9499999999969
  0
LINE
  8
1
  6
CONTINUOUS
 62
     7
 10
-398.2498222890932
 20
159.982444144669
 11
-400.9222741984428
 21
159.5731199175951
  0
LINE
  8
1
  6
CONTINUOUS
 62
     7
 10
-398.2498222903584
 20
175.9175558555248
 11
-400.9222741984428
 21
176.3268800824049
  0
LINE
  8
1
  6
CONTINUOUS
 62
     7
 10
-407.5222788351452
 20
160.85
 11
-407.5222788351452
 21
175.05
  0
ARC
  8
1
  6
CONTINUOUS
 62
     7
 10
-399.6478432152124
 20
170.45
 40
8.853299055394448
 50
163.5976614504627
 51
196.4023385495373
  0
ARC
  8
1
  6
CONTINUOUS
 62
     7
 10
-399.6478432152124
 20
165.45
 40
8.853299055394443
 50
163.5976614504627
 51
196.4023385495373
  0
LINE
  8
1
  6
CONTINUOUS
 62
     7
 10
-411.9756968477601
 20
167.95
 11
-408.140834688436
 21
167.95
  0
ARC
  8
1
  6
CONTINUOUS
 62
     7
 10
-404.7261507339276
 20
170.5348937787537
 40
7.696596306421619
 50
180.6319876565635
 51
199.6241703438525
  0
ARC
  8
1
  6
CONTINUOUS
 62
     7
 10
-404.5880150762748
 20
170.3404306626369
 40
7.835029935057171
 50
160.5451235887139
 51
179.1987184108702
  0
LINE
  8
1
  6
CONTINUOUS
 62
     7
 10
-411.9756968477601
 20
172.95
 11
-408.140834688436
 21
172.95
  0
LINE
  8
1
  6
CONTINUOUS
 62
     7
 10
-411.9756968477601
 20
162.95
 11
-408.140834688436
 21
162.95
  0
ARC
  8
1
  6
CONTINUOUS
 62
     7
 10
-404.7255388203807
 20
165.5350030865809
 40
7.697209389097172
 50
180.6327510218185
 51
199.6234069785974
  0
ARC
  8
1
  6
CONTINUOUS
 62
     7
 10
-404.5880150762748
 20
165.3404306626369
 40
7.835029935057157
 50
160.5451235887138
 51
179.1987184108702
  0
LINE
  8
1
  6
CONTINUOUS
 62
     7
 10
-412.4222788351453
 20
170.45
 11
-412.4222788351453
 21
165.45
  0
LINE
  8
1
  6
CONTINUOUS
 62
     7
 10
-412.4222788351453
 20
172.95
 11
-411.9756968477601
 21
172.95
  0
LINE
  8
1
  6
CONTINUOUS
 62
     7
 10
-412.4222788351453
 20
172.95
 11
-412.4222788351453
 21
170.45
  0
LINE
  8
1
  6
CONTINUOUS
 62
     7
 10
-411.9756968477601
 20
162.95
 11
-412.4222788351453
 21
162.95
  0
LINE
  8
1
  6
CONTINUOUS
 62
     7
 10
-412.4222788351453
 20
162.95
 11
-412.4222788351453
 21
165.45
  0
LINE
  8
1
  6
CONTINUOUS
 62
     7
 10
-412.6222738499496
 20
170.95
 11
-412.6222738499496
 21
164.9499999999991
  0
LINE
  8
1
  6
CONTINUOUS
 62
     7
 10
-413.1222738499497
 20
165.4499999999992
 11
-413.1222738499497
 21
170.45
  0
LINE
  8
1
  6
CONTINUOUS
 62
     7
 10
-409.3910755991221
 20
183.1724997777561
 11
-407.4933920190484
 21
182.268790804507
  0
LINE
  8
1
  6
CONTINUOUS
 62
     7
 10
-409.2289671543889
 20
180.5332156691665
 11
-411.0965080734684
 21
181.4670673034097
  0
LINE
  8
1
  6
CONTINUOUS
 62
     7
 10
-427.8034880306383
 20
202.5788868160969
 11
-426.9069317547406
 21
200.6952661777452
  0
LINE
  8
1
  6
CONTINUOUS
 62
     7
 10
-426.9069317547406
 20
200.6952661777452
 11
-426.8997790573889
 21
200.6812032360224
  0
LINE
  8
1
  6
CONTINUOUS
 62
     7
 10
-428.6052115317355
 20
198.9757707616768
 11
-429.5390631659788
 21
200.8433116807564
  0
LINE
  8
1
  6
CONTINUOUS
 62
     7
 10
-406.4222788351452
 20
178.6557128577595
 11
-406.4222788351452
 21
158.95
  0
LINE
  8
1
  6
CONTINUOUS
 62
     7
 10
-404.1222788351453
 20
158.95
 11
-404.1222788351453
 21
178.6557128577595
  0
ARC
  8
1
  6
CONTINUOUS
 62
     7
 10
-407.4222788351452
 20
178.6557128577595
 40
3.299999999999997
 50
0.0
 51
68.06882403571947
  0
ARC
  8
1
  6
CONTINUOUS
 62
     7
 10
-407.4222788351452
 20
178.6557128577595
 40
0.9999999999999984
 50
0.0
 51
68.06882403571956
  0
ARC
  8
1
  6
CONTINUOUS
 62
     7
 10
-391.2500499224147
 20
218.8222289127305
 40
40.0
 50
246.0409540522302
 51
248.0688240357194
  0
ARC
  8
1
  6
CONTINUOUS
 62
     7
 10
-391.2500499224147
 20
218.8222289127305
 40
42.3
 50
244.847215856254
 51
248.0688240357194
  0
LINE
  8
1
  6
CONTINUOUS
 62
     7
 10
-404.1222788351453
 20
155.95
 11
-406.4222788351453
 21
155.95
  0
LINE
  8
1
  6
CONTINUOUS
 62
     7
 10
-406.4222788351452
 20
155.95
 11
-406.4222788351452
 21
158.95
  0
LINE
  8
1
  6
CONTINUOUS
 62
     7
 10
-404.1222788351453
 20
158.95
 11
-404.1222788351453
 21
155.95
  0
LINE
  8
1
  6
CONTINUOUS
 62
     7
 10
-454.1222788351453
 20
203.65
 11
-454.1222788351453
 21
205.95
  0
LINE
  8
1
  6
CONTINUOUS
 62
     7
 10
-451.1222788351453
 20
203.65
 11
-454.1222788351453
 21
203.65
  0
LINE
  8
1
  6
CONTINUOUS
 62
     7
 10
-454.1222788351453
 20
205.95
 11
-451.1222788351453
 21
205.95
  0
LINE
  8
1
  6
CONTINUOUS
 62
     7
 10
-451.1222788351453
 20
203.65
 11
-431.4165659773857
 21
203.65
  0
LINE
  8
1
  6
CONTINUOUS
 62
     7
 10
-431.4165659773857
 20
205.95
 11
-451.1222788351453
 21
205.95
  0
ARC
  8
1
  6
CONTINUOUS
 62
     7
 10
-431.4165659773857
 20
202.65
 40
1.000000000000001
 50
21.93117596428044
 51
90.0
  0
ARC
  8
1
  6
CONTINUOUS
 62
     7
 10
-431.4165659773857
 20
202.65
 40
3.299999999999999
 50
21.93117596428065
 51
90.00000000000001
  0
ARC
  8
1
  6
CONTINUOUS
 62
     7
 10
-391.2500499224147
 20
218.8222289127305
 40
40.0
 50
201.9311759642805
 51
203.9590459477698
  0
ARC
  8
1
  6
CONTINUOUS
 62
     7
 10
-391.2500499224147
 20
218.8222289127305
 40
42.3
 50
201.9311759642807
 51
205.1527841437461
  0
ARC
  8
1
  6
CONTINUOUS
 62
     7
 10
-391.2500499224147
 20
218.8222289127306
 40
40.00000000000005
 50
206.970111494616
 51
243.0298885053838
  0
ARC
  8
1
  6
CONTINUOUS
 62
     7
 10
-391.2492403461767
 20
218.8230384889685
 40
42.30109477844624
 50
207.9817567002458
 51
242.0182432997544
  0
LINE
  8
1
  6
CONTINUOUS
 62
     7
 10
-357.1954031165425
 20
164.5000000000011
 11
-356.8445570708015
 21
164.5000000000011
  0
LINE
  8
1
  6
CONTINUOUS
 62
     7
 10
-356.8445570708016
 20
171.3999999999989
 11
-357.1954031165426
 21
171.3999999999989
  0
ARC
  8
1
  6
CONTINUOUS
 62
     7
 10
-356.7444794212554
 20
167.8907721375934
 40
2.200126415210473
 50
178.4573992960429
 51
262.863958238785
  0
ARC
  8
1
  6
CONTINUOUS
 62
     7
 10
-356.7457720014022
 20
168.011058907666
 40
2.198884386692103
 50
97.65884750905718
 51
181.5912011905309
  0
LINE
  8
1
  6
CONTINUOUS
 62
     7
 10
-357.0388269563614
 20
170.190327440778
 11
-357.0202120268751
 21
170.1920953684594
  0
LINE
  8
1
  6
CONTINUOUS
 62
     7
 10
-398.2498222903584
 20
160.1500000000038
 11
-398.2498222903584
 21
158.9500000000051
  0
LINE
  8
1
  6
CONTINUOUS
 62
     7
 10
-398.2498222903584
 20
176.9499999999948
 11
-398.2498222903584
 21
175.7499999999962
  0
LINE
  8
1
  6
CONTINUOUS
 62
     7
 10
-402.1222788350868
 20
175.9499999999974
 11
-402.9222788350858
 21
175.9499999999974
  0
LINE
  8
1
  6
CONTINUOUS
 62
     7
 10
-402.9222788350858
 20
159.9500000000026
 11
-402.1222788350868
 21
159.9500000000026
  0
ARC
  8
1
  6
CONTINUOUS
 62
     7
 10
-402.922278835136
 20
161.1500000000033
 40
1.199999999999604
 50
179.999999999899
 51
270.0
  0
ARC
  8
1
  6
CONTINUOUS
 62
     7
 10
-402.922278835136
 20
174.7499999999966
 40
1.199999999999608
 50
90.0
 51
180.0000000001012
  0
LINE
  8
1
  6
CONTINUOUS
 62
     7
 10
-406.4222788351452
 20
175.05
 11
-407.5222788351452
 21
175.05
  0
LINE
  8
1
  6
CONTINUOUS
 62
     7
 10
-407.5222788351452
 20
160.85
 11
-406.4222788351452
 21
160.85
  0
LINE
  8
1
  6
CONTINUOUS
 62
     7
 10
-407.5222788351452
 20
175.05
 11
-408.5015249172707
 21
172.95
  0
LINE
  8
1
  6
CONTINUOUS
 62
     7
 10
-408.5015249172707
 20
162.95
 11
-407.5222788351452
 21
160.85
  0
LINE
  8
1
  6
CONTINUOUS
 62
     7
 10
-412.6222738499515
 20
164.9499999999993
 11
-412.4222988351462
 21
164.9499999999993
  0
LINE
  8
1
  6
CONTINUOUS
 62
     7
 10
-412.4222988351462
 20
170.9499999999999
 11
-412.6222738499515
 21
170.9499999999999
  0
LINE
  8
1
  6
CONTINUOUS
 62
     7
 10
-412.6222738499496
 20
170.9499999999999
 11
-413.1222738499497
 21
170.4499999999998
  0
LINE
  8
1
  6
CONTINUOUS
 62
     7
 10
-413.1222738499497
 20
165.4499999999994
 11
-412.6222738499496
 21
164.9499999999993
  0
ENDBLK
  8
0
  0
ENDSEC
  0
SECTION
  2
ENTITIES
  0
TEXT
  8
1
  6
CONTINUOUS
 62
     7
 10
-416.5194322871076
 20
69.27842003251217
 40
3.0
  1
HT-MKB-2831
  0
INSERT
  8
1
  6
CONTINUOUS
 62
     7
  2
D_FRAME_VIEW_3687
 10
0.0
 20
0.0
 30
0.0
  0
INSERT
  8
1
  6
CONTINUOUS
 62
     7
  2
D_FRAME_VIEW_3201
 10
0.0
 20
0.0
 30
0.0
  0
ENDSEC
  0
EOF
