  0
SECTION
  2
HEADER
  9
$ACADVER
  1
AC1004
  9
$INSBASE
 10
0.0
 20
0.0
  9
$EXTMIN
 10
-660.4340238692654
 20
65.87045454545454
  9
$EXTMAX
 10
-551.965984082914
 20
205.25
  9
$LIMMIN
 10
0.0
 20
0.0
  9
$LIMMAX
 10
12.0
 20
9.0
  9
$ORTHOMODE
 70
     0
  9
$REGENMODE
 70
     1
  9
$FILLMODE
 70
     1
  9
$QTEXTMODE
 70
     0
  9
$DRAGMODE
 70
     2
  9
$LTSCALE
 40
1.0
  9
$OSMODE
 70
    37
  9
$ATTMODE
 70
     1
  9
$TEXTSIZE
 40
0.2
  9
$TRACEWID
 40
0.05
  9
$TEXTSTYLE
  7
STANDARD
  9
$CLAYER
  8
0
  9
$CELTYPE
  6
BYLAYER
  9
$CECOLOR
 62
   256
  9
$DIMSCALE
 40
1.0
  9
$DIMASZ
 40
3.0
  9
$DIMEXO
 40
0.0625
  9
$DIMDLI
 40
0.38
  9
$DIMRND
 40
0.0
  9
$DIMDLE
 40
0.0
  9
$DIMEXE
 40
1.5
  9
$DIMTP
 40
0.0
  9
$DIMTM
 40
0.0
  9
$DIMTXT
 40
3.0
  9
$DIMCEN
 40
0.09
  9
$DIMTSZ
 40
0.0
  9
$DIMTOL
 70
     0
  9
$DIMLIM
 70
     0
  9
$DIMTIH
 70
     1
  9
$DIMTOH
 70
     1
  9
$DIMSE1
 70
     0
  9
$DIMSE2
 70
     0
  9
$DIMTAD
 70
     1
  9
$DIMZIN
 70
     0
  9
$DIMBLK
  1

  9
$DIMASO
 70
     1
  9
$DIMSHO
 70
     1
  9
$DIMPOST
  1

  9
$DIMAPOST
  1

  9
$DIMALT
 70
     0
  9
$DIMALTD
 70
     2
  9
$DIMALTF
 40
25.4
  9
$DIMLFAC
 40
1.0
  9
$DIMTOFL
 70
     0
  9
$DIMTVP
 40
0.0
  9
$DIMTIX
 70
     0
  9
$DIMSOXD
 70
     0
  9
$DIMSAH
 70
     0
  9
$DIMBLK1
  1

  9
$DIMBLK2
  1

  9
$LUNITS
 70
     2
  9
$LUPREC
 70
     4
  9
$SKETCHINC
 40
0.1
  9
$FILLETRAD
 40
0.5
  9
$AUNITS
 70
     0
  9
$AUPREC
 70
     0
  9
$MENU
  1
.
  9
$ELEVATION
 40
0.0
  9
$THICKNESS
 40
0.0
  9
$LIMCHECK
 70
     0
  9
$CHAMFERA
 40
0.0
  9
$CHAMFERB
 40
0.0
  9
$SKPOLY
 70
     0
  9
$TDCREATE
 40
2459758.422183947
  9
$TDUPDATE
 40
2459758.42218412
  9
$TDINDWG
 40
0.0000000116
  9
$TDUSRTIMER
 40
0.0000000116
  9
$USRTIMER
 70
     1
  9
$ANGBASE
 50
0.0
  9
$ANGDIR
 70
     0
  9
$PDMODE
 70
     0
  9
$PDSIZE
 40
0.0
  9
$PLINEWID
 40
0.0
  9
$COORDS
 70
     1
  9
$SPLFRAME
 70
     0
  9
$SPLINETYPE
 70
     6
  9
$SPLINESEGS
 70
     8
  9
$ATTDIA
 70
     0
  9
$ATTREQ
 70
     1
  9
$SURFTAB1
 70
     6
  9
$SURFTAB2
 70
     6
  9
$SURFTYPE
 70
     6
  9
$SURFU
 70
     6
  9
$SURFV
 70
     6
  9
$UCSNAME
  2

  9
$UCSORG
 10
0.0
 20
0.0
 30
0.0
  9
$UCSXDIR
 10
1.0
 20
0.0
 30
0.0
  9
$UCSYDIR
 10
0.0
 20
1.0
 30
0.0
  9
$USERI1
 70
     0
  9
$USERI2
 70
     0
  9
$USERI3
 70
     0
  9
$USERI4
 70
     0
  9
$USERI5
 70
     0
  9
$USERR1
 40
0.0
  9
$USERR2
 40
0.0
  9
$USERR3
 40
0.0
  9
$USERR4
 40
0.0
  9
$USERR5
 40
0.0
  9
$WORLDVIEW
 70
     1
  0
ENDSEC
  0
SECTION
  2
TABLES
  0
TABLE
  2
LTYPE
 70
     1
  0
LTYPE
  2
CONTINUOUS
 70
     0
  3
Solid line
 72
    65
 73
     0
 40
0.0
  0
ENDTAB
  0
TABLE
  2
LAYER
 70
     2
  0
LAYER
  2
0
 70
     0
 62
     7
  6
CONTINUOUS
  0
LAYER
  2
1
 70
     0
 62
     7
  6
CONTINUOUS
  0
ENDTAB
  0
TABLE
  2
STYLE
 70
     2
  0
STYLE
  2
STANDARD
 70
     0
 40
0.0
 41
1.0
 50
0.0
 71
     0
 42
0.2
  3
txt
  4

  0
STYLE
  2
ＭＳ_ゴシック
 70
     0
 40
0.0
 41
1.0
 50
0.0
 71
     0
 42
0.2
  3
ＭＳ ゴシック.shx
  4

  0
ENDTAB
  0
TABLE
  2
VIEW
 70
     0
  0
ENDTAB
  0
ENDSEC
  0
SECTION
  2
BLOCKS
  0
BLOCK
  8
0
  2
D_FRAME_VIEW_4124
 70
     0
 10
0.0
 20
0.0
  0
LINE
  8
1
  6
CONTINUOUS
 62
     7
 10
-564.3312469425316
 20
176.25
 11
-604.800318561741
 21
176.25
  0
LINE
  8
1
  6
CONTINUOUS
 62
     7
 10
-564.3312469425316
 20
175.05
 11
-604.800318561741
 21
175.05
  0
LINE
  8
1
  6
CONTINUOUS
 62
     7
 10
-564.3312469425316
 20
159.4499999999998
 11
-604.800318561741
 21
159.4499999999998
  0
LINE
  8
1
  6
CONTINUOUS
 62
     7
 10
-564.3312469425316
 20
158.2499999999998
 11
-604.800318561741
 21
158.2499999999998
  0
LINE
  8
1
  6
CONTINUOUS
 62
     7
 10
-557.4333613596734
 20
175.05
 11
-557.4333613596734
 21
176.25
  0
LINE
  8
1
  6
CONTINUOUS
 62
     7
 10
-557.4333613596734
 20
175.05
 11
-562.9679490727909
 21
175.05
  0
LINE
  8
1
  6
CONTINUOUS
 62
     7
 10
-557.4333613596733
 20
176.25
 11
-562.9679490727908
 21
176.25
  0
LINE
  8
1
  6
CONTINUOUS
 62
     7
 10
-555.1857442735853
 20
175.05
 11
-555.1857442735853
 21
176.25
  0
LINE
  8
1
  6
CONTINUOUS
 62
     7
 10
-555.1857442735853
 20
175.05
 11
-557.4333613596734
 21
175.05
  0
LINE
  8
1
  6
CONTINUOUS
 62
     7
 10
-557.4333613596733
 20
176.25
 11
-555.1857442735852
 21
176.25
  0
LINE
  8
1
  6
CONTINUOUS
 62
     7
 10
-557.4333613596733
 20
158.2499999999998
 11
-557.4333613596733
 21
159.4499999999998
  0
LINE
  8
1
  6
CONTINUOUS
 62
     7
 10
-555.1857442735853
 20
158.2499999999998
 11
-555.1857442735853
 21
159.4499999999998
  0
LINE
  8
1
  6
CONTINUOUS
 62
     7
 10
-557.4333613596734
 20
159.4499999999998
 11
-555.1857442735853
 21
159.4499999999998
  0
LINE
  8
1
  6
CONTINUOUS
 62
     7
 10
-555.1857442735853
 20
158.2499999999998
 11
-557.4333613596734
 21
158.2499999999998
  0
LINE
  8
1
  6
CONTINUOUS
 62
     7
 10
-557.4333613596734
 20
159.4499999999998
 11
-562.9679490727909
 21
159.4499999999998
  0
LINE
  8
1
  6
CONTINUOUS
 62
     7
 10
-557.4333613596733
 20
158.2499999999998
 11
-562.9679490727908
 21
158.2499999999998
  0
POLYLINE
  8
1
  6
CONTINUOUS
 62
     7
 66
     1
  0
VERTEX
  8
1
  6
CONTINUOUS
 62
     7
 10
-558.8836569086482
 20
169.4999999999999
  0
VERTEX
  8
1
  6
CONTINUOUS
 62
     7
 10
-559.3034300232431
 20
169.4567668809071
  0
VERTEX
  8
1
  6
CONTINUOUS
 62
     7
 10
-559.7070714924556
 20
169.3287289481503
  0
VERTEX
  8
1
  6
CONTINUOUS
 62
     7
 10
-560.0790696009886
 20
169.1208066276806
  0
VERTEX
  8
1
  6
CONTINUOUS
 62
     7
 10
-560.4051286701501
 20
168.8409902576696
  0
VERTEX
  8
1
  6
CONTINUOUS
 62
     7
 10
-560.6727184327683
 20
168.500033024294
  0
VERTEX
  8
1
  6
CONTINUOUS
 62
     7
 10
-560.8715555643319
 20
168.1110377228214
  0
VERTEX
  8
1
  6
CONTINUOUS
 62
     7
 10
-560.9939988653839
 20
167.6889532245362
  0
VERTEX
  8
1
  6
CONTINUOUS
 62
     7
 10
-561.0353429085319
 20
167.2499999999999
  0
SEQEND
  8
1
  6
CONTINUOUS
 62
     7
  0
POLYLINE
  8
1
  6
CONTINUOUS
 62
     7
 66
     1
  0
VERTEX
  8
1
  6
CONTINUOUS
 62
     7
 10
-562.1829087751366
 20
167.2499999999999
  0
VERTEX
  8
1
  6
CONTINUOUS
 62
     7
 10
-562.1195145756429
 20
166.5769383890442
  0
VERTEX
  8
1
  6
CONTINUOUS
 62
     7
 10
-561.9317681806965
 20
165.9297421583403
  0
VERTEX
  8
1
  6
CONTINUOUS
 62
     7
 10
-561.6268845789658
 20
165.3332826960823
  0
VERTEX
  8
1
  6
CONTINUOUS
 62
     7
 10
-561.2165802762845
 20
164.8104816049063
  0
VERTEX
  8
1
  6
CONTINUOUS
 62
     7
 10
-560.7166230369036
 20
164.3814298375561
  0
VERTEX
  8
1
  6
CONTINUOUS
 62
     7
 10
-560.1462259371528
 20
164.0626156128359
  0
VERTEX
  8
1
  6
CONTINUOUS
 62
     7
 10
-559.5273090176937
 20
163.8662907826087
  0
VERTEX
  8
1
  6
CONTINUOUS
 62
     7
 10
-558.8836569086482
 20
163.7999999999999
  0
SEQEND
  8
1
  6
CONTINUOUS
 62
     7
  0
POLYLINE
  8
1
  6
CONTINUOUS
 62
     7
 66
     1
  0
VERTEX
  8
1
  6
CONTINUOUS
 62
     7
 10
-555.2335595180272
 20
167.2499999999999
  0
VERTEX
  8
1
  6
CONTINUOUS
 62
     7
 10
-555.2969537175209
 20
167.9230616109555
  0
VERTEX
  8
1
  6
CONTINUOUS
 62
     7
 10
-555.4847001124673
 20
168.5702578416594
  0
VERTEX
  8
1
  6
CONTINUOUS
 62
     7
 10
-555.789583714198
 20
169.1667173039175
  0
VERTEX
  8
1
  6
CONTINUOUS
 62
     7
 10
-556.1998880168793
 20
169.6895183950935
  0
VERTEX
  8
1
  6
CONTINUOUS
 62
     7
 10
-556.6998452562602
 20
170.1185701624437
  0
VERTEX
  8
1
  6
CONTINUOUS
 62
     7
 10
-557.270242356011
 20
170.4373843871638
  0
VERTEX
  8
1
  6
CONTINUOUS
 62
     7
 10
-557.8891592754701
 20
170.633709217391
  0
VERTEX
  8
1
  6
CONTINUOUS
 62
     7
 10
-558.5328113845156
 20
170.6999999999999
  0
SEQEND
  8
1
  6
CONTINUOUS
 62
     7
  0
POLYLINE
  8
1
  6
CONTINUOUS
 62
     7
 66
     1
  0
VERTEX
  8
1
  6
CONTINUOUS
 62
     7
 10
-558.8836569086482
 20
170.6999999999999
  0
VERTEX
  8
1
  6
CONTINUOUS
 62
     7
 10
-559.5273090176937
 20
170.633709217391
  0
VERTEX
  8
1
  6
CONTINUOUS
 62
     7
 10
-560.1462259371528
 20
170.4373843871638
  0
VERTEX
  8
1
  6
CONTINUOUS
 62
     7
 10
-560.7166230369036
 20
170.1185701624437
  0
VERTEX
  8
1
  6
CONTINUOUS
 62
     7
 10
-561.2165802762845
 20
169.6895183950935
  0
VERTEX
  8
1
  6
CONTINUOUS
 62
     7
 10
-561.6268845789658
 20
169.1667173039175
  0
VERTEX
  8
1
  6
CONTINUOUS
 62
     7
 10
-561.9317681806965
 20
168.5702578416594
  0
VERTEX
  8
1
  6
CONTINUOUS
 62
     7
 10
-562.1195145756429
 20
167.9230616109555
  0
VERTEX
  8
1
  6
CONTINUOUS
 62
     7
 10
-562.1829087751366
 20
167.2499999999999
  0
SEQEND
  8
1
  6
CONTINUOUS
 62
     7
  0
POLYLINE
  8
1
  6
CONTINUOUS
 62
     7
 66
     1
  0
VERTEX
  8
1
  6
CONTINUOUS
 62
     7
 10
-558.8836569086482
 20
163.7999999999999
  0
VERTEX
  8
1
  6
CONTINUOUS
 62
     7
 10
-558.2400047996026
 20
163.8662907826087
  0
VERTEX
  8
1
  6
CONTINUOUS
 62
     7
 10
-557.6210878801435
 20
164.0626156128359
  0
VERTEX
  8
1
  6
CONTINUOUS
 62
     7
 10
-557.0506907803928
 20
164.3814298375561
  0
VERTEX
  8
1
  6
CONTINUOUS
 62
     7
 10
-556.5507335410118
 20
164.8104816049063
  0
VERTEX
  8
1
  6
CONTINUOUS
 62
     7
 10
-556.1404292383305
 20
165.3332826960823
  0
VERTEX
  8
1
  6
CONTINUOUS
 62
     7
 10
-555.8355456365998
 20
165.9297421583403
  0
VERTEX
  8
1
  6
CONTINUOUS
 62
     7
 10
-555.6477992416534
 20
166.5769383890442
  0
VERTEX
  8
1
  6
CONTINUOUS
 62
     7
 10
-555.5844050421597
 20
167.2499999999999
  0
VERTEX
  8
1
  6
CONTINUOUS
 62
     7
 10
-555.6477992416534
 20
167.9230616109555
  0
VERTEX
  8
1
  6
CONTINUOUS
 62
     7
 10
-555.8355456365998
 20
168.5702578416594
  0
VERTEX
  8
1
  6
CONTINUOUS
 62
     7
 10
-556.1404292383305
 20
169.1667173039175
  0
VERTEX
  8
1
  6
CONTINUOUS
 62
     7
 10
-556.5507335410118
 20
169.6895183950935
  0
VERTEX
  8
1
  6
CONTINUOUS
 62
     7
 10
-557.0506907803928
 20
170.1185701624437
  0
VERTEX
  8
1
  6
CONTINUOUS
 62
     7
 10
-557.6210878801435
 20
170.4373843871638
  0
VERTEX
  8
1
  6
CONTINUOUS
 62
     7
 10
-558.2400047996026
 20
170.633709217391
  0
VERTEX
  8
1
  6
CONTINUOUS
 62
     7
 10
-558.8836569086482
 20
170.6999999999999
  0
SEQEND
  8
1
  6
CONTINUOUS
 62
     7
  0
POLYLINE
  8
1
  6
CONTINUOUS
 62
     7
 66
     1
  0
VERTEX
  8
1
  6
CONTINUOUS
 62
     7
 10
-558.5328113845156
 20
163.7999999999999
  0
VERTEX
  8
1
  6
CONTINUOUS
 62
     7
 10
-557.8891592754701
 20
163.8662907826087
  0
VERTEX
  8
1
  6
CONTINUOUS
 62
     7
 10
-557.270242356011
 20
164.0626156128359
  0
VERTEX
  8
1
  6
CONTINUOUS
 62
     7
 10
-556.6998452562602
 20
164.3814298375561
  0
VERTEX
  8
1
  6
CONTINUOUS
 62
     7
 10
-556.1998880168793
 20
164.8104816049063
  0
VERTEX
  8
1
  6
CONTINUOUS
 62
     7
 10
-555.789583714198
 20
165.3332826960823
  0
VERTEX
  8
1
  6
CONTINUOUS
 62
     7
 10
-555.4847001124673
 20
165.9297421583403
  0
VERTEX
  8
1
  6
CONTINUOUS
 62
     7
 10
-555.2969537175209
 20
166.5769383890442
  0
VERTEX
  8
1
  6
CONTINUOUS
 62
     7
 10
-555.2335595180272
 20
167.2499999999999
  0
SEQEND
  8
1
  6
CONTINUOUS
 62
     7
  0
LINE
  8
1
  6
CONTINUOUS
 62
     7
 10
-552.3168296070736
 20
173.2499999999999
 11
-555.1857442735853
 21
176.2499999999999
  0
LINE
  8
1
  6
CONTINUOUS
 62
     7
 10
-552.3168296070736
 20
161.2499999999999
 11
-552.3168296070736
 21
173.2499999999999
  0
LINE
  8
1
  6
CONTINUOUS
 62
     7
 10
-555.1857442735853
 20
158.2499999999998
 11
-552.3168296070736
 21
161.2499999999999
  0
LINE
  8
1
  6
CONTINUOUS
 62
     7
 10
-551.9659840829141
 20
173.2499999999999
 11
-552.3168296070736
 21
173.2499999999999
  0
ARC
  8
1
  6
CONTINUOUS
 62
     7
 10
-558.5349849964713
 20
170.6815854487227
 40
6.525548000493638
 50
42.0232875375972
 51
58.18902673265675
  0
LINE
  8
1
  6
CONTINUOUS
 62
     7
 10
-555.0952475509598
 20
176.2269423364886
 11
-555.1857442735853
 21
176.2499999999999
  0
LINE
  8
1
  6
CONTINUOUS
 62
     7
 10
-553.6873328828253
 20
175.05
 11
-551.965984082914
 21
173.2499999999999
  0
LINE
  8
1
  6
CONTINUOUS
 62
     7
 10
-551.9659840829141
 20
161.2499999999998
 11
-551.9659840829141
 21
173.2499999999999
  0
LINE
  8
1
  6
CONTINUOUS
 62
     7
 10
-552.3168296070736
 20
161.2499999999999
 11
-551.9659840829141
 21
161.2499999999999
  0
LINE
  8
1
  6
CONTINUOUS
 62
     7
 10
-551.9659840829141
 20
161.2499999999998
 11
-553.6873328828254
 21
159.4499999999998
  0
LINE
  8
1
  6
CONTINUOUS
 62
     7
 10
-555.1857442735853
 20
158.2499999999998
 11
-555.0661046541155
 21
158.2859624961606
  0
ARC
  8
1
  6
CONTINUOUS
 62
     7
 10
-558.5886765707124
 20
163.856934353494
 40
6.591224494947634
 50
302.3055085484227
 51
318.0404091710284
  0
POLYLINE
  8
1
  6
CONTINUOUS
 62
     7
 66
     1
  0
VERTEX
  8
1
  6
CONTINUOUS
 62
     7
 10
-561.0353429085319
 20
167.2499999999999
  0
VERTEX
  8
1
  6
CONTINUOUS
 62
     7
 10
-560.9939988653839
 20
166.8110467754636
  0
VERTEX
  8
1
  6
CONTINUOUS
 62
     7
 10
-560.8715555643319
 20
166.3889622771784
  0
VERTEX
  8
1
  6
CONTINUOUS
 62
     7
 10
-560.6727184327683
 20
165.9999669757058
  0
VERTEX
  8
1
  6
CONTINUOUS
 62
     7
 10
-560.4051286701501
 20
165.6590097423301
  0
VERTEX
  8
1
  6
CONTINUOUS
 62
     7
 10
-560.0790696009886
 20
165.3791933723192
  0
VERTEX
  8
1
  6
CONTINUOUS
 62
     7
 10
-559.7070714924556
 20
165.1712710518495
  0
VERTEX
  8
1
  6
CONTINUOUS
 62
     7
 10
-559.3034300232431
 20
165.0432331190926
  0
VERTEX
  8
1
  6
CONTINUOUS
 62
     7
 10
-558.8836569086482
 20
164.9999999999999
  0
SEQEND
  8
1
  6
CONTINUOUS
 62
     7
  0
POLYLINE
  8
1
  6
CONTINUOUS
 62
     7
 66
     1
  0
VERTEX
  8
1
  6
CONTINUOUS
 62
     7
 10
-558.8836569086482
 20
164.9999999999999
  0
VERTEX
  8
1
  6
CONTINUOUS
 62
     7
 10
-558.4638837940532
 20
165.0432331190926
  0
VERTEX
  8
1
  6
CONTINUOUS
 62
     7
 10
-558.0602423248407
 20
165.1712710518495
  0
VERTEX
  8
1
  6
CONTINUOUS
 62
     7
 10
-557.6882442163077
 20
165.3791933723192
  0
VERTEX
  8
1
  6
CONTINUOUS
 62
     7
 10
-557.3621851471462
 20
165.6590097423302
  0
VERTEX
  8
1
  6
CONTINUOUS
 62
     7
 10
-557.094595384528
 20
165.9999669757058
  0
VERTEX
  8
1
  6
CONTINUOUS
 62
     7
 10
-556.8957582529645
 20
166.3889622771785
  0
VERTEX
  8
1
  6
CONTINUOUS
 62
     7
 10
-556.7733149519124
 20
166.8110467754636
  0
VERTEX
  8
1
  6
CONTINUOUS
 62
     7
 10
-556.7319709087644
 20
167.2499999999999
  0
VERTEX
  8
1
  6
CONTINUOUS
 62
     7
 10
-556.7733149519124
 20
167.6889532245362
  0
VERTEX
  8
1
  6
CONTINUOUS
 62
     7
 10
-556.8957582529645
 20
168.1110377228214
  0
VERTEX
  8
1
  6
CONTINUOUS
 62
     7
 10
-557.094595384528
 20
168.500033024294
  0
VERTEX
  8
1
  6
CONTINUOUS
 62
     7
 10
-557.3621851471462
 20
168.8409902576696
  0
VERTEX
  8
1
  6
CONTINUOUS
 62
     7
 10
-557.6882442163077
 20
169.1208066276806
  0
VERTEX
  8
1
  6
CONTINUOUS
 62
     7
 10
-558.0602423248407
 20
169.3287289481503
  0
VERTEX
  8
1
  6
CONTINUOUS
 62
     7
 10
-558.4638837940532
 20
169.4567668809072
  0
VERTEX
  8
1
  6
CONTINUOUS
 62
     7
 10
-558.8836569086482
 20
169.4999999999999
  0
SEQEND
  8
1
  6
CONTINUOUS
 62
     7
  0
LINE
  8
1
  6
CONTINUOUS
 62
     7
 10
-562.9679490727909
 20
159.4499999999998
 11
-564.331246942532
 21
159.4499999999998
  0
LINE
  8
1
  6
CONTINUOUS
 62
     7
 10
-564.3312469425318
 20
158.2499999999998
 11
-562.9679490727908
 21
158.2499999999998
  0
LINE
  8
1
  6
CONTINUOUS
 62
     7
 10
-564.3312469425318
 20
175.05
 11
-562.9679490727908
 21
175.05
  0
LINE
  8
1
  6
CONTINUOUS
 62
     7
 10
-562.9679490727909
 20
176.25
 11
-564.331246942532
 21
176.25
  0
LINE
  8
1
  6
CONTINUOUS
 62
     7
 10
-604.8103724518911
 20
159.4499999999998
 11
-604.8003185617406
 21
159.4499999999998
  0
LINE
  8
1
  6
CONTINUOUS
 62
     7
 10
-604.8003185617406
 20
158.2499999999998
 11
-604.8103724518911
 21
158.2499999999998
  0
LINE
  8
1
  6
CONTINUOUS
 62
     7
 10
-604.8103724518911
 20
176.25
 11
-604.8003185617406
 21
176.25
  0
LINE
  8
1
  6
CONTINUOUS
 62
     7
 10
-604.8003185617406
 20
175.05
 11
-604.8103724518911
 21
175.05
  0
LINE
  8
1
  6
CONTINUOUS
 62
     7
 10
-608.4340234660392
 20
161.9448703714549
 11
-607.584869393705
 21
162.2532100202086
  0
LINE
  8
1
  6
CONTINUOUS
 62
     7
 10
-608.4340234660403
 20
161.9448703714551
 11
-608.4340234660403
 21
172.5551296285447
  0
LINE
  8
1
  6
CONTINUOUS
 62
     7
 10
-607.584869393705
 20
172.2467899797911
 11
-608.4340234660392
 21
172.5551296285449
  0
LINE
  8
1
  6
CONTINUOUS
 62
     7
 10
-604.8103724518911
 20
175.05
 11
-607.5848693937054
 21
175.05
  0
LINE
  8
1
  6
CONTINUOUS
 62
     7
 10
-604.8103814406974
 20
159.4499999999998
 11
-607.5848693937054
 21
159.4499999999998
  0
LINE
  8
1
  6
CONTINUOUS
 62
     7
 10
-607.2340181094512
 20
175.6268800824114
 11
-607.2340181094512
 21
175.0500000000013
  0
LINE
  8
1
  6
CONTINUOUS
 62
     7
 10
-604.8103724518911
 20
175.2374098457525
 11
-607.2340235080757
 21
175.6268807693494
  0
LINE
  8
1
  6
CONTINUOUS
 62
     7
 10
-607.2340238696722
 20
158.8731206119933
 11
-607.2340238696722
 21
159.4499999999998
  0
LINE
  8
1
  6
CONTINUOUS
 62
     7
 10
-604.8103814406974
 20
159.2625887097824
 11
-607.2340192332921
 21
158.8731199175909
  0
LINE
  8
1
  6
CONTINUOUS
 62
     7
 10
-607.2340238696722
 20
175.6268793880065
 11
-607.2340238696722
 21
175.9418918918919
  0
POLYLINE
  8
1
  6
CONTINUOUS
 62
     7
 66
     1
  0
VERTEX
  8
1
  6
CONTINUOUS
 62
     7
 10
-608.4340238695934
 20
175.3015318028029
  0
VERTEX
  8
1
  6
CONTINUOUS
 62
     7
 10
-608.4190410838468
 20
175.2005974058067
  0
VERTEX
  8
1
  6
CONTINUOUS
 62
     7
 10
-608.355265310888
 20
175.1177153254418
  0
VERTEX
  8
1
  6
CONTINUOUS
 62
     7
 10
-608.2609808324303
 20
175.0779870454113
  0
SEQEND
  8
1
  6
CONTINUOUS
 62
     7
  0
ARC
  8
1
  6
CONTINUOUS
 62
     7
 10
-607.8694819219908
 20
177.6462302754547
 40
2.597911600793867
 50
261.3326473106985
 51
272.0614592290323
  0
LINE
  8
1
  6
CONTINUOUS
 62
     7
 10
-608.4340234744488
 20
175.941891891892
 11
-608.4340234744488
 21
175.3015318028033
  0
LINE
  8
1
  6
CONTINUOUS
 62
     7
 10
-607.2340238696722
 20
158.5581081081079
 11
-607.2340238696722
 21
158.8731206119933
  0
LINE
  8
1
  6
CONTINUOUS
 62
     7
 10
-608.4340234744488
 20
159.1984681971965
 11
-608.4340234744488
 21
158.5581081081078
  0
ARC
  8
1
  6
CONTINUOUS
 62
     7
 10
-607.8712080519247
 20
156.7449040222625
 40
2.706769825255594
 50
87.98491998258297
 51
97.94653265671027
  0
POLYLINE
  8
1
  6
CONTINUOUS
 62
     7
 66
     1
  0
VERTEX
  8
1
  6
CONTINUOUS
 62
     7
 10
-608.2454161137124
 20
159.4256821207644
  0
VERTEX
  8
1
  6
CONTINUOUS
 62
     7
 10
-608.3534400446068
 20
159.3835282174749
  0
VERTEX
  8
1
  6
CONTINUOUS
 62
     7
 10
-608.4214543169824
 20
159.2923127232361
  0
VERTEX
  8
1
  6
CONTINUOUS
 62
     7
 10
-608.4340238695934
 20
159.1984681971969
  0
SEQEND
  8
1
  6
CONTINUOUS
 62
     7
  0
LINE
  8
1
  6
CONTINUOUS
 62
     7
 10
-608.4340238695934
 20
159.1984681971969
 11
-608.4340238695934
 21
161.086398195305
  0
LINE
  8
1
  6
CONTINUOUS
 62
     7
 10
-608.4340238695934
 20
161.086398195305
 11
-608.4217127660249
 21
161.2323748850925
  0
ARC
  8
1
  6
CONTINUOUS
 62
     7
 10
-607.0308218006052
 20
160.9499083242099
 40
1.419283282401133
 50
128.2339332513442
 51
168.5203098046197
  0
POLYLINE
  8
1
  6
CONTINUOUS
 62
     7
 66
     1
  0
VERTEX
  8
1
  6
CONTINUOUS
 62
     7
 10
-607.909178908617
 20
162.0647418662727
  0
VERTEX
  8
1
  6
CONTINUOUS
 62
     7
 10
-607.790824039222
 20
162.1492750779173
  0
VERTEX
  8
1
  6
CONTINUOUS
 62
     7
 10
-607.6692050644558
 20
162.2168489063042
  0
VERTEX
  8
1
  6
CONTINUOUS
 62
     7
 10
-607.5848693937054
 20
162.2532100202087
  0
SEQEND
  8
1
  6
CONTINUOUS
 62
     7
  0
LINE
  8
1
  6
CONTINUOUS
 62
     7
 10
-607.5848693937054
 20
159.4499999999998
 11
-607.7760311737255
 21
159.4499999999998
  0
LINE
  8
1
  6
CONTINUOUS
 62
     7
 10
-608.4340238695934
 20
173.4136018046948
 11
-608.4340238695934
 21
175.3015318028029
  0
POLYLINE
  8
1
  6
CONTINUOUS
 62
     7
 66
     1
  0
VERTEX
  8
1
  6
CONTINUOUS
 62
     7
 10
-607.5848693937054
 20
172.2467899797911
  0
VERTEX
  8
1
  6
CONTINUOUS
 62
     7
 10
-607.7202965104385
 20
172.3092933841366
  0
VERTEX
  8
1
  6
CONTINUOUS
 62
     7
 10
-607.845898659771
 20
172.3876151150178
  0
SEQEND
  8
1
  6
CONTINUOUS
 62
     7
  0
ARC
  8
1
  6
CONTINUOUS
 62
     7
 10
-607.0130349753213
 20
173.5618550182068
 40
1.439618444976405
 50
192.3292423587503
 51
234.6527232490377
  0
POLYLINE
  8
1
  6
CONTINUOUS
 62
     7
 66
     1
  0
VERTEX
  8
1
  6
CONTINUOUS
 62
     7
 10
-608.4194510994708
 20
173.2544547045298
  0
VERTEX
  8
1
  6
CONTINUOUS
 62
     7
 10
-608.4323696032855
 20
173.3609366229018
  0
VERTEX
  8
1
  6
CONTINUOUS
 62
     7
 10
-608.4340238695934
 20
173.4136018046948
  0
SEQEND
  8
1
  6
CONTINUOUS
 62
     7
  0
LINE
  8
1
  6
CONTINUOUS
 62
     7
 10
-607.7760311737255
 20
175.05
 11
-607.5848693937054
 21
175.05
  0
LINE
  8
1
  6
CONTINUOUS
 62
     7
 10
-608.4340238692685
 20
159.2500000000008
 11
-608.4340238692685
 21
161.0863981953053
  0
LINE
  8
1
  6
CONTINUOUS
 62
     7
 10
-609.2340236679305
 20
161.9448703714551
 11
-608.4340234660403
 21
161.9448703714551
  0
LINE
  8
1
  6
CONTINUOUS
 62
     7
 10
-608.4340238692685
 20
173.4136018046945
 11
-608.4340238692685
 21
175.2499999999989
  0
LINE
  8
1
  6
CONTINUOUS
 62
     7
 10
-609.2340236679305
 20
172.5551296285447
 11
-608.4340234660403
 21
172.5551296285447
  0
POLYLINE
  8
1
  6
CONTINUOUS
 62
     7
 66
     1
  0
VERTEX
  8
1
  6
CONTINUOUS
 62
     7
 10
-610.4340238695734
 20
172.0786117344359
  0
VERTEX
  8
1
  6
CONTINUOUS
 62
     7
 10
-610.405662654711
 20
172.1854979794162
  0
VERTEX
  8
1
  6
CONTINUOUS
 62
     7
 10
-610.3343046015415
 20
172.274219769135
  0
VERTEX
  8
1
  6
CONTINUOUS
 62
     7
 10
-610.2402091108185
 20
172.3438063317964
  0
SEQEND
  8
1
  6
CONTINUOUS
 62
     7
  0
ARC
  8
1
  6
CONTINUOUS
 62
     7
 10
-609.3171892664369
 20
170.4500454618064
 40
2.106726338618107
 50
87.73759116526713
 51
115.9846234926227
  0
POLYLINE
  8
1
  6
CONTINUOUS
 62
     7
 66
     1
  0
VERTEX
  8
1
  6
CONTINUOUS
 62
     7
 10
-610.4340238695734
 20
162.4213882655639
  0
VERTEX
  8
1
  6
CONTINUOUS
 62
     7
 10
-610.4056221893891
 20
162.3144275245569
  0
VERTEX
  8
1
  6
CONTINUOUS
 62
     7
 10
-610.3343046015415
 20
162.2257802308648
  0
VERTEX
  8
1
  6
CONTINUOUS
 62
     7
 10
-610.2402091108185
 20
162.1561936682034
  0
VERTEX
  8
1
  6
CONTINUOUS
 62
     7
 10
-610.1475480014614
 20
162.1073621755461
  0
SEQEND
  8
1
  6
CONTINUOUS
 62
     7
  0
ARC
  8
1
  6
CONTINUOUS
 62
     7
 10
-609.2816525155844
 20
164.3262522388654
 40
2.381858120367211
 50
248.682375268171
 51
271.1457919463479
  0
LINE
  8
1
  6
CONTINUOUS
 62
     7
 10
-608.4340250818607
 20
157.2500000000004
 11
-608.4340250818607
 21
158.5581081081082
  0
LINE
  8
1
  6
CONTINUOUS
 62
     7
 10
-608.434027292976
 20
157.2500000000004
 11
-608.434027292976
 21
158.5581081081082
  0
LINE
  8
1
  6
CONTINUOUS
 62
     7
 10
-608.4340289003878
 20
159.1984681971134
 11
-608.4340289003878
 21
158.5581081081078
  0
LINE
  8
1
  6
CONTINUOUS
 62
     7
 10
-608.4340238689435
 20
161.0863961197155
 11
-608.4340283786935
 21
159.2500000000003
  0
LINE
  8
1
  6
CONTINUOUS
 62
     7
 10
-608.4340283786935
 20
159.2500000000003
 11
-608.4340285052433
 21
159.1984681971137
  0
LINE
  8
1
  6
CONTINUOUS
 62
     7
 10
-608.434027292976
 20
175.9418918918916
 11
-608.434027292976
 21
177.2499999999994
  0
LINE
  8
1
  6
CONTINUOUS
 62
     7
 10
-608.4340250818607
 20
175.9418918918916
 11
-608.4340250818607
 21
177.2499999999994
  0
LINE
  8
1
  6
CONTINUOUS
 62
     7
 10
-608.4340285052434
 20
175.3015318028861
 11
-608.4340283786936
 21
175.2499999999995
  0
LINE
  8
1
  6
CONTINUOUS
 62
     7
 10
-608.4340283786936
 20
175.2499999999995
 11
-608.4340238689435
 21
173.4136038802843
  0
LINE
  8
1
  6
CONTINUOUS
 62
     7
 10
-608.4340289003878
 20
175.941891891892
 11
-608.4340289003878
 21
175.3015318028864
  0
LINE
  8
1
  6
CONTINUOUS
 62
     7
 10
-607.2340238694469
 20
157.2499999999998
 11
-608.4340250818607
 21
157.2499999999998
  0
LINE
  8
1
  6
CONTINUOUS
 62
     7
 10
-607.2340238694469
 20
158.558108108108
 11
-607.2340238694469
 21
157.2499999999999
  0
LINE
  8
1
  6
CONTINUOUS
 62
     7
 10
-608.4340250818606
 20
177.25
 11
-607.2340238694468
 21
177.25
  0
LINE
  8
1
  6
CONTINUOUS
 62
     7
 10
-607.2340238694469
 20
177.2499999999999
 11
-607.2340238694469
 21
175.9418918918918
  0
LINE
  8
1
  6
CONTINUOUS
 62
     7
 10
-604.8103814406974
 20
159.2625895629442
 11
-607.2340238689435
 21
158.8731199175909
  0
LINE
  8
1
  6
CONTINUOUS
 62
     7
 10
-604.8103724518911
 20
175.2374089925904
 11
-607.2340238689435
 21
175.6268800824089
  0
ARC
  8
1
  6
CONTINUOUS
 62
     7
 10
-605.9608837490871
 20
169.75
 40
8.852056286865235
 50
163.5952936196107
 51
196.4047063803893
  0
ARC
  8
1
  6
CONTINUOUS
 62
     7
 10
-605.9608837490871
 20
164.75
 40
8.852056286865231
 50
163.5952936196107
 51
196.4047063803893
  0
LINE
  8
1
  6
CONTINUOUS
 62
     7
 10
-613.8340238692654
 20
160.15
 11
-613.8340238692654
 21
174.35
  0
ARC
  8
1
  6
CONTINUOUS
 62
     7
 10
-610.8997601103949
 20
164.6404306626369
 40
7.835029935057157
 50
160.5451235887138
 51
179.1987184108702
  0
LINE
  8
1
  6
CONTINUOUS
 62
     7
 10
-618.7340238692653
 20
169.75
 11
-618.7340238692653
 21
164.75
  0
ARC
  8
1
  6
CONTINUOUS
 62
     7
 10
-611.0366723648634
 20
169.8351123186839
 40
7.697822048417962
 50
180.6335137367761
 51
199.6226442636398
  0
LINE
  8
1
  6
CONTINUOUS
 62
     7
 10
-618.2874418818802
 20
162.25
 11
-614.4525797225562
 21
162.25
  0
ARC
  8
1
  6
CONTINUOUS
 62
     7
 10
-611.0372838545009
 20
164.8350030865809
 40
7.697209389097172
 50
180.6327510218185
 51
199.6234069785974
  0
LINE
  8
1
  6
CONTINUOUS
 62
     7
 10
-618.2874418818802
 20
167.25
 11
-614.4525797225562
 21
167.25
  0
ARC
  8
1
  6
CONTINUOUS
 62
     7
 10
-610.8997601103948
 20
169.6404306626369
 40
7.835029935057171
 50
160.5451235887139
 51
179.1987184108702
  0
LINE
  8
1
  6
CONTINUOUS
 62
     7
 10
-618.2874418818802
 20
172.25
 11
-614.4525797225562
 21
172.25
  0
LINE
  8
1
  6
CONTINUOUS
 62
     7
 10
-618.7340238692653
 20
172.25
 11
-618.2874418818801
 21
172.25
  0
LINE
  8
1
  6
CONTINUOUS
 62
     7
 10
-618.7340238692653
 20
172.25
 11
-618.7340238692653
 21
169.75
  0
LINE
  8
1
  6
CONTINUOUS
 62
     7
 10
-618.2874418818802
 20
162.25
 11
-618.7340238692655
 21
162.25
  0
LINE
  8
1
  6
CONTINUOUS
 62
     7
 10
-618.7340238692653
 20
162.25
 11
-618.7340238692653
 21
164.75
  0
LINE
  8
1
  6
CONTINUOUS
 62
     7
 10
-618.9340188840697
 20
170.25
 11
-618.9340188840697
 21
164.2499999999991
  0
LINE
  8
1
  6
CONTINUOUS
 62
     7
 10
-619.4340188840698
 20
164.7499999999992
 11
-619.4340188840698
 21
169.7499999999999
  0
LINE
  8
1
  6
CONTINUOUS
 62
     7
 10
-615.7028206332423
 20
182.4724997777561
 11
-613.8051370531686
 21
181.568790804507
  0
LINE
  8
1
  6
CONTINUOUS
 62
     7
 10
-615.540712188509
 20
179.8332156691665
 11
-617.4082531075885
 21
180.7670673034097
  0
LINE
  8
1
  6
CONTINUOUS
 62
     7
 10
-634.1152330647584
 20
201.8788868160969
 11
-633.2186767888608
 21
199.9952661777452
  0
LINE
  8
1
  6
CONTINUOUS
 62
     7
 10
-633.2186767888608
 20
199.9952661777452
 11
-633.2115240915091
 21
199.9812032360225
  0
LINE
  8
1
  6
CONTINUOUS
 62
     7
 10
-634.9169565658557
 20
198.2757707616768
 11
-635.850808200099
 21
200.1433116807564
  0
ARC
  8
1
  6
CONTINUOUS
 62
     7
 10
-613.7340238692653
 20
177.9557128577596
 40
3.299999999999997
 50
0.0
 51
68.06882403571947
  0
LINE
  8
1
  6
CONTINUOUS
 62
     7
 10
-610.4340238692654
 20
158.25
 11
-610.4340238692654
 21
177.9557128577596
  0
LINE
  8
1
  6
CONTINUOUS
 62
     7
 10
-612.7340238692653
 20
177.9557128577596
 11
-612.7340238692653
 21
158.25
  0
ARC
  8
1
  6
CONTINUOUS
 62
     7
 10
-613.7340238692653
 20
177.9557128577596
 40
0.9999999999999984
 50
0.0
 51
68.06882403571956
  0
ARC
  8
1
  6
CONTINUOUS
 62
     7
 10
-597.5617949565349
 20
218.1222289127305
 40
40.0
 50
246.0409540522302
 51
248.0688240357194
  0
ARC
  8
1
  6
CONTINUOUS
 62
     7
 10
-597.5617949565349
 20
218.1222289127305
 40
42.3
 50
244.847215856254
 51
248.0688240357194
  0
LINE
  8
1
  6
CONTINUOUS
 62
     7
 10
-610.4340238692654
 20
158.25
 11
-610.4340238692654
 21
155.25
  0
LINE
  8
1
  6
CONTINUOUS
 62
     7
 10
-610.4340238692654
 20
155.25
 11
-612.7340238692653
 21
155.25
  0
LINE
  8
1
  6
CONTINUOUS
 62
     7
 10
-612.7340238692653
 20
155.25
 11
-612.7340238692653
 21
158.25
  0
LINE
  8
1
  6
CONTINUOUS
 62
     7
 10
-657.4340238692654
 20
202.95
 11
-637.7283110115059
 21
202.95
  0
ARC
  8
1
  6
CONTINUOUS
 62
     7
 10
-637.7283110115059
 20
201.95
 40
3.299999999999999
 50
21.93117596428065
 51
90.00000000000001
  0
LINE
  8
1
  6
CONTINUOUS
 62
     7
 10
-637.7283110115059
 20
205.25
 11
-657.4340238692654
 21
205.25
  0
ARC
  8
1
  6
CONTINUOUS
 62
     7
 10
-637.7283110115059
 20
201.95
 40
1.000000000000001
 50
21.93117596428044
 51
90.0
  0
ARC
  8
1
  6
CONTINUOUS
 62
     7
 10
-597.5617949565349
 20
218.1222289127305
 40
40.0
 50
201.9311759642805
 51
203.9590459477698
  0
ARC
  8
1
  6
CONTINUOUS
 62
     7
 10
-597.5617949565349
 20
218.1222289127305
 40
42.3
 50
201.9311759642807
 51
205.1527841437461
  0
LINE
  8
1
  6
CONTINUOUS
 62
     7
 10
-660.4340238692654
 20
202.95
 11
-660.4340238692654
 21
205.25
  0
LINE
  8
1
  6
CONTINUOUS
 62
     7
 10
-657.4340238692654
 20
202.95
 11
-660.4340238692654
 21
202.95
  0
LINE
  8
1
  6
CONTINUOUS
 62
     7
 10
-660.4340238692654
 20
205.25
 11
-657.4340238692654
 21
205.25
  0
ARC
  8
1
  6
CONTINUOUS
 62
     7
 10
-597.5617949565349
 20
218.1222289127306
 40
40.00000000000005
 50
206.970111494616
 51
243.0298885053838
  0
ARC
  8
1
  6
CONTINUOUS
 62
     7
 10
-597.5609853802969
 20
218.1230384889685
 40
42.30109477844624
 50
207.9817567002458
 51
242.0182432997544
  0
LINE
  8
1
  6
CONTINUOUS
 62
     7
 10
-558.8836569086478
 20
163.7999999999999
 11
-558.5328113845153
 21
163.7999999999999
  0
LINE
  8
1
  6
CONTINUOUS
 62
     7
 10
-558.5328113845154
 20
170.6999999999999
 11
-558.8836569086479
 21
170.6999999999999
  0
ARC
  8
1
  6
CONTINUOUS
 62
     7
 10
-558.432734077369
 20
167.1907722984536
 40
2.200126526967881
 50
178.4574035650665
 51
262.8639739690893
  0
ARC
  8
1
  6
CONTINUOUS
 62
     7
 10
-558.4340266362353
 20
167.3110587363785
 40
2.198884519293272
 50
97.65883961688087
 51
181.591196629637
  0
LINE
  8
1
  6
CONTINUOUS
 62
     7
 10
-558.7270813086847
 20
169.4903274412754
 11
-558.7084660716341
 21
169.4920953962624
  0
LINE
  8
1
  6
CONTINUOUS
 62
     7
 10
-604.8103724518911
 20
159.4499999999998
 11
-604.8103724518911
 21
158.2499999999998
  0
LINE
  8
1
  6
CONTINUOUS
 62
     7
 10
-604.8103724518911
 20
176.25
 11
-604.8103724518911
 21
175.05
  0
LINE
  8
1
  6
CONTINUOUS
 62
     7
 10
-609.2340239100283
 20
159.2500000000003
 11
-608.4340238692686
 21
159.2500000000003
  0
LINE
  8
1
  6
CONTINUOUS
 62
     7
 10
-608.4340238692685
 20
175.2499999999995
 11
-609.234023828509
 21
175.2499999999995
  0
ARC
  8
1
  6
CONTINUOUS
 62
     7
 10
-609.2340238692684
 20
160.4500000000005
 40
1.2
 50
179.9999999999773
 51
269.9991963116289
  0
ARC
  8
1
  6
CONTINUOUS
 62
     7
 10
-609.2340238692684
 20
174.0499999999992
 40
1.2
 50
89.99919639195876
 51
180.0000000000227
  0
LINE
  8
1
  6
CONTINUOUS
 62
     7
 10
-613.8340238692654
 20
174.35
 11
-614.8132699513908
 21
172.25
  0
LINE
  8
1
  6
CONTINUOUS
 62
     7
 10
-614.8132699513908
 20
162.25
 11
-613.8340238692654
 21
160.15
  0
LINE
  8
1
  6
CONTINUOUS
 62
     7
 10
-612.7340238692653
 20
174.35
 11
-613.8340238692654
 21
174.35
  0
LINE
  8
1
  6
CONTINUOUS
 62
     7
 10
-613.8340238692654
 20
160.15
 11
-612.7340238692653
 21
160.15
  0
LINE
  8
1
  6
CONTINUOUS
 62
     7
 10
-618.9340188840716
 20
164.2499999999993
 11
-618.7340438692663
 21
164.2499999999993
  0
LINE
  8
1
  6
CONTINUOUS
 62
     7
 10
-618.7340438692663
 20
170.2499999999999
 11
-618.9340188840716
 21
170.2499999999999
  0
LINE
  8
1
  6
CONTINUOUS
 62
     7
 10
-618.9340188840697
 20
170.2499999999999
 11
-619.4340188840698
 21
169.7499999999998
  0
LINE
  8
1
  6
CONTINUOUS
 62
     7
 10
-619.4340188840698
 20
164.7499999999994
 11
-618.9340188840697
 21
164.2499999999993
  0
ENDBLK
  8
0
  0
BLOCK
  8
0
  2
D_FRAME_VIEW_4608
 70
     0
 10
0.0
 20
0.0
  0
LINE
  8
1
  6
CONTINUOUS
 62
     7
 10
-607.23402386909
 20
110.2505318097813
 11
-607.2340238694469
 21
115.849489498698
  0
LINE
  8
1
  6
CONTINUOUS
 62
     7
 10
-608.4340250818607
 20
115.4826129066067
 11
-608.434027292976
 21
110.6174102706505
  0
LINE
  8
1
  6
CONTINUOUS
 62
     7
 10
-607.2340238695809
 20
117.952481365045
 11
-607.2340238694469
 21
115.849489498698
  0
LINE
  8
1
  6
CONTINUOUS
 62
     7
 10
-608.4340250818607
 20
115.4826129066067
 11
-608.4340241261024
 21
117.5856050651988
  0
LINE
  8
1
  6
CONTINUOUS
 62
     7
 10
-607.2340238690902
 20
110.2505318097813
 11
-607.2340238689562
 21
108.1475393589595
  0
LINE
  8
1
  6
CONTINUOUS
 62
     7
 10
-608.4340282487345
 20
108.5144181120748
 11
-608.4340272929761
 21
110.6174102706505
  0
ARC
  8
1
  6
CONTINUOUS
 62
     7
 10
-582.9350653339862
 20
105.8540890977008
 40
19.05000000000005
 50
182.0889105109983
 51
183.4659041212252
  0
ARC
  8
1
  6
CONTINUOUS
 62
     7
 10
-582.9350653339862
 20
105.8540890978008
 40
19.04999999999999
 50
183.4659041215255
 51
331.1605715244781
  0
ARC
  8
1
  6
CONTINUOUS
 62
     7
 10
-582.9350653339862
 20
105.8540890977008
 40
19.05000000000009
 50
331.1605715247414
 51
331.1653679181374
  0
LINE
  8
1
  6
CONTINUOUS
 62
     7
 10
-603.1498242399144
 20
104.6599273101033
 11
-601.9724059875903
 21
105.1597110748377
  0
ARC
  8
1
  6
CONTINUOUS
 62
     7
 10
-582.935058793256
 20
120.2459109022992
 40
19.05000000000001
 50
90.0
 51
176.534043799419
  0
LINE
  8
1
  6
CONTINUOUS
 62
     7
 10
-601.9723988156965
 20
120.9403062291717
 11
-603.149816613747
 21
121.4400910641238
  0
ARC
  8
1
  6
CONTINUOUS
 62
     7
 10
-582.935058793256
 20
120.2459109022992
 40
19.05000000000003
 50
28.8345800028071
 51
90.0
  0
ARC
  8
1
  6
CONTINUOUS
 62
     7
 10
-582.9350587932558
 20
120.2459109022992
 40
19.05000000000005
 50
176.5340437994189
 51
177.9110374099462
  0
LINE
  8
1
  6
CONTINUOUS
 62
     7
 10
-557.4333797395889
 20
92.82896920047872
 11
-555.18576156727
 21
94.02404767117983
  0
LINE
  8
1
  6
CONTINUOUS
 62
     7
 10
-557.4333797395889
 20
92.82896920047872
 11
-562.9679659146767
 21
94.52106475380788
  0
ARC
  8
1
  6
CONTINUOUS
 62
     7
 10
-563.3188124818811
 20
93.37349920610225
 40
1.200000000000005
 50
72.9999739606398
 51
147.5339640070765
  0
ARC
  8
1
  6
CONTINUOUS
 62
     7
 10
-582.9350653339862
 20
105.8540890977008
 40
22.05000000000006
 50
187.4218934150592
 51
327.5339640070761
  0
ARC
  8
1
  6
CONTINUOUS
 62
     7
 10
-603.6103814406974
 20
103.160800422574
 40
1.199999999999995
 50
112.9999739604723
 51
187.4218934150594
  0
LINE
  8
1
  6
CONTINUOUS
 62
     7
 10
-604.0792582928682
 20
104.2654064598101
 11
-603.1498242399144
 21
104.6599273101033
  0
LINE
  8
1
  6
CONTINUOUS
 62
     7
 10
-563.4432765877773
 20
97.80345775145294
 11
-553.687349452293
 21
94.82076665182542
  0
ARC
  8
1
  6
CONTINUOUS
 62
     7
 10
-554.0381960195182
 20
93.67320110412619
 40
1.200000000010911
 50
72.99997395960175
 51
162.9999739606407
  0
LINE
  8
1
  6
CONTINUOUS
 62
     7
 10
-551.9660011307345
 20
94.29449680101887
 11
-552.3168512010092
 21
93.14691979538027
  0
LINE
  8
1
  6
CONTINUOUS
 62
     7
 10
-552.3168512010092
 20
93.14691979538027
 11
-554.0381989971825
 21
93.67319136464141
  0
LINE
  8
1
  6
CONTINUOUS
 62
     7
 10
-554.0381960195573
 20
93.67320110399872
 11
-555.1857615672601
 21
94.02404767121226
  0
LINE
  8
1
  6
CONTINUOUS
 62
     7
 10
-553.687349452293
 20
94.82076665182542
 11
-551.9660011307345
 21
94.29449680101887
  0
ARC
  8
1
  6
CONTINUOUS
 62
     7
 10
-603.6103724518912
 20
122.9392183702739
 40
1.200000000000058
 50
172.5780545058851
 51
246.9999739604721
  0
ARC
  8
1
  6
CONTINUOUS
 62
     7
 10
-582.9350587932558
 20
120.2459109022992
 40
22.04999999999998
 50
32.46598391386839
 51
172.5780545058853
  0
ARC
  8
1
  6
CONTINUOUS
 62
     7
 10
-563.3187945969142
 20
132.7264829636801
 40
1.199999999999974
 50
212.4659839138678
 51
286.9999739603049
  0
LINE
  8
1
  6
CONTINUOUS
 62
     7
 10
-557.4333613596734
 20
133.2710076197335
 11
-562.9679490727909
 21
131.5789170970726
  0
LINE
  8
1
  6
CONTINUOUS
 62
     7
 10
-555.1857442735853
 20
132.0759271060343
 11
-557.4333613596734
 21
133.2710076197335
  0
LINE
  8
1
  6
CONTINUOUS
 62
     7
 10
-604.0792503080946
 20
121.8346127592244
 11
-603.149816613747
 21
121.4400910641238
  0
LINE
  8
1
  6
CONTINUOUS
 62
     7
 10
-552.3168296070736
 20
132.9530409163656
 11
-551.9659840829141
 21
131.8054750497149
  0
LINE
  8
1
  6
CONTINUOUS
 62
     7
 10
-551.9659840829141
 20
131.8054750497149
 11
-553.6873328828253
 21
131.2792067635297
  0
ARC
  8
1
  6
CONTINUOUS
 62
     7
 10
-554.0381784069697
 20
132.4267726301308
 40
1.200000000010925
 50
196.9999739589634
 51
286.9999739613496
  0
LINE
  8
1
  6
CONTINUOUS
 62
     7
 10
-555.1857442735853
 20
132.0759271060343
 11
-552.3168296070736
 21
132.9530409163656
  0
LINE
  8
1
  6
CONTINUOUS
 62
     7
 10
-553.6873328828253
 20
131.2792067635297
 11
-563.4432627294194
 21
128.296524531543
  0
ARC
  8
1
  6
CONTINUOUS
 62
     7
 10
-564.1449537776664
 20
130.591656264758
 40
2.400000000000013
 50
208.8560138886781
 51
270.0
  0
ARC
  8
1
  6
CONTINUOUS
 62
     7
 10
-564.1449537776664
 20
130.591656264758
 40
2.400000000000039
 50
270.0
 51
286.9999739603051
  0
ARC
  8
1
  6
CONTINUOUS
 62
     7
 10
-564.1449697221799
 20
95.5083266560617
 40
2.399999999999968
 50
72.99997396063998
 51
151.1439340343564
  0
LINE
  8
1
  6
CONTINUOUS
 62
     7
 10
-607.2340238695934
 20
118.150011610231
 11
-607.2340238696722
 21
119.3863394557362
  0
POLYLINE
  8
1
  6
CONTINUOUS
 62
     7
 66
     1
  0
VERTEX
  8
1
  6
CONTINUOUS
 62
     7
 10
-607.7760311737256
 20
119.2206314626587
  0
VERTEX
  8
1
  6
CONTINUOUS
 62
     7
 10
-607.8189457601037
 20
119.1978022353228
  0
VERTEX
  8
1
  6
CONTINUOUS
 62
     7
 10
-607.8610724375266
 20
119.1731479340298
  0
VERTEX
  8
1
  6
CONTINUOUS
 62
     7
 10
-607.9021616789602
 20
119.1468018276523
  0
VERTEX
  8
1
  6
CONTINUOUS
 62
     7
 10
-607.94268939708
 20
119.1184077022177
  0
VERTEX
  8
1
  6
CONTINUOUS
 62
     7
 10
-607.9820104187233
 20
119.0883692490995
  0
VERTEX
  8
1
  6
CONTINUOUS
 62
     7
 10
-608.0205809757013
 20
119.0562818161707
  0
VERTEX
  8
1
  6
CONTINUOUS
 62
     7
 10
-608.0577704265474
 20
119.0226172603144
  0
VERTEX
  8
1
  6
CONTINUOUS
 62
     7
 10
-608.0936690321072
 20
118.9872745589447
  0
VERTEX
  8
1
  6
CONTINUOUS
 62
     7
 10
-608.1268360553598
 20
118.9518130144919
  0
VERTEX
  8
1
  6
CONTINUOUS
 62
     7
 10
-608.1586609386235
 20
118.9148933777525
  0
VERTEX
  8
1
  6
CONTINUOUS
 62
     7
 10
-608.1889329493753
 20
118.8767494070906
  0
VERTEX
  8
1
  6
CONTINUOUS
 62
     7
 10
-608.2180315426519
 20
118.8368351325687
  0
VERTEX
  8
1
  6
CONTINUOUS
 62
     7
 10
-608.2454161137124
 20
118.7958327900573
  0
VERTEX
  8
1
  6
CONTINUOUS
 62
     7
 10
-608.2714361918119
 20
118.7531476578201
  0
VERTEX
  8
1
  6
CONTINUOUS
 62
     7
 10
-608.2955845769806
 20
118.709554486273
  0
VERTEX
  8
1
  6
CONTINUOUS
 62
     7
 10
-608.3179347014534
 20
118.6649258989949
  0
VERTEX
  8
1
  6
CONTINUOUS
 62
     7
 10
-608.3366442995233
 20
118.6235230392142
  0
VERTEX
  8
1
  6
CONTINUOUS
 62
     7
 10
-608.3537016070628
 20
118.5816310284378
  0
VERTEX
  8
1
  6
CONTINUOUS
 62
     7
 10
-608.3690812364578
 20
118.5394082278279
  0
VERTEX
  8
1
  6
CONTINUOUS
 62
     7
 10
-608.3827578000931
 20
118.4970129985466
  0
VERTEX
  8
1
  6
CONTINUOUS
 62
     7
 10
-608.3950284312888
 20
118.4534120353358
  0
VERTEX
  8
1
  6
CONTINUOUS
 62
     7
 10
-608.4055540735937
 20
118.409795701565
  0
VERTEX
  8
1
  6
CONTINUOUS
 62
     7
 10
-608.4143557083707
 20
118.3663452437509
  0
VERTEX
  8
1
  6
CONTINUOUS
 62
     7
 10
-608.4214543169824
 20
118.3232419084101
  0
VERTEX
  8
1
  6
CONTINUOUS
 62
     7
 10
-608.4270638315287
 20
118.2790608863335
  0
VERTEX
  8
1
  6
CONTINUOUS
 62
     7
 10
-608.4309767007398
 20
118.2354740178397
  0
VERTEX
  8
1
  6
CONTINUOUS
 62
     7
 10
-608.4332773112112
 20
118.1923155581732
  0
VERTEX
  8
1
  6
CONTINUOUS
 62
     7
 10
-608.4340238695934
 20
118.1500115887081
  0
SEQEND
  8
1
  6
CONTINUOUS
 62
     7
  0
LINE
  8
1
  6
CONTINUOUS
 62
     7
 10
-607.2340238695809
 20
117.9524813650451
 11
-607.2340238695934
 21
118.150011610231
  0
LINE
  8
1
  6
CONTINUOUS
 62
     7
 10
-608.4340238695934
 20
118.1500115887082
 11
-608.4340241261024
 21
117.5856050651989
  0
LINE
  8
1
  6
CONTINUOUS
 62
     7
 10
-607.2340238689435
 20
107.9500096258227
 11
-607.2340238688648
 21
106.7136808697626
  0
ARC
  8
1
  6
CONTINUOUS
 62
     7
 10
-607.2340015544618
 20
107.9500164990101
 40
1.200026950791631
 50
180.0002344447529
 51
202.8873902458879
  0
POLYLINE
  8
1
  6
CONTINUOUS
 62
     7
 66
     1
  0
VERTEX
  8
1
  6
CONTINUOUS
 62
     7
 10
-608.3395516102373
 20
107.4833005717042
  0
VERTEX
  8
1
  6
CONTINUOUS
 62
     7
 10
-608.2829766973467
 20
107.3671665612564
  0
VERTEX
  8
1
  6
CONTINUOUS
 62
     7
 10
-608.2141778236388
 20
107.2576914458872
  0
VERTEX
  8
1
  6
CONTINUOUS
 62
     7
 10
-608.1335683044242
 20
107.1557641360712
  0
SEQEND
  8
1
  6
CONTINUOUS
 62
     7
  0
ARC
  8
1
  6
CONTINUOUS
 62
     7
 10
-607.2339434672306
 20
107.9501210532369
 40
1.200136558706857
 50
221.4440811122358
 51
243.1476412196791
  0
LINE
  8
1
  6
CONTINUOUS
 62
     7
 10
-607.2340238689435
 20
107.9500096258227
 11
-607.2340238689562
 21
108.1475393589594
  0
LINE
  8
1
  6
CONTINUOUS
 62
     7
 10
-608.4340282487345
 20
108.5144181120747
 11
-608.4340285052434
 21
107.9500115887004
  0
ARC
  8
1
  6
CONTINUOUS
 62
     7
 10
-605.6183734719614
 20
126.269133171348
 40
7.29385147850559
 50
259.1292041334196
 51
285.704245374528
  0
POLYLINE
  8
1
  6
CONTINUOUS
 62
     7
 66
     1
  0
VERTEX
  8
1
  6
CONTINUOUS
 62
     7
 10
-606.993956705622
 20
119.1061700862994
  0
VERTEX
  8
1
  6
CONTINUOUS
 62
     7
 10
-607.0891602776595
 20
119.1553638728858
  0
VERTEX
  8
1
  6
CONTINUOUS
 62
     7
 10
-607.1674685561389
 20
119.2197220523112
  0
VERTEX
  8
1
  6
CONTINUOUS
 62
     7
 10
-607.2222554212411
 20
119.3112258733943
  0
VERTEX
  8
1
  6
CONTINUOUS
 62
     7
 10
-607.2340238696722
 20
119.3863394557362
  0
SEQEND
  8
1
  6
CONTINUOUS
 62
     7
  0
LINE
  8
1
  6
CONTINUOUS
 62
     7
 10
-603.6441337339843
 20
119.2475488167458
 11
-607.2340192332922
 21
118.1500124607405
  0
POLYLINE
  8
1
  6
CONTINUOUS
 62
     7
 66
     1
  0
VERTEX
  8
1
  6
CONTINUOUS
 62
     7
 10
-607.2340238688648
 20
106.7136808697626
  0
VERTEX
  8
1
  6
CONTINUOUS
 62
     7
 10
-607.209394783146
 20
106.8200165270126
  0
VERTEX
  8
1
  6
CONTINUOUS
 62
     7
 10
-607.1446558888474
 20
106.9028872029657
  0
VERTEX
  8
1
  6
CONTINUOUS
 62
     7
 10
-607.0565612368722
 20
106.9638261848279
  0
VERTEX
  8
1
  6
CONTINUOUS
 62
     7
 10
-606.9627292287622
 20
107.0061501829005
  0
SEQEND
  8
1
  6
CONTINUOUS
 62
     7
  0
ARC
  8
1
  6
CONTINUOUS
 62
     7
 10
-605.6076657737224
 20
100.3596957410873
 40
6.783181673395072
 50
73.17378216212764
 51
101.5233996921538
  0
LINE
  8
1
  6
CONTINUOUS
 62
     7
 10
-603.6441393672438
 20
106.8524700067879
 11
-607.2340238689435
 21
107.9500096258228
  0
LINE
  8
1
  6
CONTINUOUS
 62
     7
 10
-608.4340234660399
 20
119.0379648787544
 11
-607.801165762019
 21
119.2314485813597
  0
LINE
  8
1
  6
CONTINUOUS
 62
     7
 10
-607.801165762019
 20
119.2314485813597
 11
-607.5848693937058
 21
119.2975769099484
  0
LINE
  8
1
  6
CONTINUOUS
 62
     7
 10
-607.5848750724659
 20
106.8024454956298
 11
-607.803750942957
 21
106.8693626734445
  0
LINE
  8
1
  6
CONTINUOUS
 62
     7
 10
-607.803750942957
 20
106.8693626734445
 11
-608.4340289087974
 21
107.0620582986783
  0
LINE
  8
1
  6
CONTINUOUS
 62
     7
 10
-609.2340240198724
 20
107.0620584331077
 11
-608.4340289087963
 21
107.06205829868
  0
LINE
  8
1
  6
CONTINUOUS
 62
     7
 10
-609.2340236679305
 20
119.0379650131829
 11
-608.4340234660403
 21
119.0379648787542
  0
POLYLINE
  8
1
  6
CONTINUOUS
 62
     7
 66
     1
  0
VERTEX
  8
1
  6
CONTINUOUS
 62
     7
 10
-610.4340238695735
 20
117.8379650131064
  0
VERTEX
  8
1
  6
CONTINUOUS
 62
     7
 10
-610.4265570839599
 20
117.9716217520366
  0
VERTEX
  8
1
  6
CONTINUOUS
 62
     7
 10
-610.4056221893892
 20
118.0974980110947
  0
VERTEX
  8
1
  6
CONTINUOUS
 62
     7
 10
-610.3693246930673
 20
118.2266706089419
  0
VERTEX
  8
1
  6
CONTINUOUS
 62
     7
 10
-610.3137631818182
 20
118.361570797713
  0
VERTEX
  8
1
  6
CONTINUOUS
 62
     7
 10
-610.2401866383638
 20
118.4919042173146
  0
VERTEX
  8
1
  6
CONTINUOUS
 62
     7
 10
-610.1698361452918
 20
118.5891343580145
  0
VERTEX
  8
1
  6
CONTINUOUS
 62
     7
 10
-610.091981968103
 20
118.6769572069294
  0
VERTEX
  8
1
  6
CONTINUOUS
 62
     7
 10
-609.9850599690877
 20
118.7738842283005
  0
SEQEND
  8
1
  6
CONTINUOUS
 62
     7
  0
ARC
  8
1
  6
CONTINUOUS
 62
     7
 10
-609.2340178453326
 20
117.8379534006263
 40
1.200012827367064
 50
106.0923545455312
 51
128.7454653302529
  0
POLYLINE
  8
1
  6
CONTINUOUS
 62
     7
 66
     1
  0
VERTEX
  8
1
  6
CONTINUOUS
 62
     7
 10
-609.5666451361597
 20
118.9909451053851
  0
VERTEX
  8
1
  6
CONTINUOUS
 62
     7
 10
-609.4391933403384
 20
119.0202955457608
  0
VERTEX
  8
1
  6
CONTINUOUS
 62
     7
 10
-609.3254707257015
 20
119.0344754732613
  0
VERTEX
  8
1
  6
CONTINUOUS
 62
     7
 10
-609.2340236679305
 20
119.0379650131829
  0
SEQEND
  8
1
  6
CONTINUOUS
 62
     7
  0
POLYLINE
  8
1
  6
CONTINUOUS
 62
     7
 66
     1
  0
VERTEX
  8
1
  6
CONTINUOUS
 62
     7
 10
-609.2340240198724
 20
107.0620584331077
  0
VERTEX
  8
1
  6
CONTINUOUS
 62
     7
 10
-609.2814001099024
 20
107.0629940095697
  0
VERTEX
  8
1
  6
CONTINUOUS
 62
     7
 10
-609.3287761742503
 20
107.0658051151842
  0
VERTEX
  8
1
  6
CONTINUOUS
 62
     7
 10
-609.3704808471559
 20
107.069842509141
  0
VERTEX
  8
1
  6
CONTINUOUS
 62
     7
 10
-609.4119957547932
 20
107.0753293115917
  0
VERTEX
  8
1
  6
CONTINUOUS
 62
     7
 10
-609.4534935906136
 20
107.0822989859072
  0
VERTEX
  8
1
  6
CONTINUOUS
 62
     7
 10
-609.4946844741937
 20
107.0907104707665
  0
VERTEX
  8
1
  6
CONTINUOUS
 62
     7
 10
-609.5242159283164
 20
107.0976751693297
  0
VERTEX
  8
1
  6
CONTINUOUS
 62
     7
 10
-609.553536932062
 20
107.1053772313458
  0
VERTEX
  8
1
  6
CONTINUOUS
 62
     7
 10
-609.5827103735936
 20
107.1138347879094
  0
VERTEX
  8
1
  6
CONTINUOUS
 62
     7
 10
-609.6116312371208
 20
107.1230181899586
  0
VERTEX
  8
1
  6
CONTINUOUS
 62
     7
 10
-609.6559423080508
 20
107.1386774510905
  0
VERTEX
  8
1
  6
CONTINUOUS
 62
     7
 10
-609.6995993341687
 20
107.1560568570696
  0
VERTEX
  8
1
  6
CONTINUOUS
 62
     7
 10
-609.7374727886042
 20
107.1727749134682
  0
VERTEX
  8
1
  6
CONTINUOUS
 62
     7
 10
-609.7746771271557
 20
107.1907535958153
  0
VERTEX
  8
1
  6
CONTINUOUS
 62
     7
 10
-609.8113552379511
 20
107.2100660828421
  0
VERTEX
  8
1
  6
CONTINUOUS
 62
     7
 10
-609.8472694849803
 20
107.2305886980035
  0
VERTEX
  8
1
  6
CONTINUOUS
 62
     7
 10
-609.8976802972244
 20
107.2622783846831
  0
VERTEX
  8
1
  6
CONTINUOUS
 62
     7
 10
-609.9464220266402
 20
107.2964038028498
  0
VERTEX
  8
1
  6
CONTINUOUS
 62
     7
 10
-609.9746147955759
 20
107.3178523753962
  0
VERTEX
  8
1
  6
CONTINUOUS
 62
     7
 10
-610.0021293493937
 20
107.3400964106075
  0
VERTEX
  8
1
  6
CONTINUOUS
 62
     7
 10
-610.0466506615574
 20
107.3790874845719
  0
VERTEX
  8
1
  6
CONTINUOUS
 62
     7
 10
-610.089146533859
 20
107.4201764770226
  0
VERTEX
  8
1
  6
CONTINUOUS
 62
     7
 10
-610.1219322322511
 20
107.4548293835786
  0
VERTEX
  8
1
  6
CONTINUOUS
 62
     7
 10
-610.153271249382
 20
107.4907062090276
  0
VERTEX
  8
1
  6
CONTINUOUS
 62
     7
 10
-610.1832822185181
 20
107.5279544991852
  0
VERTEX
  8
1
  6
CONTINUOUS
 62
     7
 10
-610.2117454868729
 20
107.56631391256
  0
VERTEX
  8
1
  6
CONTINUOUS
 62
     7
 10
-610.2393343337227
 20
107.606809725024
  0
VERTEX
  8
1
  6
CONTINUOUS
 62
     7
 10
-610.2652130335084
 20
107.6483411472792
  0
VERTEX
  8
1
  6
CONTINUOUS
 62
     7
 10
-610.2894764103808
 20
107.6910768810279
  0
VERTEX
  8
1
  6
CONTINUOUS
 62
     7
 10
-610.3119433110754
 20
107.7347163464915
  0
VERTEX
  8
1
  6
CONTINUOUS
 62
     7
 10
-610.332772510164
 20
107.7796152515206
  0
VERTEX
  8
1
  6
CONTINUOUS
 62
     7
 10
-610.3517141301799
 20
107.8252879213036
  0
VERTEX
  8
1
  6
CONTINUOUS
 62
     7
 10
-610.3688323640284
 20
107.8719178436685
  0
VERTEX
  8
1
  6
CONTINUOUS
 62
     7
 10
-610.383995453037
 20
107.9191803850747
  0
VERTEX
  8
1
  6
CONTINUOUS
 62
     7
 10
-610.3953719501492
 20
107.9599481315192
  0
VERTEX
  8
1
  6
CONTINUOUS
 62
     7
 10
-610.4052983311147
 20
108.0010677545158
  0
VERTEX
  8
1
  6
CONTINUOUS
 62
     7
 10
-610.413803973611
 20
108.042699179608
  0
VERTEX
  8
1
  6
CONTINUOUS
 62
     7
 10
-610.4208219392922
 20
108.0845469116119
  0
VERTEX
  8
1
  6
CONTINUOUS
 62
     7
 10
-610.4263705818953
 20
108.1267480495505
  0
VERTEX
  8
1
  6
CONTINUOUS
 62
     7
 10
-610.4304158455559
 20
108.1690732819021
  0
VERTEX
  8
1
  6
CONTINUOUS
 62
     7
 10
-610.4329680937662
 20
108.2117320403127
  0
VERTEX
  8
1
  6
CONTINUOUS
 62
     7
 10
-610.4339998678947
 20
108.2544688356428
  0
VERTEX
  8
1
  6
CONTINUOUS
 62
     7
 10
-610.4340238689633
 20
108.2620584330312
  0
SEQEND
  8
1
  6
CONTINUOUS
 62
     7
  0
LINE
  8
1
  6
CONTINUOUS
 62
     7
 10
-603.9949792580962
 20
120.3951146834569
 11
-607.5848693937054
 21
119.2975769099485
  0
ARC
  8
1
  6
CONTINUOUS
 62
     7
 10
-604.3458247822081
 20
121.5426805500679
 40
1.200000000000036
 50
286.9999739597315
 51
355.1036060175913
  0
ARC
  8
1
  6
CONTINUOUS
 62
     7
 10
-604.3458247822081
 20
121.5426805500679
 40
2.400000000000015
 50
286.9999739611907
 51
345.9381334445671
  0
ARC
  8
1
  6
CONTINUOUS
 62
     7
 10
-607.2340238695934
 20
118.1500110433375
 40
1.200000000000001
 50
106.9999739597311
 51
116.8510568245079
  0
ARC
  8
1
  6
CONTINUOUS
 62
     7
 10
-604.3458325016296
 20
104.5573389113696
 40
1.199999999999999
 50
4.89634189872794
 51
72.99997395975544
  0
LINE
  8
1
  6
CONTINUOUS
 62
     7
 10
-607.5848750724656
 20
106.8024454956297
 11
-603.9949859344202
 21
105.7049044590281
  0
ARC
  8
1
  6
CONTINUOUS
 62
     7
 10
-604.3458325016296
 20
104.5573389113696
 40
2.400000000000099
 50
14.0618144741525
 51
72.99997396121475
  0
ARC
  8
1
  6
CONTINUOUS
 62
     7
 10
-607.2340285052435
 20
107.9500110433299
 40
1.20000000000003
 50
243.1488911245758
 51
252.9999739597554
  0
LINE
  8
1
  6
CONTINUOUS
 62
     7
 10
-556.6841556643207
 20
132.872647448507
 11
-555.5844050421598
 21
133.2088744091334
  0
LINE
  8
1
  6
CONTINUOUS
 62
     7
 10
-613.8340238692655
 20
105.9500103360647
 11
-613.8340238692655
 21
113.0500103360647
  0
LINE
  8
1
  6
CONTINUOUS
 62
     7
 10
-613.8340238692655
 20
113.0500103360647
 11
-613.8340238692655
 21
120.1500103360647
  0
ARC
  8
1
  6
CONTINUOUS
 62
     7
 10
-611.741031227845
 20
108.7198833171425
 40
3.071779382133982
 50
151.9733240879342
 51
208.026675912066
  0
ARC
  8
1
  6
CONTINUOUS
 62
     7
 10
-603.0689803779253
 20
113.0500103360647
 40
11.74392044303831
 50
165.7704021591125
 51
194.2295978408876
  0
ARC
  8
1
  6
CONTINUOUS
 62
     7
 10
-611.741031227845
 20
117.3801373549869
 40
3.071779382133989
 50
151.973324087934
 51
208.0266759120658
  0
ARC
  8
1
  6
CONTINUOUS
 62
     7
 10
-615.8479209280019
 20
108.6176942698457
 40
2.887911492576778
 50
147.6435929533668
 51
177.9721595785892
  0
ARC
  8
1
  6
CONTINUOUS
 62
     7
 10
-608.6779688973307
 20
113.1277685442809
 40
10.05635559919787
 50
180.4430294359625
 51
197.1449243380322
  0
LINE
  8
1
  6
CONTINUOUS
 62
     7
 10
-618.7340238692655
 20
113.0500103360647
 11
-618.7340238692655
 21
108.7198833171425
  0
ARC
  8
1
  6
CONTINUOUS
 62
     7
 10
-608.5268949394736
 20
112.9488809052329
 40
10.20762989881469
 50
162.9796985038639
 51
179.4323477221413
  0
ARC
  8
1
  6
CONTINUOUS
 62
     7
 10
-615.9220637675049
 20
117.4593865279076
 40
2.813076615611776
 50
181.6143335512251
 51
212.7699139168193
  0
LINE
  8
1
  6
CONTINUOUS
 62
     7
 10
-618.7340238692655
 20
113.0500103360647
 11
-618.7340238692655
 21
117.3801373549869
  0
LINE
  8
1
  6
CONTINUOUS
 62
     7
 10
-618.2874418818802
 20
110.1632589901166
 11
-614.4525797225562
 21
110.1632589901166
  0
LINE
  8
1
  6
CONTINUOUS
 62
     7
 10
-618.2874418818802
 20
115.9367616820128
 11
-614.4525797225562
 21
115.9367616820128
  0
ARC
  8
1
  6
CONTINUOUS
 62
     7
 10
-615.847920928002
 20
117.2779483076901
 40
2.88791149257667
 50
147.6435929533661
 51
177.9721595785898
  0
LINE
  8
1
  6
CONTINUOUS
 62
     7
 10
-618.2874418818802
 20
118.823513027961
 11
-614.4525797225562
 21
118.823513027961
  0
LINE
  8
1
  6
CONTINUOUS
 62
     7
 10
-618.2874418818802
 20
107.2765076441684
 11
-614.4525797225562
 21
107.2765076441684
  0
ARC
  8
1
  6
CONTINUOUS
 62
     7
 10
-615.922063767505
 20
108.7991324900632
 40
2.813076615611664
 50
181.6143335512241
 51
212.7699139168198
  0
LINE
  8
1
  6
CONTINUOUS
 62
     7
 10
-618.7340238692655
 20
118.0500103360647
 11
-618.7340238692655
 21
117.3801373549869
  0
LINE
  8
1
  6
CONTINUOUS
 62
     7
 10
-618.7340238692655
 20
108.7198833171425
 11
-618.7340238692655
 21
108.0500103360647
  0
LINE
  8
1
  6
CONTINUOUS
 62
     7
 10
-604.8340188836868
 20
107.2162532735069
 11
-604.8340188840682
 21
113.0500103351094
  0
LINE
  8
1
  6
CONTINUOUS
 62
     7
 10
-604.8340188840682
 20
113.0500103351094
 11
-604.8340188844494
 21
118.8837650101717
  0
LINE
  8
1
  6
CONTINUOUS
 62
     7
 10
-603.4479920353831
 20
109.6000103351995
 11
-603.4479920353878
 21
109.6717711488777
  0
LINE
  8
1
  6
CONTINUOUS
 62
     7
 10
-603.4479920356537
 20
113.7500103352001
 11
-602.8831395259859
 21
113.750010335237
  0
LINE
  8
1
  6
CONTINUOUS
 62
     7
 10
-603.4479920355628
 20
112.3500103351998
 11
-603.4479920356544
 21
113.7500103352002
  0
LINE
  8
1
  6
CONTINUOUS
 62
     7
 10
-602.8831395258944
 20
112.3500103352368
 11
-603.4479920355622
 21
112.3500103351999
  0
ARC
  8
1
  6
CONTINUOUS
 62
     7
 10
-612.8340188840691
 20
113.0500103345865
 40
9.975469913744263
 50
340.2050712637288
 51
355.9761259878705
  0
LINE
  8
1
  6
CONTINUOUS
 62
     7
 10
-603.4479920358294
 20
116.4282495215223
 11
-603.4479920358341
 21
116.5000103352005
  0
ARC
  8
1
  6
CONTINUOUS
 62
     7
 10
-612.8340188840691
 20
113.0500103345865
 40
9.975469913744323
 50
4.023874019619452
 51
19.79492874376115
  0
LINE
  8
1
  6
CONTINUOUS
 62
     7
 10
-618.9340188842659
 20
116.0500103341882
 11
-618.9340188840698
 21
113.0500103341878
  0
LINE
  8
1
  6
CONTINUOUS
 62
     7
 10
-618.9340188840698
 20
113.0500103341878
 11
-618.9340188838737
 21
110.0500103341872
  0
LINE
  8
1
  6
CONTINUOUS
 62
     7
 10
-619.4340188839064
 20
110.5500103341547
 11
-619.4340188840699
 21
113.0500103341551
  0
LINE
  8
1
  6
CONTINUOUS
 62
     7
 10
-619.4340188840699
 20
113.0500103341551
 11
-619.4340188842333
 21
115.5500103341555
  0
LINE
  8
1
  6
CONTINUOUS
 62
     7
 10
-612.7340238692655
 20
138.0500103360647
 11
-610.4340238692654
 21
138.0500103360647
  0
LINE
  8
1
  6
CONTINUOUS
 62
     7
 10
-610.4340238692654
 20
138.0500103360647
 11
-610.4340238692654
 21
135.0500103360647
  0
LINE
  8
1
  6
CONTINUOUS
 62
     7
 10
-612.7340238692655
 20
135.0500103360647
 11
-612.7340238692655
 21
138.0500103360647
  0
LINE
  8
1
  6
CONTINUOUS
 62
     7
 10
-610.4340238692654
 20
135.0500103360647
 11
-610.4340238692654
 21
91.05001033606469
  0
LINE
  8
1
  6
CONTINUOUS
 62
     7
 10
-612.7340238692655
 20
135.0500103360647
 11
-612.7340238692655
 21
91.05001033606469
  0
LINE
  8
1
  6
CONTINUOUS
 62
     7
 10
-610.4340238692654
 20
91.0500103360647
 11
-610.4340238692654
 21
88.0500103360647
  0
LINE
  8
1
  6
CONTINUOUS
 62
     7
 10
-610.4340238692654
 20
88.0500103360647
 11
-612.7340238692655
 21
88.0500103360647
  0
LINE
  8
1
  6
CONTINUOUS
 62
     7
 10
-612.7340238692655
 20
88.0500103360647
 11
-612.7340238692655
 21
91.0500103360647
  0
LINE
  8
1
  6
CONTINUOUS
 62
     7
 10
-612.7340238692655
 20
138.0500103360647
 11
-613.3605312846759
 21
138.0500103360647
  0
LINE
  8
1
  6
CONTINUOUS
 62
     7
 10
-613.3605312846759
 20
88.0500103360647
 11
-612.7340238692655
 21
88.0500103360647
  0
POLYLINE
  8
1
  6
CONTINUOUS
 62
     7
 66
     1
  0
VERTEX
  8
1
  6
CONTINUOUS
 62
     7
 10
-635.850808200099
 20
88.0500103360647
  0
VERTEX
  8
1
  6
CONTINUOUS
 62
     7
 10
-635.7334303305682
 20
88.06676348337352
  0
VERTEX
  8
1
  6
CONTINUOUS
 62
     7
 10
-635.6140768156135
 20
88.11825618864619
  0
VERTEX
  8
1
  6
CONTINUOUS
 62
     7
 10
-635.4969690492946
 20
88.20416854596601
  0
VERTEX
  8
1
  6
CONTINUOUS
 62
     7
 10
-635.4225540335417
 20
88.27872248752843
  0
SEQEND
  8
1
  6
CONTINUOUS
 62
     7
  0
ARC
  8
1
  6
CONTINUOUS
 62
     7
 10
-637.48200451122
 20
89.80819757639792
 40
2.565273926402744
 50
323.4001401382777
 51
359.2394812164042
  0
LINE
  8
1
  6
CONTINUOUS
 62
     7
 10
-636.8006778462641
 20
88.0500103360647
 11
-635.8508082000989
 21
88.0500103360647
  0
LINE
  8
1
  6
CONTINUOUS
 62
     7
 10
-636.8006778462641
 20
138.0500103360647
 11
-635.8508082000989
 21
138.0500103360647
  0
ARC
  8
1
  6
CONTINUOUS
 62
     7
 10
-637.4652797194888
 20
136.2920094469624
 40
2.548548134776242
 50
0.7613203954002368
 51
37.55531012413372
  0
POLYLINE
  8
1
  6
CONTINUOUS
 62
     7
 66
     1
  0
VERTEX
  8
1
  6
CONTINUOUS
 62
     7
 10
-635.4448791758657
 20
137.8454183559748
  0
VERTEX
  8
1
  6
CONTINUOUS
 62
     7
 10
-635.5522167651346
 20
137.940948234473
  0
VERTEX
  8
1
  6
CONTINUOUS
 62
     7
 10
-635.6644277297911
 20
138.0077831298202
  0
VERTEX
  8
1
  6
CONTINUOUS
 62
     7
 10
-635.7774608157024
 20
138.0434577648695
  0
VERTEX
  8
1
  6
CONTINUOUS
 62
     7
 10
-635.850808200099
 20
138.0500103360647
  0
SEQEND
  8
1
  6
CONTINUOUS
 62
     7
  0
ARC
  8
1
  6
CONTINUOUS
 62
     7
 10
-621.5333275085178
 20
136.1778513690995
 40
13.38444757812196
 50
179.3663426543089
 51
224.325665361553
  0
ARC
  8
1
  6
CONTINUOUS
 62
     7
 10
-627.5061118633942
 20
131.2733108731076
 40
5.72339985061345
 50
230.9957878672301
 51
270.3375324724619
  0
ARC
  8
1
  6
CONTINUOUS
 62
     7
 10
-615.5089674877096
 20
136.1421207099909
 40
1.908153702223401
 50
90.95323625416378
 51
174.4739583664922
  0
ARC
  8
1
  6
CONTINUOUS
 62
     7
 10
-615.5096101490523
 20
89.95720384825277
 40
1.907447097507762
 50
185.5070879456042
 51
269.0657174337369
  0
ARC
  8
1
  6
CONTINUOUS
 62
     7
 10
-629.7532972638336
 20
88.55407369448598
 40
12.40518831708641
 50
5.644276837542233
 51
72.66943273199189
  0
ARC
  8
1
  6
CONTINUOUS
 62
     7
 10
-627.4903681769844
 20
93.8091774615917
 40
6.740856746517146
 50
77.73154980837305
 51
89.84751567061356
  0
LINE
  8
1
  6
CONTINUOUS
 62
     7
 10
-615.540712188509
 20
138.0500103360647
 11
-613.3605312846759
 21
138.0500103360647
  0
LINE
  8
1
  6
CONTINUOUS
 62
     7
 10
-615.540712188509
 20
88.0500103360647
 11
-613.3605312846759
 21
88.0500103360647
  0
ARC
  8
1
  6
CONTINUOUS
 62
     7
 10
-627.1402239414982
 20
93.79150758650985
 40
6.766662339307815
 50
92.8140265518132
 51
163.4567618563378
  0
ARC
  8
1
  6
CONTINUOUS
 62
     7
 10
-615.9363945451307
 20
88.76644671216556
 40
19.00729325933606
 50
158.5466588505856
 51
176.960949302222
  0
ARC
  8
1
  6
CONTINUOUS
 62
     7
 10
-619.7620947156129
 20
89.96547429522602
 40
13.45079016958724
 50
136.2901456923339
 51
180.8150111238283
  0
ARC
  8
1
  6
CONTINUOUS
 62
     7
 10
-625.8995471658932
 20
94.90825117803084
 40
5.638576625129862
 50
97.68841509381379
 51
129.4848931915433
  0
ARC
  8
1
  6
CONTINUOUS
 62
     7
 10
-625.1436276481496
 20
132.7171663856111
 40
7.271597953510814
 50
192.1038520402144
 51
258.0393903394108
  0
ARC
  8
1
  6
CONTINUOUS
 62
     7
 10
-612.8610591162948
 20
137.4673679811947
 40
20.38245414217436
 50
183.2104630443378
 51
197.9303089796197
  0
ARC
  8
1
  6
CONTINUOUS
 62
     7
 10
-628.6279181199271
 20
136.3445992700019
 40
10.85626010443859
 50
276.110045042861
 51
340.0614094440681
  0
ARC
  8
1
  6
CONTINUOUS
 62
     7
 10
-630.9512220120722
 20
138.0733267893806
 40
13.65524088301622
 50
336.5647874596227
 51
352.6477266483936
  0
LINE
  8
1
  6
CONTINUOUS
 62
     7
 10
-634.1152330647585
 20
88.0500103360647
 11
-635.850808200099
 21
88.0500103360647
  0
ARC
  8
1
  6
CONTINUOUS
 62
     7
 10
-635.8231828609325
 20
89.80704863197134
 40
2.611865992334518
 50
323.6354983876585
 51
359.2782547376235
  0
POLYLINE
  8
1
  6
CONTINUOUS
 62
     7
 66
     1
  0
VERTEX
  8
1
  6
CONTINUOUS
 62
     7
 10
-633.719948246917
 20
88.25842081344273
  0
VERTEX
  8
1
  6
CONTINUOUS
 62
     7
 10
-633.8235165935154
 20
88.16193781678287
  0
VERTEX
  8
1
  6
CONTINUOUS
 62
     7
 10
-633.9316213915513
 20
88.09411729571814
  0
VERTEX
  8
1
  6
CONTINUOUS
 62
     7
 10
-634.0418321521385
 20
88.05708094775143
  0
VERTEX
  8
1
  6
CONTINUOUS
 62
     7
 10
-634.1152330647585
 20
88.0500103360647
  0
SEQEND
  8
1
  6
CONTINUOUS
 62
     7
  0
LINE
  8
1
  6
CONTINUOUS
 62
     7
 10
-635.850808200099
 20
138.0500103360647
 11
-634.1152330647585
 21
138.0500103360647
  0
POLYLINE
  8
1
  6
CONTINUOUS
 62
     7
 66
     1
  0
VERTEX
  8
1
  6
CONTINUOUS
 62
     7
 10
-634.1152330647585
 20
138.0500103360647
  0
VERTEX
  8
1
  6
CONTINUOUS
 62
     7
 10
-634.0015651552275
 20
138.0330886563854
  0
VERTEX
  8
1
  6
CONTINUOUS
 62
     7
 10
-633.8857783169431
 20
137.9810443175208
  0
VERTEX
  8
1
  6
CONTINUOUS
 62
     7
 10
-633.7719739073805
 20
137.8941301610085
  0
VERTEX
  8
1
  6
CONTINUOUS
 62
     7
 10
-633.6995631269284
 20
137.8186365003557
  0
SEQEND
  8
1
  6
CONTINUOUS
 62
     7
  0
ARC
  8
1
  6
CONTINUOUS
 62
     7
 10
-635.8433666210835
 20
136.2915880077328
 40
2.632065827515223
 50
0.7463365087107264
 51
35.46257689765685
  0
LINE
  8
1
  6
CONTINUOUS
 62
     7
 10
-637.7283110115059
 20
88.0500103360647
 11
-636.8006778462641
 21
88.0500103360647
  0
LINE
  8
1
  6
CONTINUOUS
 62
     7
 10
-636.8006778462641
 20
138.0500103360647
 11
-637.7283110115059
 21
138.0500103360647
  0
ARC
  8
1
  6
CONTINUOUS
 62
     7
 10
-657.4340238692654
 20
91.0500103360647
 40
3.000000000000003
 50
180.0
 51
270.0
  0
LINE
  8
1
  6
CONTINUOUS
 62
     7
 10
-660.4340238692654
 20
135.0500103360647
 11
-660.4340238692654
 21
91.05001033606469
  0
ARC
  8
1
  6
CONTINUOUS
 62
     7
 10
-657.4340238692654
 20
135.0500103360647
 40
3.000000000000003
 50
90.0
 51
180.0
  0
ARC
  8
1
  6
CONTINUOUS
 62
     7
 10
-643.5340238692654
 20
130.5500103360647
 40
2.600000000000019
 50
270.0000000000001
 51
89.99999999999962
  0
LINE
  8
1
  6
CONTINUOUS
 62
     7
 10
-643.5340238692654
 20
133.1500103360647
 11
-653.3340238692654
 21
133.1500103360648
  0
ARC
  8
1
  6
CONTINUOUS
 62
     7
 10
-653.3340238692654
 20
130.5500103360647
 40
2.599999999999991
 50
90.0
 51
269.9999999999995
  0
LINE
  8
1
  6
CONTINUOUS
 62
     7
 10
-653.3340238692654
 20
127.9500103360647
 11
-643.5340238692654
 21
127.9500103360647
  0
ARC
  8
1
  6
CONTINUOUS
 62
     7
 10
-646.4340238692654
 20
113.0500103360647
 40
5.500000000000004
 50
270.0
 51
90.00000000000016
  0
LINE
  8
1
  6
CONTINUOUS
 62
     7
 10
-646.4340238692654
 20
118.5500103360647
 11
-650.4340238692654
 21
118.5500103360647
  0
ARC
  8
1
  6
CONTINUOUS
 62
     7
 10
-650.4340238692654
 20
113.0500103360647
 40
5.500000000000004
 50
90.0
 51
270.0000000000001
  0
LINE
  8
1
  6
CONTINUOUS
 62
     7
 10
-650.4340238692654
 20
107.5500103360647
 11
-646.4340238692654
 21
107.5500103360647
  0
ARC
  8
1
  6
CONTINUOUS
 62
     7
 10
-643.5340238692654
 20
95.5500103360647
 40
2.600000000000005
 50
270.0000000000002
 51
89.9999999999993
  0
LINE
  8
1
  6
CONTINUOUS
 62
     7
 10
-643.5340238692654
 20
98.1500103360647
 11
-653.3340238692654
 21
98.1500103360647
  0
ARC
  8
1
  6
CONTINUOUS
 62
     7
 10
-653.3340238692654
 20
95.5500103360647
 40
2.599999999999991
 50
90.00000000000021
 51
269.9999999999998
  0
LINE
  8
1
  6
CONTINUOUS
 62
     7
 10
-653.3340238692654
 20
92.95001033606471
 11
-643.5340238692654
 21
92.95001033606471
  0
LINE
  8
1
  6
CONTINUOUS
 62
     7
 10
-657.4340238692654
 20
88.0500103360647
 11
-637.7283110115059
 21
88.0500103360647
  0
LINE
  8
1
  6
CONTINUOUS
 62
     7
 10
-657.4340238692654
 20
138.0500103360647
 11
-637.7283110115059
 21
138.0500103360647
  0
LINE
  8
1
  6
CONTINUOUS
 62
     7
 10
-555.2481780815327
 20
132.1091237869706
 11
-555.5844050421595
 21
133.2088744091324
  0
LINE
  8
1
  6
CONTINUOUS
 62
     7
 10
-612.7340238692655
 20
120.1500103360647
 11
-613.8340238692655
 21
120.1500103360647
  0
LINE
  8
1
  6
CONTINUOUS
 62
     7
 10
-613.8340238692655
 20
105.9500103360647
 11
-612.7340238692655
 21
105.9500103360647
  0
LINE
  8
1
  6
CONTINUOUS
 62
     7
 10
-613.8340238692655
 20
120.1500103360647
 11
-614.4525797225562
 21
118.823513027961
  0
LINE
  8
1
  6
CONTINUOUS
 62
     7
 10
-614.4525797225562
 20
107.2765076441684
 11
-613.8340238692655
 21
105.9500103360647
  0
LINE
  8
1
  6
CONTINUOUS
 62
     7
 10
-618.2874418818802
 20
118.823513027961
 11
-618.7340238692655
 21
118.0500103360647
  0
LINE
  8
1
  6
CONTINUOUS
 62
     7
 10
-618.7340238692655
 20
108.0500103360647
 11
-618.2874418818802
 21
107.2765076441684
  0
ARC
  8
1
  6
CONTINUOUS
 62
     7
 10
-612.8340188840691
 20
113.0500103345865
 40
10.00000000000088
 50
20.18179577061948
 51
35.90423613231273
  0
ARC
  8
1
  6
CONTINUOUS
 62
     7
 10
-612.8340188840691
 20
113.0500103345865
 40
10.00000000000089
 50
324.0957494776404
 51
339.8182042368706
  0
LINE
  8
1
  6
CONTINUOUS
 62
     7
 10
-618.9340188838755
 20
110.0500103341875
 11
-618.7340238692664
 21
110.0500103342006
  0
LINE
  8
1
  6
CONTINUOUS
 62
     7
 10
-618.7340238692664
 20
116.0500103342011
 11
-618.9340188842676
 21
116.050010334188
  0
LINE
  8
1
  6
CONTINUOUS
 62
     7
 10
-618.9340188842659
 20
116.050010334188
 11
-619.4340188842333
 21
115.5500103341553
  0
LINE
  8
1
  6
CONTINUOUS
 62
     7
 10
-619.4340188839064
 20
110.5500103341549
 11
-618.9340188838737
 21
110.0500103341875
  0
ENDBLK
  8
0
  0
ENDSEC
  0
SECTION
  2
ENTITIES
  0
INSERT
  8
1
  6
CONTINUOUS
 62
     7
  2
D_FRAME_VIEW_4124
 10
0.0
 20
0.0
 30
0.0
  0
INSERT
  8
1
  6
CONTINUOUS
 62
     7
  2
D_FRAME_VIEW_4608
 10
0.0
 20
0.0
 30
0.0
  0
TEXT
  8
1
  6
CONTINUOUS
 62
     7
 10
-616.8126141052895
 20
65.52842003251219
 40
3.0
  1
HT-MKB-39
  0
ENDSEC
  0
EOF
