  0
SECTION
  2
HEADER
  9
$ACADVER
  1
AC1014
  9
$ACADMAINTVER
 70
     9
  9
$DWGCODEPAGE
  3
ANSI_932
  9
$INSBASE
 10
0.0
 20
0.0
 30
0.0
  9
$EXTMIN
 10
573.0
 20
-50.48102413405027
 30
0.0
  9
$EXTMAX
 10
707.0
 20
232.0
 30
0.0
  9
$LIMMIN
 10
0.0
 20
0.0
  9
$LIMMAX
 10
12.0
 20
9.0
  9
$ORTHOMODE
 70
     0
  9
$REGENMODE
 70
     1
  9
$FILLMODE
 70
     1
  9
$QTEXTMODE
 70
     0
  9
$MIRRTEXT
 70
     1
  9
$DRAGMODE
 70
     2
  9
$LTSCALE
 40
1.0
  9
$OSMODE
 70
    37
  9
$ATTMODE
 70
     1
  9
$TEXTSIZE
 40
0.2
  9
$TRACEWID
 40
0.05
  9
$TEXTSTYLE
  7
STANDARD
  9
$CLAYER
  8
0
  9
$CELTYPE
  6
BYLAYER
  9
$CECOLOR
 62
   256
  9
$CELTSCALE
 40
1.0
  9
$DELOBJ
 70
     1
  9
$DISPSILH
 70
     0
  9
$DIMSCALE
 40
1.0
  9
$DIMASZ
 40
3.0
  9
$DIMEXO
 40
0.0625
  9
$DIMDLI
 40
0.38
  9
$DIMRND
 40
0.0
  9
$DIMDLE
 40
0.0
  9
$DIMEXE
 40
1.5
  9
$DIMTP
 40
0.0
  9
$DIMTM
 40
0.0
  9
$DIMTXT
 40
3.0
  9
$DIMCEN
 40
0.09
  9
$DIMTSZ
 40
0.0
  9
$DIMTOL
 70
     0
  9
$DIMLIM
 70
     0
  9
$DIMTIH
 70
     1
  9
$DIMTOH
 70
     1
  9
$DIMSE1
 70
     0
  9
$DIMSE2
 70
     0
  9
$DIMTAD
 70
     1
  9
$DIMZIN
 70
     0
  9
$DIMBLK
  1

  9
$DIMASO
 70
     1
  9
$DIMSHO
 70
     1
  9
$DIMPOST
  1

  9
$DIMAPOST
  1

  9
$DIMALT
 70
     0
  9
$DIMALTD
 70
     2
  9
$DIMALTF
 40
25.4
  9
$DIMLFAC
 40
1.0
  9
$DIMTOFL
 70
     0
  9
$DIMTVP
 40
0.0
  9
$DIMTIX
 70
     0
  9
$DIMSOXD
 70
     0
  9
$DIMSAH
 70
     0
  9
$DIMBLK1
  1

  9
$DIMBLK2
  1

  9
$DIMSTYLE
  2
STANDARD
  9
$DIMCLRD
 70
     0
  9
$DIMCLRE
 70
     0
  9
$DIMCLRT
 70
     0
  9
$DIMTFAC
 40
1.0
  9
$DIMGAP
 40
1.5
  9
$DIMJUST
 70
     0
  9
$DIMSD1
 70
     0
  9
$DIMSD2
 70
     0
  9
$DIMTOLJ
 70
     1
  9
$DIMTZIN
 70
     0
  9
$DIMALTZ
 70
     0
  9
$DIMALTTZ
 70
     0
  9
$DIMFIT
 70
     3
  9
$DIMUPT
 70
     0
  9
$DIMUNIT
 70
     2
  9
$DIMDEC
 70
     2
  9
$DIMTDEC
 70
     4
  9
$DIMALTU
 70
     2
  9
$DIMALTTD
 70
     2
  9
$DIMTXSTY
  7
ＭＳ_ゴシック
  9
$DIMAUNIT
 70
     0
  9
$LUNITS
 70
     2
  9
$LUPREC
 70
     4
  9
$SKETCHINC
 40
0.1
  9
$FILLETRAD
 40
0.5
  9
$AUNITS
 70
     0
  9
$AUPREC
 70
     0
  9
$MENU
  1
.
  9
$ELEVATION
 40
0.0
  9
$PELEVATION
 40
0.0
  9
$THICKNESS
 40
0.0
  9
$LIMCHECK
 70
     0
  9
$CHAMFERA
 40
0.0
  9
$CHAMFERB
 40
0.0
  9
$CHAMFERC
 40
0.0
  9
$CHAMFERD
 40
0.0
  9
$SKPOLY
 70
     0
  9
$TDCREATE
 40
2459991.686479062
  9
$TDUPDATE
 40
2459991.686479294
  9
$TDINDWG
 40
0.0000000116
  9
$TDUSRTIMER
 40
0.0000000116
  9
$USRTIMER
 70
     1
  9
$ANGBASE
 50
0.0
  9
$ANGDIR
 70
     0
  9
$PDMODE
 70
     0
  9
$PDSIZE
 40
0.0
  9
$PLINEWID
 40
0.0
  9
$COORDS
 70
     1
  9
$SPLFRAME
 70
     0
  9
$SPLINETYPE
 70
     6
  9
$SPLINESEGS
 70
     8
  9
$ATTDIA
 70
     0
  9
$ATTREQ
 70
     1
  9
$HANDLING
 70
     1
  9
$HANDSEED
  5
241
  9
$SURFTAB1
 70
     6
  9
$SURFTAB2
 70
     6
  9
$SURFTYPE
 70
     6
  9
$SURFU
 70
     6
  9
$SURFV
 70
     6
  9
$UCSNAME
  2

  9
$UCSORG
 10
0.0
 20
0.0
 30
0.0
  9
$UCSXDIR
 10
1.0
 20
0.0
 30
0.0
  9
$UCSYDIR
 10
0.0
 20
1.0
 30
0.0
  9
$PUCSNAME
  2

  9
$PUCSORG
 10
0.0
 20
0.0
 30
0.0
  9
$PUCSXDIR
 10
1.0
 20
0.0
 30
0.0
  9
$PUCSYDIR
 10
0.0
 20
1.0
 30
0.0
  9
$USERI1
 70
     0
  9
$USERI2
 70
     0
  9
$USERI3
 70
     0
  9
$USERI4
 70
     0
  9
$USERI5
 70
     0
  9
$USERR1
 40
0.0
  9
$USERR2
 40
0.0
  9
$USERR3
 40
0.0
  9
$USERR4
 40
0.0
  9
$USERR5
 40
0.0
  9
$WORLDVIEW
 70
     1
  9
$SHADEDGE
 70
     3
  9
$SHADEDIF
 70
    70
  9
$TILEMODE
 70
     1
  9
$MAXACTVP
 70
    64
  9
$PINSBASE
 10
0.0
 20
0.0
 30
0.0
  9
$PLIMCHECK
 70
     0
  9
$PEXTMIN
 10
1.000000000000000E+20
 20
1.000000000000000E+20
 30
1.000000000000000E+20
  9
$PEXTMAX
 10
-1.000000000000000E+20
 20
-1.000000000000000E+20
 30
-1.000000000000000E+20
  9
$PLIMMIN
 10
0.0
 20
0.0
  9
$PLIMMAX
 10
12.0
 20
9.0
  9
$UNITMODE
 70
     0
  9
$VISRETAIN
 70
     1
  9
$PLINEGEN
 70
     0
  9
$PSLTSCALE
 70
     1
  9
$TREEDEPTH
 70
  3020
  9
$PICKSTYLE
 70
     1
  9
$CMLSTYLE
  2
STANDARD
  9
$CMLJUST
 70
     0
  9
$CMLSCALE
 40
1.0
  9
$PROXYGRAPHICS
 70
     1
  9
$MEASUREMENT
 70
     1
  0
ENDSEC
  0
SECTION
  2
CLASSES
  0
CLASS
  1
ACDBDICTIONARYWDFLT
  2
AcDbDictionaryWithDefault
  3
ObjectDBX Classes
 90
        0
280
     0
281
     0
  0
CLASS
  1
VISUALSTYLE
  2
AcDbVisualStyle
  3
ObjectDBX Classes
 90
     4095
280
     0
281
     0
  0
CLASS
  1
MATERIAL
  2
AcDbMaterial
  3
ObjectDBX Classes
 90
     1153
280
     0
281
     0
  0
CLASS
  1
SCALE
  2
AcDbScale
  3
ObjectDBX Classes
 90
     1153
280
     0
281
     0
  0
CLASS
  1
TABLESTYLE
  2
AcDbTableStyle
  3
ObjectDBX Classes
 90
     4095
280
     0
281
     0
  0
CLASS
  1
MLEADERSTYLE
  2
AcDbMLeaderStyle
  3
ACDB_MLEADERSTYLE_CLASS
 90
     4095
280
     0
281
     0
  0
CLASS
  1
SUN
  2
AcDbSun
  3
SCENEOE
 90
     1153
280
     0
281
     0
  0
CLASS
  1
DICTIONARYVAR
  2
AcDbDictionaryVar
  3
ObjectDBX Classes
 90
        0
280
     0
281
     0
  0
CLASS
  1
XRECORD
  2
AcDbXrecord
  3
ObjectDBX Classes
 90
        0
280
     0
281
     0
  0
CLASS
  1
LWPOLYLINE
  2
AcDbPolyline
  3
ObjectDBX Classes
 90
        0
280
     0
281
     1
  0
CLASS
  1
HATCH
  2
AcDbHatch
  3
ObjectDBX Classes
 90
        0
280
     0
281
     1
  0
CLASS
  1
ACDBPLACEHOLDER
  2
AcDbPlaceHolder
  3
ObjectDBX Classes
 90
        0
280
     0
281
     0
  0
CLASS
  1
LAYOUT
  2
AcDbLayout
  3
ObjectDBX Classes
 90
        0
280
     0
281
     0
  0
ENDSEC
  0
SECTION
  2
TABLES
  0
TABLE
  2
VPORT
  5
8
102
{ACAD_XDICTIONARY
360
236
102
}
330
0
100
AcDbSymbolTable
 70
     1
  0
VPORT
  5
29
330
8
100
AcDbSymbolTableRecord
100
AcDbViewportTableRecord
  2
*ACTIVE
 70
     0
 10
0.0
 20
0.0
 11
1.0
 21
1.0
 12
640.0
 22
90.75948793297488
 13
0.0
 23
0.0
 14
0.5
 24
0.5
 15
0.5
 25
0.5
 16
0.0
 26
0.0
 36
1.0
 17
0.0
 27
0.0
 37
0.0
 40
282.4810241340503
 41
1.6
 42
50.0
 43
0.0
 44
0.0
 50
0.0
 51
0.0
 71
     0
 72
   100
 73
     1
 74
     3
 75
     0
 76
     0
 77
     0
 78
     0
  0
ENDTAB
  0
TABLE
  2
LTYPE
  5
5
330
0
100
AcDbSymbolTable
 70
     2
  0
LTYPE
  5
14
330
5
100
AcDbSymbolTableRecord
100
AcDbLinetypeTableRecord
  2
BYBLOCK
 70
     0
  3

 72
    65
 73
     0
 40
0.0
  0
LTYPE
  5
15
330
5
100
AcDbSymbolTableRecord
100
AcDbLinetypeTableRecord
  2
BYLAYER
 70
     0
  3

 72
    65
 73
     0
 40
0.0
  0
LTYPE
  5
16
330
5
100
AcDbSymbolTableRecord
100
AcDbLinetypeTableRecord
  2
CONTINUOUS
 70
     0
  3
Solid line
 72
    65
 73
     0
 40
0.0
  0
LTYPE
  5
204
330
5
100
AcDbSymbolTableRecord
100
AcDbLinetypeTableRecord
  2
CENTER
 70
     0
  3

 72
    65
 73
     0
 40
0.0
  0
ENDTAB
  0
TABLE
  2
LAYER
  5
2
330
0
100
AcDbSymbolTable
 70
     1
  0
LAYER
  5
10
330
2
100
AcDbSymbolTableRecord
100
AcDbLayerTableRecord
  2
0
 70
     0
 62
     7
  6
CONTINUOUS
  0
ENDTAB
  0
TABLE
  2
STYLE
  5
3
330
0
100
AcDbSymbolTable
 70
     2
  0
STYLE
  5
11
330
3
100
AcDbSymbolTableRecord
100
AcDbTextStyleTableRecord
  2
STANDARD
 70
     0
 40
0.0
 41
1.0
 50
0.0
 71
     0
 42
0.2
  3
txt
  4

  0
STYLE
  5
6E
330
3
100
AcDbSymbolTableRecord
100
AcDbTextStyleTableRecord
  2
ＭＳ_ゴシック
 70
     0
 40
0.0
 41
1.0
 50
0.0
 71
     0
 42
0.2
  3
ＭＳ ゴシック.shx
  4

  0
ENDTAB
  0
TABLE
  2
VIEW
  5
6
330
0
100
AcDbSymbolTable
 70
     0
  0
ENDTAB
  0
TABLE
  2
UCS
  5
7
330
0
100
AcDbSymbolTable
 70
     0
  0
ENDTAB
  0
TABLE
  2
APPID
  5
9
330
0
100
AcDbSymbolTable
 70
     2
  0
APPID
  5
12
330
9
100
AcDbSymbolTableRecord
100
AcDbRegAppTableRecord
  2
ACAD
 70
     0
  0
APPID
  5
240
330
9
100
AcDbSymbolTableRecord
100
AcDbRegAppTableRecord
  2
ACAD_MLEADERVER
 70
     0
  0
ENDTAB
  0
TABLE
  2
DIMSTYLE
  5
A
330
0
100
AcDbSymbolTable
 70
     1
  0
DIMSTYLE
105
27
330
A
100
AcDbSymbolTableRecord
100
AcDbDimStyleTableRecord
  2
STANDARD
 70
     0
  3

  4

  5

  6

  7

 40
1.0
 41
0.18
 42
0.0625
 43
0.38
 44
0.18
 45
0.0
 46
0.0
 47
0.0
 48
0.0
140
0.18
141
0.09
142
0.0
143
25.4
144
1.0
145
0.0
146
1.0
147
0.09
 71
     0
 72
     0
 73
     1
 74
     1
 75
     0
 76
     0
 77
     0
 78
     0
170
     0
171
     2
172
     0
173
     0
174
     0
175
     0
176
     0
177
     0
178
     0
270
     2
271
     4
272
     4
273
     2
274
     2
340
11
275
     0
280
     0
281
     0
282
     0
283
     1
284
     0
285
     0
286
     0
287
     3
288
     0
  0
ENDTAB
  0
TABLE
  2
BLOCK_RECORD
  5
1
330
0
100
AcDbSymbolTable
 70
     0
  0
BLOCK_RECORD
  5
1F
330
1
100
AcDbSymbolTableRecord
100
AcDbBlockTableRecord
  2
*MODEL_SPACE
  0
BLOCK_RECORD
  5
1B
330
1
100
AcDbSymbolTableRecord
100
AcDbBlockTableRecord
  2
*PAPER_SPACE
  0
ENDTAB
  0
ENDSEC
  0
SECTION
  2
BLOCKS
  0
BLOCK
  5
20
330
1F
100
AcDbEntity
  8
0
100
AcDbBlockBegin
  2
*MODEL_SPACE
 70
     0
 10
0.0
 20
0.0
 30
0.0
  3
*MODEL_SPACE
  1

  0
ENDBLK
  5
21
330
1F
100
AcDbEntity
  8
0
100
AcDbBlockEnd
  0
BLOCK
  5
1C
330
1B
100
AcDbEntity
 67
     1
  8
0
100
AcDbBlockBegin
  2
*PAPER_SPACE
 70
     0
 10
0.0
 20
0.0
 30
0.0
  3
*PAPER_SPACE
  1

  0
ENDBLK
  5
1D
330
1B
100
AcDbEntity
 67
     1
  8
0
100
AcDbBlockEnd
  0
ENDSEC
  0
SECTION
  2
ENTITIES
  0
CIRCLE
  5
6F
330
1F
100
AcDbEntity
  8
0
  6
CONTINUOUS
 62
     7
100
AcDbCircle
 10
606.6500000000003
 20
165.0
 30
0.0
 40
8.0
  0
CIRCLE
  5
70
330
1F
100
AcDbEntity
  8
0
  6
CONTINUOUS
 62
     7
100
AcDbCircle
 10
606.6500000000003
 20
165.0
 30
0.0
 40
2.999999999999999
  0
CIRCLE
  5
71
330
1F
100
AcDbEntity
  8
0
  6
CONTINUOUS
 62
     7
100
AcDbCircle
 10
673.3499999999999
 20
165.0
 30
0.0
 40
8.0
  0
CIRCLE
  5
72
330
1F
100
AcDbEntity
  8
0
  6
CONTINUOUS
 62
     7
100
AcDbCircle
 10
673.3499999999999
 20
165.0
 30
0.0
 40
3.000000000000003
  0
LINE
  5
73
330
1F
100
AcDbEntity
  8
0
  6
CONTINUOUS
 62
   253
100
AcDbLine
 10
636.9529012036458
 20
164.5
 30
0.0
 11
636.9529012036458
 21
165.5
 31
0.0
  0
LINE
  5
74
330
1F
100
AcDbEntity
  8
0
  6
CONTINUOUS
 62
   253
100
AcDbLine
 10
636.9529012036458
 20
165.5
 30
0.0
 11
637.2483435295494
 21
165.5
 31
0.0
  0
LINE
  5
75
330
1F
100
AcDbEntity
  8
0
  6
CONTINUOUS
 62
   253
100
AcDbLine
 10
637.2483435295494
 20
165.5
 30
0.0
 11
637.2483435295494
 21
164.5
 31
0.0
  0
LINE
  5
76
330
1F
100
AcDbEntity
  8
0
  6
CONTINUOUS
 62
   253
100
AcDbLine
 10
636.9529012036458
 20
164.5
 30
0.0
 11
637.2483435295494
 21
164.5
 31
0.0
  0
ARC
  5
77
330
1F
100
AcDbEntity
  8
0
  6
CONTINUOUS
 62
   253
100
AcDbCircle
 10
635.75
 20
165.5
 30
0.0
 40
1.202901203645759
100
AcDbArc
 50
0.000000000000031
 51
180.0
  0
LINE
  5
78
330
1F
100
AcDbEntity
  8
0
  6
CONTINUOUS
 62
   253
100
AcDbLine
 10
634.2516564704506
 20
165.5
 30
0.0
 11
634.5470987963541
 21
165.5
 31
0.0
  0
ARC
  5
79
330
1F
100
AcDbEntity
  8
0
  6
CONTINUOUS
 62
   253
100
AcDbCircle
 10
635.75
 20
165.5
 30
0.0
 40
1.498343529549422
100
AcDbArc
 50
0.0
 51
180.0
  0
LINE
  5
7A
330
1F
100
AcDbEntity
  8
0
  6
CONTINUOUS
 62
   253
100
AcDbLine
 10
632.374264068712
 20
165.5
 30
0.0
 11
632.374264068712
 21
164.5
 31
0.0
  0
LINE
  5
7B
330
1F
100
AcDbEntity
  8
0
  6
CONTINUOUS
 62
   253
100
AcDbLine
 10
632.374264068712
 20
164.5
 30
0.0
 11
632.162132034356
 21
164.5
 31
0.0
  0
LINE
  5
7C
330
1F
100
AcDbEntity
  8
0
  6
CONTINUOUS
 62
   253
100
AcDbLine
 10
632.162132034356
 20
164.5
 30
0.0
 11
632.162132034356
 21
165.5
 31
0.0
  0
LINE
  5
7D
330
1F
100
AcDbEntity
  8
0
  6
CONTINUOUS
 62
   253
100
AcDbLine
 10
632.374264068712
 20
165.5
 30
0.0
 11
632.162132034356
 21
165.5
 31
0.0
  0
ARC
  5
7E
330
1F
100
AcDbEntity
  8
0
  6
CONTINUOUS
 62
   253
100
AcDbCircle
 10
635.75
 20
165.5
 30
0.0
 40
3.587867965644035
100
AcDbArc
 50
0.0000000000001137
 51
180.0
  0
LINE
  5
7F
330
1F
100
AcDbEntity
  8
0
  6
CONTINUOUS
 62
   253
100
AcDbLine
 10
639.3378679656439
 20
165.5
 30
0.0
 11
639.125735931288
 21
165.5
 31
0.0
  0
ARC
  5
80
330
1F
100
AcDbEntity
  8
0
  6
CONTINUOUS
 62
   253
100
AcDbCircle
 10
635.75
 20
165.5
 30
0.0
 40
3.37573593128807
100
AcDbArc
 50
0.0000000000000313
 51
180.0
  0
ARC
  5
81
330
1F
100
AcDbEntity
  8
0
  6
CONTINUOUS
 62
   253
100
AcDbCircle
 10
635.75
 20
164.5
 30
0.0
 40
1.202901203645759
100
AcDbArc
 50
180.0
 51
359.9999999999998
  0
ARC
  5
82
330
1F
100
AcDbEntity
  8
0
  6
CONTINUOUS
 62
   253
100
AcDbCircle
 10
635.75
 20
164.5
 30
0.0
 40
1.498343529549422
100
AcDbArc
 50
180.0
 51
0.0
  0
LINE
  5
83
330
1F
100
AcDbEntity
  8
0
  6
CONTINUOUS
 62
   253
100
AcDbLine
 10
634.2516564704506
 20
164.5
 30
0.0
 11
634.5470987963541
 21
164.5
 31
0.0
  0
ARC
  5
84
330
1F
100
AcDbEntity
  8
0
  6
CONTINUOUS
 62
   253
100
AcDbCircle
 10
635.75
 20
164.5
 30
0.0
 40
3.587867965644036
100
AcDbArc
 50
180.0000000000002
 51
0.0
  0
ARC
  5
85
330
1F
100
AcDbEntity
  8
0
  6
CONTINUOUS
 62
   253
100
AcDbCircle
 10
635.75
 20
164.5
 30
0.0
 40
3.37573593128807
100
AcDbArc
 50
180.0
 51
0.0
  0
LINE
  5
86
330
1F
100
AcDbEntity
  8
0
  6
CONTINUOUS
 62
   253
100
AcDbLine
 10
639.3378679656439
 20
164.5
 30
0.0
 11
639.125735931288
 21
164.5
 31
0.0
  0
LINE
  5
87
330
1F
100
AcDbEntity
  8
0
  6
CONTINUOUS
 62
   253
100
AcDbLine
 10
639.125735931288
 20
164.5
 30
0.0
 11
639.125735931288
 21
165.5
 31
0.0
  0
LINE
  5
88
330
1F
100
AcDbEntity
  8
0
  6
CONTINUOUS
 62
   253
100
AcDbLine
 10
634.2516564704506
 20
164.5
 30
0.0
 11
634.2516564704506
 21
165.5
 31
0.0
  0
LINE
  5
89
330
1F
100
AcDbEntity
  8
0
  6
CONTINUOUS
 62
   253
100
AcDbLine
 10
634.5470987963542
 20
165.5
 30
0.0
 11
634.5470987963542
 21
164.5
 31
0.0
  0
LINE
  5
8A
330
1F
100
AcDbEntity
  8
0
  6
CONTINUOUS
 62
   253
100
AcDbLine
 10
639.3378679656439
 20
165.5
 30
0.0
 11
639.3378679656439
 21
164.5
 31
0.0
  0
LINE
  5
8B
330
1F
100
AcDbEntity
  8
0
  6
CONTINUOUS
 62
   253
100
AcDbLine
 10
631.8378679656441
 20
165.5
 30
0.0
 11
631.8378679656441
 21
164.5
 31
0.0
  0
LINE
  5
8C
330
1F
100
AcDbEntity
  8
0
  6
CONTINUOUS
 62
   253
100
AcDbLine
 10
631.8378679656441
 20
165.5
 30
0.0
 11
632.162132034356
 21
165.5
 31
0.0
  0
LINE
  5
8D
330
1F
100
AcDbEntity
  8
0
  6
CONTINUOUS
 62
   253
100
AcDbLine
 10
631.8378679656441
 20
164.5
 30
0.0
 11
632.162132034356
 21
164.5
 31
0.0
  0
LINE
  5
8E
330
1F
100
AcDbEntity
  8
0
  6
CONTINUOUS
 62
   253
100
AcDbLine
 10
639.6621320343559
 20
164.5
 30
0.0
 11
639.6621320343559
 21
165.5
 31
0.0
  0
LINE
  5
8F
330
1F
100
AcDbEntity
  8
0
  6
CONTINUOUS
 62
   253
100
AcDbLine
 10
639.6621320343559
 20
164.5
 30
0.0
 11
639.3378679656439
 21
164.5
 31
0.0
  0
LINE
  5
90
330
1F
100
AcDbEntity
  8
0
  6
CONTINUOUS
 62
   253
100
AcDbLine
 10
639.6621320343559
 20
165.5
 30
0.0
 11
639.3378679656439
 21
165.5
 31
0.0
  0
ARC
  5
91
330
1F
100
AcDbEntity
  8
0
  6
CONTINUOUS
 62
   253
100
AcDbCircle
 10
635.75
 20
165.5
 30
0.0
 40
3.912132034355963
100
AcDbArc
 50
0.0000000000000318
 51
180.0
  0
ARC
  5
92
330
1F
100
AcDbEntity
  8
0
  6
CONTINUOUS
 62
   253
100
AcDbCircle
 10
635.75
 20
164.5
 30
0.0
 40
3.912132034355963
100
AcDbArc
 50
180.0
 51
0.0
  0
ARC
  5
93
330
1F
100
AcDbEntity
  8
0
  6
CONTINUOUS
 62
     7
100
AcDbCircle
 10
635.75
 20
164.5
 30
0.0
 40
0.7000000000000001
100
AcDbArc
 50
180.0000000000029
 51
0.0
  0
LINE
  5
94
330
1F
100
AcDbEntity
  8
0
  6
CONTINUOUS
 62
   253
100
AcDbLine
 10
636.9529012036458
 20
164.5
 30
0.0
 11
636.45
 21
164.5
 31
0.0
  0
LINE
  5
95
330
1F
100
AcDbEntity
  8
0
  6
CONTINUOUS
 62
   253
100
AcDbLine
 10
634.5470987963542
 20
164.5
 30
0.0
 11
635.05
 21
164.5
 31
0.0
  0
ARC
  5
96
330
1F
100
AcDbEntity
  8
0
  6
CONTINUOUS
 62
     7
100
AcDbCircle
 10
635.75
 20
165.5
 30
0.0
 40
0.7000000000000001
100
AcDbArc
 50
0.0000000000000266
 51
179.9999999999943
  0
LINE
  5
97
330
1F
100
AcDbEntity
  8
0
  6
CONTINUOUS
 62
   253
100
AcDbLine
 10
634.5470987963542
 20
165.5
 30
0.0
 11
635.05
 21
165.5
 31
0.0
  0
LINE
  5
98
330
1F
100
AcDbEntity
  8
0
  6
CONTINUOUS
 62
   253
100
AcDbLine
 10
636.9529012036458
 20
165.5
 30
0.0
 11
636.45
 21
165.5
 31
0.0
  0
LINE
  5
99
330
1F
100
AcDbEntity
  8
0
  6
CONTINUOUS
 62
     7
100
AcDbLine
 10
636.4499999999999
 20
165.5
 30
0.0
 11
636.4499999999999
 21
164.5
 31
0.0
  0
LINE
  5
9A
330
1F
100
AcDbEntity
  8
0
  6
CONTINUOUS
 62
     7
100
AcDbLine
 10
635.05
 20
165.5
 30
0.0
 11
635.05
 21
164.5
 31
0.0
  0
LINE
  5
9B
330
1F
100
AcDbEntity
  8
0
  6
CONTINUOUS
 62
     7
100
AcDbLine
 10
639.7499999999999
 20
165.5
 30
0.0
 11
639.7499999999999
 21
164.5
 31
0.0
  0
LINE
  5
9C
330
1F
100
AcDbEntity
  8
0
  6
CONTINUOUS
 62
   253
100
AcDbLine
 10
639.7499999999999
 20
164.5
 30
0.0
 11
639.662132034356
 21
164.5
 31
0.0
  0
LINE
  5
9D
330
1F
100
AcDbEntity
  8
0
  6
CONTINUOUS
 62
   253
100
AcDbLine
 10
639.7499999999999
 20
165.5
 30
0.0
 11
639.662132034356
 21
165.5
 31
0.0
  0
ARC
  5
9E
330
1F
100
AcDbEntity
  8
0
  6
CONTINUOUS
 62
     7
100
AcDbCircle
 10
635.75
 20
165.5
 30
0.0
 40
4.000000000000002
100
AcDbArc
 50
0.0000000000001137
 51
180.0
  0
LINE
  5
9F
330
1F
100
AcDbEntity
  8
0
  6
CONTINUOUS
 62
   253
100
AcDbLine
 10
631.8378679656441
 20
165.5
 30
0.0
 11
631.7500000000001
 21
165.5
 31
0.0
  0
LINE
  5
A0
330
1F
100
AcDbEntity
  8
0
  6
CONTINUOUS
 62
   253
100
AcDbLine
 10
631.8378679656441
 20
164.5
 30
0.0
 11
631.7500000000001
 21
164.5
 31
0.0
  0
LINE
  5
A1
330
1F
100
AcDbEntity
  8
0
  6
CONTINUOUS
 62
     7
100
AcDbLine
 10
631.7500000000001
 20
164.5
 30
0.0
 11
631.7500000000001
 21
165.5
 31
0.0
  0
ARC
  5
A2
330
1F
100
AcDbEntity
  8
0
  6
CONTINUOUS
 62
     7
100
AcDbCircle
 10
635.75
 20
164.5
 30
0.0
 40
4.000000000000002
100
AcDbArc
 50
180.0000000000002
 51
0.0
  0
LINE
  5
A3
330
1F
100
AcDbEntity
  8
0
  6
CONTINUOUS
 62
   253
100
AcDbLine
 10
636.1161498446749
 20
164.5
 30
0.0
 11
636.1161498446749
 21
165.5
 31
0.0
  0
ARC
  5
A4
330
1F
100
AcDbEntity
  8
0
  6
CONTINUOUS
 62
   253
100
AcDbCircle
 10
635.75
 20
164.5
 30
0.0
 40
0.3661498446748765
100
AcDbArc
 50
180.0
 51
0.0
  0
LINE
  5
A5
330
1F
100
AcDbEntity
  8
0
  6
CONTINUOUS
 62
   253
100
AcDbLine
 10
635.3838501553251
 20
165.5
 30
0.0
 11
635.3838501553251
 21
164.5
 31
0.0
  0
ARC
  5
A6
330
1F
100
AcDbEntity
  8
0
  6
CONTINUOUS
 62
   253
100
AcDbCircle
 10
635.75
 20
165.5
 30
0.0
 40
0.366149844674877
100
AcDbArc
 50
0.0000000000000339
 51
180.0
  0
LINE
  5
A7
330
1F
100
AcDbEntity
  8
0
  6
CONTINUOUS
 62
   253
100
AcDbLine
 10
636.3093350099327
 20
165.5
 30
0.0
 11
636.3093350099327
 21
164.5
 31
0.0
  0
LINE
  5
A8
330
1F
100
AcDbEntity
  8
0
  6
CONTINUOUS
 62
   253
100
AcDbLine
 10
636.3093350099327
 20
164.5
 30
0.0
 11
636.1161498446749
 21
164.5
 31
0.0
  0
LINE
  5
A9
330
1F
100
AcDbEntity
  8
0
  6
CONTINUOUS
 62
   253
100
AcDbLine
 10
636.1161498446749
 20
165.5
 30
0.0
 11
636.3093350099327
 21
165.5
 31
0.0
  0
ARC
  5
AA
330
1F
100
AcDbEntity
  8
0
  6
CONTINUOUS
 62
   253
100
AcDbCircle
 10
635.75
 20
164.5
 30
0.0
 40
0.5593350099326929
100
AcDbArc
 50
180.0000000000009
 51
0.0
  0
LINE
  5
AB
330
1F
100
AcDbEntity
  8
0
  6
CONTINUOUS
 62
   253
100
AcDbLine
 10
635.1906649900674
 20
164.5
 30
0.0
 11
635.3838501553251
 21
164.5
 31
0.0
  0
LINE
  5
AC
330
1F
100
AcDbEntity
  8
0
  6
CONTINUOUS
 62
   253
100
AcDbLine
 10
635.1906649900674
 20
164.5
 30
0.0
 11
635.1906649900674
 21
165.5
 31
0.0
  0
LINE
  5
AD
330
1F
100
AcDbEntity
  8
0
  6
CONTINUOUS
 62
   253
100
AcDbLine
 10
635.3838501553251
 20
165.5
 30
0.0
 11
635.1906649900674
 21
165.5
 31
0.0
  0
ARC
  5
AE
330
1F
100
AcDbEntity
  8
0
  6
CONTINUOUS
 62
   253
100
AcDbCircle
 10
635.75
 20
165.5
 30
0.0
 40
0.5593350099326929
100
AcDbArc
 50
0.0000000000003979
 51
180.0
  0
ARC
  5
AF
330
1F
100
AcDbEntity
  8
0
  6
CONTINUOUS
 62
     7
100
AcDbCircle
 10
635.75
 20
164.5
 30
0.0
 40
0.5999999999999981
100
AcDbArc
 50
180.0000000000014
 51
0.0000000000000568
  0
LINE
  5
B0
330
1F
100
AcDbEntity
  8
0
  6
CONTINUOUS
 62
   253
100
AcDbLine
 10
635.1906649900674
 20
164.5
 30
0.0
 11
635.1500000000001
 21
164.5
 31
0.0
  0
LINE
  5
B1
330
1F
100
AcDbEntity
  8
0
  6
CONTINUOUS
 62
   253
100
AcDbLine
 10
636.3093350099327
 20
164.5
 30
0.0
 11
636.3499999999999
 21
164.5
 31
0.0
  0
LINE
  5
B2
330
1F
100
AcDbEntity
  8
0
  6
CONTINUOUS
 62
     7
100
AcDbLine
 10
636.3499999999999
 20
164.5
 30
0.0
 11
636.3499999999999
 21
165.5
 31
0.0
  0
LINE
  5
B3
330
1F
100
AcDbEntity
  8
0
  6
CONTINUOUS
 62
   253
100
AcDbLine
 10
636.3093350099327
 20
165.5
 30
0.0
 11
636.3499999999999
 21
165.5
 31
0.0
  0
ARC
  5
B4
330
1F
100
AcDbEntity
  8
0
  6
CONTINUOUS
 62
     7
100
AcDbCircle
 10
635.75
 20
165.5
 30
0.0
 40
0.5999999999999981
100
AcDbArc
 50
0.0000000000000414
 51
180.0
  0
LINE
  5
B5
330
1F
100
AcDbEntity
  8
0
  6
CONTINUOUS
 62
   253
100
AcDbLine
 10
635.1906649900674
 20
165.5
 30
0.0
 11
635.1500000000001
 21
165.5
 31
0.0
  0
LINE
  5
B6
330
1F
100
AcDbEntity
  8
0
  6
CONTINUOUS
 62
     7
100
AcDbLine
 10
635.15
 20
164.5
 30
0.0
 11
635.15
 21
165.5
 31
0.0
  0
ARC
  5
B7
330
1F
100
AcDbEntity
  8
0
  6
CONTINUOUS
 62
   253
100
AcDbCircle
 10
644.25
 20
165.5
 30
0.0
 40
1.202901203645759
100
AcDbArc
 50
359.9999999999998
 51
179.9999999999995
  0
LINE
  5
B8
330
1F
100
AcDbEntity
  8
0
  6
CONTINUOUS
 62
   253
100
AcDbLine
 10
642.7516564704506
 20
165.5
 30
0.0
 11
643.0470987963542
 21
165.5
 31
0.0
  0
ARC
  5
B9
330
1F
100
AcDbEntity
  8
0
  6
CONTINUOUS
 62
   253
100
AcDbCircle
 10
644.25
 20
165.5
 30
0.0
 40
1.498343529549422
100
AcDbArc
 50
0.0
 51
180.0
  0
LINE
  5
BA
330
1F
100
AcDbEntity
  8
0
  6
CONTINUOUS
 62
   253
100
AcDbLine
 10
645.4529012036458
 20
164.5
 30
0.0
 11
645.4529012036458
 21
165.5
 31
0.0
  0
LINE
  5
BB
330
1F
100
AcDbEntity
  8
0
  6
CONTINUOUS
 62
   253
100
AcDbLine
 10
645.4529012036458
 20
165.5
 30
0.0
 11
645.7483435295493
 21
165.5
 31
0.0
  0
LINE
  5
BC
330
1F
100
AcDbEntity
  8
0
  6
CONTINUOUS
 62
   253
100
AcDbLine
 10
645.7483435295494
 20
165.5
 30
0.0
 11
645.7483435295494
 21
164.5
 31
0.0
  0
LINE
  5
BD
330
1F
100
AcDbEntity
  8
0
  6
CONTINUOUS
 62
   253
100
AcDbLine
 10
645.4529012036458
 20
164.5
 30
0.0
 11
645.7483435295493
 21
164.5
 31
0.0
  0
ARC
  5
BE
330
1F
100
AcDbEntity
  8
0
  6
CONTINUOUS
 62
   253
100
AcDbCircle
 10
644.25
 20
164.5
 30
0.0
 40
3.587867965644035
100
AcDbArc
 50
180.0
 51
0.0
  0
ARC
  5
BF
330
1F
100
AcDbEntity
  8
0
  6
CONTINUOUS
 62
   253
100
AcDbCircle
 10
644.25
 20
164.5
 30
0.0
 40
3.37573593128807
100
AcDbArc
 50
180.0
 51
0.0
  0
LINE
  5
C0
330
1F
100
AcDbEntity
  8
0
  6
CONTINUOUS
 62
   253
100
AcDbLine
 10
647.837867965644
 20
164.5
 30
0.0
 11
647.625735931288
 21
164.5
 31
0.0
  0
ARC
  5
C1
330
1F
100
AcDbEntity
  8
0
  6
CONTINUOUS
 62
   253
100
AcDbCircle
 10
644.25
 20
164.5
 30
0.0
 40
1.202901203645759
100
AcDbArc
 50
180.0
 51
359.9999999999998
  0
ARC
  5
C2
330
1F
100
AcDbEntity
  8
0
  6
CONTINUOUS
 62
   253
100
AcDbCircle
 10
644.25
 20
164.5
 30
0.0
 40
1.498343529549422
100
AcDbArc
 50
180.0
 51
0.0
  0
LINE
  5
C3
330
1F
100
AcDbEntity
  8
0
  6
CONTINUOUS
 62
   253
100
AcDbLine
 10
642.7516564704506
 20
164.5
 30
0.0
 11
643.0470987963542
 21
164.5
 31
0.0
  0
LINE
  5
C4
330
1F
100
AcDbEntity
  8
0
  6
CONTINUOUS
 62
   253
100
AcDbLine
 10
647.625735931288
 20
164.5
 30
0.0
 11
647.625735931288
 21
165.5
 31
0.0
  0
LINE
  5
C5
330
1F
100
AcDbEntity
  8
0
  6
CONTINUOUS
 62
   253
100
AcDbLine
 10
642.7516564704506
 20
164.5
 30
0.0
 11
642.7516564704506
 21
165.5
 31
0.0
  0
LINE
  5
C6
330
1F
100
AcDbEntity
  8
0
  6
CONTINUOUS
 62
   253
100
AcDbLine
 10
643.0470987963542
 20
165.5
 30
0.0
 11
643.0470987963542
 21
164.5
 31
0.0
  0
LINE
  5
C7
330
1F
100
AcDbEntity
  8
0
  6
CONTINUOUS
 62
   253
100
AcDbLine
 10
640.8742640687119
 20
165.5
 30
0.0
 11
640.8742640687119
 21
164.5
 31
0.0
  0
LINE
  5
C8
330
1F
100
AcDbEntity
  8
0
  6
CONTINUOUS
 62
   253
100
AcDbLine
 10
640.8742640687119
 20
164.5
 30
0.0
 11
640.662132034356
 21
164.5
 31
0.0
  0
LINE
  5
C9
330
1F
100
AcDbEntity
  8
0
  6
CONTINUOUS
 62
   253
100
AcDbLine
 10
640.6621320343561
 20
164.5
 30
0.0
 11
640.6621320343561
 21
165.5
 31
0.0
  0
LINE
  5
CA
330
1F
100
AcDbEntity
  8
0
  6
CONTINUOUS
 62
   253
100
AcDbLine
 10
640.8742640687119
 20
165.5
 30
0.0
 11
640.662132034356
 21
165.5
 31
0.0
  0
ARC
  5
CB
330
1F
100
AcDbEntity
  8
0
  6
CONTINUOUS
 62
   253
100
AcDbCircle
 10
644.25
 20
165.5
 30
0.0
 40
3.587867965644035
100
AcDbArc
 50
0.0
 51
180.0
  0
LINE
  5
CC
330
1F
100
AcDbEntity
  8
0
  6
CONTINUOUS
 62
   253
100
AcDbLine
 10
647.837867965644
 20
165.5
 30
0.0
 11
647.625735931288
 21
165.5
 31
0.0
  0
ARC
  5
CD
330
1F
100
AcDbEntity
  8
0
  6
CONTINUOUS
 62
   253
100
AcDbCircle
 10
644.25
 20
165.5
 30
0.0
 40
3.37573593128807
100
AcDbArc
 50
359.9999999999998
 51
180.0
  0
LINE
  5
CE
330
1F
100
AcDbEntity
  8
0
  6
CONTINUOUS
 62
   253
100
AcDbLine
 10
647.837867965644
 20
165.5
 30
0.0
 11
647.837867965644
 21
164.5
 31
0.0
  0
ARC
  5
CF
330
1F
100
AcDbEntity
  8
0
  6
CONTINUOUS
 62
   253
100
AcDbCircle
 10
644.25
 20
164.5
 30
0.0
 40
3.912132034355963
100
AcDbArc
 50
180.0
 51
359.9999999999998
  0
LINE
  5
D0
330
1F
100
AcDbEntity
  8
0
  6
CONTINUOUS
 62
   253
100
AcDbLine
 10
648.1621320343559
 20
164.5
 30
0.0
 11
648.1621320343559
 21
165.5
 31
0.0
  0
LINE
  5
D1
330
1F
100
AcDbEntity
  8
0
  6
CONTINUOUS
 62
   253
100
AcDbLine
 10
648.1621320343559
 20
164.5
 30
0.0
 11
647.837867965644
 21
164.5
 31
0.0
  0
LINE
  5
D2
330
1F
100
AcDbEntity
  8
0
  6
CONTINUOUS
 62
   253
100
AcDbLine
 10
648.1621320343559
 20
165.5
 30
0.0
 11
647.837867965644
 21
165.5
 31
0.0
  0
ARC
  5
D3
330
1F
100
AcDbEntity
  8
0
  6
CONTINUOUS
 62
   253
100
AcDbCircle
 10
644.25
 20
165.5
 30
0.0
 40
3.912132034355963
100
AcDbArc
 50
359.9999999999998
 51
180.0
  0
LINE
  5
D4
330
1F
100
AcDbEntity
  8
0
  6
CONTINUOUS
 62
   253
100
AcDbLine
 10
640.337867965644
 20
165.5
 30
0.0
 11
640.337867965644
 21
164.5
 31
0.0
  0
LINE
  5
D5
330
1F
100
AcDbEntity
  8
0
  6
CONTINUOUS
 62
   253
100
AcDbLine
 10
640.337867965644
 20
165.5
 30
0.0
 11
640.662132034356
 21
165.5
 31
0.0
  0
LINE
  5
D6
330
1F
100
AcDbEntity
  8
0
  6
CONTINUOUS
 62
   253
100
AcDbLine
 10
640.337867965644
 20
164.5
 30
0.0
 11
640.662132034356
 21
164.5
 31
0.0
  0
ARC
  5
D7
330
1F
100
AcDbEntity
  8
0
  6
CONTINUOUS
 62
     7
100
AcDbCircle
 10
644.25
 20
164.5
 30
0.0
 40
0.7000000000000001
100
AcDbArc
 50
179.9999999999972
 51
0.0
  0
LINE
  5
D8
330
1F
100
AcDbEntity
  8
0
  6
CONTINUOUS
 62
   253
100
AcDbLine
 10
645.4529012036458
 20
164.5
 30
0.0
 11
644.95
 21
164.5
 31
0.0
  0
LINE
  5
D9
330
1F
100
AcDbEntity
  8
0
  6
CONTINUOUS
 62
   253
100
AcDbLine
 10
643.0470987963542
 20
164.5
 30
0.0
 11
643.55
 21
164.5
 31
0.0
  0
LINE
  5
DA
330
1F
100
AcDbEntity
  8
0
  6
CONTINUOUS
 62
     7
100
AcDbLine
 10
644.95
 20
165.5
 30
0.0
 11
644.95
 21
164.5
 31
0.0
  0
ARC
  5
DB
330
1F
100
AcDbEntity
  8
0
  6
CONTINUOUS
 62
     7
100
AcDbCircle
 10
644.25
 20
165.5
 30
0.0
 40
0.7000000000000001
100
AcDbArc
 50
359.9999999999998
 51
179.9999999999943
  0
LINE
  5
DC
330
1F
100
AcDbEntity
  8
0
  6
CONTINUOUS
 62
   253
100
AcDbLine
 10
643.0470987963542
 20
165.5
 30
0.0
 11
643.55
 21
165.5
 31
0.0
  0
LINE
  5
DD
330
1F
100
AcDbEntity
  8
0
  6
CONTINUOUS
 62
   253
100
AcDbLine
 10
645.4529012036458
 20
165.5
 30
0.0
 11
644.95
 21
165.5
 31
0.0
  0
LINE
  5
DE
330
1F
100
AcDbEntity
  8
0
  6
CONTINUOUS
 62
     7
100
AcDbLine
 10
643.5500000000001
 20
165.5
 30
0.0
 11
643.5500000000001
 21
164.5
 31
0.0
  0
ARC
  5
DF
330
1F
100
AcDbEntity
  8
0
  6
CONTINUOUS
 62
     7
100
AcDbCircle
 10
644.25
 20
165.5
 30
0.0
 40
4.000000000000002
100
AcDbArc
 50
0.0000000000000568
 51
180.0
  0
LINE
  5
E0
330
1F
100
AcDbEntity
  8
0
  6
CONTINUOUS
 62
   253
100
AcDbLine
 10
640.337867965644
 20
165.5
 30
0.0
 11
640.2500000000001
 21
165.5
 31
0.0
  0
LINE
  5
E1
330
1F
100
AcDbEntity
  8
0
  6
CONTINUOUS
 62
     7
100
AcDbLine
 10
648.25
 20
165.5
 30
0.0
 11
648.25
 21
164.5
 31
0.0
  0
LINE
  5
E2
330
1F
100
AcDbEntity
  8
0
  6
CONTINUOUS
 62
   253
100
AcDbLine
 10
648.25
 20
164.5
 30
0.0
 11
648.162132034356
 21
164.5
 31
0.0
  0
LINE
  5
E3
330
1F
100
AcDbEntity
  8
0
  6
CONTINUOUS
 62
   253
100
AcDbLine
 10
648.25
 20
165.5
 30
0.0
 11
648.162132034356
 21
165.5
 31
0.0
  0
ARC
  5
E4
330
1F
100
AcDbEntity
  8
0
  6
CONTINUOUS
 62
     7
100
AcDbCircle
 10
644.25
 20
164.5
 30
0.0
 40
4.000000000000002
100
AcDbArc
 50
180.0000000000001
 51
0.0
  0
LINE
  5
E5
330
1F
100
AcDbEntity
  8
0
  6
CONTINUOUS
 62
   253
100
AcDbLine
 10
640.337867965644
 20
164.5
 30
0.0
 11
640.2500000000001
 21
164.5
 31
0.0
  0
LINE
  5
E6
330
1F
100
AcDbEntity
  8
0
  6
CONTINUOUS
 62
     7
100
AcDbLine
 10
640.2500000000001
 20
164.5
 30
0.0
 11
640.2500000000001
 21
165.5
 31
0.0
  0
ARC
  5
E7
330
1F
100
AcDbEntity
  8
0
  6
CONTINUOUS
 62
   253
100
AcDbCircle
 10
644.25
 20
165.5
 30
0.0
 40
0.5593350099326934
100
AcDbArc
 50
0.0000000000003411
 51
180.0
  0
LINE
  5
E8
330
1F
100
AcDbEntity
  8
0
  6
CONTINUOUS
 62
   253
100
AcDbLine
 10
644.6161498446749
 20
164.5
 30
0.0
 11
644.6161498446749
 21
165.5
 31
0.0
  0
ARC
  5
E9
330
1F
100
AcDbEntity
  8
0
  6
CONTINUOUS
 62
   253
100
AcDbCircle
 10
644.25
 20
164.5
 30
0.0
 40
0.3661498446748765
100
AcDbArc
 50
180.0
 51
359.9999999999998
  0
LINE
  5
EA
330
1F
100
AcDbEntity
  8
0
  6
CONTINUOUS
 62
   253
100
AcDbLine
 10
643.8838501553251
 20
165.5
 30
0.0
 11
643.8838501553251
 21
164.5
 31
0.0
  0
ARC
  5
EB
330
1F
100
AcDbEntity
  8
0
  6
CONTINUOUS
 62
   253
100
AcDbCircle
 10
644.25
 20
165.5
 30
0.0
 40
0.3661498446748774
100
AcDbArc
 50
359.9999999999998
 51
180.0
  0
LINE
  5
EC
330
1F
100
AcDbEntity
  8
0
  6
CONTINUOUS
 62
   253
100
AcDbLine
 10
643.6906649900673
 20
164.5
 30
0.0
 11
643.6906649900673
 21
165.5
 31
0.0
  0
LINE
  5
ED
330
1F
100
AcDbEntity
  8
0
  6
CONTINUOUS
 62
   253
100
AcDbLine
 10
643.8838501553251
 20
165.5
 30
0.0
 11
643.6906649900673
 21
165.5
 31
0.0
  0
LINE
  5
EE
330
1F
100
AcDbEntity
  8
0
  6
CONTINUOUS
 62
   253
100
AcDbLine
 10
644.8093350099326
 20
165.5
 30
0.0
 11
644.8093350099326
 21
164.5
 31
0.0
  0
LINE
  5
EF
330
1F
100
AcDbEntity
  8
0
  6
CONTINUOUS
 62
   253
100
AcDbLine
 10
644.8093350099326
 20
164.5
 30
0.0
 11
644.6161498446749
 21
164.5
 31
0.0
  0
LINE
  5
F0
330
1F
100
AcDbEntity
  8
0
  6
CONTINUOUS
 62
   253
100
AcDbLine
 10
644.6161498446749
 20
165.5
 30
0.0
 11
644.8093350099326
 21
165.5
 31
0.0
  0
ARC
  5
F1
330
1F
100
AcDbEntity
  8
0
  6
CONTINUOUS
 62
   253
100
AcDbCircle
 10
644.25
 20
164.5
 30
0.0
 40
0.5593350099326929
100
AcDbArc
 50
180.0000000000008
 51
0.0
  0
LINE
  5
F2
330
1F
100
AcDbEntity
  8
0
  6
CONTINUOUS
 62
   253
100
AcDbLine
 10
643.6906649900673
 20
164.5
 30
0.0
 11
643.8838501553251
 21
164.5
 31
0.0
  0
ARC
  5
F3
330
1F
100
AcDbEntity
  8
0
  6
CONTINUOUS
 62
     7
100
AcDbCircle
 10
644.25
 20
164.5
 30
0.0
 40
0.5999999999999981
100
AcDbArc
 50
180.0000000000013
 51
0.0
  0
LINE
  5
F4
330
1F
100
AcDbEntity
  8
0
  6
CONTINUOUS
 62
   253
100
AcDbLine
 10
643.6906649900673
 20
164.5
 30
0.0
 11
643.6500000000001
 21
164.5
 31
0.0
  0
LINE
  5
F5
330
1F
100
AcDbEntity
  8
0
  6
CONTINUOUS
 62
   253
100
AcDbLine
 10
644.8093350099326
 20
164.5
 30
0.0
 11
644.8499999999999
 21
164.5
 31
0.0
  0
LINE
  5
F6
330
1F
100
AcDbEntity
  8
0
  6
CONTINUOUS
 62
     7
100
AcDbLine
 10
644.85
 20
164.5
 30
0.0
 11
644.85
 21
165.5
 31
0.0
  0
LINE
  5
F7
330
1F
100
AcDbEntity
  8
0
  6
CONTINUOUS
 62
   253
100
AcDbLine
 10
644.8093350099326
 20
165.5
 30
0.0
 11
644.8499999999999
 21
165.5
 31
0.0
  0
ARC
  5
F8
330
1F
100
AcDbEntity
  8
0
  6
CONTINUOUS
 62
     7
100
AcDbCircle
 10
644.25
 20
165.5
 30
0.0
 40
0.5999999999999981
100
AcDbArc
 50
359.9999999999998
 51
180.0
  0
LINE
  5
F9
330
1F
100
AcDbEntity
  8
0
  6
CONTINUOUS
 62
   253
100
AcDbLine
 10
643.6906649900673
 20
165.5
 30
0.0
 11
643.6500000000001
 21
165.5
 31
0.0
  0
LINE
  5
FA
330
1F
100
AcDbEntity
  8
0
  6
CONTINUOUS
 62
     7
100
AcDbLine
 10
643.6500000000001
 20
164.5
 30
0.0
 11
643.6500000000001
 21
165.5
 31
0.0
  0
ARC
  5
FB
330
1F
100
AcDbEntity
  8
0
  6
CONTINUOUS
 62
   253
100
AcDbCircle
 10
640.0
 20
165.0
 30
0.0
 40
55.28208697383135
100
AcDbArc
 50
184.1409176122136
 51
265.8590823877864
  0
LINE
  5
FC
330
1F
100
AcDbEntity
  8
0
  6
CONTINUOUS
 62
   253
100
AcDbLine
 10
585.7428712644357
 20
161.0718519932579
 30
0.0
 11
584.8622286337314
 21
161.0080945723425
 31
0.0
  0
ARC
  5
FD
330
1F
100
AcDbEntity
  8
0
  6
CONTINUOUS
 62
   253
100
AcDbCircle
 10
640.0
 20
165.0
 30
0.0
 40
54.39913938097243
100
AcDbArc
 50
184.1409176122137
 51
265.8590823877865
  0
LINE
  5
FE
330
1F
100
AcDbEntity
  8
0
  6
CONTINUOUS
 62
   253
100
AcDbLine
 10
636.0080945723425
 20
109.8622286337315
 30
0.0
 11
636.0718519932578
 21
110.7428712644357
 31
0.0
  0
LWPOLYLINE
  5
FF
330
1F
100
AcDbEntity
  8
0
  6
CONTINUOUS
 62
   253
100
AcDbPolyline
 90
       27
 70
     0
 43
0.0
 10
598.2147697249861
 20
160.5691428994073
 10
598.1958972030693
 20
160.6033828250641
 10
598.1756463047537
 20
160.636863432713
 10
598.1540582943734
 20
160.6694968047206
 10
598.1311744362621
 20
160.7011950234538
 10
598.1063007058013
 20
160.7327727638914
 10
598.0800814736795
 20
160.7632910675373
 10
598.0525834197865
 20
160.7926613187383
 10
598.0238732240131
 20
160.8207949018414
 10
597.9947913489765
 20
160.846946479122
 10
597.9646043381191
 20
160.8718693284467
 10
597.9333921562754
 20
160.8954951516564
 10
597.9012347682796
 20
160.9177556505918
 10
597.8671401263721
 20
160.939233931517
 10
597.8321043941536
 20
160.9592183367967
 10
597.7962300304997
 20
160.9776552526652
 10
597.7596194942865
 20
160.9944910653567
 10
597.7241446540645
 20
161.0090019721128
 10
597.6880694943
 20
161.0220449274375
 10
597.6514883983542
 20
161.0335946405474
 10
597.6144957495887
 20
161.0436258206597
 10
597.5760695239331
 20
161.0523490996546
 10
597.5372794029576
 20
161.0594682428916
 10
597.4982273060407
 20
161.064977785694
 10
597.4590151525615
 20
161.0688722633851
 10
597.4209687108253
 20
161.0711084491225
 10
597.3828637094131
 20
161.0718519932579
  0
ARC
  5
100
330
1F
100
AcDbEntity
  8
0
  6
CONTINUOUS
 62
   253
100
AcDbCircle
 10
606.65
 20
165.0
 30
0.0
 40
9.528148006742112
100
AcDbArc
 50
207.7120442920556
 51
152.287955707968
  0
LWPOLYLINE
  5
101
330
1F
100
AcDbEntity
  8
0
  6
CONTINUOUS
 62
   253
100
AcDbPolyline
 90
       27
 70
     0
 43
0.0
 10
597.3828637094088
 20
168.9281480067421
 10
597.421953222658
 20
168.9289333783699
 10
597.4610114874826
 20
168.931292346141
 10
597.4999414713833
 20
168.9352291893867
 10
597.5386461418615
 20
168.940748187438
 10
597.5781695533153
 20
168.9480848757072
 10
597.6173807278756
 20
168.9571053849683
 10
597.6561702175419
 20
168.9677918739995
 10
597.6944285743143
 20
168.9801265015789
 10
597.7311050053381
 20
168.9937117559235
 10
597.7672075776263
 20
169.0088467319451
 10
597.8026386363227
 20
169.0254924203017
 10
597.8373005265713
 20
169.043609811651
 10
597.8721707929424
 20
169.0638060317156
 10
597.906156136856
 20
169.0855301504916
 10
597.9391614196809
 20
169.1087164151969
 10
597.9710915027855
 20
169.133299073049
 10
598.0004350127216
 20
169.157957466633
 10
598.0287580054566
 20
169.1838300712281
 10
598.0559941861338
 20
169.2108450791582
 10
598.0820772598972
 20
169.2389306827473
 10
598.1076690592527
 20
169.2688938737198
 10
598.1320098109404
 20
169.2999252522478
 10
598.1550473168344
 20
169.3319370924452
 10
598.1767293788087
 20
169.3648416684256
 10
598.1963962755765
 20
169.3974766308759
 10
598.2147697249843
 20
169.4308571005893
  0
LINE
  5
102
330
1F
100
AcDbEntity
  8
0
  6
CONTINUOUS
 62
   253
100
AcDbLine
 10
585.7428712644357
 20
168.9281480067421
 30
0.0
 11
597.3828637094086
 21
168.9281480067421
 31
0.0
  0
ARC
  5
103
330
1F
100
AcDbEntity
  8
0
  6
CONTINUOUS
 62
   253
100
AcDbCircle
 10
640.0
 20
165.0
 30
0.0
 40
54.39913938097243
100
AcDbArc
 50
94.1409176122136
 51
175.8590823877864
  0
LINE
  5
104
330
1F
100
AcDbEntity
  8
0
  6
CONTINUOUS
 62
   253
100
AcDbLine
 10
636.0718519932578
 20
197.5
 30
0.0
 11
636.0718519932578
 21
219.2571287355643
 31
0.0
  0
ARC
  5
105
330
1F
100
AcDbEntity
  8
0
  6
CONTINUOUS
 62
   253
100
AcDbCircle
 10
640.0
 20
197.5
 30
0.0
 40
3.928148006742118
100
AcDbArc
 50
180.0
 51
0.0
  0
LINE
  5
106
330
1F
100
AcDbEntity
  8
0
  6
CONTINUOUS
 62
   253
100
AcDbLine
 10
643.9281480067422
 20
219.2571287355643
 30
0.0
 11
643.9281480067422
 21
197.5
 31
0.0
  0
ARC
  5
107
330
1F
100
AcDbEntity
  8
0
  6
CONTINUOUS
 62
   253
100
AcDbCircle
 10
640.0
 20
165.0
 30
0.0
 40
54.39913938097243
100
AcDbArc
 50
4.140917612213673
 51
85.85908238778653
  0
LINE
  5
108
330
1F
100
AcDbEntity
  8
0
  6
CONTINUOUS
 62
   253
100
AcDbLine
 10
682.6171362905869
 20
168.9281480067421
 30
0.0
 11
694.2571287355642
 21
168.9281480067421
 31
0.0
  0
LWPOLYLINE
  5
109
330
1F
100
AcDbEntity
  8
0
  6
CONTINUOUS
 62
   253
100
AcDbPolyline
 90
       27
 70
     0
 43
0.0
 10
681.7852302750155
 20
169.4308571005948
 10
681.804102796932
 20
169.3966171749375
 10
681.824353695247
 20
169.363136567288
 10
681.8459417056268
 20
169.3305031952797
 10
681.868825563738
 20
169.2988049765461
 10
681.893699294199
 20
169.2672272361082
 10
681.9199185263211
 20
169.2367089324621
 10
681.9474165802143
 20
169.2073386812609
 10
681.9761267759881
 20
169.1792050981576
 10
682.0052086510246
 20
169.1530535208771
 10
682.0353956618819
 20
169.1281306715524
 10
682.0666078437258
 20
169.1045048483428
 10
682.0987652317216
 20
169.0822443494075
 10
682.1328598736292
 20
169.0607660684823
 10
682.1678956058477
 20
169.0407816632027
 10
682.2037699695015
 20
169.0223447473342
 10
682.2403805057147
 20
169.0055089346428
 10
682.2758553459366
 20
168.9909980278867
 10
682.3119305057013
 20
168.9779550725621
 10
682.348511601647
 20
168.9664053594522
 10
682.3855042504124
 20
168.9563741793399
 10
682.4239304760682
 20
168.9476509003452
 10
682.4627205970438
 20
168.9405317571082
 10
682.5017726939606
 20
168.9350222143058
 10
682.5409848474397
 20
168.9311277366148
 10
682.5790312891754
 20
168.9288915508774
 10
682.6171362905869
 20
168.9281480067421
  0
ARC
  5
10A
330
1F
100
AcDbEntity
  8
0
  6
CONTINUOUS
 62
   253
100
AcDbCircle
 10
673.35
 20
165.0
 30
0.0
 40
9.528148006742109
100
AcDbArc
 50
27.71204429206244
 51
332.287955707968
  0
LWPOLYLINE
  5
10B
330
1F
100
AcDbEntity
  8
0
  6
CONTINUOUS
 62
   253
100
AcDbPolyline
 90
       27
 70
     0
 43
0.0
 10
682.6171362905869
 20
161.0718519932579
 10
682.578820948078
 20
161.0711001998387
 10
682.5405651454685
 20
161.0688391887524
 10
682.5024165981202
 20
161.0650552070413
 10
682.4644193404306
 20
161.0597428384494
 10
682.4266671830652
 20
161.0529068992747
 10
682.3892539366906
 20
161.0445522058154
 10
682.3511926167267
 20
161.0343759089521
 10
682.3135603017244
 20
161.0225941099989
 10
682.2764595233488
 20
161.0092340261899
 10
682.2399928132653
 20
160.9943228747593
 10
682.2044796866753
 20
160.9780006857738
 10
682.1696587692825
 20
160.9601721951908
 10
682.1356236911779
 20
160.9408860581146
 10
682.1024680824521
 20
160.9201909296493
 10
682.0692625616468
 20
160.897409303243
 10
682.0370531996747
 20
160.8731758417642
 10
682.0059275172752
 20
160.8475648464942
 10
681.9759730351878
 20
160.8206506187143
 10
681.9480629216272
 20
160.7933224174559
 10
681.9212970814622
 20
160.7648258600859
 10
681.8957369616364
 20
160.7352421437398
 10
681.8714440090934
 20
160.7046524655532
 10
681.8477971811651
 20
160.6721702627629
 10
681.8255158929875
 20
160.6386943521552
 10
681.8046452293437
 20
160.6043201067104
 10
681.7852302750157
 20
160.5691428994107
  0
LINE
  5
10C
330
1F
100
AcDbEntity
  8
0
  6
CONTINUOUS
 62
   253
100
AcDbLine
 10
694.2571287355643
 20
161.0718519932579
 30
0.0
 11
682.617136290587
 21
161.0718519932579
 31
0.0
  0
ARC
  5
10D
330
1F
100
AcDbEntity
  8
0
  6
CONTINUOUS
 62
   253
100
AcDbCircle
 10
640.0
 20
165.0
 30
0.0
 40
54.39913938097243
100
AcDbArc
 50
274.1409176122136
 51
355.8590823877863
  0
LINE
  5
10E
330
1F
100
AcDbEntity
  8
0
  6
CONTINUOUS
 62
   253
100
AcDbLine
 10
643.9281480067422
 20
132.5
 30
0.0
 11
643.9281480067422
 21
110.7428712644357
 31
0.0
  0
ARC
  5
10F
330
1F
100
AcDbEntity
  8
0
  6
CONTINUOUS
 62
   253
100
AcDbCircle
 10
640.0
 20
132.5
 30
0.0
 40
3.928148006742118
100
AcDbArc
 50
0.0
 51
180.0
  0
LINE
  5
110
330
1F
100
AcDbEntity
  8
0
  6
CONTINUOUS
 62
   253
100
AcDbLine
 10
636.0718519932578
 20
110.7428712644357
 30
0.0
 11
636.0718519932578
 21
132.5
 31
0.0
  0
LINE
  5
111
330
1F
100
AcDbEntity
  8
0
  6
CONTINUOUS
 62
   253
100
AcDbLine
 10
597.3828637094131
 20
161.0718519932579
 30
0.0
 11
585.7428712644358
 21
161.0718519932579
 31
0.0
  0
CIRCLE
  5
112
330
1F
100
AcDbEntity
  8
0
  6
CONTINUOUS
 62
   253
100
AcDbCircle
 10
640.0
 20
165.0
 30
0.0
 40
11.94637042781872
  0
LINE
  5
113
330
1F
100
AcDbEntity
  8
0
  6
CONTINUOUS
 62
   253
100
AcDbLine
 10
636.0718519932578
 20
132.5
 30
0.0
 11
637.0115446140437
 21
132.5
 31
0.0
  0
LINE
  5
114
330
1F
100
AcDbEntity
  8
0
  6
CONTINUOUS
 62
   253
100
AcDbLine
 10
637.0115446140438
 20
132.5
 30
0.0
 11
637.0115446140438
 21
110.7428712644357
 31
0.0
  0
LINE
  5
115
330
1F
100
AcDbEntity
  8
0
  6
CONTINUOUS
 62
   253
100
AcDbLine
 10
636.0718519932578
 20
110.7428712644357
 30
0.0
 11
637.0115446140437
 21
110.7428712644357
 31
0.0
  0
LINE
  5
116
330
1F
100
AcDbEntity
  8
0
  6
CONTINUOUS
 62
   253
100
AcDbLine
 10
643.9281480067422
 20
132.5
 30
0.0
 11
642.9884553859563
 21
132.5
 31
0.0
  0
ARC
  5
117
330
1F
100
AcDbEntity
  8
0
  6
CONTINUOUS
 62
   253
100
AcDbCircle
 10
640.0
 20
132.5
 30
0.0
 40
2.988455385956208
100
AcDbArc
 50
0.0
 51
180.0
  0
LINE
  5
118
330
1F
100
AcDbEntity
  8
0
  6
CONTINUOUS
 62
   253
100
AcDbLine
 10
597.3828637094088
 20
168.9281480067421
 30
0.0
 11
597.3828637094088
 21
167.9884553859565
 31
0.0
  0
LINE
  5
119
330
1F
100
AcDbEntity
  8
0
  6
CONTINUOUS
 62
   253
100
AcDbLine
 10
597.3828637094128
 20
167.9884553859565
 30
0.0
 11
585.7428712644357
 21
167.9884553859562
 31
0.0
  0
LINE
  5
11A
330
1F
100
AcDbEntity
  8
0
  6
CONTINUOUS
 62
   253
100
AcDbLine
 10
585.7428712644357
 20
168.9281480067421
 30
0.0
 11
585.7428712644357
 21
167.9884553859562
 31
0.0
  0
LWPOLYLINE
  5
11B
330
1F
100
AcDbEntity
  8
0
  6
CONTINUOUS
 62
   253
100
AcDbPolyline
 90
        8
 70
     0
 43
0.0
 10
636.0080945723425
 20
109.8622286337315
 10
636.2077239311818
 20
109.9001470424646
 10
636.4013835746935
 20
109.9750916670728
 10
636.5805648074108
 20
110.0837697152322
 10
636.7373950622114
 20
110.2214062715348
 10
636.8649837920825
 20
110.3819540897843
 10
636.9577252155216
 20
110.5583592868456
 10
637.0115446140438
 20
110.7428712644357
  0
LWPOLYLINE
  5
11C
330
1F
100
AcDbEntity
  8
0
  6
CONTINUOUS
 62
   253
100
AcDbPolyline
 90
        8
 70
     0
 43
0.0
 10
585.7428712644357
 20
162.0115446140438
 10
585.5583592868456
 20
161.9577252155216
 10
585.3819540897844
 20
161.8649837920825
 10
585.2214062715348
 20
161.7373950622114
 10
585.0837697152322
 20
161.5805648074109
 10
584.9750916670728
 20
161.4013835746935
 10
584.9001470424645
 20
161.2077239311818
 10
584.8622286337315
 20
161.0080945723425
  0
LINE
  5
11D
330
1F
100
AcDbEntity
  8
0
  6
CONTINUOUS
 62
   253
100
AcDbLine
 10
585.7428712644357
 20
162.0115446140438
 30
0.0
 11
585.7428712644357
 21
161.0718519932579
 31
0.0
  0
LWPOLYLINE
  5
11E
330
1F
100
AcDbEntity
  8
0
  6
CONTINUOUS
 62
   253
100
AcDbPolyline
 90
        8
 70
     0
 43
0.0
 10
584.8622286337315
 20
168.9919054276575
 10
584.9001470424645
 20
168.7922760688181
 10
584.9750916670728
 20
168.5986164253065
 10
585.0837697152322
 20
168.4194351925891
 10
585.2214062715348
 20
168.2626049377886
 10
585.3819540897844
 20
168.1350162079174
 10
585.5583592868456
 20
168.0422747844784
 10
585.7428712644357
 20
167.9884553859562
  0
LINE
  5
11F
330
1F
100
AcDbEntity
  8
0
  6
CONTINUOUS
 62
   253
100
AcDbLine
 10
585.7428712644357
 20
168.9281480067421
 30
0.0
 11
584.8622286337314
 21
168.9919054276575
 31
0.0
  0
LINE
  5
120
330
1F
100
AcDbEntity
  8
0
  6
CONTINUOUS
 62
   253
100
AcDbLine
 10
642.9884553859562
 20
110.7428712644357
 30
0.0
 11
643.928148006742
 21
110.7428712644357
 31
0.0
  0
LINE
  5
121
330
1F
100
AcDbEntity
  8
0
  6
CONTINUOUS
 62
   253
100
AcDbLine
 10
642.9884553859562
 20
110.7428712644357
 30
0.0
 11
642.9884553859562
 21
132.5
 31
0.0
  0
LWPOLYLINE
  5
122
330
1F
100
AcDbEntity
  8
0
  6
CONTINUOUS
 62
   253
100
AcDbPolyline
 90
        8
 70
     0
 43
0.0
 10
642.9884553859562
 20
110.7428712644357
 10
643.0422747844784
 20
110.5583592868456
 10
643.1350162079176
 20
110.3819540897843
 10
643.2626049377886
 20
110.2214062715348
 10
643.4194351925892
 20
110.0837697152322
 10
643.5986164253065
 20
109.9750916670728
 10
643.7922760688182
 20
109.9001470424646
 10
643.9919054276575
 20
109.8622286337315
  0
LINE
  5
123
330
1F
100
AcDbEntity
  8
0
  6
CONTINUOUS
 62
   253
100
AcDbLine
 10
643.9919054276575
 20
109.8622286337315
 30
0.0
 11
643.9281480067422
 21
110.7428712644357
 31
0.0
  0
LINE
  5
124
330
1F
100
AcDbEntity
  8
0
  6
CONTINUOUS
 62
   253
100
AcDbLine
 10
597.3828637094131
 20
162.0115446140438
 30
0.0
 11
597.3828637094131
 21
161.0718519932579
 31
0.0
  0
LINE
  5
125
330
1F
100
AcDbEntity
  8
0
  6
CONTINUOUS
 62
   253
100
AcDbLine
 10
585.7428712644357
 20
162.0115446140438
 30
0.0
 11
597.382863709413
 21
162.0115446140438
 31
0.0
  0
ARC
  5
126
330
1F
100
AcDbEntity
  8
0
  6
CONTINUOUS
 62
   253
100
AcDbCircle
 10
640.0
 20
165.0
 30
0.0
 40
55.28208697383135
100
AcDbArc
 50
94.14091761221368
 51
175.8590823877865
  0
LINE
  5
127
330
1F
100
AcDbEntity
  8
0
  6
CONTINUOUS
 62
   253
100
AcDbLine
 10
636.0718519932578
 20
219.2571287355643
 30
0.0
 11
636.0080945723425
 21
220.1377713662685
 31
0.0
  0
ARC
  5
128
330
1F
100
AcDbEntity
  8
0
  6
CONTINUOUS
 62
   253
100
AcDbCircle
 10
597.3141278224726
 20
160.0184120809847
 30
0.0
 40
1.994317406154813
100
AcDbArc
 50
29.68718442684485
 51
88.02485986517432
  0
LINE
  5
129
330
1F
100
AcDbEntity
  8
0
  6
CONTINUOUS
 62
   253
100
AcDbLine
 10
599.0466757405552
 20
161.0061264263496
 30
0.0
 11
598.2147697249851
 21
160.5691428994091
 31
0.0
  0
ARC
  5
12A
330
1F
100
AcDbEntity
  8
0
  6
CONTINUOUS
 62
   253
100
AcDbCircle
 10
640.0
 20
165.0
 30
0.0
 40
55.28208697383135
100
AcDbArc
 50
274.1409176122136
 51
355.8590823877863
  0
LINE
  5
12B
330
1F
100
AcDbEntity
  8
0
  6
CONTINUOUS
 62
   253
100
AcDbLine
 10
695.1377713662685
 20
161.0080945723425
 30
0.0
 11
694.2571287355642
 21
161.0718519932579
 31
0.0
  0
ARC
  5
12C
330
1F
100
AcDbEntity
  8
0
  6
CONTINUOUS
 62
   253
100
AcDbCircle
 10
606.65
 20
165.0
 30
0.0
 40
8.588455385956205
100
AcDbArc
 50
207.7120442920329
 51
152.287955707968
  0
LINE
  5
12D
330
1F
100
AcDbEntity
  8
0
  6
CONTINUOUS
 62
   253
100
AcDbLine
 10
598.2147697249843
 20
169.4308571005893
 30
0.0
 11
599.0466757405555
 21
168.9938735736505
 31
0.0
  0
ARC
  5
12E
330
1F
100
AcDbEntity
  8
0
  6
CONTINUOUS
 62
   253
100
AcDbCircle
 10
597.3141424179221
 20
169.9815637657985
 30
0.0
 40
1.994292764290256
100
AcDbArc
 50
271.9747449750478
 51
330.3132107328995
  0
ARC
  5
12F
330
1F
100
AcDbEntity
  8
0
  6
CONTINUOUS
 62
   253
100
AcDbCircle
 10
640.0
 20
165.0
 30
0.0
 40
55.28208697383135
100
AcDbArc
 50
4.140917612213569
 51
85.85908238778643
  0
LINE
  5
130
330
1F
100
AcDbEntity
  8
0
  6
CONTINUOUS
 62
   253
100
AcDbLine
 10
695.1377713662685
 20
168.9919054276575
 30
0.0
 11
694.2571287355642
 21
168.9281480067421
 31
0.0
  0
LINE
  5
131
330
1F
100
AcDbEntity
  8
0
  6
CONTINUOUS
 62
   253
100
AcDbLine
 10
643.9281480067422
 20
219.2571287355643
 30
0.0
 11
643.9919054276575
 21
220.1377713662685
 31
0.0
  0
CIRCLE
  5
132
330
1F
100
AcDbEntity
  8
0
  6
CONTINUOUS
 62
   253
100
AcDbCircle
 10
640.0
 20
165.0
 30
0.0
 40
10.0669851862469
  0
LINE
  5
133
330
1F
100
AcDbEntity
  8
0
  6
CONTINUOUS
 62
   253
100
AcDbLine
 10
682.6171362905869
 20
167.9884553859562
 30
0.0
 11
682.6171362905869
 21
168.9281480067421
 31
0.0
  0
LINE
  5
134
330
1F
100
AcDbEntity
  8
0
  6
CONTINUOUS
 62
   253
100
AcDbLine
 10
694.2571287355643
 20
167.9884553859562
 30
0.0
 11
694.2571287355643
 21
168.9281480067421
 31
0.0
  0
LINE
  5
135
330
1F
100
AcDbEntity
  8
0
  6
CONTINUOUS
 62
   253
100
AcDbLine
 10
694.2571287355643
 20
167.9884553859562
 30
0.0
 11
682.617136290587
 21
167.9884553859562
 31
0.0
  0
LINE
  5
136
330
1F
100
AcDbEntity
  8
0
  6
CONTINUOUS
 62
   253
100
AcDbLine
 10
637.0115446140438
 20
197.5
 30
0.0
 11
636.071851993258
 21
197.5
 31
0.0
  0
LINE
  5
137
330
1F
100
AcDbEntity
  8
0
  6
CONTINUOUS
 62
   253
100
AcDbLine
 10
637.0115446140437
 20
219.2571287355643
 30
0.0
 11
636.0718519932578
 21
219.2571287355643
 31
0.0
  0
LINE
  5
138
330
1F
100
AcDbEntity
  8
0
  6
CONTINUOUS
 62
   253
100
AcDbLine
 10
637.0115446140437
 20
219.2571287355643
 30
0.0
 11
637.0115446140437
 21
197.5
 31
0.0
  0
ARC
  5
139
330
1F
100
AcDbEntity
  8
0
  6
CONTINUOUS
 62
   253
100
AcDbCircle
 10
673.35
 20
165.0
 30
0.0
 40
8.588455385956204
100
AcDbArc
 50
27.71204429203011
 51
332.2879557079679
  0
LINE
  5
13A
330
1F
100
AcDbEntity
  8
0
  6
CONTINUOUS
 62
   253
100
AcDbLine
 10
680.9533242594445
 20
161.0061264263495
 30
0.0
 11
681.7852302750157
 21
160.5691428994107
 31
0.0
  0
LINE
  5
13B
330
1F
100
AcDbEntity
  8
0
  6
CONTINUOUS
 62
   253
100
AcDbLine
 10
680.9533242594442
 20
168.9938735736496
 30
0.0
 11
681.7852302750168
 21
169.4308571005924
 31
0.0
  0
LINE
  5
13C
330
1F
100
AcDbEntity
  8
0
  6
CONTINUOUS
 62
   253
100
AcDbLine
 10
694.2571287355643
 20
161.0718519932579
 30
0.0
 11
694.2571287355643
 21
162.0115446140438
 31
0.0
  0
LWPOLYLINE
  5
13D
330
1F
100
AcDbEntity
  8
0
  6
CONTINUOUS
 62
   253
100
AcDbPolyline
 90
        8
 70
     0
 43
0.0
 10
695.1377713662685
 20
161.0080945723425
 10
695.0998529575355
 20
161.2077239311819
 10
695.0249083329272
 20
161.4013835746935
 10
694.9162302847678
 20
161.5805648074109
 10
694.7785937284652
 20
161.7373950622114
 10
694.6180459102158
 20
161.8649837920826
 10
694.4416407131544
 20
161.9577252155216
 10
694.2571287355643
 20
162.0115446140438
  0
ARC
  5
13E
330
1F
100
AcDbEntity
  8
0
  6
CONTINUOUS
 62
   253
100
AcDbCircle
 10
640.0
 20
197.5
 30
0.0
 40
2.988455385956208
100
AcDbArc
 50
180.0
 51
0.0
  0
LINE
  5
13F
330
1F
100
AcDbEntity
  8
0
  6
CONTINUOUS
 62
   253
100
AcDbLine
 10
642.9884553859562
 20
197.5
 30
0.0
 11
643.928148006742
 21
197.5
 31
0.0
  0
LWPOLYLINE
  5
140
330
1F
100
AcDbEntity
  8
0
  6
CONTINUOUS
 62
   253
100
AcDbPolyline
 90
        8
 70
     0
 43
0.0
 10
637.0115446140438
 20
219.2571287355643
 10
636.9577252155216
 20
219.4416407131544
 10
636.8649837920825
 20
219.6180459102157
 10
636.7373950622114
 20
219.7785937284652
 10
636.5805648074108
 20
219.9162302847679
 10
636.4013835746935
 20
220.0249083329272
 10
636.2077239311818
 20
220.0998529575355
 10
636.0080945723425
 20
220.1377713662685
  0
LINE
  5
141
330
1F
100
AcDbEntity
  8
0
  6
CONTINUOUS
 62
   253
100
AcDbLine
 10
642.9884553859562
 20
197.5
 30
0.0
 11
642.9884553859562
 21
219.2571287355643
 31
0.0
  0
LINE
  5
142
330
1F
100
AcDbEntity
  8
0
  6
CONTINUOUS
 62
   253
100
AcDbLine
 10
643.9281480067422
 20
219.2571287355643
 30
0.0
 11
642.9884553859563
 21
219.2571287355643
 31
0.0
  0
ARC
  5
143
330
1F
100
AcDbEntity
  8
0
  6
CONTINUOUS
 62
   253
100
AcDbCircle
 10
682.6858721775334
 20
169.9815879190271
 30
0.0
 40
1.99431740616678
100
AcDbArc
 50
209.6871844270634
 51
268.0248598650119
  0
LWPOLYLINE
  5
144
330
1F
100
AcDbEntity
  8
0
  6
CONTINUOUS
 62
   253
100
AcDbPolyline
 90
        8
 70
     0
 43
0.0
 10
643.9919054276575
 20
220.1377713662685
 10
643.7922760688182
 20
220.0998529575355
 10
643.5986164253065
 20
220.0249083329272
 10
643.4194351925892
 20
219.9162302847679
 10
643.2626049377886
 20
219.7785937284652
 10
643.1350162079175
 20
219.6180459102157
 10
643.0422747844784
 20
219.4416407131544
 10
642.9884553859562
 20
219.2571287355643
  0
LINE
  5
145
330
1F
100
AcDbEntity
  8
0
  6
CONTINUOUS
 62
   253
100
AcDbLine
 10
682.6171362905869
 20
161.0718519932579
 30
0.0
 11
682.6171362905869
 21
162.0115446140438
 31
0.0
  0
LINE
  5
146
330
1F
100
AcDbEntity
  8
0
  6
CONTINUOUS
 62
   253
100
AcDbLine
 10
682.6171362905869
 20
162.0115446140438
 30
0.0
 11
694.2571287355642
 21
162.0115446140438
 31
0.0
  0
ARC
  5
147
330
1F
100
AcDbEntity
  8
0
  6
CONTINUOUS
 62
   253
100
AcDbCircle
 10
682.6858538911989
 20
160.0184423420375
 30
0.0
 40
1.99428653290102
100
AcDbArc
 50
91.97464504599908
 51
150.3133106619689
  0
LWPOLYLINE
  5
148
330
1F
100
AcDbEntity
  8
0
  6
CONTINUOUS
 62
   253
100
AcDbPolyline
 90
        8
 70
     0
 43
0.0
 10
694.2571287355643
 20
167.9884553859562
 10
694.4416407131544
 20
168.0422747844784
 10
694.6180459102156
 20
168.1350162079175
 10
694.7785937284652
 20
168.2626049377886
 10
694.9162302847678
 20
168.4194351925891
 10
695.0249083329272
 20
168.5986164253065
 10
695.0998529575355
 20
168.7922760688182
 10
695.1377713662685
 20
168.9919054276575
  0
LINE
  5
149
330
1F
100
AcDbEntity
  8
0
  6
CONTINUOUS
 62
   253
100
AcDbLine
 10
585.3608803387465
 20
162.2605149174238
 30
0.0
 11
585.7428712644358
 21
162.0115446140438
 31
0.0
  0
LINE
  5
14A
330
1F
100
AcDbEntity
  8
0
  6
CONTINUOUS
 62
   253
100
AcDbLine
 10
584.8622286337315
 20
161.0080945723425
 30
0.0
 11
584.4799276649152
 21
161.2615025005765
 31
0.0
  0
LWPOLYLINE
  5
14B
330
1F
100
AcDbEntity
  8
0
  6
CONTINUOUS
 62
   253
100
AcDbPolyline
 90
        8
 70
     0
 43
0.0
 10
585.3608803387465
 20
162.2605149174238
 10
585.176742351481
 20
162.2070000672941
 10
585.000648801701
 20
162.1147707629494
 10
584.8402926894983
 20
161.9878562266276
 10
584.7026794934224
 20
161.8318009745289
 10
584.5938211220944
 20
161.6534225934993
 10
584.5184732719131
 20
161.4605139010681
 10
584.4799276649151
 20
161.2615025005765
  0
LINE
  5
14C
330
1F
100
AcDbEntity
  8
0
  6
CONTINUOUS
 62
   253
100
AcDbLine
 10
636.2615025005765
 20
109.4799276649151
 30
0.0
 11
636.0080945723425
 21
109.8622286337315
 31
0.0
  0
LINE
  5
14D
330
1F
100
AcDbEntity
  8
0
  6
CONTINUOUS
 62
   253
100
AcDbLine
 10
637.0115446140438
 20
110.7428712644357
 30
0.0
 11
637.2605149174238
 21
110.3608803387464
 31
0.0
  0
LWPOLYLINE
  5
14E
330
1F
100
AcDbEntity
  8
0
  6
CONTINUOUS
 62
   253
100
AcDbPolyline
 90
        8
 70
     0
 43
0.0
 10
636.2615025005765
 20
109.4799276649151
 10
636.4605139010681
 20
109.518473271913
 10
636.6534225934992
 20
109.5938211220943
 10
636.8318009745288
 20
109.7026794934223
 10
636.9878562266275
 20
109.8402926894981
 10
637.1147707629494
 20
110.000648801701
 10
637.2070000672941
 20
110.1767423514809
 10
637.2605149174237
 20
110.3608803387464
  0
LINE
  5
14F
330
1F
100
AcDbEntity
  8
0
  6
CONTINUOUS
 62
   253
100
AcDbLine
 10
643.9919054276575
 20
109.8622286337315
 30
0.0
 11
643.7384974994235
 21
109.4799276649151
 31
0.0
  0
LWPOLYLINE
  5
150
330
1F
100
AcDbEntity
  8
0
  6
CONTINUOUS
 62
   253
100
AcDbPolyline
 90
        8
 70
     0
 43
0.0
 10
642.7394850825763
 20
110.3608803387464
 10
642.7929999327059
 20
110.1767423514809
 10
642.8852292370507
 20
110.000648801701
 10
643.0121437733725
 20
109.8402926894981
 10
643.1681990254712
 20
109.7026794934223
 10
643.3465774065008
 20
109.5938211220943
 10
643.5394860989319
 20
109.518473271913
 10
643.7384974994235
 20
109.4799276649151
  0
LINE
  5
151
330
1F
100
AcDbEntity
  8
0
  6
CONTINUOUS
 62
   253
100
AcDbLine
 10
642.7394850825762
 20
110.3608803387464
 30
0.0
 11
642.9884553859562
 21
110.7428712644357
 31
0.0
  0
LINE
  5
152
330
1F
100
AcDbEntity
  8
0
  6
CONTINUOUS
 62
   253
100
AcDbLine
 10
585.7428712644357
 20
167.9884553859562
 30
0.0
 11
585.3608803387465
 21
167.7394850825762
 31
0.0
  0
LWPOLYLINE
  5
153
330
1F
100
AcDbEntity
  8
0
  6
CONTINUOUS
 62
   253
100
AcDbPolyline
 90
        8
 70
     0
 43
0.0
 10
584.4799276649151
 20
168.7384974994235
 10
584.5184732719131
 20
168.5394860989319
 10
584.5938211220944
 20
168.3465774065007
 10
584.7026794934224
 20
168.1681990254711
 10
584.8402926894983
 20
168.0121437733724
 10
585.000648801701
 20
167.8852292370506
 10
585.176742351481
 20
167.7929999327059
 10
585.3608803387465
 20
167.7394850825762
  0
LINE
  5
154
330
1F
100
AcDbEntity
  8
0
  6
CONTINUOUS
 62
   253
100
AcDbLine
 10
584.4799276649151
 20
168.7384974994235
 30
0.0
 11
584.8622286337314
 21
168.9919054276575
 31
0.0
  0
LINE
  5
155
330
1F
100
AcDbEntity
  8
0
  6
CONTINUOUS
 62
   253
100
AcDbLine
 10
642.9884553859562
 20
219.2571287355643
 30
0.0
 11
642.7394850825762
 21
219.6391196612536
 31
0.0
  0
LWPOLYLINE
  5
156
330
1F
100
AcDbEntity
  8
0
  6
CONTINUOUS
 62
   253
100
AcDbPolyline
 90
        8
 70
     0
 43
0.0
 10
643.7384974994235
 20
220.5200723350849
 10
643.5394860989319
 20
220.481526728087
 10
643.3465774065008
 20
220.4061788779057
 10
643.1681990254712
 20
220.2973205065777
 10
643.0121437733725
 20
220.1597073105019
 10
642.8852292370507
 20
219.999351198299
 10
642.7929999327059
 20
219.8232576485191
 10
642.7394850825763
 20
219.6391196612536
  0
LINE
  5
157
330
1F
100
AcDbEntity
  8
0
  6
CONTINUOUS
 62
   253
100
AcDbLine
 10
643.7384974994235
 20
220.5200723350849
 30
0.0
 11
643.9919054276575
 21
220.1377713662684
 31
0.0
  0
LINE
  5
158
330
1F
100
AcDbEntity
  8
0
  6
CONTINUOUS
 62
   253
100
AcDbLine
 10
637.2605149174238
 20
219.6391196612536
 30
0.0
 11
637.0115446140438
 21
219.2571287355643
 31
0.0
  0
LINE
  5
159
330
1F
100
AcDbEntity
  8
0
  6
CONTINUOUS
 62
   253
100
AcDbLine
 10
636.0080945723425
 20
220.1377713662685
 30
0.0
 11
636.2615025005765
 21
220.5200723350849
 31
0.0
  0
LWPOLYLINE
  5
15A
330
1F
100
AcDbEntity
  8
0
  6
CONTINUOUS
 62
   253
100
AcDbPolyline
 90
        8
 70
     0
 43
0.0
 10
637.2605149174237
 20
219.6391196612536
 10
637.2070000672941
 20
219.8232576485191
 10
637.1147707629493
 20
219.999351198299
 10
636.9878562266275
 20
220.1597073105019
 10
636.8318009745288
 20
220.2973205065777
 10
636.6534225934992
 20
220.4061788779057
 10
636.4605139010681
 20
220.481526728087
 10
636.2615025005765
 20
220.5200723350849
  0
LINE
  5
15B
330
1F
100
AcDbEntity
  8
0
  6
CONTINUOUS
 62
   253
100
AcDbLine
 10
695.1377713662685
 20
168.9919054276575
 30
0.0
 11
695.5200723350848
 21
168.7384974994235
 31
0.0
  0
LWPOLYLINE
  5
15C
330
1F
100
AcDbEntity
  8
0
  6
CONTINUOUS
 62
   253
100
AcDbPolyline
 90
        8
 70
     0
 43
0.0
 10
694.6391196612535
 20
167.7394850825762
 10
694.823257648519
 20
167.7929999327059
 10
694.999351198299
 20
167.8852292370506
 10
695.1597073105017
 20
168.0121437733724
 10
695.2973205065776
 20
168.1681990254711
 10
695.4061788779056
 20
168.3465774065007
 10
695.4815267280869
 20
168.5394860989319
 10
695.5200723350849
 20
168.7384974994235
  0
LINE
  5
15D
330
1F
100
AcDbEntity
  8
0
  6
CONTINUOUS
 62
   253
100
AcDbLine
 10
694.6391196612535
 20
167.7394850825762
 30
0.0
 11
694.2571287355643
 21
167.9884553859562
 31
0.0
  0
LINE
  5
15E
330
1F
100
AcDbEntity
  8
0
  6
CONTINUOUS
 62
   253
100
AcDbLine
 10
695.5200723350849
 20
161.2615025005765
 30
0.0
 11
695.1377713662686
 21
161.0080945723425
 31
0.0
  0
LINE
  5
15F
330
1F
100
AcDbEntity
  8
0
  6
CONTINUOUS
 62
   253
100
AcDbLine
 10
694.2571287355643
 20
162.0115446140438
 30
0.0
 11
694.6391196612535
 21
162.2605149174238
 31
0.0
  0
LWPOLYLINE
  5
160
330
1F
100
AcDbEntity
  8
0
  6
CONTINUOUS
 62
   253
100
AcDbPolyline
 90
        8
 70
     0
 43
0.0
 10
695.5200723350849
 20
161.2615025005765
 10
695.4815267280869
 20
161.4605139010681
 10
695.4061788779056
 20
161.6534225934993
 10
695.2973205065776
 20
161.8318009745289
 10
695.1597073105017
 20
161.9878562266276
 10
694.999351198299
 20
162.1147707629494
 10
694.823257648519
 20
162.2070000672942
 10
694.6391196612535
 20
162.2605149174238
  0
LINE
  5
161
330
1F
100
AcDbEntity
  8
0
  6
CONTINUOUS
 62
   253
100
AcDbLine
 10
599.0466757405555
 20
168.9938735736505
 30
0.0
 11
599.2110052971329
 21
168.769399057307
 31
0.0
  0
ARC
  5
162
330
1F
100
AcDbEntity
  8
0
  6
CONTINUOUS
 62
   253
100
AcDbCircle
 10
597.6166342362408
 20
169.4852642794684
 30
0.0
 40
1.747707668951141
100
AcDbArc
 50
267.3081562197652
 51
335.820140565255
  0
LINE
  5
163
330
1F
100
AcDbEntity
  8
0
  6
CONTINUOUS
 62
   253
100
AcDbLine
 10
597.5345544469589
 20
167.739485082576
 30
0.0
 11
597.3828637094128
 21
167.9884553859565
 31
0.0
  0
LINE
  5
164
330
1F
100
AcDbEntity
  8
0
  6
CONTINUOUS
 62
   253
100
AcDbLine
 10
597.3828637094131
 20
162.0115446140438
 30
0.0
 11
597.5345544469589
 21
162.2605149174238
 31
0.0
  0
ARC
  5
165
330
1F
100
AcDbEntity
  8
0
  6
CONTINUOUS
 62
   253
100
AcDbCircle
 10
597.6165184080703
 20
160.5145471802846
 30
0.0
 40
1.747890565811282
100
AcDbArc
 50
24.18394234291673
 51
92.68776087207472
  0
LINE
  5
166
330
1F
100
AcDbEntity
  8
0
  6
CONTINUOUS
 62
   253
100
AcDbLine
 10
599.2110052971329
 20
161.230600942693
 30
0.0
 11
599.0466757405554
 21
161.0061264263493
 31
0.0
  0
LINE
  5
167
330
1F
100
AcDbEntity
  8
0
  6
CONTINUOUS
 62
   253
100
AcDbLine
 10
682.6171362905869
 20
167.9884553859562
 30
0.0
 11
682.4654455530411
 21
167.7394850825762
 31
0.0
  0
ARC
  5
168
330
1F
100
AcDbEntity
  8
0
  6
CONTINUOUS
 62
   253
100
AcDbCircle
 10
682.3834815919297
 20
169.4854528197154
 30
0.0
 40
1.74789056581127
100
AcDbArc
 50
204.1839423429165
 51
272.687760872075
  0
LINE
  5
169
330
1F
100
AcDbEntity
  8
0
  6
CONTINUOUS
 62
   253
100
AcDbLine
 10
680.7889947028671
 20
168.769399057307
 30
0.0
 11
680.953324259444
 21
168.9938735736499
 31
0.0
  0
LINE
  5
16A
330
1F
100
AcDbEntity
  8
0
  6
CONTINUOUS
 62
   253
100
AcDbLine
 10
680.9533242594445
 20
161.0061264263495
 30
0.0
 11
680.7889947028671
 21
161.230600942693
 31
0.0
  0
ARC
  5
16B
330
1F
100
AcDbEntity
  8
0
  6
CONTINUOUS
 62
   253
100
AcDbCircle
 10
682.3833657637592
 20
160.5147357205317
 30
0.0
 40
1.747707668951118
100
AcDbArc
 50
87.30815621976467
 51
155.8201405652555
  0
LINE
  5
16C
330
1F
100
AcDbEntity
  8
0
  6
CONTINUOUS
 62
   253
100
AcDbLine
 10
682.4654455530411
 20
162.260514917424
 30
0.0
 11
682.617136290587
 21
162.0115446140438
 31
0.0
  0
ARC
  5
16D
330
1F
100
AcDbEntity
  8
0
  6
CONTINUOUS
 62
   253
100
AcDbCircle
 10
638.0705706029038
 20
111.1319974857107
 30
0.0
 40
2.4499106293173
100
AcDbArc
 50
222.4028261075598
 51
272.3623885439604
  0
ARC
  5
16E
330
1F
100
AcDbEntity
  8
0
  6
CONTINUOUS
 62
   253
100
AcDbCircle
 10
640.0
 20
165.0
 30
0.0
 40
56.34550583715431
100
AcDbArc
 50
268.1403919643816
 51
271.8596080356184
  0
LWPOLYLINE
  5
16F
330
1F
100
AcDbEntity
  8
0
  6
CONTINUOUS
 62
   253
100
AcDbPolyline
 90
        3
 70
     0
 43
0.0
 10
-643.7384974994235
 20
109.4799276649151
 10
-643.6561400961143
 20
109.3727838812128
 10
-643.5532695690846
 20
109.2686422598495
210
0.0
220
0.0
230
-1.0
  0
ARC
  5
170
330
1F
100
AcDbEntity
  8
0
  6
CONTINUOUS
 62
   253
100
AcDbCircle
 10
641.8417560372097
 20
111.4821674184253
 30
0.0
 40
2.798030056564576
100
AcDbArc
 50
269.7274187751211
 51
307.7114527834738
  0
ARC
  5
171
330
1F
100
AcDbEntity
  8
0
  6
CONTINUOUS
 62
   253
100
AcDbCircle
 10
693.8680025142894
 20
163.0705706029039
 30
0.0
 40
2.449910629317252
100
AcDbArc
 50
312.4028261075592
 51
2.362388543960776
  0
ARC
  5
172
330
1F
100
AcDbEntity
  8
0
  6
CONTINUOUS
 62
   253
100
AcDbCircle
 10
640.0
 20
165.0
 30
0.0
 40
56.34550583715431
100
AcDbArc
 50
358.1403919643818
 51
1.859608035618294
  0
LWPOLYLINE
  5
173
330
1F
100
AcDbEntity
  8
0
  6
CONTINUOUS
 62
   253
100
AcDbPolyline
 90
        3
 70
     0
 43
0.0
 10
-695.5200723350849
 20
168.7384974994235
 10
-695.6272161187871
 20
168.6561400961142
 10
-695.7313577401504
 20
168.5532695690846
210
0.0
220
0.0
230
-1.0
  0
ARC
  5
174
330
1F
100
AcDbEntity
  8
0
  6
CONTINUOUS
 62
   253
100
AcDbCircle
 10
693.5178325815749
 20
166.8417560372097
 30
0.0
 40
2.798030056564403
100
AcDbArc
 50
359.72741877512
 51
37.71145278347518
  0
ARC
  5
175
330
1F
100
AcDbEntity
  8
0
  6
CONTINUOUS
 62
   253
100
AcDbCircle
 10
641.9294293970962
 20
218.8680025142893
 30
0.0
 40
2.449910629317293
100
AcDbArc
 50
42.4028261075598
 51
92.36238854396048
  0
ARC
  5
176
330
1F
100
AcDbEntity
  8
0
  6
CONTINUOUS
 62
   253
100
AcDbCircle
 10
640.0
 20
165.0
 30
0.0
 40
56.34550583715431
100
AcDbArc
 50
88.14039196438158
 51
91.85960803561831
  0
LWPOLYLINE
  5
177
330
1F
100
AcDbEntity
  8
0
  6
CONTINUOUS
 62
   253
100
AcDbPolyline
 90
        3
 70
     0
 43
0.0
 10
-636.2615025005765
 20
220.5200723350849
 10
-636.3438599038857
 20
220.6272161187872
 10
-636.4467304309154
 20
220.7313577401505
210
0.0
220
0.0
230
-1.0
  0
ARC
  5
178
330
1F
100
AcDbEntity
  8
0
  6
CONTINUOUS
 62
   253
100
AcDbCircle
 10
638.1582439627903
 20
218.5178325815748
 30
0.0
 40
2.798030056564527
100
AcDbArc
 50
89.7274187751209
 51
127.7114527834743
  0
ARC
  5
179
330
1F
100
AcDbEntity
  8
0
  6
CONTINUOUS
 62
   253
100
AcDbCircle
 10
586.1319974857106
 20
166.9294293970962
 30
0.0
 40
2.449910629317232
100
AcDbArc
 50
132.4028261075591
 51
182.3623885439611
  0
ARC
  5
17A
330
1F
100
AcDbEntity
  8
0
  6
CONTINUOUS
 62
   253
100
AcDbCircle
 10
640.0
 20
165.0
 30
0.0
 40
56.34550583715431
100
AcDbArc
 50
178.1403919643817
 51
181.8596080356183
  0
LWPOLYLINE
  5
17B
330
1F
100
AcDbEntity
  8
0
  6
CONTINUOUS
 62
   253
100
AcDbPolyline
 90
        3
 70
     0
 43
0.0
 10
-584.4799276649151
 20
161.2615025005765
 10
-584.3727838812129
 20
161.3438599038858
 10
-584.2686422598496
 20
161.4467304309154
210
0.0
220
0.0
230
-1.0
  0
ARC
  5
17C
330
1F
100
AcDbEntity
  8
0
  6
CONTINUOUS
 62
   253
100
AcDbCircle
 10
586.4821674184252
 20
163.1582439627903
 30
0.0
 40
2.798030056564472
100
AcDbArc
 50
179.7274187751204
 51
217.7114527834744
  0
CIRCLE
  5
17D
330
1F
100
AcDbEntity
  8
0
  6
CONTINUOUS
 62
   253
100
AcDbCircle
 10
640.0
 20
165.0
 30
0.0
 40
62.51780941359176
  0
LINE
  5
17E
330
1F
100
AcDbEntity
  8
0
  6
CONTINUOUS
 62
   253
100
AcDbLine
 10
585.3608803387465
 20
167.7394850825762
 30
0.0
 11
597.5345544469589
 21
167.739485082576
 31
0.0
  0
ARC
  5
17F
330
1F
100
AcDbEntity
  8
0
  6
CONTINUOUS
 62
   253
100
AcDbCircle
 10
606.65
 20
165.0
 30
0.0
 40
8.339485082576193
100
AcDbArc
 50
206.8717032149903
 51
153.1282967850098
  0
LINE
  5
180
330
1F
100
AcDbEntity
  8
0
  6
CONTINUOUS
 62
   253
100
AcDbLine
 10
597.5345544469587
 20
162.2605149174238
 30
0.0
 11
585.3608803387465
 21
162.2605149174238
 31
0.0
  0
LINE
  5
181
330
1F
100
AcDbEntity
  8
0
  6
CONTINUOUS
 62
   253
100
AcDbLine
 10
642.7394850825762
 20
132.5
 30
0.0
 11
642.9884553859562
 21
132.5
 31
0.0
  0
LINE
  5
182
330
1F
100
AcDbEntity
  8
0
  6
CONTINUOUS
 62
   253
100
AcDbLine
 10
642.7394850825762
 20
132.5
 30
0.0
 11
642.7394850825762
 21
110.3608803387464
 31
0.0
  0
LINE
  5
183
330
1F
100
AcDbEntity
  8
0
  6
CONTINUOUS
 62
   253
100
AcDbLine
 10
637.2605149174238
 20
132.5
 30
0.0
 11
637.0115446140438
 21
132.5
 31
0.0
  0
LINE
  5
184
330
1F
100
AcDbEntity
  8
0
  6
CONTINUOUS
 62
   253
100
AcDbLine
 10
637.2605149174238
 20
110.3608803387464
 30
0.0
 11
637.2605149174238
 21
132.5
 31
0.0
  0
ARC
  5
185
330
1F
100
AcDbEntity
  8
0
  6
CONTINUOUS
 62
   253
100
AcDbCircle
 10
640.0
 20
132.5
 30
0.0
 40
2.739485082576199
100
AcDbArc
 50
0.0
 51
180.0
  0
LINE
  5
186
330
1F
100
AcDbEntity
  8
0
  6
CONTINUOUS
 62
   253
100
AcDbLine
 10
642.7394850825762
 20
197.5
 30
0.0
 11
642.9884553859562
 21
197.5
 31
0.0
  0
LINE
  5
187
330
1F
100
AcDbEntity
  8
0
  6
CONTINUOUS
 62
   253
100
AcDbLine
 10
642.7394850825762
 20
219.6391196612536
 30
0.0
 11
642.7394850825762
 21
197.5
 31
0.0
  0
LINE
  5
188
330
1F
100
AcDbEntity
  8
0
  6
CONTINUOUS
 62
   253
100
AcDbLine
 10
682.4654455530413
 20
167.7394850825762
 30
0.0
 11
694.6391196612535
 21
167.7394850825762
 31
0.0
  0
LINE
  5
189
330
1F
100
AcDbEntity
  8
0
  6
CONTINUOUS
 62
   253
100
AcDbLine
 10
637.2605149174238
 20
197.5
 30
0.0
 11
637.0115446140438
 21
197.5
 31
0.0
  0
LINE
  5
18A
330
1F
100
AcDbEntity
  8
0
  6
CONTINUOUS
 62
   253
100
AcDbLine
 10
637.2605149174238
 20
197.5
 30
0.0
 11
637.2605149174238
 21
219.6391196612536
 31
0.0
  0
ARC
  5
18B
330
1F
100
AcDbEntity
  8
0
  6
CONTINUOUS
 62
   253
100
AcDbCircle
 10
640.0
 20
197.5
 30
0.0
 40
2.739485082576199
100
AcDbArc
 50
180.0
 51
0.0
  0
ARC
  5
18C
330
1F
100
AcDbEntity
  8
0
  6
CONTINUOUS
 62
   253
100
AcDbCircle
 10
673.35
 20
165.0
 30
0.0
 40
8.339485082576196
100
AcDbArc
 50
26.87170321499036
 51
333.1282967850098
  0
LINE
  5
18D
330
1F
100
AcDbEntity
  8
0
  6
CONTINUOUS
 62
   253
100
AcDbLine
 10
694.6391196612535
 20
162.2605149174238
 30
0.0
 11
682.4654455530411
 21
162.260514917424
 31
0.0
  0
ARC
  5
18E
330
1F
100
AcDbEntity
  8
0
  6
CONTINUOUS
 62
   253
100
AcDbCircle
 10
585.7489767603794
 20
166.5488988697986
 30
0.0
 40
1.252243731284131
100
AcDbArc
 50
108.0544596494426
 51
128.5359987625266
  0
LWPOLYLINE
  5
18F
330
1F
100
AcDbEntity
  8
0
  6
CONTINUOUS
 62
   253
100
AcDbPolyline
 90
        8
 70
     0
 43
0.0
 10
584.9688211217759
 20
167.5284250522438
 10
584.8586210863344
 20
167.4285350402199
 10
584.7893066304126
 20
167.3503837201353
 10
584.7251994503816
 20
167.2623956432822
 10
584.6638959388356
 20
167.1554040947032
 10
584.6141383828225
 20
167.0360456778847
 10
584.5839945597695
 20
166.9263013319662
 10
584.5666516066697
 20
166.7997924617903
  0
LINE
  5
190
330
1F
100
AcDbEntity
  8
0
  6
CONTINUOUS
 62
   253
100
AcDbLine
 10
584.5666516066697
 20
166.7997924617903
 30
0.0
 11
583.6841690260354
 21
166.8284446277215
 31
0.0
  0
LWPOLYLINE
  5
191
330
1F
100
AcDbEntity
  8
0
  6
CONTINUOUS
 62
   253
100
AcDbPolyline
 90
       31
 70
     0
 43
0.0
 10
637.2605149174238
 20
110.3608803387464
 10
637.2815831691698
 20
110.301453702816
 10
637.3058808321011
 20
110.2425272300807
 10
637.3350755640292
 20
110.1810491533444
 10
637.3680142279784
 20
110.1204366687457
 10
637.4033232716808
 20
110.0631282164316
 10
637.4422945541077
 20
110.0069946695905
 10
637.4716015241767
 20
109.9687880224342
 10
637.5029456897296
 20
109.9311510074872
 10
637.5362217063225
 20
109.8943880231083
 10
637.5707223636174
 20
109.8593435212731
 10
637.6071589951493
 20
109.825365884276
 10
637.6408947898241
 20
109.7964218714035
 10
637.6761843589047
 20
109.7685137329477
 10
637.7063614785327
 20
109.7464337049841
 10
637.7376043567177
 20
109.7251994503817
 10
637.7715086481775
 20
109.7039251577586
 10
637.8065776436877
 20
109.6837557202449
 10
637.8448745860092
 20
109.6637584080804
 10
637.8844193717872
 20
109.645228439894
 10
637.9104583369219
 20
109.6341605223868
 10
637.9369830192591
 20
109.6237830680245
 10
637.9639543221152
 20
109.6141383828225
 10
637.9907713627109
 20
109.6054391339693
 10
638.0180451737122
 20
109.5974855684623
 10
638.0456734621234
 20
109.5903326175104
 10
638.0736986680339
 20
109.5839945597695
 10
638.1048492156684
 20
109.5780213063505
 10
638.1363995857126
 20
109.5731108942054
 10
638.1681664058417
 20
109.5693156100055
 10
638.2002075382097
 20
109.5666516066696
  0
LINE
  5
192
330
1F
100
AcDbEntity
  8
0
  6
CONTINUOUS
 62
   253
100
AcDbLine
 10
638.1715553722785
 20
108.6841690260354
 30
0.0
 11
638.2002075382097
 21
109.5666516066696
 31
0.0
  0
LWPOLYLINE
  5
193
330
1F
100
AcDbEntity
  8
0
  6
CONTINUOUS
 62
   253
100
AcDbPolyline
 90
       31
 70
     0
 43
0.0
 10
694.6391196612535
 20
162.2605149174238
 10
694.6956550264338
 20
162.2804798384678
 10
694.7517433482885
 20
162.3033640865587
 10
694.8188470292504
 20
162.3350225974725
 10
694.8849201707833
 20
162.3711365827557
 10
694.9395012870949
 20
162.405047957008
 10
694.9930053304095
 20
162.4422945541077
 10
695.0311519424648
 20
162.4715535596102
 10
695.068735732402
 20
162.5028474003649
 10
695.1054483798027
 20
162.5360673025122
 10
695.141621115647
 20
162.57171415278
 10
695.176652450913
 20
162.6094261469169
 10
695.2066358655309
 20
162.64462089717
 10
695.2354880974892
 20
162.6814952201976
 10
695.2554976913025
 20
162.7091076466411
 10
695.2748005496184
 20
162.7376043567178
 10
695.29505545349
 20
162.7698168648009
 10
695.3143156324728
 20
162.8030831913548
 10
695.3290903979763
 20
162.8307195840993
 10
695.3431185772387
 20
162.8590335603208
 10
695.3563414629842
 20
162.8879892731026
 10
695.3718325754845
 20
162.9254959379845
 10
695.3858616171775
 20
162.9639543221153
 10
695.3945576958582
 20
162.9907610720377
 10
695.4025115531114
 20
163.0180347177391
 10
695.4096648089991
 20
163.0456628532069
 10
695.4160054402305
 20
163.0736986680338
 10
695.421975698711
 20
163.1048319812607
 10
695.4268867076627
 20
163.136382156267
 10
695.4306826070563
 20
163.1681488175199
 10
695.4333483933303
 20
163.2002075382097
  0
LINE
  5
194
330
1F
100
AcDbEntity
  8
0
  6
CONTINUOUS
 62
   253
100
AcDbLine
 10
696.3158309739646
 20
163.1715553722786
 30
0.0
 11
695.4333483933303
 21
163.2002075382097
 31
0.0
  0
LWPOLYLINE
  5
195
330
1F
100
AcDbEntity
  8
0
  6
CONTINUOUS
 62
   253
100
AcDbPolyline
 90
       31
 70
     0
 43
0.0
 10
642.7394850825762
 20
219.6391196612536
 10
642.7195201615322
 20
219.6956550264338
 10
642.6966359134412
 20
219.7517433482885
 10
642.6649774025276
 20
219.8188470292503
 10
642.6288634172444
 20
219.8849201707833
 10
642.594952042992
 20
219.9395012870949
 10
642.5577054458923
 20
219.9930053304095
 10
642.5284464403899
 20
220.0311519424648
 10
642.4971525996351
 20
220.068735732402
 10
642.4639326974877
 20
220.1054483798027
 10
642.42828584722
 20
220.1416211156471
 10
642.3905738530832
 20
220.1766524509131
 10
642.35537910283
 20
220.2066358655309
 10
642.3185047798023
 20
220.2354880974893
 10
642.2908923533589
 20
220.2554976913025
 10
642.2623956432823
 20
220.2748005496183
 10
642.2301831351991
 20
220.29505545349
 10
642.1969168086453
 20
220.3143156324728
 10
642.1692804159007
 20
220.3290903979763
 10
642.1409664396792
 20
220.3431185772387
 10
642.1120107268973
 20
220.3563414629842
 10
642.0745040620155
 20
220.3718325754845
 10
642.0360456778848
 20
220.3858616171775
 10
642.0092389279622
 20
220.3945576958582
 10
641.981965282261
 20
220.4025115531113
 10
641.9543371467931
 20
220.4096648089991
 10
641.9263013319661
 20
220.4160054402305
 10
641.8951680187394
 20
220.421975698711
 10
641.863617843733
 20
220.4268867076628
 10
641.8318511824801
 20
220.4306826070563
 10
641.7997924617903
 20
220.4333483933304
  0
LINE
  5
196
330
1F
100
AcDbEntity
  8
0
  6
CONTINUOUS
 62
   253
100
AcDbLine
 10
641.7997924617903
 20
220.4333483933304
 30
0.0
 11
641.8284446277215
 21
221.3158309739646
 31
0.0
  0
LINE
  5
197
330
1F
100
AcDbEntity
  8
0
  6
CONTINUOUS
 62
   253
100
AcDbLine
 10
641.8284446277215
 20
108.6841690260354
 30
0.0
 11
641.7997924617903
 21
109.5666516066696
 31
0.0
  0
LWPOLYLINE
  5
198
330
1F
100
AcDbEntity
  8
0
  6
CONTINUOUS
 62
   253
100
AcDbPolyline
 90
        6
 70
     0
 43
0.0
 10
641.7997924617903
 20
109.5666516066696
 10
641.9309223263331
 20
109.584976475669
 10
642.0280183429954
 20
109.6114424889036
 10
642.1386481949785
 20
109.6557812487048
 10
642.2425227005707
 20
109.7125124196123
 10
642.3382947801176
 20
109.7796834602043
  0
ARC
  5
199
330
1F
100
AcDbEntity
  8
0
  6
CONTINUOUS
 62
   253
100
AcDbCircle
 10
641.5729065228527
 20
110.7370837873243
 30
0.0
 40
1.225738377766021
100
AcDbArc
 50
308.6403896421821
 51
342.1262955015653
  0
LWPOLYLINE
  5
19A
330
1F
100
AcDbEntity
  8
0
  6
CONTINUOUS
 62
   253
100
AcDbPolyline
 90
        7
 70
     0
 43
0.0
 10
584.5666516066697
 20
163.2002075382097
 10
584.5849849488122
 20
163.0690406334099
 10
584.6114105602678
 20
162.9720770116833
 10
584.6557309433417
 20
162.8614572445729
 10
584.7125313599023
 20
162.7574472285689
 10
584.779628094536
 20
162.6617756978403
 10
584.8756315202934
 20
162.5543253426476
  0
ARC
  5
19B
330
1F
100
AcDbEntity
  8
0
  6
CONTINUOUS
 62
   253
100
AcDbCircle
 10
585.7429777565684
 20
163.4391926691013
 30
0.0
 40
1.239064033456621
100
AcDbArc
 50
225.5729045158923
 51
252.0386214239479
  0
LINE
  5
19C
330
1F
100
AcDbEntity
  8
0
  6
CONTINUOUS
 62
   253
100
AcDbLine
 10
584.5666516066697
 20
163.2002075382097
 30
0.0
 11
583.6841690260354
 21
163.1715553722785
 31
0.0
  0
LINE
  5
19D
330
1F
100
AcDbEntity
  8
0
  6
CONTINUOUS
 62
   253
100
AcDbLine
 10
696.3158309739646
 20
166.8284446277215
 30
0.0
 11
695.4333483933303
 21
166.7997924617903
 31
0.0
  0
LWPOLYLINE
  5
19E
330
1F
100
AcDbEntity
  8
0
  6
CONTINUOUS
 62
   253
100
AcDbPolyline
 90
        7
 70
     0
 43
0.0
 10
695.4333483933303
 20
166.7997924617903
 10
695.4150727489316
 20
166.9306934244397
 10
695.3885784853095
 20
167.02795495133
 10
695.3442491485562
 20
167.1385839196253
 10
695.2876087844047
 20
167.242328050684
 10
695.2203549663393
 20
167.3382458083463
 10
695.1391084223345
 20
167.4308644558661
  0
ARC
  5
19F
330
1F
100
AcDbEntity
  8
0
  6
CONTINUOUS
 62
   253
100
AcDbCircle
 10
694.2577869409567
 20
166.5623771087106
 30
0.0
 40
1.237334969079534
100
AcDbArc
 50
44.57976635683393
 51
72.0498898524977
  0
LWPOLYLINE
  5
1A0
330
1F
100
AcDbEntity
  8
0
  6
CONTINUOUS
 62
   253
100
AcDbPolyline
 90
        6
 70
     0
 43
0.0
 10
638.2002075382097
 20
220.4333483933304
 10
638.0690776736669
 20
220.415023524331
 10
637.9719816570046
 20
220.3885575110964
 10
637.8613518050215
 20
220.3442187512952
 10
637.7574772994293
 20
220.2874875803877
 10
637.6617052198824
 20
220.2203165397957
  0
ARC
  5
1A1
330
1F
100
AcDbEntity
  8
0
  6
CONTINUOUS
 62
   253
100
AcDbCircle
 10
638.4270934771473
 20
219.2629162126757
 30
0.0
 40
1.225738377766018
100
AcDbArc
 50
128.6403896421819
 51
162.1262955015651
  0
LINE
  5
1A2
330
1F
100
AcDbEntity
  8
0
  6
CONTINUOUS
 62
   253
100
AcDbLine
 10
638.2002075382097
 20
220.4333483933304
 30
0.0
 11
638.1715553722785
 21
221.3158309739646
 31
0.0
  0
LINE
  5
1A3
330
1F
100
AcDbEntity
  8
0
  6
CONTINUOUS
 62
   253
100
AcDbLine
 10
680.4861669256117
 20
161.3840462378849
 30
0.0
 11
680.7889947028671
 21
161.230600942693
 31
0.0
  0
ARC
  5
1A4
330
1F
100
AcDbEntity
  8
0
  6
CONTINUOUS
 62
   253
100
AcDbCircle
 10
682.4561167250513
 20
160.3797585799773
 30
0.0
 40
2.820464386058846
100
AcDbArc
 50
89.81049097830639
 51
120.0325281579499
  0
LINE
  5
1A5
330
1F
100
AcDbEntity
  8
0
  6
CONTINUOUS
 62
   253
100
AcDbLine
 10
682.465445553047
 20
163.2002075382097
 30
0.0
 11
682.4654455530417
 21
162.260514917424
 31
0.0
  0
ARC
  5
1A6
330
1F
100
AcDbEntity
  8
0
  6
CONTINUOUS
 62
   253
100
AcDbCircle
 10
597.5438761187482
 20
169.6202988861578
 30
0.0
 40
2.820521828219646
100
AcDbArc
 50
269.8106402089084
 51
299.9989947673516
  0
LINE
  5
1A7
330
1F
100
AcDbEntity
  8
0
  6
CONTINUOUS
 62
   253
100
AcDbLine
 10
597.5345544469532
 20
167.739485082576
 30
0.0
 11
597.534554446953
 21
166.7997924617903
 31
0.0
  0
LINE
  5
1A8
330
1F
100
AcDbEntity
  8
0
  6
CONTINUOUS
 62
   253
100
AcDbLine
 10
599.2110052971329
 20
168.769399057307
 30
0.0
 11
599.5138330743857
 21
168.6159537621164
 31
0.0
  0
ARC
  5
1A9
330
1F
100
AcDbEntity
  8
0
  6
CONTINUOUS
 62
   253
100
AcDbCircle
 10
597.5441702978154
 20
160.3808275671547
 30
0.0
 40
2.819396369043139
100
AcDbArc
 50
59.97078382158401
 51
90.19541372213057
  0
LINE
  5
1AA
330
1F
100
AcDbEntity
  8
0
  6
CONTINUOUS
 62
   253
100
AcDbLine
 10
599.2110052971357
 20
161.2306009426877
 30
0.0
 11
599.513833074388
 21
161.3840462378791
 31
0.0
  0
LINE
  5
1AB
330
1F
100
AcDbEntity
  8
0
  6
CONTINUOUS
 62
   253
100
AcDbLine
 10
597.5345544469587
 20
162.2605149174238
 30
0.0
 11
597.5345544469587
 21
163.2002075382097
 31
0.0
  0
LINE
  5
1AC
330
1F
100
AcDbEntity
  8
0
  6
CONTINUOUS
 62
   253
100
AcDbLine
 10
682.4654455530413
 20
166.7997924617903
 30
0.0
 11
682.4654455530413
 21
167.7394850825762
 31
0.0
  0
ARC
  5
1AD
330
1F
100
AcDbEntity
  8
0
  6
CONTINUOUS
 62
   253
100
AcDbCircle
 10
682.4558357940333
 20
169.6192204589587
 30
0.0
 40
2.819444374107306
100
AcDbArc
 50
239.9995379551165
 51
270.1952865977455
  0
LINE
  5
1AE
330
1F
100
AcDbEntity
  8
0
  6
CONTINUOUS
 62
   253
100
AcDbLine
 10
680.4861669256123
 20
168.615953762117
 30
0.0
 11
680.7889947028668
 21
168.7693990573074
 31
0.0
  0
LINE
  5
1AF
330
1F
100
AcDbEntity
  8
0
  6
CONTINUOUS
 62
   253
100
AcDbLine
 10
637.2605149174238
 20
132.5
 30
0.0
 11
638.2002075382097
 21
132.5
 31
0.0
  0
LINE
  5
1B0
330
1F
100
AcDbEntity
  8
0
  6
CONTINUOUS
 62
   253
100
AcDbLine
 10
638.2002075382097
 20
132.5
 30
0.0
 11
638.2002075382097
 21
109.5666516066696
 31
0.0
  0
LINE
  5
1B1
330
1F
100
AcDbEntity
  8
0
  6
CONTINUOUS
 62
   253
100
AcDbLine
 10
597.534554446953
 20
166.7997924617903
 30
0.0
 11
584.5666516066697
 21
166.7997924617903
 31
0.0
  0
LINE
  5
1B2
330
1F
100
AcDbEntity
  8
0
  6
CONTINUOUS
 62
   253
100
AcDbLine
 10
682.465445553047
 20
163.2002075382097
 30
0.0
 11
695.4333483933303
 21
163.2002075382097
 31
0.0
  0
LINE
  5
1B3
330
1F
100
AcDbEntity
  8
0
  6
CONTINUOUS
 62
   253
100
AcDbLine
 10
641.7997924617903
 20
197.5
 30
0.0
 11
642.7394850825762
 21
197.5
 31
0.0
  0
LINE
  5
1B4
330
1F
100
AcDbEntity
  8
0
  6
CONTINUOUS
 62
   253
100
AcDbLine
 10
641.7997924617903
 20
197.5
 30
0.0
 11
641.7997924617903
 21
220.4333483933304
 31
0.0
  0
LINE
  5
1B5
330
1F
100
AcDbEntity
  8
0
  6
CONTINUOUS
 62
   253
100
AcDbLine
 10
584.5666516066697
 20
163.2002075382097
 30
0.0
 11
597.5345544469587
 21
163.2002075382097
 31
0.0
  0
LINE
  5
1B6
330
1F
100
AcDbEntity
  8
0
  6
CONTINUOUS
 62
   253
100
AcDbLine
 10
642.7394850825762
 20
132.5
 30
0.0
 11
641.7997924617903
 21
132.5
 31
0.0
  0
LINE
  5
1B7
330
1F
100
AcDbEntity
  8
0
  6
CONTINUOUS
 62
   253
100
AcDbLine
 10
641.7997924617903
 20
109.5666516066696
 30
0.0
 11
641.7997924617903
 21
132.5
 31
0.0
  0
LINE
  5
1B8
330
1F
100
AcDbEntity
  8
0
  6
CONTINUOUS
 62
   253
100
AcDbLine
 10
638.2002075382097
 20
197.5
 30
0.0
 11
637.2605149174238
 21
197.5
 31
0.0
  0
LINE
  5
1B9
330
1F
100
AcDbEntity
  8
0
  6
CONTINUOUS
 62
   253
100
AcDbLine
 10
638.2002075382097
 20
220.4333483933304
 30
0.0
 11
638.2002075382097
 21
197.5
 31
0.0
  0
LINE
  5
1BA
330
1F
100
AcDbEntity
  8
0
  6
CONTINUOUS
 62
   253
100
AcDbLine
 10
695.4333483933303
 20
166.7997924617903
 30
0.0
 11
682.4654455530413
 21
166.7997924617903
 31
0.0
  0
CIRCLE
  5
1BB
330
1F
100
AcDbEntity
  8
0
  6
CONTINUOUS
 62
     7
100
AcDbCircle
 10
640.0
 20
165.0
 30
0.0
 40
10.0
  0
ARC
  5
1BC
330
1F
100
AcDbEntity
  8
0
  6
CONTINUOUS
 62
   253
100
AcDbCircle
 10
640.0
 20
132.5
 30
0.0
 40
1.799792461790291
100
AcDbArc
 50
0.0
 51
180.0
  0
ARC
  5
1BD
330
1F
100
AcDbEntity
  8
0
  6
CONTINUOUS
 62
   253
100
AcDbCircle
 10
640.0
 20
197.5
 30
0.0
 40
1.799792461790291
100
AcDbArc
 50
180.0
 51
0.0
  0
ARC
  5
1BE
330
1F
100
AcDbEntity
  8
0
  6
CONTINUOUS
 62
   253
100
AcDbCircle
 10
640.0
 20
165.0
 30
0.0
 40
55.46255824429538
100
AcDbArc
 50
268.1403919643816
 51
271.8596080356185
  0
ARC
  5
1BF
330
1F
100
AcDbEntity
  8
0
  6
CONTINUOUS
 62
   253
100
AcDbCircle
 10
640.0
 20
165.0
 30
0.0
 40
55.46255824429538
100
AcDbArc
 50
178.1403919643817
 51
181.8596080356185
  0
LINE
  5
1C0
330
1F
100
AcDbEntity
  8
0
  6
CONTINUOUS
 62
     7
100
AcDbLine
 10
604.9916876048227
 20
167.5
 30
0.0
 11
608.308312395178
 21
167.5
 31
0.0
  0
LINE
  5
1C1
330
1F
100
AcDbEntity
  8
0
  6
CONTINUOUS
 62
     7
100
AcDbLine
 10
608.308312395178
 20
162.5
 30
0.0
 11
604.9916876048228
 21
162.5
 31
0.0
  0
ARC
  5
1C2
330
1F
100
AcDbEntity
  8
0
  6
CONTINUOUS
 62
   253
100
AcDbCircle
 10
640.0
 20
165.0
 30
0.0
 40
55.46255824429538
100
AcDbArc
 50
358.1403919643818
 51
1.859608035618464
  0
LINE
  5
1C3
330
1F
100
AcDbEntity
  8
0
  6
CONTINUOUS
 62
     7
100
AcDbLine
 10
671.6916876048234
 20
167.5
 30
0.0
 11
675.0083123951774
 21
167.5
 31
0.0
  0
LINE
  5
1C4
330
1F
100
AcDbEntity
  8
0
  6
CONTINUOUS
 62
     7
100
AcDbLine
 10
675.0083123951762
 20
162.5
 30
0.0
 11
671.6916876048224
 21
162.5
 31
0.0
  0
ARC
  5
1C5
330
1F
100
AcDbEntity
  8
0
  6
CONTINUOUS
 62
   253
100
AcDbCircle
 10
640.0
 20
165.0
 30
0.0
 40
55.46255824429538
100
AcDbArc
 50
88.14039196438175
 51
91.85960803561855
  0
CIRCLE
  5
1C6
330
1F
100
AcDbEntity
  8
0
  6
CONTINUOUS
 62
   253
100
AcDbCircle
 10
640.0
 20
165.0
 30
0.0
 40
64.28370459930962
  0
CIRCLE
  5
1C7
330
1F
100
AcDbEntity
  8
0
  6
CONTINUOUS
 62
     7
100
AcDbCircle
 10
640.0
 20
165.0
 30
0.0
 40
64.99999999999999
  0
LINE
  5
1C8
330
1F
100
AcDbEntity
  8
0
  6
CONTINUOUS
 62
     7
100
AcDbLine
 10
614.6500000000003
 20
29.4999999999999
 30
0.0
 11
598.6500000000003
 21
29.4999999999999
 31
0.0
  0
LINE
  5
1C9
330
1F
100
AcDbEntity
  8
0
  6
CONTINUOUS
 62
     7
100
AcDbLine
 10
681.3499999999937
 20
29.49999999999998
 30
0.0
 11
665.3500000000062
 21
29.49999999999998
 31
0.0
  0
LINE
  5
1CA
330
1F
100
AcDbEntity
  8
0
  6
CONTINUOUS
 62
     7
100
AcDbLine
 10
705.0
 20
10.50000000000003
 30
0.0
 11
575.0
 21
10.50000000000004
 31
0.0
  0
LINE
  5
1CB
330
1F
100
AcDbEntity
  8
0
  6
CONTINUOUS
 62
     7
100
AcDbLine
 10
705.0
 20
11.30000000000003
 30
0.0
 11
575.0
 21
11.30000000000004
 31
0.0
  0
LINE
  5
1CC
330
1F
100
AcDbEntity
  8
0
  6
CONTINUOUS
 62
   253
100
AcDbLine
 10
577.4821905864083
 20
12.36105687442827
 30
0.0
 11
702.5178094135917
 21
12.36105687442825
 31
0.0
  0
LINE
  5
1CD
330
1F
100
AcDbEntity
  8
0
  6
CONTINUOUS
 62
   253
100
AcDbLine
 10
696.3455058371544
 20
23.96947156278592
 30
0.0
 11
696.3158309739646
 21
23.96947156278592
 31
0.0
  0
ARC
  5
1CE
330
1F
100
AcDbEntity
  8
0
  6
CONTINUOUS
 62
   253
100
AcDbCircle
 10
638.1630679043583
 20
26.00130766713626
 30
0.0
 40
2.031853831370066
100
AcDbArc
 50
200.6296937574188
 51
270.2393368545115
  0
LINE
  5
1CF
330
1F
100
AcDbEntity
  8
0
  6
CONTINUOUS
 62
   253
100
AcDbLine
 10
641.8284446277215
 20
23.96947156278593
 30
0.0
 11
638.1715553722785
 21
23.96947156278593
 31
0.0
  0
ARC
  5
1D0
330
1F
100
AcDbEntity
  8
0
  6
CONTINUOUS
 62
   253
100
AcDbCircle
 10
641.8381149886591
 20
25.99959075423855
 30
0.0
 40
2.030142223437796
100
AcDbArc
 50
269.727076774712
 51
339.4038926133591
  0
LINE
  5
1D1
330
1F
100
AcDbEntity
  8
0
  6
CONTINUOUS
 62
   253
100
AcDbLine
 10
643.9919054276575
 20
25.96947156278593
 30
0.0
 11
643.7384974994235
 21
25.28543127613459
 31
0.0
  0
LINE
  5
1D2
330
1F
100
AcDbEntity
  8
0
  6
CONTINUOUS
 62
   253
100
AcDbLine
 10
695.1377713662686
 20
25.96947156278593
 30
0.0
 11
643.9919054276575
 21
25.96947156278594
 31
0.0
  0
LINE
  5
1D3
330
1F
100
AcDbEntity
  8
0
  6
CONTINUOUS
 62
     7
100
AcDbLine
 10
695.5200723350849
 20
25.28543127613459
 30
0.0
 11
695.1377713662685
 21
25.96947156278593
 31
0.0
  0
LINE
  5
1D4
330
1F
100
AcDbEntity
  8
0
  6
CONTINUOUS
 62
   253
100
AcDbLine
 10
696.3158309739646
 20
23.96947156278592
 30
0.0
 11
695.5200723350849
 21
25.28543127613459
 31
0.0
  0
LINE
  5
1D5
330
1F
100
AcDbEntity
  8
0
  6
CONTINUOUS
 62
     7
100
AcDbLine
 10
584.8622286337315
 20
25.96947156278594
 30
0.0
 11
584.4799276649151
 21
25.28543127613459
 31
0.0
  0
LINE
  5
1D6
330
1F
100
AcDbEntity
  8
0
  6
CONTINUOUS
 62
   253
100
AcDbLine
 10
636.0080945723425
 20
25.96947156278594
 30
0.0
 11
584.8622286337314
 21
25.96947156278594
 31
0.0
  0
LINE
  5
1D7
330
1F
100
AcDbEntity
  8
0
  6
CONTINUOUS
 62
   253
100
AcDbLine
 10
636.2615025005765
 20
25.28543127613459
 30
0.0
 11
636.0080945723425
 21
25.96947156278594
 31
0.0
  0
LWPOLYLINE
  5
1D8
330
1F
100
AcDbEntity
  8
0
  6
CONTINUOUS
 62
   253
100
AcDbPolyline
 90
        8
 70
     0
 43
0.0
 10
637.2605149174237
 20
25.15797985667432
 10
637.2070000672941
 20
25.24114456778322
 10
637.1147707629493
 20
25.3057342253024
 10
636.9878562266276
 20
25.34892710043029
 10
636.831800974529
 20
25.36883622574124
 10
636.6534225934993
 20
25.36459183114415
 10
636.4605139010681
 20
25.33637934153428
 10
636.2615025005765
 20
25.28543127613458
  0
LWPOLYLINE
  5
1D9
330
1F
100
AcDbEntity
  8
0
  6
CONTINUOUS
 62
     7
100
AcDbPolyline
 90
       32
 70
     0
 43
0.0
 10
637.2605149174238
 20
25.15797985667437
 10
637.2818528593332
 20
25.10424163459807
 10
637.3065427937191
 20
25.0512647501538
 10
637.3350897182235
 20
24.99843130326721
 10
637.3672738562775
 20
24.94662717675789
 10
637.4028673250441
 20
24.89646989762811
 10
637.4422945541077
 20
24.8476443389304
 10
637.4716476126002
 20
24.81501793104067
 10
637.5027501966631
 20
24.78337369799687
 10
637.5358081884574
 20
24.75262224809091
 10
637.5693889411784
 20
24.72406965670917
 10
637.604872079699
 20
24.6965227496439
 10
637.6381078873561
 20
24.67293048507989
 10
637.6729229475624
 20
24.65031125671465
 10
637.7046439654315
 20
24.63142833034042
 10
637.7376043567177
 20
24.61343455037233
 10
637.7719192293853
 20
24.59635785593843
 10
637.8074997818371
 20
24.58033668221204
 10
637.8448942992089
 20
24.56525270677537
 10
637.8835784185574
 20
24.55145058084037
 10
637.903234900263
 20
24.54511405205409
 10
637.9231681021741
 20
24.53914145115889
 10
637.9434313515513
 20
24.53352915707709
 10
637.9639543221152
 20
24.5283084759632
 10
637.9907765082745
 20
24.52217657846613
 10
638.0180290391102
 20
24.51673452492943
 10
638.0456787668118
 20
24.51201171119788
 10
638.0736986680339
 20
24.50803452390381
 10
638.1048578332528
 20
24.50455616242574
 10
638.136372966712
 20
24.50203950605165
 10
638.1681752003755
 20
24.50051316700379
 10
638.2002075382097
 20
24.50000000000004
  0
LWPOLYLINE
  5
1DA
330
1F
100
AcDbEntity
  8
0
  6
CONTINUOUS
 62
   253
100
AcDbPolyline
 90
        7
 70
     0
 43
0.0
 10
638.2002075382097
 20
24.50000000000004
 10
638.1943867279582
 20
24.4837808485226
 10
638.188754734913
 20
24.43564951583958
 10
638.1834942513708
 20
24.35716730070217
 10
638.1787759184905
 20
24.25088003298157
 10
638.1747527909835
 20
24.12023549126834
 10
638.1715553722786
 20
23.96947156278598
  0
LWPOLYLINE
  5
1DB
330
1F
100
AcDbEntity
  8
0
  6
CONTINUOUS
 62
   253
100
AcDbPolyline
 90
        7
 70
     0
 43
0.0
 10
641.8284446277214
 20
23.96947156278599
 10
641.8252472090165
 20
24.12023549126834
 10
641.8212240815095
 20
24.25088003298157
 10
641.8165057486292
 20
24.35716730070217
 10
641.811245265087
 20
24.43564951583958
 10
641.8056132720418
 20
24.4837808485226
 10
641.7997924617903
 20
24.50000000000004
  0
LWPOLYLINE
  5
1DC
330
1F
100
AcDbEntity
  8
0
  6
CONTINUOUS
 62
     7
100
AcDbPolyline
 90
       31
 70
     0
 43
0.0
 10
641.7997924617903
 20
24.50000000000004
 10
641.8326470180551
 20
24.50053985665632
 10
641.8654225006239
 20
24.50215597511303
 10
641.8982908393945
 20
24.50486278855162
 10
641.9309223263331
 20
24.50863480057805
 10
641.9636030500247
 20
24.51350819000754
 10
641.9958993574804
 20
24.51941747646478
 10
642.0279865749769
 20
24.52638434343583
 10
642.0595643820213
 20
24.53432999971035
 10
642.0810150401672
 20
24.54035743038828
 10
642.1021778238966
 20
24.54681424014843
 10
642.1386068183789
 20
24.55914675333003
 10
642.1740967067901
 20
24.57269404608024
 10
642.208824505751
 20
24.58747997993838
 10
642.2425227005707
 20
24.60334514127819
 10
642.2754663828532
 20
24.62037830812303
 10
642.3073236270559
 20
24.63836659983258
 10
642.3382733819957
 20
24.65736229696579
 10
642.3681149693975
 20
24.67719411320347
 10
642.4079494984575
 20
24.70618325871004
 10
642.4494358312976
 20
24.73976089783868
 10
642.4883980975602
 20
24.77486395870439
 10
642.5250321986214
 20
24.81150357726333
 10
642.5592041428819
 20
24.84938959536327
 10
642.5882372902516
 20
24.88489451923062
 10
642.6180619399594
 20
24.92516518799152
 10
642.64818743797
 20
24.97063626456571
 10
642.6754938666107
 20
25.01714696894858
 10
642.7001003672914
 20
25.06474642414776
 10
642.721953932228
 20
25.11319485210221
 10
642.7394850825762
 20
25.15797985667437
  0
LWPOLYLINE
  5
1DD
330
1F
100
AcDbEntity
  8
0
  6
CONTINUOUS
 62
   253
100
AcDbPolyline
 90
        8
 70
     0
 43
0.0
 10
643.7384974994235
 20
25.28543127613458
 10
643.5394860989319
 20
25.33637934153428
 10
643.3465774065007
 20
25.36459183114415
 10
643.168199025471
 20
25.36883622574124
 10
643.0121437733724
 20
25.34892710043029
 10
642.8852292370507
 20
25.30573422530241
 10
642.7929999327059
 20
25.24114456778322
 10
642.7394850825763
 20
25.15797985667432
  0
LINE
  5
1DE
330
1F
100
AcDbEntity
  8
0
  6
CONTINUOUS
 62
     7
100
AcDbLine
 10
638.2002075382097
 20
24.50000000000004
 30
0.0
 11
641.7997924617905
 21
24.50000000000004
 31
0.0
  0
LWPOLYLINE
  5
1DF
330
1F
100
AcDbEntity
  8
0
  6
CONTINUOUS
 62
   253
100
AcDbPolyline
 90
        8
 70
     0
 43
0.0
 10
637.0115446140437
 20
25.84202014332567
 10
636.9577252155215
 20
25.9256570969711
 10
636.8649837920825
 20
25.99059223672493
 10
636.7373950622114
 20
26.03397255036825
 10
636.5805648074108
 20
26.05389206579799
 10
636.4013835746935
 20
26.04947559246045
 10
636.2077239311818
 20
26.02091717401894
 10
636.0080945723425
 20
25.96947156278592
  0
LINE
  5
1E0
330
1F
100
AcDbEntity
  8
0
  6
CONTINUOUS
 62
     7
100
AcDbLine
 10
637.0115446140438
 20
25.8420201433257
 30
0.0
 11
637.2605149174238
 21
25.15797985667437
 31
0.0
  0
LINE
  5
1E1
330
1F
100
AcDbEntity
  8
0
  6
CONTINUOUS
 62
     7
100
AcDbLine
 10
642.7394850825762
 20
25.15797985667437
 30
0.0
 11
642.9884553859562
 21
25.8420201433257
 31
0.0
  0
LWPOLYLINE
  5
1E2
330
1F
100
AcDbEntity
  8
0
  6
CONTINUOUS
 62
   253
100
AcDbPolyline
 90
        8
 70
     0
 43
0.0
 10
643.9919054276575
 20
25.96947156278592
 10
643.7922760688182
 20
26.02091717401894
 10
643.5986164253065
 20
26.04947559246044
 10
643.4194351925892
 20
26.05389206579799
 10
643.2626049377886
 20
26.03397255036825
 10
643.1350162079175
 20
25.99059223672493
 10
643.0422747844785
 20
25.9256570969711
 10
642.9884553859563
 20
25.84202014332566
  0
LWPOLYLINE
  5
1E3
330
1F
100
AcDbEntity
  8
0
  6
CONTINUOUS
 62
   253
100
AcDbPolyline
 90
        7
 70
     0
 43
0.0
 10
636.0718519932578
 20
26.50000000000004
 10
636.0588994000692
 20
26.4837808485226
 10
636.0463669670225
 20
26.43564951583958
 10
636.0346612249778
 20
26.35716730070217
 10
636.0241618883415
 20
26.25088003298157
 10
636.0152095377765
 20
26.12023549126834
 10
636.0080945723424
 20
25.96947156278599
  0
ARC
  5
1E4
330
1F
100
AcDbEntity
  8
0
  6
CONTINUOUS
 62
     7
100
AcDbCircle
 10
636.0718519932578
 20
25.50000000000004
 30
0.0
 40
1.000000000000001
100
AcDbArc
 50
20.0
 51
90.0
  0
LWPOLYLINE
  5
1E5
330
1F
100
AcDbEntity
  8
0
  6
CONTINUOUS
 62
   253
100
AcDbPolyline
 90
        7
 70
     0
 43
0.0
 10
585.7428712644357
 20
26.50000000000004
 10
585.5639649414343
 20
26.4837808485226
 10
585.3908620359388
 20
26.43564951583958
 10
585.2291777124402
 20
26.35716730070217
 10
585.0841567360072
 20
26.25088003298157
 10
584.9605033410082
 20
26.12023549126835
 10
584.8622286337315
 20
25.96947156278599
  0
LINE
  5
1E6
330
1F
100
AcDbEntity
  8
0
  6
CONTINUOUS
 62
     7
100
AcDbLine
 10
585.7428712644358
 20
26.50000000000004
 30
0.0
 11
636.0718519932578
 21
26.50000000000004
 31
0.0
  0
LWPOLYLINE
  5
1E7
330
1F
100
AcDbEntity
  8
0
  6
CONTINUOUS
 62
   253
100
AcDbPolyline
 90
        7
 70
     0
 43
0.0
 10
643.9919054276576
 20
25.96947156278603
 10
643.9847904622235
 20
26.12023549126837
 10
643.9758381116585
 20
26.25088003298158
 10
643.9653387750222
 20
26.35716730070217
 10
643.9536330329775
 20
26.43564951583958
 10
643.9411005999308
 20
26.48378084852259
 10
643.9281480067422
 20
26.50000000000003
  0
LINE
  5
1E8
330
1F
100
AcDbEntity
  8
0
  6
CONTINUOUS
 62
     7
100
AcDbLine
 10
643.9281480067422
 20
26.50000000000004
 30
0.0
 11
694.2571287355642
 21
26.50000000000004
 31
0.0
  0
LWPOLYLINE
  5
1E9
330
1F
100
AcDbEntity
  8
0
  6
CONTINUOUS
 62
   253
100
AcDbPolyline
 90
        7
 70
     0
 43
0.0
 10
695.1377713662685
 20
25.96947156278599
 10
695.0394966589918
 20
26.12023549126834
 10
694.9158432639928
 20
26.25088003298157
 10
694.7708222875598
 20
26.35716730070217
 10
694.6091379640612
 20
26.43564951583958
 10
694.4360350585657
 20
26.4837808485226
 10
694.2571287355643
 20
26.50000000000004
  0
ARC
  5
1EA
330
1F
100
AcDbEntity
  8
0
  6
CONTINUOUS
 62
     7
100
AcDbCircle
 10
643.9281480067422
 20
25.50000000000004
 30
0.0
 40
1.000000000000058
100
AcDbArc
 50
90.0
 51
160.0
  0
LINE
  5
1EB
330
1F
100
AcDbEntity
  8
0
  6
CONTINUOUS
 62
   253
100
AcDbLine
 10
637.0115446140438
 20
25.8420201433257
 30
0.0
 11
642.9884553859562
 21
25.8420201433257
 31
0.0
  0
LINE
  5
1EC
330
1F
100
AcDbEntity
  8
0
  6
CONTINUOUS
 62
   253
100
AcDbLine
 10
642.7394850825762
 20
25.15797985667437
 30
0.0
 11
637.2605149174238
 21
25.15797985667437
 31
0.0
  0
LINE
  5
1ED
330
1F
100
AcDbEntity
  8
0
  6
CONTINUOUS
 62
     7
100
AcDbLine
 10
643.9281480067422
 20
26.50000000000004
 30
0.0
 11
636.0718519932578
 21
26.50000000000004
 31
0.0
  0
LINE
  5
1EE
330
1F
100
AcDbEntity
  8
0
  6
CONTINUOUS
 62
     7
100
AcDbLine
 10
642.8210227272727
 20
26.50000000000004
 30
0.0
 11
643.0255681818182
 21
26.50000000000004
 31
0.0
  0
LINE
  5
1EF
330
1F
100
AcDbEntity
  8
0
  6
CONTINUOUS
 62
     7
100
AcDbLine
 10
584.870161480091
 20
25.98823931868392
 30
0.0
 11
584.8622286337317
 21
25.96947156278596
 31
0.0
  0
LINE
  5
1F0
330
1F
100
AcDbEntity
  8
0
  6
CONTINUOUS
 62
     7
100
AcDbLine
 10
695.1377713662685
 20
25.96947156278601
 30
0.0
 11
695.1298385199091
 21
25.98823931868398
 31
0.0
  0
LINE
  5
1F1
330
1F
100
AcDbEntity
  8
0
  6
CONTINUOUS
 62
   253
100
AcDbLine
 10
696.3158309739646
 20
23.96947156278594
 30
0.0
 11
696.1873879110973
 21
24.15637263911662
 31
0.0
  0
LINE
  5
1F2
330
1F
100
AcDbEntity
  8
0
  6
CONTINUOUS
 62
     7
100
AcDbLine
 10
695.5200723350849
 20
25.28543127613456
 30
0.0
 11
695.5125127240899
 21
25.30297546888783
 31
0.0
  0
LINE
  5
1F3
330
1F
100
AcDbEntity
  8
0
  6
CONTINUOUS
 62
     7
100
AcDbLine
 10
598.6500000000004
 20
29.4999999999999
 30
0.0
 11
598.6500000000004
 21
26.50000000000004
 31
0.0
  0
LINE
  5
1F4
330
1F
100
AcDbEntity
  8
0
  6
CONTINUOUS
 62
     7
100
AcDbLine
 10
614.6500000000002
 20
26.50000000000004
 30
0.0
 11
614.6500000000002
 21
29.4999999999999
 31
0.0
  0
LINE
  5
1F5
330
1F
100
AcDbEntity
  8
0
  6
CONTINUOUS
 62
     7
100
AcDbLine
 10
665.3500000000028
 20
29.49999999999998
 30
0.0
 11
665.3500000000028
 21
26.49999999999848
 31
0.0
  0
LINE
  5
1F6
330
1F
100
AcDbEntity
  8
0
  6
CONTINUOUS
 62
     7
100
AcDbLine
 10
681.349999999997
 20
26.49999999999847
 30
0.0
 11
681.349999999997
 21
29.49999999999998
 31
0.0
  0
LINE
  5
1F7
330
1F
100
AcDbEntity
  8
0
  6
CONTINUOUS
 62
     7
100
AcDbLine
 10
705.0
 20
10.50000000000004
 30
0.0
 11
705.0
 21
11.30000000000003
 31
0.0
  0
LINE
  5
1F8
330
1F
100
AcDbEntity
  8
0
  6
CONTINUOUS
 62
     7
100
AcDbLine
 10
575.0
 20
11.30000000000003
 30
0.0
 11
575.0
 21
10.50000000000004
 31
0.0
  0
ARC
  5
1F9
330
1F
100
AcDbEntity
  8
0
  6
CONTINUOUS
 62
     7
100
AcDbCircle
 10
575.7162954006903
 20
13.30000000000004
 30
0.0
 40
2.000000000000039
100
AcDbArc
 50
270.0
 51
332.0000000000003
  0
ARC
  5
1FA
330
1F
100
AcDbEntity
  8
0
  6
CONTINUOUS
 62
     7
100
AcDbCircle
 10
704.2837045993097
 20
13.30000000000003
 30
0.0
 40
2.000000000000002
100
AcDbArc
 50
207.9999999999997
 51
270.0
  0
LINE
  5
1FB
330
1F
100
AcDbEntity
  8
0
  6
CONTINUOUS
 62
     7
100
AcDbLine
 10
702.5178094135917
 20
12.36105687442825
 30
0.0
 11
696.3455058371544
 21
23.96947156278592
 31
0.0
  0
LINE
  5
1FC
330
1F
100
AcDbEntity
  8
0
  6
CONTINUOUS
 62
     7
100
AcDbLine
 10
583.6544941628456
 20
23.96947156278593
 30
0.0
 11
577.4821905864083
 21
12.36105687442826
 31
0.0
  0
ARC
  5
1FD
330
1F
100
AcDbEntity
  8
0
  6
CONTINUOUS
 62
     7
100
AcDbCircle
 10
585.7428712644357
 20
25.50000000000004
 30
0.0
 40
1.000000000000001
100
AcDbArc
 50
90.0
 51
150.7750773462323
  0
ARC
  5
1FE
330
1F
100
AcDbEntity
  8
0
  6
CONTINUOUS
 62
     7
100
AcDbCircle
 10
694.2571287355643
 20
25.50000000000004
 30
0.0
 40
0.9999999999999664
100
AcDbArc
 50
29.22492265376775
 51
90.00000000000078
  0
LINE
  5
1FF
330
1F
100
AcDbEntity
  8
0
  6
CONTINUOUS
 62
     7
100
AcDbLine
 10
584.5365551268095
 20
25.34692843241146
 30
0.0
 11
583.9908945572028
 21
24.38675570937255
 31
0.0
  0
LINE
  5
200
330
1F
100
AcDbEntity
  8
0
  6
CONTINUOUS
 62
     7
100
AcDbLine
 10
696.19469531147
 20
24.14494048224114
 30
0.0
 11
695.5125816865942
 21
25.30285199102141
 31
0.0
  0
ARC
  5
201
330
1F
100
AcDbEntity
  8
0
  6
CONTINUOUS
 62
     7
100
AcDbCircle
 10
584.5374417557047
 20
23.50000000000004
 30
0.0
 40
0.9999999999999941
100
AcDbArc
 50
121.6574932574113
 51
151.9999999999989
  0
ARC
  5
202
330
1F
100
AcDbEntity
  8
0
  6
CONTINUOUS
 62
     7
100
AcDbCircle
 10
695.4625582442953
 20
23.50000000000004
 30
0.0
 40
1.000000000000072
100
AcDbArc
 50
28.00000000000032
 51
48.0551188247901
  0
LINE
  5
203
330
1F
100
AcDbEntity
  8
0
  6
CENTER
 62
     1
100
AcDbLine
 10
673.35
 20
153.4718519932579
 30
0.0
 11
673.35
 21
176.5281480067421
 31
0.0
  0
LINE
  5
205
330
1F
100
AcDbEntity
  8
0
  6
CENTER
 62
     1
100
AcDbLine
 10
673.3499999999999
 20
31.49999999999999
 30
0.0
 11
673.3499999999999
 21
24.49999999999847
 31
0.0
  0
LINE
  5
206
330
1F
100
AcDbEntity
  8
0
  6
CENTER
 62
     1
100
AcDbLine
 10
573.0
 20
165.0
 30
0.0
 11
707.0
 21
165.0
 31
0.0
  0
LINE
  5
207
330
1F
100
AcDbEntity
  8
0
  6
CENTER
 62
     1
100
AcDbLine
 10
606.65
 20
153.4718519932579
 30
0.0
 11
606.65
 21
176.5281480067421
 31
0.0
  0
LINE
  5
208
330
1F
100
AcDbEntity
  8
0
  6
CENTER
 62
     1
100
AcDbLine
 10
606.6500000000003
 20
31.4999999999999
 30
0.0
 11
606.6500000000003
 21
24.50000000000004
 31
0.0
  0
LINE
  5
209
330
1F
100
AcDbEntity
  8
0
  6
CENTER
 62
     1
100
AcDbLine
 10
640.0
 20
98.00000000000001
 30
0.0
 11
640.0
 21
232.0
 31
0.0
  0
LINE
  5
20A
330
1F
100
AcDbEntity
  8
0
  6
CENTER
 62
     1
100
AcDbLine
 10
644.25
 20
158.5
 30
0.0
 11
644.25
 21
171.3104470813378
 31
0.0
  0
LINE
  5
20B
330
1F
100
AcDbEntity
  8
0
  6
CENTER
 62
     1
100
AcDbLine
 10
635.75
 20
158.5
 30
0.0
 11
635.75
 21
171.3104470813378
 31
0.0
  0
LINE
  5
20C
330
1F
100
AcDbEntity
  8
0
  6
CENTER
 62
     1
100
AcDbLine
 10
640.0
 20
32.53042945421314
 30
0.0
 11
640.0
 21
4.066920530565208
 31
0.0
  0
MTEXT
  5
20D
330
1F
100
AcDbEntity
  8
0
 62
     7
100
AcDbMText
 10
634.0261348005503
 20
-41.61738777041391
 30
0.0
 40
10.0
 41
0.0
 71
     1
 72
     1
  1
{\fＭＳ ゴシック;K-BC}
  0
ENDSEC
  0
SECTION
  2
OBJECTS
  0
DICTIONARY
  5
C
330
0
100
AcDbDictionary
  3
ACAD_GROUP
350
D
  3
ACAD_LAYOUT
350
1A
  3
ACAD_MATERIAL
350
43
  3
ACAD_MLEADERSTYLE
350
6B
  3
ACAD_MLINESTYLE
350
17
  3
ACAD_PLOTSETTINGS
350
19
  3
ACAD_SCALELIST
350
47
  3
ACAD_VISUALSTYLE
350
2A
  3
ACDBHEADERROUNDTRIPXREC
350
20E
  3
ACDBVARIABLEDICTIONARY
350
22F
  0
DICTIONARY
  5
236
330
8
100
AcDbDictionary
280
     1
  3
ACAD_XREC_ROUNDTRIP
360
237
  0
DICTIONARY
  5
D
102
{ACAD_REACTORS
330
C
102
}
330
C
100
AcDbDictionary
  0
DICTIONARY
  5
1A
102
{ACAD_REACTORS
330
C
102
}
330
C
100
AcDbDictionary
  0
DICTIONARY
  5
43
102
{ACAD_REACTORS
330
C
102
}
330
C
100
AcDbDictionary
  3
BYBLOCK
350
45
  3
BYLAYER
350
44
  3
GLOBAL
350
46
  0
DICTIONARY
  5
6B
102
{ACAD_REACTORS
330
C
102
}
330
C
100
AcDbDictionary
  3
STANDARD
350
6C
  0
DICTIONARY
  5
17
102
{ACAD_REACTORS
330
C
102
}
330
C
100
AcDbDictionary
  3
STANDARD
350
18
  0
DICTIONARY
  5
19
102
{ACAD_REACTORS
330
C
102
}
330
C
100
AcDbDictionary
  0
DICTIONARY
  5
47
102
{ACAD_REACTORS
330
C
102
}
330
C
100
AcDbDictionary
  3
A0
350
48
  3
A1
350
49
  3
A2
350
4A
  3
A3
350
4B
  3
A4
350
4C
  3
A5
350
4D
  3
A6
350
4E
  3
A7
350
4F
  3
A8
350
50
  3
A9
350
51
  3
B0
350
52
  3
B1
350
53
  3
B2
350
54
  3
B3
350
55
  3
B4
350
56
  3
B5
350
57
  3
B6
350
58
  3
B7
350
59
  3
B8
350
5A
  3
B9
350
5B
  3
C0
350
5C
  3
C1
350
5D
  3
C2
350
5E
  3
C3
350
5F
  3
C4
350
60
  3
C5
350
61
  3
C6
350
62
  3
C7
350
63
  3
C8
350
64
  3
C9
350
65
  3
D0
350
66
  3
D1
350
67
  3
D2
350
68
  0
DICTIONARY
  5
2A
102
{ACAD_REACTORS
330
C
102
}
330
C
100
AcDbDictionary
  3
2DWIREFRAME
350
2F
  3
BASIC
350
32
  3
BRIGHTEN
350
36
  3
COLORCHANGE
350
3A
  3
CONCEPTUAL
350
34
  3
DIM
350
35
  3
EDGECOLOROFF
350
3D
  3
FACEPATTERN
350
39
  3
FLAT
350
2B
  3
FLATWITHEDGES
350
2C
  3
GOURAUD
350
2D
  3
GOURAUDWITHEDGES
350
2E
  3
HIDDEN
350
31
  3
JITTEROFF
350
3B
  3
LINEPATTERN
350
38
  3
OVERHANGOFF
350
3C
  3
REALISTIC
350
33
  3
SHADED
350
42
  3
SHADED_WITH_EDGES
350
41
  3
SHADES_OF_GRAY
350
3E
  3
SKETCHY
350
3F
  3
THICKEN
350
37
  3
WIREFRAME
350
30
  3
X-RAY
350
40
  0
DICTIONARY
  5
20E
102
{ACAD_REACTORS
330
C
102
}
330
C
100
AcDbDictionary
  3
CEPSNID
350
218
  3
CEPSNTYPE
350
217
  3
DIMSTYLEDATA
350
22E
  3
FINGERPRINTGUID
350
219
  3
HYPERLINKBASE
350
211
  3
INSUNITS
350
216
  3
LAYOUTDICT
350
213
  3
LWETCUNION
350
215
  3
PLOTSETDICT
350
214
  3
PSVPSCALE
350
21B
  3
PUCSBASE
350
21E
  3
PUCSORGBACK
350
224
  3
PUCSORGBOTTOM
350
220
  3
PUCSORGFRONT
350
223
  3
PUCSORGLEFT
350
221
  3
PUCSORGRIGHT
350
222
  3
PUCSORGTOP
350
21F
  3
PUCSORTHOREF
350
21C
  3
PUCSORTHOVIEW
350
21D
  3
STYLESHEET
350
212
  3
TSTACKALIGN
350
20F
  3
TSTACKSIZE
350
210
  3
UCSBASE
350
227
  3
UCSORGBACK
350
22D
  3
UCSORGBOTTOM
350
229
  3
UCSORGFRONT
350
22C
  3
UCSORGLEFT
350
22A
  3
UCSORGRIGHT
350
22B
  3
UCSORGTOP
350
228
  3
UCSORTHOREF
350
225
  3
UCSORTHOVIEW
350
226
  3
VERSIONGUID
350
21A
  0
DICTIONARY
  5
22F
102
{ACAD_REACTORS
330
C
102
}
330
C
100
AcDbDictionary
  3
CANNOSCALE
350
238
  3
CMLEADERSTYLE
350
231
  3
CTABLESTYLE
350
230
  3
DIMASSOC
350
234
  3
HIDETEXT
350
235
  3
MSLTSCALE
350
239
  0
XRECORD
  5
237
102
{ACAD_REACTORS
330
236
102
}
330
236
100
AcDbXrecord
102
VTR_0.000_0.000_1.000_1.000_VISUALSTYLE
340
2F
102
VTR_0.000_0.000_1.000_1.000_GRIDDISPLAY
 70
     3
102
VTR_0.000_0.000_1.000_1.000_GRIDMAJOR
 70
     5
102
VTR_0.000_0.000_1.000_1.000_DEFAULTLIGHTING
280
     1
102
VTR_0.000_0.000_1.000_1.000_DEFAULTLIGHTINGTYPE
 70
     1
102
VTR_0.000_0.000_1.000_1.000_BRIGHTNESS
141
0.0
102
VTR_0.000_0.000_1.000_1.000_CONTRAST
142
0.0
  0
MATERIAL
  5
45
102
{ACAD_REACTORS
330
43
102
}
102
{ACAD_XDICTIONARY
360
23C
102
}
330
43
100
AcDbMaterial
  1
BYBLOCK
  0
MATERIAL
  5
44
102
{ACAD_REACTORS
330
43
102
}
102
{ACAD_XDICTIONARY
360
23A
102
}
330
43
100
AcDbMaterial
  1
BYLAYER
  0
MATERIAL
  5
46
102
{ACAD_REACTORS
330
43
102
}
102
{ACAD_XDICTIONARY
360
23E
102
}
330
43
100
AcDbMaterial
  1
GLOBAL
  0
ACAD_PROXY_OBJECT
  5
6C
102
{ACAD_REACTORS
330
6B
102
}
330
6B
100
AcDbProxyObject
 90
      499
 91
      505
 93
      610
310
40901902A4063FBFFFFFE056BD1B81E855B9FC0AD7A3703D0AD73F4214DD185B99185C9900AD7A3703D0AC73F90141901A02B5E8DC0F42B1CFC02B5E8DC0F42B1CFE5764000000000000300FC0
340
14
340
0
340
11
340
0
 94
        0
1001
ACAD_MLEADERVER
1070
     2
  0
MLINESTYLE
  5
18
102
{ACAD_REACTORS
330
17
102
}
330
17
100
AcDbMlineStyle
  2
Standard
 70
     0
  3

 62
   256
 51
90.0
 52
90.0
 71
     2
 49
0.5
 62
   256
  6
BYLAYER
 49
-0.5
 62
   256
  6
BYLAYER
  0
ACAD_PROXY_OBJECT
  5
48
102
{ACAD_REACTORS
330
47
102
}
330
47
100
AcDbProxyObject
 90
      499
 91
      503
 93
       41
310
903313A31580
  0
ACAD_PROXY_OBJECT
  5
49
102
{ACAD_REACTORS
330
47
102
}
330
47
100
AcDbProxyObject
 90
      499
 91
      503
 93
      105
310
903313A324000000000000004000
  0
ACAD_PROXY_OBJECT
  5
4A
102
{ACAD_REACTORS
330
47
102
}
330
47
100
AcDbProxyObject
 90
      499
 91
      503
 93
      105
310
903313A344000000000000104000
  0
ACAD_PROXY_OBJECT
  5
4B
102
{ACAD_REACTORS
330
47
102
}
330
47
100
AcDbProxyObject
 90
      499
 91
      503
 93
      105
310
903313A354000000000000144000
  0
ACAD_PROXY_OBJECT
  5
4C
102
{ACAD_REACTORS
330
47
102
}
330
47
100
AcDbProxyObject
 90
      499
 91
      503
 93
      105
310
903313A384000000000000204000
  0
ACAD_PROXY_OBJECT
  5
4D
102
{ACAD_REACTORS
330
47
102
}
330
47
100
AcDbProxyObject
 90
      499
 91
      503
 93
      113
310
904313A31304000000000000244000
  0
ACAD_PROXY_OBJECT
  5
4E
102
{ACAD_REACTORS
330
47
102
}
330
47
100
AcDbProxyObject
 90
      499
 91
      503
 93
      113
310
904313A31364000000000000304000
  0
ACAD_PROXY_OBJECT
  5
4F
102
{ACAD_REACTORS
330
47
102
}
330
47
100
AcDbProxyObject
 90
      499
 91
      503
 93
      113
310
904313A32304000000000000344000
  0
ACAD_PROXY_OBJECT
  5
50
102
{ACAD_REACTORS
330
47
102
}
330
47
100
AcDbProxyObject
 90
      499
 91
      503
 93
      113
310
904313A333040000000000003E4000
  0
ACAD_PROXY_OBJECT
  5
51
102
{ACAD_REACTORS
330
47
102
}
330
47
100
AcDbProxyObject
 90
      499
 91
      503
 93
      113
310
904313A34304000000000000444000
  0
ACAD_PROXY_OBJECT
  5
52
102
{ACAD_REACTORS
330
47
102
}
330
47
100
AcDbProxyObject
 90
      499
 91
      503
 93
      113
310
904313A35304000000000000494000
  0
ACAD_PROXY_OBJECT
  5
53
102
{ACAD_REACTORS
330
47
102
}
330
47
100
AcDbProxyObject
 90
      499
 91
      503
 93
      121
310
905313A3130304000000000000594000
  0
ACAD_PROXY_OBJECT
  5
54
102
{ACAD_REACTORS
330
47
102
}
330
47
100
AcDbProxyObject
 90
      499
 91
      503
 93
      105
310
903323A310000000000000010100
  0
ACAD_PROXY_OBJECT
  5
55
102
{ACAD_REACTORS
330
47
102
}
330
47
100
AcDbProxyObject
 90
      499
 91
      503
 93
      105
310
903343A310000000000000410100
  0
ACAD_PROXY_OBJECT
  5
56
102
{ACAD_REACTORS
330
47
102
}
330
47
100
AcDbProxyObject
 90
      499
 91
      503
 93
      105
310
903383A310000000000000810100
  0
ACAD_PROXY_OBJECT
  5
57
102
{ACAD_REACTORS
330
47
102
}
330
47
100
AcDbProxyObject
 90
      499
 91
      503
 93
      113
310
90431303A310000000000000910100
  0
ACAD_PROXY_OBJECT
  5
58
102
{ACAD_REACTORS
330
47
102
}
330
47
100
AcDbProxyObject
 90
      499
 91
      503
 93
      121
310
9053130303A310000000000001650100
  0
ACAD_PROXY_OBJECT
  5
59
102
{ACAD_REACTORS
330
47
102
}
330
47
100
AcDbProxyObject
 90
      499
 91
      503
 93
      257
310
90E312F31323822203D2031272D3022000000000000200FC000000000000284000
  0
ACAD_PROXY_OBJECT
  5
5A
102
{ACAD_REACTORS
330
47
102
}
330
47
100
AcDbProxyObject
 90
      499
 91
      503
 93
      249
310
90D312F363422203D2031272D3022000000000000240FC000000000000284000
  0
ACAD_PROXY_OBJECT
  5
5B
102
{ACAD_REACTORS
330
47
102
}
330
47
100
AcDbProxyObject
 90
      499
 91
      503
 93
      249
310
90D312F333222203D2031272D3022000000000000280FC000000000000284000
  0
ACAD_PROXY_OBJECT
  5
5C
102
{ACAD_REACTORS
330
47
102
}
330
47
100
AcDbProxyObject
 90
      499
 91
      503
 93
      249
310
90D312F313622203D2031272D30220000000000002C0FC000000000000284000
  0
ACAD_PROXY_OBJECT
  5
5D
102
{ACAD_REACTORS
330
47
102
}
330
47
100
AcDbProxyObject
 90
      499
 91
      503
 93
      249
310
90D332F333222203D2031272D30220000000000002E0FC000000000000284000
  0
ACAD_PROXY_OBJECT
  5
5E
102
{ACAD_REACTORS
330
47
102
}
330
47
100
AcDbProxyObject
 90
      499
 91
      503
 93
      241
310
90C312F3822203D2031272D3022000000000000300FC000000000000284000
  0
ACAD_PROXY_OBJECT
  5
5F
102
{ACAD_REACTORS
330
47
102
}
330
47
100
AcDbProxyObject
 90
      499
 91
      503
 93
      249
310
90D332F313622203D2031272D3022000000000000320FC000000000000284000
  0
ACAD_PROXY_OBJECT
  5
60
102
{ACAD_REACTORS
330
47
102
}
330
47
100
AcDbProxyObject
 90
      499
 91
      503
 93
      241
310
90C312F3422203D2031272D3022000000000000340FC000000000000284000
  0
ACAD_PROXY_OBJECT
  5
61
102
{ACAD_REACTORS
330
47
102
}
330
47
100
AcDbProxyObject
 90
      499
 91
      503
 93
      241
310
90C332F3822203D2031272D3022000000000000360FC000000000000284000
  0
ACAD_PROXY_OBJECT
  5
62
102
{ACAD_REACTORS
330
47
102
}
330
47
100
AcDbProxyObject
 90
      499
 91
      503
 93
      241
310
90C312F3222203D2031272D3022000000000000380FC000000000000284000
  0
ACAD_PROXY_OBJECT
  5
63
102
{ACAD_REACTORS
330
47
102
}
330
47
100
AcDbProxyObject
 90
      499
 91
      503
 93
      241
310
90C332F3422203D2031272D30220000000000003A0FC000000000000284000
  0
ACAD_PROXY_OBJECT
  5
64
102
{ACAD_REACTORS
330
47
102
}
330
47
100
AcDbProxyObject
 90
      499
 91
      503
 93
      161
310
90A3122203D2031272D30224000000000000284000
  0
ACAD_PROXY_OBJECT
  5
65
102
{ACAD_REACTORS
330
47
102
}
330
47
100
AcDbProxyObject
 90
      499
 91
      503
 93
      257
310
90E312D312F3222203D2031272D30220000000000003E0FC000000000000284000
  0
ACAD_PROXY_OBJECT
  5
66
102
{ACAD_REACTORS
330
47
102
}
330
47
100
AcDbProxyObject
 90
      499
 91
      503
 93
      225
310
90A3322203D2031272D302200000000000002100000000000000284000
  0
ACAD_PROXY_OBJECT
  5
67
102
{ACAD_REACTORS
330
47
102
}
330
47
100
AcDbProxyObject
 90
      499
 91
      503
 93
      225
310
90A3622203D2031272D302200000000000006100000000000000284000
  0
ACAD_PROXY_OBJECT
  5
68
102
{ACAD_REACTORS
330
47
102
}
330
47
100
AcDbProxyObject
 90
      499
 91
      503
 93
      249
310
90D31272D3022203D2031272D30220000000000000A100000000000000284000
  0
ACAD_PROXY_OBJECT
  5
2F
102
{ACAD_REACTORS
330
2A
102
}
330
2A
100
AcDbProxyObject
 90
      499
 91
      501
 93
      436
310
42CC9915DA5C99599C985B595049028333333333333E33F0000000000000F90107901411070040501600405405064090741402480A0340
1001
ACAD
1000
AcDbSavedByObjectVersion
1070
     0
  0
ACAD_PROXY_OBJECT
  5
32
102
{ACAD_REACTORS
330
2A
102
}
330
2A
100
AcDbProxyObject
 90
      499
 91
      501
 93
      388
310
4150985CDA58D07406404333333333333E33F0000000000000F90107A41107004050150841D405064090741402480A0350
1001
ACAD
1000
AcDbSavedByObjectVersion
1070
     0
  0
ACAD_PROXY_OBJECT
  5
36
102
{ACAD_REACTORS
330
2A
102
}
330
2A
100
AcDbProxyObject
 90
      499
 91
      501
 93
      428
310
42109C9A59DA1D195B90C409028333333333333E33F0000000000000F9010790141107004050150841D405064090741402480A029950
1001
ACAD
1000
AcDbSavedByObjectVersion
1070
     0
  0
ACAD_PROXY_OBJECT
  5
3A
102
{ACAD_REACTORS
330
2A
102
}
330
2A
100
AcDbProxyObject
 90
      499
 91
      501
 93
      452
310
42D0DBDB1BDC90DA185B99D95104090240C333333333333E33F0000000000000F90108901411070040501508421405064090741402480A0350
1001
ACAD
1000
AcDbSavedByObjectVersion
1070
     0
  0
ACAD_PROXY_OBJECT
  5
34
102
{ACAD_REACTORS
330
2A
102
}
330
2A
100
AcDbProxyObject
 90
      499
 91
      501
 93
      500
310
4290DBDB98D95C1D1D585B10940D028333333333333E33F0000000000000F90107902409070040501000000000018199010841D405064090740C02480A0340
1001
ACAD
1000
AcDbSavedByObjectVersion
1070
     0
  0
ACAD_PROXY_OBJECT
  5
35
102
{ACAD_REACTORS
330
2A
102
}
330
2A
100
AcDbProxyObject
 90
      499
 91
      501
 93
      412
310
40D11A5B50B409028333333333333E33F0000000000000F9010790141107004050150841D405064090741402480A02677FFFFFD0
1001
ACAD
1000
AcDbSavedByObjectVersion
1070
     0
  0
ACAD_PROXY_OBJECT
  5
3D
102
{ACAD_REACTORS
330
2A
102
}
330
2A
100
AcDbProxyObject
 90
      499
 91
      501
 93
      452
310
43115919D950DBDB1BDC93D999916409028333333333333E33F0000000000000F9010790141107004050150841D405064090741402480A0350
1001
ACAD
1000
AcDbSavedByObjectVersion
1070
     0
  0
ACAD_PROXY_OBJECT
  5
39
102
{ACAD_REACTORS
330
2A
102
}
330
2A
100
AcDbProxyObject
 90
      499
 91
      501
 93
      444
310
42D19858D95C185D1D195C9B90F409028333333333333E33F0000000000000F9010790141107004050150841D405064090741402480A0350
1001
ACAD
1000
AcDbSavedByObjectVersion
1070
     0
  0
ACAD_PROXY_OBJECT
  5
2B
102
{ACAD_REACTORS
330
2A
102
}
330
2A
100
AcDbProxyObject
 90
      499
 91
      501
 93
      380
310
41119B185D240901404333333333333E33F0000000000000F9010740A907004050150841D405064090741402480A1B50
1001
ACAD
1000
AcDbSavedByObjectVersion
1070
     0
  0
ACAD_PROXY_OBJECT
  5
2C
102
{ACAD_REACTORS
330
2A
102
}
330
2A
100
AcDbProxyObject
 90
      499
 91
      501
 93
      468
310
43519B185D15DA5D1A115919D95CD0140901404333333333333E33F0000000000000F90107409019070040501600405405064090741402480A1B50
1001
ACAD
1000
AcDbSavedByObjectVersion
1070
     0
  0
ACAD_PROXY_OBJECT
  5
2D
102
{ACAD_REACTORS
330
2A
102
}
330
2A
100
AcDbProxyObject
 90
      499
 91
      501
 93
      404
310
41D1DBDD5C985D5910240902404333333333333E33F0000000000000F9010740A9070040501641D405064090741402480A1B50
1001
ACAD
1000
AcDbSavedByObjectVersion
1070
     0
  0
ACAD_PROXY_OBJECT
  5
2E
102
{ACAD_REACTORS
330
2A
102
}
330
2A
100
AcDbProxyObject
 90
      499
 91
      501
 93
      492
310
4411DBDD5C985D5915DA5D1A115919D95CD0340902404333333333333E33F0000000000000F90107409019070040501600405405064090741402480A1B50
1001
ACAD
1000
AcDbSavedByObjectVersion
1070
     0
  0
ACAD_PROXY_OBJECT
  5
31
102
{ACAD_REACTORS
330
2A
102
}
330
2A
100
AcDbProxyObject
 90
      499
 91
      501
 93
      476
310
41921A5919195B90640502408333333333333E33F0000000000000F901079024090700405020000000000001110200405405064090740C02480A0340
1001
ACAD
1000
AcDbSavedByObjectVersion
1070
     0
  0
ACAD_PROXY_OBJECT
  5
3B
102
{ACAD_REACTORS
330
2A
102
}
330
2A
100
AcDbProxyObject
 90
      499
 91
      501
 93
      428
310
42529A5D1D195C93D999914409028333333333333E33F0000000000000F9010790141107004050150A41D405064090741402480A0350
1001
ACAD
1000
AcDbSavedByObjectVersion
1070
     0
  0
ACAD_PROXY_OBJECT
  5
38
102
{ACAD_REACTORS
330
2A
102
}
330
2A
100
AcDbProxyObject
 90
      499
 91
      501
 93
      444
310
42D31A5B995C185D1D195C9B90E409028333333333333E33F0000000000000F9010790141107004050750841D405064090741402483A0350
1001
ACAD
1000
AcDbSavedByObjectVersion
1070
     0
  0
ACAD_PROXY_OBJECT
  5
3C
102
{ACAD_REACTORS
330
2A
102
}
330
2A
100
AcDbProxyObject
 90
      499
 91
      501
 93
      444
310
42D3DD995C9A185B99D3D999915409028333333333333E33F0000000000000F9010790141107004050150941D405064090741402480A0350
1001
ACAD
1000
AcDbSavedByObjectVersion
1070
     0
  0
ACAD_PROXY_OBJECT
  5
33
102
{ACAD_REACTORS
330
2A
102
}
330
2A
100
AcDbProxyObject
 90
      499
 91
      501
 93
      428
310
425499585B1A5CDD1A58D08409038333333333333E33F0000000000000F9010740A907004050150800405405064090740C02480A1B40
1001
ACAD
1000
AcDbSavedByObjectVersion
1070
     0
  0
ACAD_PROXY_OBJECT
  5
42
102
{ACAD_REACTORS
330
2A
102
}
330
2A
100
AcDbProxyObject
 90
      499
 91
      501
 93
      420
310
4194DA1859195911B40902404333333333333E33F0000000000000F9010740A41107004050150800405405064090840C02480A0B40
1001
ACAD
1000
AcDbSavedByObjectVersion
1070
     0
  0
ACAD_PROXY_OBJECT
  5
41
102
{ACAD_REACTORS
330
2A
102
}
330
2A
100
AcDbProxyObject
 90
      499
 91
      501
 93
      516
310
4454DA18591959081DDA5D1A08195919D95CD1A40902404333333333333E33F0000000000000F901074090142907004050250800405405064090740C02480A0B40
1001
ACAD
1000
AcDbSavedByObjectVersion
1070
     0
  0
ACAD_PROXY_OBJECT
  5
3E
102
{ACAD_REACTORS
330
2A
102
}
330
2A
100
AcDbProxyObject
 90
      499
 91
      501
 93
      532
310
4394DA1859195CC81BD98811DC985E5174090240C333333333333E33F0000000000000F901079024090741D01000000000000111010841D405064090740C02480A0340
1001
ACAD
1000
AcDbSavedByObjectVersion
1070
     0
  0
ACAD_PROXY_OBJECT
  5
3F
102
{ACAD_REACTORS
330
2A
102
}
330
2A
100
AcDbProxyObject
 90
      499
 91
      501
 93
      476
310
41D4DAD95D18DA1E51840502408333333333333E33F0000000000000F901079024090741D01000000000000111010B41D405064090741802480A0340
1001
ACAD
1000
AcDbSavedByObjectVersion
1070
     0
  0
ACAD_PROXY_OBJECT
  5
37
102
{ACAD_REACTORS
330
2A
102
}
330
2A
100
AcDbProxyObject
 90
      499
 91
      501
 93
      412
310
41D51A1A58DAD95B90D409028333333333333E33F0000000000000F9010790141107004050150C41D405064090741402480A0350
1001
ACAD
1000
AcDbSavedByObjectVersion
1070
     0
  0
ACAD_PROXY_OBJECT
  5
30
102
{ACAD_REACTORS
330
2A
102
}
330
2A
100
AcDbProxyObject
 90
      499
 91
      501
 93
      420
310
4255DA5C99599C985B595059028333333333333E33F0000000000000F90107901411070040501600405405064090740C02480A0340
1001
ACAD
1000
AcDbSavedByObjectVersion
1070
     0
  0
ACAD_PROXY_OBJECT
  5
40
102
{ACAD_REACTORS
330
2A
102
}
330
2A
100
AcDbProxyObject
 90
      499
 91
      501
 93
      404
310
41560B54985E51940902404000000000000E03F0000000000000F9010740501907004050150841D405064090740C02480A1B40
1001
ACAD
1000
AcDbSavedByObjectVersion
1070
     0
  0
XRECORD
  5
218
102
{ACAD_REACTORS
330
20E
102
}
330
20E
100
AcDbXrecord
340
0
  0
XRECORD
  5
217
102
{ACAD_REACTORS
330
20E
102
}
330
20E
100
AcDbXrecord
 90
        0
  0
XRECORD
  5
22E
102
{ACAD_REACTORS
330
20E
102
}
330
20E
100
AcDbXrecord
1000
DSTYLE
1002
{
1070
   179
 70
     2
1070
   171
 70
     2
1070
   143
 40
25.4
1070
   274
 70
     2
1070
    41
 40
3.0
1070
   141
 40
0.09
1070
    43
 40
0.38
1070
   278
 70
    46
1070
    44
 40
1.5
1070
    42
 40
0.0625
1070
   147
 40
1.5
1070
   272
 70
     4
1070
    73
 70
     1
1070
   172
 70
     0
1070
    74
 70
     1
1070
   283
 70
     1
1070
   340
340
6E
1070
   140
 40
3.0
1070
   284
 70
     0
1070
    78
 70
     0
1002
}
  0
XRECORD
  5
219
102
{ACAD_REACTORS
330
20E
102
}
330
20E
100
AcDbXrecord
  1
{503D9A7A-3C26-420F-A4F3-24929B6E6FAC}
  0
XRECORD
  5
211
102
{ACAD_REACTORS
330
20E
102
}
330
20E
100
AcDbXrecord
  1

  0
XRECORD
  5
216
102
{ACAD_REACTORS
330
20E
102
}
330
20E
100
AcDbXrecord
 90
        4
  0
XRECORD
  5
213
102
{ACAD_REACTORS
330
20E
102
}
330
20E
100
AcDbXrecord
340
1A
  0
XRECORD
  5
215
102
{ACAD_REACTORS
330
20E
102
}
330
20E
100
AcDbXrecord
 90
    10269
  0
XRECORD
  5
214
102
{ACAD_REACTORS
330
20E
102
}
330
20E
100
AcDbXrecord
340
19
  0
XRECORD
  5
21B
102
{ACAD_REACTORS
330
20E
102
}
330
20E
100
AcDbXrecord
 40
0.0
  0
XRECORD
  5
21E
102
{ACAD_REACTORS
330
20E
102
}
330
20E
100
AcDbXrecord
340
0
  0
XRECORD
  5
224
102
{ACAD_REACTORS
330
20E
102
}
330
20E
100
AcDbXrecord
 10
0.0
 20
0.0
 30
0.0
  0
XRECORD
  5
220
102
{ACAD_REACTORS
330
20E
102
}
330
20E
100
AcDbXrecord
 10
0.0
 20
0.0
 30
0.0
  0
XRECORD
  5
223
102
{ACAD_REACTORS
330
20E
102
}
330
20E
100
AcDbXrecord
 10
0.0
 20
0.0
 30
0.0
  0
XRECORD
  5
221
102
{ACAD_REACTORS
330
20E
102
}
330
20E
100
AcDbXrecord
 10
0.0
 20
0.0
 30
0.0
  0
XRECORD
  5
222
102
{ACAD_REACTORS
330
20E
102
}
330
20E
100
AcDbXrecord
 10
0.0
 20
0.0
 30
0.0
  0
XRECORD
  5
21F
102
{ACAD_REACTORS
330
20E
102
}
330
20E
100
AcDbXrecord
 10
0.0
 20
0.0
 30
0.0
  0
XRECORD
  5
21C
102
{ACAD_REACTORS
330
20E
102
}
330
20E
100
AcDbXrecord
340
0
  0
XRECORD
  5
21D
102
{ACAD_REACTORS
330
20E
102
}
330
20E
100
AcDbXrecord
 70
     0
  0
XRECORD
  5
212
102
{ACAD_REACTORS
330
20E
102
}
330
20E
100
AcDbXrecord
  1

  0
XRECORD
  5
20F
102
{ACAD_REACTORS
330
20E
102
}
330
20E
100
AcDbXrecord
 90
        1
  0
XRECORD
  5
210
102
{ACAD_REACTORS
330
20E
102
}
330
20E
100
AcDbXrecord
 90
       70
  0
XRECORD
  5
227
102
{ACAD_REACTORS
330
20E
102
}
330
20E
100
AcDbXrecord
340
0
  0
XRECORD
  5
22D
102
{ACAD_REACTORS
330
20E
102
}
330
20E
100
AcDbXrecord
 10
0.0
 20
0.0
 30
0.0
  0
XRECORD
  5
229
102
{ACAD_REACTORS
330
20E
102
}
330
20E
100
AcDbXrecord
 10
0.0
 20
0.0
 30
0.0
  0
XRECORD
  5
22C
102
{ACAD_REACTORS
330
20E
102
}
330
20E
100
AcDbXrecord
 10
0.0
 20
0.0
 30
0.0
  0
XRECORD
  5
22A
102
{ACAD_REACTORS
330
20E
102
}
330
20E
100
AcDbXrecord
 10
0.0
 20
0.0
 30
0.0
  0
XRECORD
  5
22B
102
{ACAD_REACTORS
330
20E
102
}
330
20E
100
AcDbXrecord
 10
0.0
 20
0.0
 30
0.0
  0
XRECORD
  5
228
102
{ACAD_REACTORS
330
20E
102
}
330
20E
100
AcDbXrecord
 10
0.0
 20
0.0
 30
0.0
  0
XRECORD
  5
225
102
{ACAD_REACTORS
330
20E
102
}
330
20E
100
AcDbXrecord
340
0
  0
XRECORD
  5
226
102
{ACAD_REACTORS
330
20E
102
}
330
20E
100
AcDbXrecord
 70
     0
  0
XRECORD
  5
21A
102
{ACAD_REACTORS
330
20E
102
}
330
20E
100
AcDbXrecord
  1
{FAEB1C32-E019-11D5-929B-00C0DF256EC4}
  0
DICTIONARYVAR
  5
238
102
{ACAD_REACTORS
330
22F
102
}
330
22F
100
DictionaryVariables
280
     0
  1
1:1
  0
DICTIONARYVAR
  5
231
102
{ACAD_REACTORS
330
22F
102
}
330
22F
100
DictionaryVariables
280
     0
  1
Standard
  0
DICTIONARYVAR
  5
230
102
{ACAD_REACTORS
330
22F
102
}
330
22F
100
DictionaryVariables
280
     0
  1
Standard
  0
DICTIONARYVAR
  5
234
102
{ACAD_REACTORS
330
22F
102
}
330
22F
100
DictionaryVariables
280
     0
  1
2
  0
DICTIONARYVAR
  5
235
102
{ACAD_REACTORS
330
22F
102
}
330
22F
100
DictionaryVariables
280
     0
  1
1
  0
DICTIONARYVAR
  5
239
102
{ACAD_REACTORS
330
22F
102
}
330
22F
100
DictionaryVariables
280
     0
  1
1
  0
DICTIONARY
  5
23C
330
45
100
AcDbDictionary
280
     1
  3
ACAD_XREC_ROUNDTRIP
360
23D
  0
DICTIONARY
  5
23A
330
44
100
AcDbDictionary
280
     1
  3
ACAD_XREC_ROUNDTRIP
360
23B
  0
DICTIONARY
  5
23E
330
46
100
AcDbDictionary
280
     1
  3
ACAD_XREC_ROUNDTRIP
360
23F
  0
XRECORD
  5
23D
102
{ACAD_REACTORS
330
23C
102
}
330
23C
100
AcDbXrecord
102
MATERIAL
148
0.0
149
0.0
149
0.0
 93
        0
 94
      127
282
     0
 72
     1
 77
     1
171
     1
175
     1
179
     1
273
     0
  0
XRECORD
  5
23B
102
{ACAD_REACTORS
330
23A
102
}
330
23A
100
AcDbXrecord
102
MATERIAL
148
0.0
149
0.0
149
0.0
 93
        0
 94
      127
282
     0
 72
     1
 77
     1
171
     1
175
     1
179
     1
273
     0
  0
XRECORD
  5
23F
102
{ACAD_REACTORS
330
23E
102
}
330
23E
100
AcDbXrecord
102
MATERIAL
148
0.0
149
0.0
149
0.0
 93
        0
 94
      127
282
     0
 72
     1
 77
     1
171
     1
175
     1
179
     1
273
     0
  0
ENDSEC
  0
EOF
