  0
SECTION
  2
HEADER
  9
$ACADVER
  1
AC1006
  9
$DWGCODEPAGE
  3
ansi_932
  9
$INSBASE
 10
0.0
 20
0.0
 30
0.0
  9
$EXTMIN
 10
0.0
 20
-167.7967236217304
  9
$EXTMAX
 10
2293.3468825197
 20
20.59597858670029
  9
$LIMMIN
 10
0.0
 20
0.0
  9
$LIMMAX
 10
12.0
 20
9.0
  9
$ORTHOMODE
 70
     0
  9
$REGENMODE
 70
     1
  9
$FILLMODE
 70
     1
  9
$QTEXTMODE
 70
     0
  9
$MIRRTEXT
 70
     1
  9
$DRAGMODE
 70
     2
  9
$LTSCALE
 40
1.0
  9
$OSMODE
 70
    37
  9
$ATTMODE
 70
     1
  9
$TEXTSIZE
 40
0.2
  9
$TRACEWID
 40
0.05
  9
$TEXTSTYLE
  7
STANDARD
  9
$CLAYER
  8
0
  9
$CELTYPE
  6
BYLAYER
  9
$CECOLOR
 62
   256
  9
$DIMSCALE
 40
1.0
  9
$DIMASZ
 40
0.9
  9
$DIMEXO
 40
0.0625
  9
$DIMDLI
 40
0.38
  9
$DIMRND
 40
0.0
  9
$DIMDLE
 40
0.0
  9
$DIMEXE
 40
0.45
  9
$DIMTP
 40
0.0
  9
$DIMTM
 40
0.0
  9
$DIMTXT
 40
3.0
  9
$DIMCEN
 40
0.09
  9
$DIMTSZ
 40
0.0
  9
$DIMTOL
 70
     0
  9
$DIMLIM
 70
     0
  9
$DIMTIH
 70
     1
  9
$DIMTOH
 70
     1
  9
$DIMSE1
 70
     0
  9
$DIMSE2
 70
     0
  9
$DIMTAD
 70
     1
  9
$DIMZIN
 70
     0
  9
$DIMBLK
  1

  9
$DIMASO
 70
     1
  9
$DIMSHO
 70
     1
  9
$DIMPOST
  1

  9
$DIMAPOST
  1

  9
$DIMALT
 70
     0
  9
$DIMALTD
 70
     2
  9
$DIMALTF
 40
25.4
  9
$DIMLFAC
 40
1.0
  9
$DIMTOFL
 70
     0
  9
$DIMTVP
 40
0.0
  9
$DIMTIX
 70
     0
  9
$DIMSOXD
 70
     0
  9
$DIMSAH
 70
     0
  9
$DIMBLK1
  1

  9
$DIMBLK2
  1

  9
$LUNITS
 70
     2
  9
$LUPREC
 70
     4
  9
$SKETCHINC
 40
0.1
  9
$FILLETRAD
 40
0.5
  9
$AUNITS
 70
     0
  9
$AUPREC
 70
     0
  9
$MENU
  1
.
  9
$ELEVATION
 40
0.0
  9
$THICKNESS
 40
0.0
  9
$LIMCHECK
 70
     0
  9
$CHAMFERA
 40
0.0
  9
$CHAMFERB
 40
0.0
  9
$SKPOLY
 70
     0
  9
$TDCREATE
 40
2460350.736014664
  9
$TDUPDATE
 40
2460350.736015
  9
$TDINDWG
 40
0.0000000116
  9
$TDUSRTIMER
 40
0.0000000116
  9
$USRTIMER
 70
     1
  9
$ANGBASE
 50
0.0
  9
$ANGDIR
 70
     0
  9
$PDMODE
 70
     0
  9
$PDSIZE
 40
0.0
  9
$PLINEWID
 40
0.0
  9
$COORDS
 70
     1
  9
$SPLFRAME
 70
     0
  9
$SPLINETYPE
 70
     6
  9
$SPLINESEGS
 70
     8
  9
$ATTDIA
 70
     0
  9
$ATTREQ
 70
     1
  9
$HANDLING
 70
     1
  9
$HANDSEED
  5
110
  9
$SURFTAB1
 70
     6
  9
$SURFTAB2
 70
     6
  9
$SURFTYPE
 70
     6
  9
$SURFU
 70
     6
  9
$SURFV
 70
     6
  9
$UCSNAME
  2

  9
$UCSORG
 10
0.0
 20
0.0
 30
0.0
  9
$UCSXDIR
 10
1.0
 20
0.0
 30
0.0
  9
$UCSYDIR
 10
0.0
 20
1.0
 30
0.0
  9
$USERI1
 70
     0
  9
$USERI2
 70
     0
  9
$USERI3
 70
     0
  9
$USERI4
 70
     0
  9
$USERI5
 70
     0
  9
$USERR1
 40
0.0
  9
$USERR2
 40
0.0
  9
$USERR3
 40
0.0
  9
$USERR4
 40
0.0
  9
$USERR5
 40
0.0
  9
$WORLDVIEW
 70
     1
  0
ENDSEC
  0
SECTION
  2
TABLES
  0
TABLE
  2
VPORT
 70
     1
  0
VPORT
  2
*ACTIVE
 70
     0
 10
0.0
 20
0.0
 11
1.0
 21
1.0
 12
1146.67344125985
 22
-73.60037251751505
 13
0.0
 23
0.0
 14
0.5
 24
0.5
 15
0.5
 25
0.5
 16
0.0
 26
0.0
 36
1.0
 17
0.0
 27
0.0
 37
0.0
 40
188.3927022084307
 41
1.6
 42
50.0
 43
0.0
 44
0.0
 50
0.0
 51
0.0
 71
     0
 72
   100
 73
     1
 74
     3
 75
     0
 76
     0
 77
     0
 78
     0
  0
ENDTAB
  0
TABLE
  2
LTYPE
 70
     3
  0
LTYPE
  2
CONTINUOUS
 70
     0
  3
Solid line
 72
    65
 73
     0
 40
0.0
  0
LTYPE
  2
CENTER
 70
     0
  3

 72
    65
 73
     0
 40
0.0
  0
LTYPE
  2
DASHED
 70
     0
  3

 72
    65
 73
     0
 40
0.0
  0
ENDTAB
  0
TABLE
  2
LAYER
 70
     2
  0
LAYER
  2
0
 70
     0
 62
     7
  6
CONTINUOUS
  0
LAYER
  2
1
 70
     0
 62
     7
  6
CONTINUOUS
  0
ENDTAB
  0
TABLE
  2
STYLE
 70
     2
  0
STYLE
  2
STANDARD
 70
     0
 40
0.0
 41
1.0
 50
0.0
 71
     0
 42
0.2
  3
txt
  4

  0
STYLE
  2
ＭＳ_ゴシック
 70
     0
 40
0.0
 41
1.0
 50
0.0
 71
     0
 42
0.2
  3
ＭＳ ゴシック.shx
  4

  0
ENDTAB
  0
TABLE
  2
VIEW
 70
     0
  0
ENDTAB
  0
TABLE
  2
UCS
 70
     0
  0
ENDTAB
  0
ENDSEC
  0
SECTION
  2
BLOCKS
  0
ENDSEC
  0
SECTION
  2
ENTITIES
  0
ARC
  5
70
  8
1
  6
CONTINUOUS
 62
     7
 10
1990.1342385197
 20
-2.87085521
 30
0.0
 40
1.0
 50
0.0
 51
180.0
  0
LINE
  5
71
  8
1
  6
CONTINUOUS
 62
     7
 10
2075.0927865197
 20
-9.87085521
 30
0.0
 11
2071.1342385197
 21
-9.87085521
 31
0.0
  0
LINE
  5
72
  8
1
  6
CONTINUOUS
 62
     7
 10
2071.1342385197
 20
-115.87085521
 30
0.0
 11
2075.0927865197
 21
-115.87085521
 31
0.0
  0
LINE
  5
73
  8
1
  6
CONTINUOUS
 62
     7
 10
2039.1342385197
 20
-9.87085521
 30
0.0
 11
2037.1342385197
 21
-9.87085521
 31
0.0
  0
LINE
  5
74
  8
1
  6
CONTINUOUS
 62
     7
 10
1981.1342385197
 20
-2.87085521
 30
0.0
 11
1981.1342385197
 21
-122.87085521
 31
0.0
  0
ARC
  5
75
  8
1
  6
CONTINUOUS
 62
     7
 10
2020.1342385197
 20
-2.87085521
 30
0.0
 40
1.0
 50
0.0
 51
180.0
  0
LINE
  5
76
  8
1
  6
CONTINUOUS
 62
     7
 10
2009.1342385197
 20
-2.87085521
 30
0.0
 11
2001.1342385197
 21
-2.87085521
 31
0.0
  0
ARC
  5
77
  8
1
  6
CONTINUOUS
 62
     7
 10
2050.1342385197
 20
-9.87085521
 30
0.0
 40
1.0
 50
0.0
 51
180.0
  0
LINE
  5
78
  8
1
  6
CONTINUOUS
 62
     7
 10
2037.1342385197
 20
-115.87085521
 30
0.0
 11
2039.1342385197
 21
-115.87085521
 31
0.0
  0
ARC
  5
79
  8
1
  6
CONTINUOUS
 62
     7
 10
1960.1342385197
 20
-2.87085521
 30
0.0
 40
1.0
 50
0.0
 51
180.0
  0
ARC
  5
7A
  8
1
  6
CONTINUOUS
 62
     7
 10
1960.1342385197
 20
-122.87085521
 30
0.0
 40
1.0
 50
180.0
 51
0.0
  0
LINE
  5
7B
  8
1
  6
CONTINUOUS
 62
     7
 10
2011.1342385197
 20
-122.87085521
 30
0.0
 11
2019.1342385197
 21
-122.87085521
 31
0.0
  0
ARC
  5
7C
  8
1
  6
CONTINUOUS
 62
     7
 10
2020.1342385197
 20
-122.87085521
 30
0.0
 40
1.0
 50
180.0
 51
0.0
  0
ARC
  5
7D
  8
1
  6
CONTINUOUS
 62
     7
 10
1980.1342385197
 20
-122.87085521
 30
0.0
 40
1.0
 50
180.0
 51
0.0
  0
LINE
  5
7E
  8
1
  6
CONTINUOUS
 62
     7
 10
1979.1342385197
 20
-122.87085521
 30
0.0
 11
1979.1342385197
 21
-2.870855210000009
 31
0.0
  0
ARC
  5
7F
  8
1
  6
CONTINUOUS
 62
     7
 10
1952.1342385197
 20
-1.37085521
 30
0.0
 40
1.5
 50
180.0
 51
270.0
  0
ARC
  5
80
  8
1
  6
CONTINUOUS
 62
     7
 10
2030.1342385197
 20
-2.87085521
 30
0.0
 40
1.0
 50
0.0
 51
180.0
  0
LINE
  5
81
  8
1
  6
CONTINUOUS
 62
     7
 10
1991.1342385197
 20
-122.87085521
 30
0.0
 11
1999.1342385197
 21
-122.87085521
 31
0.0
  0
LINE
  5
82
  8
1
  6
CONTINUOUS
 62
     7
 10
1981.1342385197
 20
-122.87085521
 30
0.0
 11
1989.1342385197
 21
-122.87085521
 31
0.0
  0
ARC
  5
83
  8
1
  6
CONTINUOUS
 62
     7
 10
2030.1342385197
 20
-122.87085521
 30
0.0
 40
1.0
 50
180.0
 51
0.0
  0
LINE
  5
84
  8
1
  6
CONTINUOUS
 62
     7
 10
2021.1342385197
 20
-122.87085521
 30
0.0
 11
2029.1342385197
 21
-122.87085521
 31
0.0
  0
ARC
  5
85
  8
1
  6
CONTINUOUS
 62
     7
 10
2060.1342385197
 20
-9.87085521
 30
0.0
 40
1.0
 50
0.0
 51
180.0
  0
ARC
  5
86
  8
1
  6
CONTINUOUS
 62
     7
 10
2000.1342385197
 20
-2.87085521
 30
0.0
 40
1.0
 50
0.0
 51
180.0
  0
LINE
  5
87
  8
1
  6
CONTINUOUS
 62
     7
 10
2019.1342385197
 20
-2.87085521
 30
0.0
 11
2011.1342385197
 21
-2.87085521
 31
0.0
  0
ARC
  5
88
  8
1
  6
CONTINUOUS
 62
     7
 10
2037.1342385197
 20
-8.87085521
 30
0.0
 40
1.0
 50
180.0
 51
270.0
  0
ARC
  5
89
  8
1
  6
CONTINUOUS
 62
     7
 10
2037.1342385197
 20
-116.87085521
 30
0.0
 40
1.0
 50
90.0
 51
180.0
  0
ARC
  5
8A
  8
1
  6
CONTINUOUS
 62
     7
 10
2040.1342385197
 20
-9.87085521
 30
0.0
 40
1.0
 50
0.0
 51
180.0
  0
ARC
  5
8B
  8
1
  6
CONTINUOUS
 62
     7
 10
2000.1342385197
 20
-122.87085521
 30
0.0
 40
1.0
 50
180.0
 51
0.0
  0
ARC
  5
8C
  8
1
  6
CONTINUOUS
 62
     7
 10
1952.1342385197
 20
-124.37085521
 30
0.0
 40
1.5
 50
90.0
 51
180.0
  0
ARC
  5
8D
  8
1
  6
CONTINUOUS
 62
     7
 10
2010.1342385197
 20
-122.87085521
 30
0.0
 40
1.0
 50
180.0
 51
0.0
  0
ARC
  5
8E
  8
1
  6
CONTINUOUS
 62
     7
 10
2010.1342385197
 20
-2.87085521
 30
0.0
 40
1.0
 50
0.0
 51
180.0
  0
LINE
  5
8F
  8
1
  6
CONTINUOUS
 62
     7
 10
1999.1342385197
 20
-2.87085521
 30
0.0
 11
1991.1342385197
 21
-2.87085521
 31
0.0
  0
ARC
  5
90
  8
1
  6
CONTINUOUS
 62
     7
 10
2034.1342385197
 20
-120.87085521
 30
0.0
 40
2.0
 50
270.0
 51
0.0
  0
LINE
  5
91
  8
1
  6
CONTINUOUS
 62
     7
 10
1971.1342385197
 20
-122.87085521
 30
0.0
 11
1979.1342385197
 21
-122.87085521
 31
0.0
  0
LINE
  5
92
  8
1
  6
CONTINUOUS
 62
     7
 10
2029.1342385197
 20
-2.87085521
 30
0.0
 11
2021.1342385197
 21
-2.87085521
 31
0.0
  0
ARC
  5
93
  8
1
  6
CONTINUOUS
 62
     7
 10
1970.1342385197
 20
-122.87085521
 30
0.0
 40
1.0
 50
180.0
 51
0.0
  0
ARC
  5
94
  8
1
  6
CONTINUOUS
 62
     7
 10
2034.1342385197
 20
-4.87085521
 30
0.0
 40
2.0
 50
0.0
 51
90.0
  0
LINE
  5
95
  8
1
  6
CONTINUOUS
 62
     7
 10
2031.1342385197
 20
-122.87085521
 30
0.0
 11
2034.1342385197
 21
-122.87085521
 31
0.0
  0
ARC
  5
96
  8
1
  6
CONTINUOUS
 62
     7
 10
2060.1342385197
 20
-115.87085521
 30
0.0
 40
1.0
 50
180.0
 51
0.0
  0
LINE
  5
97
  8
1
  6
CONTINUOUS
 62
     7
 10
1959.1342385197
 20
-2.87085521
 30
0.0
 11
1952.1342385197
 21
-2.87085521
 31
0.0
  0
ARC
  5
98
  8
1
  6
CONTINUOUS
 62
     7
 10
2070.1342385197
 20
-9.87085521
 30
0.0
 40
1.0
 50
0.0
 51
180.0
  0
ARC
  5
99
  8
1
  6
CONTINUOUS
 62
     7
 10
2040.1342385197
 20
-115.87085521
 30
0.0
 40
1.0
 50
180.0
 51
0.0
  0
LINE
  5
9A
  8
1
  6
CONTINUOUS
 62
     7
 10
2059.1342385197
 20
-9.87085521
 30
0.0
 11
2051.1342385197
 21
-9.87085521
 31
0.0
  0
LINE
  5
9B
  8
1
  6
CONTINUOUS
 62
     7
 10
2069.1342385197
 20
-9.87085521
 30
0.0
 11
2061.1342385197
 21
-9.87085521
 31
0.0
  0
ARC
  5
9C
  8
1
  6
CONTINUOUS
 62
     7
 10
2070.1342385197
 20
-115.87085521
 30
0.0
 40
1.0
 50
180.0
 51
0.0
  0
ARC
  5
9D
  8
1
  6
CONTINUOUS
 62
     7
 10
1990.1342385197
 20
-122.87085521
 30
0.0
 40
1.0
 50
180.0
 51
0.0
  0
LINE
  5
9E
  8
1
  6
CONTINUOUS
 62
     7
 10
2001.1342385197
 20
-122.87085521
 30
0.0
 11
2009.1342385197
 21
-122.87085521
 31
0.0
  0
LINE
  5
9F
  8
1
  6
CONTINUOUS
 62
     7
 10
2061.1342385197
 20
-115.87085521
 30
0.0
 11
2069.1342385197
 21
-115.87085521
 31
0.0
  0
LINE
  5
A0
  8
1
  6
CONTINUOUS
 62
     7
 10
2049.1342385197
 20
-9.87085521
 30
0.0
 11
2041.1342385197
 21
-9.87085521
 31
0.0
  0
LINE
  5
A1
  8
1
  6
CONTINUOUS
 62
     7
 10
2041.1342385197
 20
-115.87085521
 30
0.0
 11
2049.1342385197
 21
-115.87085521
 31
0.0
  0
LINE
  5
A2
  8
1
  6
CONTINUOUS
 62
     7
 10
1989.1342385197
 20
-2.87085521
 30
0.0
 11
1981.1342385197
 21
-2.87085521
 31
0.0
  0
LINE
  5
A3
  8
1
  6
CONTINUOUS
 62
     7
 10
2034.1342385197
 20
-2.87085521
 30
0.0
 11
2031.1342385197
 21
-2.87085521
 31
0.0
  0
ARC
  5
A4
  8
1
  6
CONTINUOUS
 62
     7
 10
2050.1342385197
 20
-115.87085521
 30
0.0
 40
1.0
 50
180.0
 51
0.0
  0
LINE
  5
A5
  8
1
  6
CONTINUOUS
 62
     7
 10
1979.1342385197
 20
-2.87085521
 30
0.0
 11
1971.1342385197
 21
-2.87085521
 31
0.0
  0
ARC
  5
A6
  8
1
  6
CONTINUOUS
 62
     7
 10
1970.1342385197
 20
-2.87085521
 30
0.0
 40
1.0
 50
0.0
 51
180.0
  0
LINE
  5
A7
  8
1
  6
CONTINUOUS
 62
     7
 10
1952.1342385197
 20
-122.87085521
 30
0.0
 11
1959.1342385197
 21
-122.87085521
 31
0.0
  0
LINE
  5
A8
  8
1
  6
CONTINUOUS
 62
     7
 10
2051.1342385197
 20
-115.87085521
 30
0.0
 11
2059.1342385197
 21
-115.87085521
 31
0.0
  0
LINE
  5
A9
  8
1
  6
CONTINUOUS
 62
     7
 10
1969.1342385197
 20
-2.87085521
 30
0.0
 11
1961.1342385197
 21
-2.87085521
 31
0.0
  0
LINE
  5
AA
  8
1
  6
CONTINUOUS
 62
     7
 10
1961.1342385197
 20
-122.87085521
 30
0.0
 11
1969.1342385197
 21
-122.87085521
 31
0.0
  0
LINE
  5
AB
  8
1
  6
CONTINUOUS
 62
     7
 10
1969.1342385197
 20
-122.87085521
 30
0.0
 11
1969.1342385197
 21
-2.870855210000009
 31
0.0
  0
LINE
  5
AC
  8
1
  6
CONTINUOUS
 62
     7
 10
1945.6342385197
 20
12.12914479
 30
0.0
 11
1950.6342385197
 21
12.12914479
 31
0.0
  0
LINE
  5
AD
  8
1
  6
CONTINUOUS
 62
     7
 10
2001.1342385197
 20
-2.87085521
 30
0.0
 11
2001.1342385197
 21
-122.87085521
 31
0.0
  0
LINE
  5
AE
  8
1
  6
CONTINUOUS
 62
     7
 10
2019.1342385197
 20
-122.87085521
 30
0.0
 11
2019.1342385197
 21
-2.870855210000009
 31
0.0
  0
LINE
  5
AF
  8
1
  6
CONTINUOUS
 62
     7
 10
2075.0709925197
 20
-60.87085521
 30
0.0
 11
2089.1342385197
 21
-60.87085521
 31
0.0
  0
LINE
  5
B0
  8
1
  6
CONTINUOUS
 62
     7
 10
2075.0709925197
 20
-64.87085521
 30
0.0
 11
2089.1342385197
 21
-64.87085521
 31
0.0
  0
ARC
  5
B1
  8
1
  6
CONTINUOUS
 62
     7
 10
1983.332170774711
 20
-62.87103326116322
 30
0.0
 40
91.76060174516151
 50
358.7512022835492
 51
0.0001111760384447
  0
ARC
  5
B2
  8
1
  6
CONTINUOUS
 62
     7
 10
2067.938235422467
 20
-61.94870143226548
 30
0.0
 40
7.213720861349592
 50
352.6555948316106
 51
8.59309170880209
  0
LINE
  5
B3
  8
1
  6
CONTINUOUS
 62
     7
 10
2089.1342385197
 20
-64.62085521
 30
0.0
 11
2094.1342385197
 21
-64.62085521
 31
0.0
  0
LINE
  5
B4
  8
1
  6
CONTINUOUS
 62
     7
 10
2029.1342385197
 20
-122.87085521
 30
0.0
 11
2029.1342385197
 21
-2.870855210000009
 31
0.0
  0
LINE
  5
B5
  8
1
  6
CONTINUOUS
 62
     7
 10
1999.1342385197
 20
-122.87085521
 30
0.0
 11
1999.1342385197
 21
-2.870855210000009
 31
0.0
  0
LINE
  5
B6
  8
1
  6
CONTINUOUS
 62
     7
 10
2081.1342385197
 20
-64.87085521
 30
0.0
 11
2081.1342385197
 21
-115.83310521
 31
0.0
  0
LINE
  5
B7
  8
1
  6
CONTINUOUS
 62
     7
 10
2079.1342385197
 20
-64.87085521
 30
0.0
 11
2079.1342385197
 21
-115.83310521
 31
0.0
  0
LINE
  5
B8
  8
1
  6
CONTINUOUS
 62
     7
 10
1991.1342385197
 20
-2.87085521
 30
0.0
 11
1991.1342385197
 21
-122.87085521
 31
0.0
  0
LINE
  5
B9
  8
1
  6
CONTINUOUS
 62
     7
 10
1961.1342385197
 20
-2.87085521
 30
0.0
 11
1961.1342385197
 21
-122.87085521
 31
0.0
  0
LINE
  5
BA
  8
1
  6
CONTINUOUS
 62
     7
 10
2069.1342385197
 20
-9.87085521
 30
0.0
 11
2069.1342385197
 21
-115.87085521
 31
0.0
  0
LINE
  5
BB
  8
1
  6
CONTINUOUS
 62
     7
 10
1971.1342385197
 20
-2.87085521
 30
0.0
 11
1971.1342385197
 21
-122.87085521
 31
0.0
  0
LINE
  5
BC
  8
1
  6
CONTINUOUS
 62
     7
 10
2039.1342385197
 20
-9.87085521
 30
0.0
 11
2039.1342385197
 21
-115.87085521
 31
0.0
  0
LINE
  5
BD
  8
1
  6
CONTINUOUS
 62
     7
 10
2021.1342385197
 20
-2.87085521
 30
0.0
 11
2021.1342385197
 21
-122.87085521
 31
0.0
  0
LINE
  5
BE
  8
1
  6
CONTINUOUS
 62
     7
 10
2009.1342385197
 20
-122.87085521
 30
0.0
 11
2009.1342385197
 21
-2.870855210000009
 31
0.0
  0
LINE
  5
BF
  8
1
  6
CONTINUOUS
 62
     7
 10
2089.1342385197
 20
-61.12085521
 30
0.0
 11
2094.1342385197
 21
-61.12085521
 31
0.0
  0
LINE
  5
C0
  8
1
  6
CONTINUOUS
 62
     7
 10
2011.1342385197
 20
-2.87085521
 30
0.0
 11
2011.1342385197
 21
-122.87085521
 31
0.0
  0
LINE
  5
C1
  8
1
  6
CONTINUOUS
 62
     7
 10
2079.1342385197
 20
-9.90860521
 30
0.0
 11
2079.1342385197
 21
-60.87085521
 31
0.0
  0
LINE
  5
C2
  8
1
  6
CONTINUOUS
 62
     7
 10
2071.1342385197
 20
-9.87085521
 30
0.0
 11
2071.1342385197
 21
-115.87085521
 31
0.0
  0
LINE
  5
C3
  8
1
  6
CONTINUOUS
 62
     7
 10
1989.1342385197
 20
-122.87085521
 30
0.0
 11
1989.1342385197
 21
-2.870855210000009
 31
0.0
  0
LINE
  5
C4
  8
1
  6
CONTINUOUS
 62
     7
 10
2031.1342385197
 20
-2.87085521
 30
0.0
 11
2031.1342385197
 21
-122.87085521
 31
0.0
  0
LINE
  5
C5
  8
1
  6
CONTINUOUS
 62
     7
 10
2036.1342385197
 20
-4.87085521
 30
0.0
 11
2036.1342385197
 21
-120.87085521
 31
0.0
  0
LINE
  5
C6
  8
1
  6
CONTINUOUS
 62
     7
 10
2089.1342385197
 20
-25.21905121
 30
0.0
 11
2094.1342385197
 21
-25.21905121
 31
0.0
  0
LINE
  5
C7
  8
1
  6
CONTINUOUS
 62
     7
 10
2041.1342385197
 20
-9.87085521
 30
0.0
 11
2041.1342385197
 21
-115.87085521
 31
0.0
  0
LINE
  5
C8
  8
1
  6
CONTINUOUS
 62
     7
 10
2059.1342385197
 20
-9.87085521
 30
0.0
 11
2059.1342385197
 21
-115.87085521
 31
0.0
  0
LINE
  5
C9
  8
1
  6
CONTINUOUS
 62
     7
 10
2081.1342385197
 20
-9.90860521
 30
0.0
 11
2081.1342385197
 21
-60.87085521
 31
0.0
  0
LINE
  5
CA
  8
1
  6
CONTINUOUS
 62
     7
 10
2061.1342385197
 20
-9.87085521
 30
0.0
 11
2061.1342385197
 21
-115.87085521
 31
0.0
  0
LINE
  5
CB
  8
1
  6
CONTINUOUS
 62
     7
 10
2049.1342385197
 20
-9.87085521
 30
0.0
 11
2049.1342385197
 21
-115.87085521
 31
0.0
  0
LINE
  5
CC
  8
1
  6
CONTINUOUS
 62
     7
 10
2051.1342385197
 20
-9.87085521
 30
0.0
 11
2051.1342385197
 21
-115.87085521
 31
0.0
  0
LINE
  5
CD
  8
1
  6
CONTINUOUS
 62
     7
 10
2075.0709925197
 20
-115.83310521
 30
0.0
 11
2079.1342385197
 21
-115.83310521
 31
0.0
  0
LINE
  5
CE
  8
1
  6
CONTINUOUS
 62
     7
 10
2079.1342385197
 20
-9.90860521
 30
0.0
 11
2075.0709925197
 21
-9.90860521
 31
0.0
  0
LINE
  5
CF
  8
1
  6
CONTINUOUS
 62
     7
 10
2089.1342385197
 20
12.12914479
 30
0.0
 11
2094.1342385197
 21
12.12914479
 31
0.0
  0
LINE
  5
D0
  8
1
  6
CONTINUOUS
 62
     7
 10
2089.1342385197
 20
-137.87085521
 30
0.0
 11
2094.1342385197
 21
-137.87085521
 31
0.0
  0
LINE
  5
D1
  8
1
  6
CONTINUOUS
 62
     7
 10
1959.1342385197
 20
-122.87085521
 30
0.0
 11
1959.1342385197
 21
-2.870855210000009
 31
0.0
  0
LINE
  5
D2
  8
1
  6
CONTINUOUS
 62
     7
 10
1945.6342385197
 20
-137.87085521
 30
0.0
 11
1950.6342385197
 21
-137.87085521
 31
0.0
  0
LINE
  5
D3
  8
1
  6
CONTINUOUS
 62
     7
 10
2089.1342385197
 20
-100.52265921
 30
0.0
 11
2094.1342385197
 21
-100.52265921
 31
0.0
  0
ARC
  5
D4
  8
1
  6
CONTINUOUS
 62
     7
 10
2160.556514617828
 20
-111.6612231118716
 30
0.0
 40
1.749999999999984
 50
315.0
 51
135.0
  0
LINE
  5
D5
  8
1
  6
CENTER
 62
     5
 10
2209.3468825197
 20
-144.0182060178001
 30
0.0
 11
2209.3468825197
 21
20.59597858670029
 31
0.0
  0
LINE
  5
D7
  8
1
  6
DASHED
 62
     7
 10
1934.6342385197
 20
-0.87085521
 30
0.0
 11
1934.6342385197
 21
-121.37085521
 31
0.0
  0
ARC
  5
D9
  8
1
  6
CONTINUOUS
 62
     7
 10
2231.099191236341
 20
-135.8708551723569
 30
0.0
 40
1.999999999999758
 50
270.000000000009
 51
315.000000000009
  0
LINE
  5
DA
  8
1
  6
DASHED
 62
     7
 10
1934.6342385197
 20
-121.37085521
 30
0.0
 11
1945.6342385197
 21
-121.37085521
 31
0.0
  0
LINE
  5
DB
  8
1
  6
CONTINUOUS
 62
     7
 10
2259.374687288649
 20
-110.4237862447952
 30
0.0
 11
2283.76109604443
 21
-86.0373774890139
 31
0.0
  0
LINE
  5
DC
  8
1
  6
CONTINUOUS
 62
     7
 10
2080.2889385197
 20
-2.87085521
 30
0.0
 11
2089.1342385197
 21
-2.87085521
 31
0.0
  0
LINE
  5
DD
  8
1
  6
CONTINUOUS
 62
     7
 10
2232.513404798714
 20
-137.2850687347298
 30
0.0
 11
2256.899813554495
 21
-112.8986599789482
 31
0.0
  0
ARC
  5
DE
  8
1
  6
CONTINUOUS
 62
     7
 10
2282.346882482057
 20
-41.118546493359
 30
0.0
 40
1.9999999999996
 50
0.0000000000044906
 51
45.00000000000448
  0
ARC
  5
DF
  8
1
  6
CONTINUOUS
 62
     7
 10
1980.1342385197
 20
-2.87085521
 30
0.0
 40
1.0
 50
0.0
 51
180.0
  0
ARC
  5
E0
  8
1
  6
CONTINUOUS
 62
     7
 10
2258.137250421572
 20
-14.08048730812816
 30
0.0
 40
1.499999999999583
 50
315.000000000012
 51
135.000000000012
  0
LINE
  5
E1
  8
1
  6
CONTINUOUS
 62
     7
 10
2161.793951484904
 20
-112.8986599789481
 30
0.0
 11
2186.180360240686
 21
-137.2850687347295
 31
0.0
  0
LINE
  5
E2
  8
1
  6
CONTINUOUS
 62
     7
 10
2134.346881938446
 20
-41.118546493359
 30
0.0
 11
2134.346881938446
 21
-84.62316392664066
 31
0.0
  0
LINE
  5
E3
  8
1
  6
CENTER
 62
     5
 10
1932.0442938152
 20
-62.87085521
 30
0.0
 11
2108.0445188128
 21
-62.87085521
 31
0.0
  0
LINE
  5
E4
  8
1
  6
CONTINUOUS
 62
     7
 10
2075.0709925197
 20
-9.90860521
 30
0.0
 11
2078.5568885197
 21
-3.87085521
 31
0.0
  0
ARC
  5
E5
  8
1
  6
CONTINUOUS
 62
     7
 10
2080.2889385197
 20
-120.87085521
 30
0.0
 40
2.0
 50
210.0
 51
270.0
  0
CIRCLE
  5
E6
  8
1
  6
CONTINUOUS
 62
     7
 10
2209.3468825197
 20
-62.87085520999991
 30
0.0
 40
49.9999999999999
  0
LINE
  5
E7
  8
1
  6
CONTINUOUS
 62
     7
 10
2185.887466712423
 20
11.25046478646707
 30
0.0
 11
2161.617174789608
 21
-13.0198271363483
 31
0.0
  0
LINE
  5
E8
  8
1
  6
CONTINUOUS
 62
     7
 10
2257.076590249792
 20
-13.01982713634842
 30
0.0
 11
2232.513404798714
 21
11.54335831472959
 31
0.0
  0
LINE
  5
E9
  8
1
  6
CONTINUOUS
 62
     7
 10
2283.761096044429
 20
-39.70433293098608
 30
0.0
 11
2259.197910593351
 21
-15.14114747990807
 31
0.0
  0
ARC
  5
EA
  8
1
  6
CONTINUOUS
 62
     7
 10
2187.594573803059
 20
-135.8708551723564
 30
0.0
 40
2.000000000000385
 50
224.999999999991
 51
269.999999999991
  0
ARC
  5
EB
  8
1
  6
CONTINUOUS
 62
     7
 10
2231.099191236341
 20
10.1291447523566
 30
0.0
 40
1.999999999999758
 50
45.000000000009
 51
90.00000000000901
  0
LINE
  5
EC
  8
1
  6
CONTINUOUS
 62
     7
 10
2080.2889385197
 20
-122.87085521
 30
0.0
 11
2089.1342385197
 21
-122.87085521
 31
0.0
  0
LINE
  5
ED
  8
1
  6
CONTINUOUS
 62
     7
 10
2284.346883100955
 20
-84.6231639266406
 30
0.0
 11
2284.346883100955
 21
-41.11854649335894
 31
0.0
  0
ARC
  5
EE
  8
1
  6
CONTINUOUS
 62
     7
 10
2282.346882482057
 20
-84.62316392664104
 30
0.0
 40
1.999999999999758
 50
315.000000000009
 51
0.0000000000089813
  0
LINE
  5
EF
  8
1
  6
CONTINUOUS
 62
     7
 10
2134.932668994971
 20
-86.03737748901374
 30
0.0
 11
2159.319077750752
 21
-110.4237862447951
 31
0.0
  0
ARC
  5
F0
  8
1
  6
CONTINUOUS
 62
     7
 10
2136.346882557343
 20
-84.6231639266406
 30
0.0
 40
2.000000000000385
 50
179.999999999991
 51
224.999999999991
  0
ARC
  5
F1
  8
1
  6
CONTINUOUS
 62
     7
 10
2136.346882557343
 20
-41.11854649335944
 30
0.0
 40
2.000000000000071
 50
135.0
 51
180.0
  0
LINE
  5
F2
  8
1
  6
CENTER
 62
     5
 10
2130.7243496954
 20
-62.87085520999991
 30
0.0
 11
2293.3468825197
 21
-62.87085520999991
 31
0.0
  0
ARC
  5
F3
  8
1
  6
CONTINUOUS
 62
     7
 10
2080.1342385197
 20
-9.90860521
 30
0.0
 40
1.0
 50
0.0
 51
180.0
  0
LINE
  5
F4
  8
1
  6
CONTINUOUS
 62
     7
 10
2187.594573803059
 20
-137.870855791254
 30
0.0
 11
2231.099191236341
 21
-137.8708557912541
 31
0.0
  0
LINE
  5
F5
  8
1
  6
CONTINUOUS
 62
     7
 10
2089.1342385197
 20
-9.94635521
 30
0.0
 11
2081.1124445197
 21
-9.94635521
 31
0.0
  0
ARC
  5
F6
  8
1
  6
CONTINUOUS
 62
     7
 10
2080.1342385197
 20
-115.83310521
 30
0.0
 40
1.0
 50
180.0
 51
0.0
  0
ARC
  5
F7
  8
1
  6
CONTINUOUS
 62
     7
 10
2188.008787055983
 20
9.129144442907355
 30
0.0
 40
3.000000000000264
 50
89.999999999997
 51
134.999999999997
  0
LINE
  5
F8
  8
1
  6
CONTINUOUS
 62
     7
 10
2089.1342385197
 20
-115.79535521
 30
0.0
 11
2081.1124445197
 21
-115.79535521
 31
0.0
  0
LINE
  5
F9
  8
1
  6
CONTINUOUS
 62
     7
 10
1945.6342385197
 20
-64.62085521
 30
0.0
 11
1950.6342385197
 21
-64.62085521
 31
0.0
  0
ARC
  5
FA
  8
1
  6
CONTINUOUS
 62
     7
 10
2160.556514617828
 20
-14.08048730812816
 30
0.0
 40
1.50000000000021
 50
44.99999999998801
 51
224.999999999988
  0
LINE
  5
FB
  8
1
  6
CONTINUOUS
 62
     7
 10
1945.6342385197
 20
-61.12085521
 30
0.0
 11
1950.6342385197
 21
-61.12085521
 31
0.0
  0
LINE
  5
FC
  8
1
  6
CONTINUOUS
 62
     7
 10
2159.495854446048
 20
-15.14114747990813
 30
0.0
 11
2134.93266899497
 21
-39.70433293098628
 31
0.0
  0
ARC
  5
FD
  8
1
  6
CONTINUOUS
 62
     7
 10
2080.2889385197
 20
-4.87085521
 30
0.0
 40
2.0
 50
90.0
 51
150.0
  0
LINE
  5
FE
  8
1
  6
CONTINUOUS
 62
     7
 10
1945.6342385197
 20
-25.21905121
 30
0.0
 11
1950.6342385197
 21
-25.21905121
 31
0.0
  0
LINE
  5
FF
  8
1
  6
DASHED
 62
     7
 10
1945.6342385197
 20
-0.87085521
 30
0.0
 11
1934.6342385197
 21
-0.87085521
 31
0.0
  0
LINE
  5
100
  8
1
  6
CONTINUOUS
 62
     7
 10
1945.6342385197
 20
-100.52265921
 30
0.0
 11
1950.6342385197
 21
-100.52265921
 31
0.0
  0
LINE
  5
101
  8
1
  6
CONTINUOUS
 62
     7
 10
2231.099191236341
 20
12.12914537125442
 30
0.0
 11
2188.008787055983
 21
12.12914395704096
 31
0.0
  0
ARC
  5
102
  8
1
  6
CONTINUOUS
 62
     7
 10
2258.137250421572
 20
-111.6612231118716
 30
0.0
 40
1.749999999999984
 50
45.0
 51
225.0
  0
LINE
  5
103
  8
1
  6
CONTINUOUS
 62
     7
 10
2075.0709925197
 20
-115.83310521
 30
0.0
 11
2078.5568885197
 21
-121.87085521
 31
0.0
  0
LINE
  5
104
  8
1
  6
CONTINUOUS
 62
     7
 10
2089.1342385197
 20
-137.87085521
 30
0.0
 11
2089.1342385197
 21
12.12914478999999
 31
0.0
  0
LINE
  5
105
  8
1
  6
CONTINUOUS
 62
     7
 10
2094.1342385197
 20
12.12914479
 30
0.0
 11
2094.1342385197
 21
-137.87085521
 31
0.0
  0
LINE
  5
106
  8
1
  6
CONTINUOUS
 62
     7
 10
1945.6342385197
 20
12.12914479
 30
0.0
 11
1945.6342385197
 21
-137.87085521
 31
0.0
  0
LINE
  5
107
  8
1
  6
CONTINUOUS
 62
     7
 10
1950.6342385197
 20
12.12914479
 30
0.0
 11
1950.6342385197
 21
-137.87085521
 31
0.0
  0
TEXT
  5
108
  8
1
  6
CONTINUOUS
 62
     7
 10
2091.960273125073
 20
-167.80612
 30
0.0
 40
10.0
  1
KFEB-100DK2
 41
0.764891
 51
15.0
  0
ENDSEC
  0
EOF
