  0
SECTION
  2
HEADER
  9
$ACADVER
  1
AC1014
  9
$ACADMAINTVER
 70
     9
  9
$DWGCODEPAGE
  3
ANSI_932
  9
$INSBASE
 10
0.0
 20
0.0
 30
0.0
  9
$EXTMIN
 10
-286.7500000000001
 20
0.0
 30
0.0
  9
$EXTMAX
 10
416.75
 20
376.75
 30
10.0
  9
$LIMMIN
 10
0.0
 20
0.0
  9
$LIMMAX
 10
12.0
 20
9.0
  9
$ORTHOMODE
 70
     0
  9
$REGENMODE
 70
     1
  9
$FILLMODE
 70
     1
  9
$QTEXTMODE
 70
     0
  9
$MIRRTEXT
 70
     1
  9
$DRAGMODE
 70
     2
  9
$LTSCALE
 40
1.0
  9
$OSMODE
 70
    37
  9
$ATTMODE
 70
     1
  9
$TEXTSIZE
 40
0.2
  9
$TRACEWID
 40
0.05
  9
$TEXTSTYLE
  7
STANDARD
  9
$CLAYER
  8
0
  9
$CELTYPE
  6
BYLAYER
  9
$CECOLOR
 62
   256
  9
$CELTSCALE
 40
1.0
  9
$DELOBJ
 70
     1
  9
$DISPSILH
 70
     0
  9
$DIMSCALE
 40
1.0
  9
$DIMASZ
 40
0.9
  9
$DIMEXO
 40
0.0625
  9
$DIMDLI
 40
0.38
  9
$DIMRND
 40
0.0
  9
$DIMDLE
 40
0.0
  9
$DIMEXE
 40
0.45
  9
$DIMTP
 40
0.0
  9
$DIMTM
 40
0.0
  9
$DIMTXT
 40
3.0
  9
$DIMCEN
 40
0.09
  9
$DIMTSZ
 40
0.0
  9
$DIMTOL
 70
     0
  9
$DIMLIM
 70
     0
  9
$DIMTIH
 70
     1
  9
$DIMTOH
 70
     1
  9
$DIMSE1
 70
     0
  9
$DIMSE2
 70
     0
  9
$DIMTAD
 70
     1
  9
$DIMZIN
 70
     0
  9
$DIMBLK
  1

  9
$DIMASO
 70
     1
  9
$DIMSHO
 70
     1
  9
$DIMPOST
  1

  9
$DIMAPOST
  1

  9
$DIMALT
 70
     0
  9
$DIMALTD
 70
     2
  9
$DIMALTF
 40
25.4
  9
$DIMLFAC
 40
1.0
  9
$DIMTOFL
 70
     0
  9
$DIMTVP
 40
0.0
  9
$DIMTIX
 70
     0
  9
$DIMSOXD
 70
     0
  9
$DIMSAH
 70
     0
  9
$DIMBLK1
  1

  9
$DIMBLK2
  1

  9
$DIMSTYLE
  2
STANDARD
  9
$DIMCLRD
 70
     0
  9
$DIMCLRE
 70
     0
  9
$DIMCLRT
 70
     0
  9
$DIMTFAC
 40
1.0
  9
$DIMGAP
 40
1.5
  9
$DIMJUST
 70
     0
  9
$DIMSD1
 70
     0
  9
$DIMSD2
 70
     0
  9
$DIMTOLJ
 70
     1
  9
$DIMTZIN
 70
     0
  9
$DIMALTZ
 70
     0
  9
$DIMALTTZ
 70
     0
  9
$DIMFIT
 70
     3
  9
$DIMUPT
 70
     0
  9
$DIMUNIT
 70
     2
  9
$DIMDEC
 70
     4
  9
$DIMTDEC
 70
     4
  9
$DIMALTU
 70
     2
  9
$DIMALTTD
 70
     2
  9
$DIMTXSTY
  7
ＭＳ_ゴシック
  9
$DIMAUNIT
 70
     0
  9
$LUNITS
 70
     2
  9
$LUPREC
 70
     4
  9
$SKETCHINC
 40
0.1
  9
$FILLETRAD
 40
0.5
  9
$AUNITS
 70
     0
  9
$AUPREC
 70
     0
  9
$MENU
  1
.
  9
$ELEVATION
 40
0.0
  9
$PELEVATION
 40
0.0
  9
$THICKNESS
 40
0.0
  9
$LIMCHECK
 70
     0
  9
$CHAMFERA
 40
0.0
  9
$CHAMFERB
 40
0.0
  9
$CHAMFERC
 40
0.0
  9
$CHAMFERD
 40
0.0
  9
$SKPOLY
 70
     0
  9
$TDCREATE
 40
2458983.688730266
  9
$TDUPDATE
 40
2458983.68873081
  9
$TDINDWG
 40
0.0000000116
  9
$TDUSRTIMER
 40
0.0000000116
  9
$USRTIMER
 70
     1
  9
$ANGBASE
 50
0.0
  9
$ANGDIR
 70
     0
  9
$PDMODE
 70
     0
  9
$PDSIZE
 40
0.0
  9
$PLINEWID
 40
0.0
  9
$COORDS
 70
     1
  9
$SPLFRAME
 70
     0
  9
$SPLINETYPE
 70
     6
  9
$SPLINESEGS
 70
     8
  9
$ATTDIA
 70
     0
  9
$ATTREQ
 70
     1
  9
$HANDLING
 70
     1
  9
$HANDSEED
  5
50B
  9
$SURFTAB1
 70
     6
  9
$SURFTAB2
 70
     6
  9
$SURFTYPE
 70
     6
  9
$SURFU
 70
     6
  9
$SURFV
 70
     6
  9
$UCSNAME
  2

  9
$UCSORG
 10
0.0
 20
0.0
 30
0.0
  9
$UCSXDIR
 10
1.0
 20
0.0
 30
0.0
  9
$UCSYDIR
 10
0.0
 20
1.0
 30
0.0
  9
$PUCSNAME
  2

  9
$PUCSORG
 10
0.0
 20
0.0
 30
0.0
  9
$PUCSXDIR
 10
1.0
 20
0.0
 30
0.0
  9
$PUCSYDIR
 10
0.0
 20
1.0
 30
0.0
  9
$USERI1
 70
     0
  9
$USERI2
 70
     0
  9
$USERI3
 70
     0
  9
$USERI4
 70
     0
  9
$USERI5
 70
     0
  9
$USERR1
 40
0.0
  9
$USERR2
 40
0.0
  9
$USERR3
 40
0.0
  9
$USERR4
 40
0.0
  9
$USERR5
 40
0.0
  9
$WORLDVIEW
 70
     1
  9
$SHADEDGE
 70
     3
  9
$SHADEDIF
 70
    70
  9
$TILEMODE
 70
     1
  9
$MAXACTVP
 70
    64
  9
$PINSBASE
 10
0.0
 20
0.0
 30
0.0
  9
$PLIMCHECK
 70
     0
  9
$PEXTMIN
 10
1.000000000000000E+20
 20
1.000000000000000E+20
 30
1.000000000000000E+20
  9
$PEXTMAX
 10
-1.000000000000000E+20
 20
-1.000000000000000E+20
 30
-1.000000000000000E+20
  9
$PLIMMIN
 10
0.0
 20
0.0
  9
$PLIMMAX
 10
12.0
 20
9.0
  9
$UNITMODE
 70
     0
  9
$VISRETAIN
 70
     1
  9
$PLINEGEN
 70
     0
  9
$PSLTSCALE
 70
     1
  9
$TREEDEPTH
 70
  3020
  9
$PICKSTYLE
 70
     1
  9
$CMLSTYLE
  2
STANDARD
  9
$CMLJUST
 70
     0
  9
$CMLSCALE
 40
1.0
  9
$PROXYGRAPHICS
 70
     1
  9
$MEASUREMENT
 70
     1
  0
ENDSEC
  0
SECTION
  2
CLASSES
  0
CLASS
  1
ACDBDICTIONARYWDFLT
  2
AcDbDictionaryWithDefault
  3
ObjectDBX Classes
 90
        0
280
     0
281
     0
  0
CLASS
  1
VISUALSTYLE
  2
AcDbVisualStyle
  3
ObjectDBX Classes
 90
     4095
280
     0
281
     0
  0
CLASS
  1
MATERIAL
  2
AcDbMaterial
  3
ObjectDBX Classes
 90
     1153
280
     0
281
     0
  0
CLASS
  1
SCALE
  2
AcDbScale
  3
ObjectDBX Classes
 90
     1153
280
     0
281
     0
  0
CLASS
  1
TABLESTYLE
  2
AcDbTableStyle
  3
ObjectDBX Classes
 90
     4095
280
     0
281
     0
  0
CLASS
  1
MLEADERSTYLE
  2
AcDbMLeaderStyle
  3
ACDB_MLEADERSTYLE_CLASS
 90
     4095
280
     0
281
     0
  0
CLASS
  1
SUN
  2
AcDbSun
  3
SCENEOE
 90
     1153
280
     0
281
     0
  0
CLASS
  1
DICTIONARYVAR
  2
AcDbDictionaryVar
  3
ObjectDBX Classes
 90
        0
280
     0
281
     0
  0
CLASS
  1
XRECORD
  2
AcDbXrecord
  3
ObjectDBX Classes
 90
        0
280
     0
281
     0
  0
CLASS
  1
LWPOLYLINE
  2
AcDbPolyline
  3
ObjectDBX Classes
 90
        0
280
     0
281
     1
  0
CLASS
  1
HATCH
  2
AcDbHatch
  3
ObjectDBX Classes
 90
        0
280
     0
281
     1
  0
CLASS
  1
ACDBPLACEHOLDER
  2
AcDbPlaceHolder
  3
ObjectDBX Classes
 90
        0
280
     0
281
     0
  0
CLASS
  1
LAYOUT
  2
AcDbLayout
  3
ObjectDBX Classes
 90
        0
280
     0
281
     0
  0
ENDSEC
  0
SECTION
  2
TABLES
  0
TABLE
  2
VPORT
  5
8
102
{ACAD_XDICTIONARY
360
500
102
}
330
0
100
AcDbSymbolTable
 70
     1
  0
VPORT
  5
29
330
8
100
AcDbSymbolTableRecord
100
AcDbViewportTableRecord
  2
*ACTIVE
 70
     0
 10
0.0
 20
0.0
 11
1.0
 21
1.0
 12
64.99999999999997
 22
188.375
 13
0.0
 23
0.0
 14
0.5
 24
0.5
 15
0.5
 25
0.5
 16
0.0
 26
0.0
 36
1.0
 17
0.0
 27
0.0
 37
0.0
 40
376.75
 41
1.6
 42
50.0
 43
0.0
 44
0.0
 50
0.0
 51
0.0
 71
     0
 72
   100
 73
     1
 74
     3
 75
     0
 76
     0
 77
     0
 78
     0
  0
ENDTAB
  0
TABLE
  2
LTYPE
  5
5
330
0
100
AcDbSymbolTable
 70
     2
  0
LTYPE
  5
14
330
5
100
AcDbSymbolTableRecord
100
AcDbLinetypeTableRecord
  2
BYBLOCK
 70
     0
  3

 72
    65
 73
     0
 40
0.0
  0
LTYPE
  5
15
330
5
100
AcDbSymbolTableRecord
100
AcDbLinetypeTableRecord
  2
BYLAYER
 70
     0
  3

 72
    65
 73
     0
 40
0.0
  0
LTYPE
  5
16
330
5
100
AcDbSymbolTableRecord
100
AcDbLinetypeTableRecord
  2
CONTINUOUS
 70
     0
  3
Solid line
 72
    65
 73
     0
 40
0.0
  0
LTYPE
  5
E1
330
5
100
AcDbSymbolTableRecord
100
AcDbLinetypeTableRecord
  2
CENTER
 70
     0
  3

 72
    65
 73
     0
 40
0.0
  0
ENDTAB
  0
TABLE
  2
LAYER
  5
2
330
0
100
AcDbSymbolTable
 70
     2
  0
LAYER
  5
10
330
2
100
AcDbSymbolTableRecord
100
AcDbLayerTableRecord
  2
0
 70
     0
 62
     7
  6
CONTINUOUS
  0
LAYER
  5
6E
330
2
100
AcDbSymbolTableRecord
100
AcDbLayerTableRecord
  2
257
 70
     0
 62
     7
  6
CONTINUOUS
  0
ENDTAB
  0
TABLE
  2
STYLE
  5
3
330
0
100
AcDbSymbolTable
 70
     2
  0
STYLE
  5
11
330
3
100
AcDbSymbolTableRecord
100
AcDbTextStyleTableRecord
  2
STANDARD
 70
     0
 40
0.0
 41
1.0
 50
0.0
 71
     0
 42
0.2
  3
txt
  4

  0
STYLE
  5
6F
330
3
100
AcDbSymbolTableRecord
100
AcDbTextStyleTableRecord
  2
ＭＳ_ゴシック
 70
     0
 40
0.0
 41
1.0
 50
0.0
 71
     0
 42
0.2
  3
ＭＳ ゴシック.shx
  4

  0
ENDTAB
  0
TABLE
  2
VIEW
  5
6
330
0
100
AcDbSymbolTable
 70
     0
  0
ENDTAB
  0
TABLE
  2
UCS
  5
7
330
0
100
AcDbSymbolTable
 70
     0
  0
ENDTAB
  0
TABLE
  2
APPID
  5
9
330
0
100
AcDbSymbolTable
 70
     2
  0
APPID
  5
12
330
9
100
AcDbSymbolTableRecord
100
AcDbRegAppTableRecord
  2
ACAD
 70
     0
  0
APPID
  5
50A
330
9
100
AcDbSymbolTableRecord
100
AcDbRegAppTableRecord
  2
ACAD_MLEADERVER
 70
     0
  0
ENDTAB
  0
TABLE
  2
DIMSTYLE
  5
A
330
0
100
AcDbSymbolTable
 70
     1
  0
DIMSTYLE
105
27
330
A
100
AcDbSymbolTableRecord
100
AcDbDimStyleTableRecord
  2
STANDARD
 70
     0
  3

  4

  5

  6

  7

 40
1.0
 41
0.18
 42
0.0625
 43
0.38
 44
0.18
 45
0.0
 46
0.0
 47
0.0
 48
0.0
140
0.18
141
0.09
142
0.0
143
25.4
144
1.0
145
0.0
146
1.0
147
0.09
 71
     0
 72
     0
 73
     1
 74
     1
 75
     0
 76
     0
 77
     0
 78
     0
170
     0
171
     2
172
     0
173
     0
174
     0
175
     0
176
     0
177
     0
178
     0
270
     2
271
     4
272
     4
273
     2
274
     2
340
11
275
     0
280
     0
281
     0
282
     0
283
     1
284
     0
285
     0
286
     0
287
     3
288
     0
  0
ENDTAB
  0
TABLE
  2
BLOCK_RECORD
  5
1
330
0
100
AcDbSymbolTable
 70
     0
  0
BLOCK_RECORD
  5
1F
330
1
100
AcDbSymbolTableRecord
100
AcDbBlockTableRecord
  2
*MODEL_SPACE
  0
BLOCK_RECORD
  5
1B
330
1
100
AcDbSymbolTableRecord
100
AcDbBlockTableRecord
  2
*PAPER_SPACE
  0
ENDTAB
  0
ENDSEC
  0
SECTION
  2
BLOCKS
  0
BLOCK
  5
20
330
1F
100
AcDbEntity
  8
0
100
AcDbBlockBegin
  2
*MODEL_SPACE
 70
     0
 10
0.0
 20
0.0
 30
0.0
  3
*MODEL_SPACE
  1

  0
ENDBLK
  5
21
330
1F
100
AcDbEntity
  8
0
100
AcDbBlockEnd
  0
BLOCK
  5
1C
330
1B
100
AcDbEntity
 67
     1
  8
0
100
AcDbBlockBegin
  2
*PAPER_SPACE
 70
     0
 10
0.0
 20
0.0
 30
0.0
  3
*PAPER_SPACE
  1

  0
ENDBLK
  5
1D
330
1B
100
AcDbEntity
 67
     1
  8
0
100
AcDbBlockEnd
  0
ENDSEC
  0
SECTION
  2
ENTITIES
  0
LINE
  5
70
330
1F
100
AcDbEntity
  8
0
  6
CONTINUOUS
 62
     7
100
AcDbLine
 10
59.25013069099993
 20
360.8563852165999
 30
0.0
 11
59.27515469099998
 21
360.8928672166001
 31
0.0
  0
LINE
  5
71
330
1F
100
AcDbEntity
  8
0
  6
CONTINUOUS
 62
     7
100
AcDbLine
 10
59.03333967459995
 20
360.8822416167999
 30
0.0
 11
59.01325367459997
 21
360.8428256168
 31
0.0
  0
LINE
  5
72
330
1F
100
AcDbEntity
  8
0
  6
CONTINUOUS
 62
     7
100
AcDbLine
 10
59.11022530899995
 20
361.0059967834
 30
0.0
 11
59.08520130899997
 21
360.9695147834
 31
0.0
  0
LINE
  5
73
330
1F
100
AcDbEntity
  8
0
  6
CONTINUOUS
 62
     7
100
AcDbLine
 10
59.12502427919996
 20
360.5639820641999
 30
0.0
 11
59.13758027919997
 21
360.6114740642
 31
0.0
  0
LINE
  5
74
330
1F
100
AcDbEntity
  8
0
  6
CONTINUOUS
 62
     7
100
AcDbLine
 10
59.10939075119997
 20
360.4814125433999
 30
0.0
 11
58.91074124879997
 21
360.5046154566
 31
0.0
  0
LINE
  5
75
330
1F
100
AcDbEntity
  8
0
  6
CONTINUOUS
 62
     7
100
AcDbLine
 10
58.97566208479993
 20
360.75622529
 30
0.0
 11
59.16089391519996
 21
360.6807987099999
 31
0.0
  0
LINE
  5
76
330
1F
100
AcDbEntity
  8
0
  6
CONTINUOUS
 62
     7
100
AcDbLine
 10
59.27265502699996
 20
360.8893853975999
 30
0.0
 11
59.29821302699995
 21
360.9234213976
 31
0.0
  0
LINE
  5
77
330
1F
100
AcDbEntity
  8
0
  6
CONTINUOUS
 62
     7
100
AcDbLine
 10
59.11272497299996
 20
361.0094786024
 30
0.0
 11
59.27265502699996
 21
360.8893853975999
 31
0.0
  0
LINE
  5
78
330
1F
100
AcDbEntity
  8
0
  6
CONTINUOUS
 62
     7
100
AcDbLine
 10
59.32261006359995
 20
360.9530821918
 30
0.0
 11
59.1678579364
 21
361.0797778082
 31
0.0
  0
LINE
  5
79
330
1F
100
AcDbEntity
  8
0
  6
CONTINUOUS
 62
     7
100
AcDbLine
 10
59.12613064599997
 20
360.5686096563999
 30
0.0
 11
58.93056135399998
 21
360.6104743435999
 31
0.0
  0
LINE
  5
7A
330
1F
100
AcDbEntity
  8
0
  6
CONTINUOUS
 62
     7
100
AcDbLine
 10
59.11672563539994
 20
360.5252124666
 30
0.0
 11
58.91939036459998
 21
360.5577515334001
 31
0.0
  0
LINE
  5
7B
330
1F
100
AcDbEntity
  8
0
  6
CONTINUOUS
 62
     7
100
AcDbLine
 10
59.08520130899997
 20
360.9695147834
 30
0.0
 11
59.25013069099993
 21
360.8563852165999
 31
0.0
  0
LINE
  5
7C
330
1F
100
AcDbEntity
  8
0
  6
CONTINUOUS
 62
     7
100
AcDbLine
 10
59.16089391519996
 20
360.6807987099999
 30
0.0
 11
59.17711191519997
 21
360.72062671
 31
0.0
  0
LINE
  5
7D
330
1F
100
AcDbEntity
  8
0
  6
CONTINUOUS
 62
     7
100
AcDbLine
 10
59.10873363539992
 20
360.4767444666001
 30
0.0
 11
59.11672563539994
 21
360.5252124666
 31
0.0
  0
LINE
  5
7E
330
1F
100
AcDbEntity
  8
0
  6
CONTINUOUS
 62
     7
100
AcDbLine
 10
58.95962606580002
 20
360.7118585855999
 30
0.0
 11
59.14784193419997
 21
360.6442214144
 31
0.0
  0
LINE
  5
7F
330
1F
100
AcDbEntity
  8
0
  6
CONTINUOUS
 62
     7
100
AcDbLine
 10
59.29562406359995
 20
360.9201201918
 30
0.0
 11
59.32261006359995
 21
360.9530821918
 31
0.0
  0
LINE
  5
80
330
1F
100
AcDbEntity
  8
0
  6
CONTINUOUS
 62
     7
100
AcDbLine
 10
58.93056135399998
 20
360.6104743435999
 30
0.0
 11
58.92027335400002
 21
360.5624143436
 31
0.0
  0
LINE
  5
81
330
1F
100
AcDbEntity
  8
0
  6
CONTINUOUS
 62
     7
100
AcDbLine
 10
59.1678579364
 20
361.0797778082
 30
0.0
 11
59.1408719364
 21
361.0468158081999
 31
0.0
  0
LINE
  5
82
330
1F
100
AcDbEntity
  8
0
  6
CONTINUOUS
 62
     7
100
AcDbLine
 10
59.1408719364
 20
361.0468158081999
 30
0.0
 11
59.29562406359995
 21
360.9201201918
 31
0.0
  0
LINE
  5
83
330
1F
100
AcDbEntity
  8
0
  6
CONTINUOUS
 62
     7
100
AcDbLine
 10
59.31988446539993
 20
360.9498919806
 30
0.0
 11
59.34823046539994
 21
360.9816939806
 31
0.0
  0
LINE
  5
84
330
1F
100
AcDbEntity
  8
0
  6
CONTINUOUS
 62
     7
100
AcDbLine
 10
58.99353970399995
 20
360.7998966147999
 30
0.0
 11
59.17545229599996
 21
360.7167833852
 31
0.0
  0
LINE
  5
85
330
1F
100
AcDbEntity
  8
0
  6
CONTINUOUS
 62
     7
100
AcDbLine
 10
59.25250919579994
 20
360.860019554
 30
0.0
 11
59.08282280420002
 21
360.965880446
 31
0.0
  0
LINE
  5
86
330
1F
100
AcDbEntity
  8
0
  6
CONTINUOUS
 62
     7
100
AcDbLine
 10
59.34823046539994
 20
360.9816939806
 30
0.0
 11
59.19892953459993
 21
361.1147700193999
 31
0.0
  0
LINE
  5
87
330
1F
100
AcDbEntity
  8
0
  6
CONTINUOUS
 62
     7
100
AcDbLine
 10
59.05717867979998
 20
360.9245985066
 30
0.0
 11
59.03538667979996
 21
360.8860525066
 31
0.0
  0
LINE
  5
88
330
1F
100
AcDbEntity
  8
0
  6
CONTINUOUS
 62
     7
100
AcDbLine
 10
59.19892953459993
 20
361.1147700193999
 30
0.0
 11
59.17058353459997
 21
361.0829680194
 31
0.0
  0
LINE
  5
89
330
1F
100
AcDbEntity
  8
0
  6
CONTINUOUS
 62
     7
100
AcDbLine
 10
58.91939036459998
 20
360.5577515334001
 30
0.0
 11
58.91139836460002
 21
360.5092835333999
 31
0.0
  0
LINE
  5
8A
330
1F
100
AcDbEntity
  8
0
  6
CONTINUOUS
 62
     7
100
AcDbLine
 10
59.17058353459997
 20
361.0829680194
 30
0.0
 11
59.31988446539993
 21
360.9498919806
 31
0.0
  0
LINE
  5
8B
330
1F
100
AcDbEntity
  8
0
  6
CONTINUOUS
 62
     7
100
AcDbLine
 10
59.34536085879999
 20
360.9786079501999
 30
0.0
 11
59.37499485879999
 21
361.0091599502
 31
0.0
  0
LINE
  5
8C
330
1F
100
AcDbEntity
  8
0
  6
CONTINUOUS
 62
     7
100
AcDbLine
 10
59.22907319580001
 20
360.822453554
 30
0.0
 11
59.25250919579994
 21
360.860019554
 31
0.0
  0
LINE
  5
8D
330
1F
100
AcDbEntity
  8
0
  6
CONTINUOUS
 62
     7
100
AcDbLine
 10
59.37499485879999
 20
361.0091599502
 30
0.0
 11
59.23143314119999
 21
361.1484080498
 31
0.0
  0
LINE
  5
8E
330
1F
100
AcDbEntity
  8
0
  6
CONTINUOUS
 62
     7
100
AcDbLine
 10
59.05938680419997
 20
360.9283144459999
 30
0.0
 11
59.22907319580001
 21
360.822453554
 31
0.0
  0
LINE
  5
8F
330
1F
100
AcDbEntity
  8
0
  6
CONTINUOUS
 62
     7
100
AcDbLine
 10
59.17711191519997
 20
360.72062671
 30
0.0
 11
58.99188008479999
 21
360.79605329
 31
0.0
  0
LINE
  5
90
330
1F
100
AcDbEntity
  8
0
  6
CONTINUOUS
 62
     7
100
AcDbLine
 10
59.23143314119999
 20
361.1484080498
 30
0.0
 11
59.20179914119999
 21
361.1178560498
 31
0.0
  0
LINE
  5
91
330
1F
100
AcDbEntity
  8
0
  6
CONTINUOUS
 62
     7
100
AcDbLine
 10
59.20179914119999
 20
361.1178560498
 30
0.0
 11
59.34536085879999
 21
360.9786079501999
 31
0.0
  0
LINE
  5
92
330
1F
100
AcDbEntity
  8
0
  6
CONTINUOUS
 62
     7
100
AcDbLine
 10
59.17545229599996
 20
360.7167833852
 30
0.0
 11
59.19330829599995
 21
360.7558653852
 31
0.0
  0
LINE
  5
93
330
1F
100
AcDbEntity
  8
0
  6
CONTINUOUS
 62
     7
100
AcDbLine
 10
59.19145032539996
 20
360.7520183832
 30
0.0
 11
59.21153632539999
 21
360.7914343831999
 31
0.0
  0
LINE
  5
94
330
1F
100
AcDbEntity
  8
0
  6
CONTINUOUS
 62
     7
100
AcDbLine
 10
58.91074124879997
 20
360.5046154566
 30
0.0
 11
58.90515524879996
 21
360.4567914565999
 31
0.0
  0
LINE
  5
95
330
1F
100
AcDbEntity
  8
0
  6
CONTINUOUS
 62
     7
100
AcDbLine
 10
58.94546568779996
 20
360.6668988676
 30
0.0
 11
59.1363383122
 21
360.6071691324
 31
0.0
  0
LINE
  5
96
330
1F
100
AcDbEntity
  8
0
  6
CONTINUOUS
 62
     7
100
AcDbLine
 10
59.21153632539999
 20
360.7914343831999
 30
0.0
 11
59.03333967459995
 21
360.8822416167999
 31
0.0
  0
LINE
  5
97
330
1F
100
AcDbEntity
  8
0
  6
CONTINUOUS
 62
     7
100
AcDbLine
 10
59.16238593419997
 20
360.6846934144
 30
0.0
 11
58.97417006580002
 21
360.7523305856
 31
0.0
  0
LINE
  5
98
330
1F
100
AcDbEntity
  8
0
  6
CONTINUOUS
 62
     7
100
AcDbLine
 10
59.14917031219996
 20
360.6481751323999
 30
0.0
 11
58.95829768779998
 21
360.7079048676
 31
0.0
  0
LINE
  5
99
330
1F
100
AcDbEntity
  8
0
  6
CONTINUOUS
 62
     7
100
AcDbLine
 10
59.138282973
 20
361.0435146024
 30
0.0
 11
59.11272497299996
 21
361.0094786024
 31
0.0
  0
LINE
  5
9A
330
1F
100
AcDbEntity
  8
0
  6
CONTINUOUS
 62
     7
100
AcDbLine
 10
59.13758027919997
 20
360.6114740642
 30
0.0
 11
58.94422372079994
 21
360.6625939358
 31
0.0
  0
LINE
  5
9B
330
1F
100
AcDbEntity
  8
0
  6
CONTINUOUS
 62
     7
100
AcDbLine
 10
58.95829768779998
 20
360.7079048676
 30
0.0
 11
58.94546568779996
 21
360.6668988676
 31
0.0
  0
LINE
  5
9C
330
1F
100
AcDbEntity
  8
0
  6
CONTINUOUS
 62
     7
100
AcDbLine
 10
59.11584264599995
 20
360.5205496564
 30
0.0
 11
59.12613064599997
 21
360.5686096563999
 31
0.0
  0
LINE
  5
9D
330
1F
100
AcDbEntity
  8
0
  6
CONTINUOUS
 62
     7
100
AcDbLine
 10
58.97417006580002
 20
360.7523305856
 30
0.0
 11
58.95962606580002
 21
360.7118585855999
 31
0.0
  0
LINE
  5
9E
330
1F
100
AcDbEntity
  8
0
  6
CONTINUOUS
 62
     7
100
AcDbLine
 10
59.1363383122
 20
360.6071691324
 30
0.0
 11
59.14917031219996
 21
360.6481751323999
 31
0.0
  0
LINE
  5
9F
330
1F
100
AcDbEntity
  8
0
  6
CONTINUOUS
 62
     7
100
AcDbLine
 10
59.2312813202
 20
360.8261694934
 30
0.0
 11
59.05717867979998
 21
360.9245985066
 31
0.0
  0
LINE
  5
A0
330
1F
100
AcDbEntity
  8
0
  6
CONTINUOUS
 62
     7
100
AcDbLine
 10
59.03538667979996
 20
360.8860525066
 30
0.0
 11
59.20948932019998
 21
360.7876234934
 31
0.0
  0
LINE
  5
A1
330
1F
100
AcDbEntity
  8
0
  6
CONTINUOUS
 62
     7
100
AcDbLine
 10
59.08282280420002
 20
360.965880446
 30
0.0
 11
59.05938680419997
 21
360.9283144459999
 31
0.0
  0
LINE
  5
A2
330
1F
100
AcDbEntity
  8
0
  6
CONTINUOUS
 62
     7
100
AcDbLine
 10
59.27515469099998
 20
360.8928672166001
 30
0.0
 11
59.11022530899995
 21
361.0059967834
 31
0.0
  0
LINE
  5
A3
330
1F
100
AcDbEntity
  8
0
  6
CONTINUOUS
 62
     7
100
AcDbLine
 10
59.19330829599995
 20
360.7558653852
 30
0.0
 11
59.01139570399999
 21
360.8389786147999
 31
0.0
  0
LINE
  5
A4
330
1F
100
AcDbEntity
  8
0
  6
CONTINUOUS
 62
     7
100
AcDbLine
 10
58.90515524879996
 20
360.4567914565999
 30
0.0
 11
59.10380475119997
 21
360.4335885434
 31
0.0
  0
LINE
  5
A5
330
1F
100
AcDbEntity
  8
0
  6
CONTINUOUS
 62
     7
100
AcDbLine
 10
58.94422372079994
 20
360.6625939358
 30
0.0
 11
58.93166772079999
 21
360.6151019357999
 31
0.0
  0
LINE
  5
A6
330
1F
100
AcDbEntity
  8
0
  6
CONTINUOUS
 62
     7
100
AcDbLine
 10
59.29821302699995
 20
360.9234213976
 30
0.0
 11
59.138282973
 21
361.0435146024
 31
0.0
  0
LINE
  5
A7
330
1F
100
AcDbEntity
  8
0
  6
CONTINUOUS
 62
     7
100
AcDbLine
 10
58.92027335400002
 20
360.5624143436
 30
0.0
 11
59.11584264599995
 21
360.5205496564
 31
0.0
  0
LINE
  5
A8
330
1F
100
AcDbEntity
  8
0
  6
CONTINUOUS
 62
     7
100
AcDbLine
 10
59.01139570399999
 20
360.8389786147999
 30
0.0
 11
58.99353970399995
 21
360.7998966147999
 31
0.0
  0
LINE
  5
A9
330
1F
100
AcDbEntity
  8
0
  6
CONTINUOUS
 62
     7
100
AcDbLine
 10
58.91139836460002
 20
360.5092835333999
 30
0.0
 11
59.10873363539992
 21
360.4767444666001
 31
0.0
  0
LINE
  5
AA
330
1F
100
AcDbEntity
  8
0
  6
CONTINUOUS
 62
     7
100
AcDbLine
 10
58.93166772079999
 20
360.6151019357999
 30
0.0
 11
59.12502427919996
 21
360.5639820641999
 31
0.0
  0
LINE
  5
AB
330
1F
100
AcDbEntity
  8
0
  6
CONTINUOUS
 62
     7
100
AcDbLine
 10
59.14784193419997
 20
360.6442214144
 30
0.0
 11
59.16238593419997
 21
360.6846934144
 31
0.0
  0
LINE
  5
AC
330
1F
100
AcDbEntity
  8
0
  6
CONTINUOUS
 62
     7
100
AcDbLine
 10
58.99188008479999
 20
360.79605329
 30
0.0
 11
58.97566208479993
 21
360.75622529
 31
0.0
  0
LINE
  5
AD
330
1F
100
AcDbEntity
  8
0
  6
CONTINUOUS
 62
     7
100
AcDbLine
 10
59.01325367459997
 20
360.8428256168
 30
0.0
 11
59.19145032539996
 21
360.7520183832
 31
0.0
  0
LINE
  5
AE
330
1F
100
AcDbEntity
  8
0
  6
CONTINUOUS
 62
     7
100
AcDbLine
 10
59.20948932019998
 20
360.7876234934
 30
0.0
 11
59.2312813202
 21
360.8261694934
 31
0.0
  0
LINE
  5
AF
330
1F
100
AcDbEntity
  8
0
  6
CONTINUOUS
 62
     7
100
AcDbLine
 10
59.10380475119997
 20
360.4335885434
 30
0.0
 11
59.10939075119997
 21
360.4814125433999
 31
0.0
  0
ARC
  5
B0
330
1F
100
AcDbEntity
  8
0
  6
CONTINUOUS
 62
     7
100
AcDbCircle
 10
40.49999999999998
 20
357.2499999999999
 30
0.0
 40
2.500000000000002
100
AcDbArc
 50
281.507407
 51
0.0
  0
LINE
  5
B1
330
1F
100
AcDbEntity
  8
0
  6
CONTINUOUS
 62
     7
100
AcDbLine
 10
-286.7500000000001
 20
254.248954
 30
0.0
 11
-286.7500000000001
 21
279.6499999999999
 31
0.0
  0
ARC
  5
B2
330
1F
100
AcDbEntity
  8
0
  6
CONTINUOUS
 62
     7
100
AcDbCircle
 10
-283.7500000000001
 20
307.251046
 30
0.0
 40
3.000000000000003
100
AcDbArc
 50
135.0
 51
180.0
  0
LINE
  5
B3
330
1F
100
AcDbEntity
  8
0
  6
CONTINUOUS
 62
     7
100
AcDbLine
 10
376.004982
 20
226.7944
 30
0.0
 11
374.7056
 21
225.495018
 31
0.0
  0
ARC
  5
B4
330
1F
100
AcDbEntity
  8
0
  6
CONTINUOUS
 62
     7
100
AcDbCircle
 10
45.49999999999999
 20
202.25
 30
0.0
 40
2.500000000000002
100
AcDbArc
 50
180.0
 51
270.0
  0
ARC
  5
B5
330
1F
100
AcDbEntity
  8
0
  6
CONTINUOUS
 62
     7
100
AcDbCircle
 10
45.49999999999999
 20
359.2499999999999
 30
0.0
 40
2.500000000000002
100
AcDbArc
 50
90.0
 51
180.0
  0
LINE
  5
B6
330
1F
100
AcDbEntity
  8
0
  6
CONTINUOUS
 62
     7
100
AcDbLine
 10
416.75
 20
281.85
 30
0.0
 11
415.15
 21
281.85
 31
0.0
  0
ARC
  5
B7
330
1F
100
AcDbEntity
  8
0
  6
CONTINUOUS
 62
     7
100
AcDbCircle
 10
264.888564
 20
224.888564
 30
0.0
 40
2.000000000000002
100
AcDbArc
 50
17.651533
 51
72.348467
  0
ARC
  5
B8
330
1F
100
AcDbEntity
  8
0
  6
CONTINUOUS
 62
     7
100
AcDbCircle
 10
-217.251046
 20
373.75
 30
0.0
 40
3.000000000000003
100
AcDbArc
 50
90.0
 51
135.0
  0
ARC
  5
B9
330
1F
100
AcDbEntity
  8
0
  6
CONTINUOUS
 62
     7
100
AcDbCircle
 10
-164.248954
 20
373.75
 30
0.0
 40
3.000000000000003
100
AcDbArc
 50
45.0
 51
90.0
  0
ARC
  5
BA
330
1F
100
AcDbEntity
  8
0
  6
CONTINUOUS
 62
     7
100
AcDbCircle
 10
-97.75
 20
307.251046
 30
0.0
 40
3.000000000000003
100
AcDbArc
 50
0.0
 51
45.0
  0
LINE
  5
BB
330
1F
100
AcDbEntity
  8
0
  6
CONTINUOUS
 62
     7
100
AcDbLine
 10
294.248954
 20
376.75
 30
0.0
 11
319.6499999999999
 21
376.75
 31
0.0
  0
ARC
  5
BC
330
1F
100
AcDbEntity
  8
0
  6
CONTINUOUS
 62
     7
100
AcDbCircle
 10
-97.75
 20
254.248954
 30
0.0
 40
3.000000000000003
100
AcDbArc
 50
315.0
 51
0.0
  0
LINE
  5
BD
330
1F
100
AcDbEntity
  8
0
  6
CONTINUOUS
 62
     7
100
AcDbLine
 10
-285.15
 20
279.6499999999999
 30
0.0
 11
-285.15
 21
281.85
 31
0.0
  0
LINE
  5
BE
330
1F
100
AcDbEntity
  8
0
  6
CONTINUOUS
 62
     7
100
AcDbLine
 10
-286.7500000000001
 20
279.6499999999999
 30
0.0
 11
-285.1500000000001
 21
279.6499999999999
 31
0.0
  0
ARC
  5
BF
330
1F
100
AcDbEntity
  8
0
  6
CONTINUOUS
 62
     7
100
AcDbCircle
 10
376.611436
 20
224.888564
 30
0.0
 40
2.000000000000002
100
AcDbArc
 50
107.651533
 51
162.348467
  0
LINE
  5
C0
330
1F
100
AcDbEntity
  8
0
  6
CONTINUOUS
 62
     7
100
AcDbLine
 10
225.62868
 20
309.3723659999999
 30
0.0
 11
292.1276339999999
 21
375.8713199999999
 31
0.0
  0
LINE
  5
C1
330
1F
100
AcDbEntity
  8
0
  6
CONTINUOUS
 62
     7
100
AcDbLine
 10
321.85
 20
375.15
 30
0.0
 11
321.85
 21
376.75
 31
0.0
  0
ARC
  5
C2
330
1F
100
AcDbEntity
  8
0
  6
CONTINUOUS
 62
     7
100
AcDbCircle
 10
-164.248954
 20
187.75
 30
0.0
 40
3.000000000000003
100
AcDbArc
 50
270.0
 51
315.0
  0
ARC
  5
C3
330
1F
100
AcDbEntity
  8
0
  6
CONTINUOUS
 62
     7
100
AcDbCircle
 10
-217.251046
 20
187.75
 30
0.0
 40
3.000000000000003
100
AcDbArc
 50
225.0
 51
270.0
  0
LINE
  5
C4
330
1F
100
AcDbEntity
  8
0
  6
CONTINUOUS
 62
     7
100
AcDbLine
 10
-191.85
 20
376.75
 30
0.0
 11
-191.85
 21
375.15
 31
0.0
  0
LINE
  5
C5
330
1F
100
AcDbEntity
  8
0
  6
CONTINUOUS
 62
     7
100
AcDbLine
 10
416.75
 20
279.6499999999999
 30
0.0
 11
416.75
 21
254.248954
 31
0.0
  0
LINE
  5
C6
330
1F
100
AcDbEntity
  8
0
  6
CONTINUOUS
 62
     7
100
AcDbLine
 10
-189.65
 20
375.15
 30
0.0
 11
-189.65
 21
376.75
 31
0.0
  0
ARC
  5
C7
330
1F
100
AcDbEntity
  8
0
  6
CONTINUOUS
 62
     7
100
AcDbCircle
 10
40.49999999999998
 20
204.25
 30
0.0
 40
2.500000000000002
100
AcDbArc
 50
0.0
 51
78.492593
  0
LINE
  5
C8
330
1F
100
AcDbEntity
  8
0
  6
CONTINUOUS
 62
     7
100
AcDbLine
 10
415.87132
 20
252.127634
 30
0.0
 11
349.3723660000001
 21
185.62868
 31
0.0
  0
LINE
  5
C9
330
1F
100
AcDbEntity
  8
0
  6
CONTINUOUS
 62
     7
100
AcDbLine
 10
-189.65
 20
376.75
 30
0.0
 11
-164.248954
 21
376.75
 31
0.0
  0
LINE
  5
CA
330
1F
100
AcDbEntity
  8
0
  6
CONTINUOUS
 62
     7
100
AcDbLine
 10
319.6499999999999
 20
376.75
 30
0.0
 11
319.6499999999999
 21
375.15
 31
0.0
  0
LINE
  5
CB
330
1F
100
AcDbEntity
  8
0
  6
CONTINUOUS
 62
     7
100
AcDbLine
 10
319.6499999999999
 20
375.15
 30
0.0
 11
321.85
 21
375.15
 31
0.0
  0
LINE
  5
CC
330
1F
100
AcDbEntity
  8
0
  6
CONTINUOUS
 62
     7
100
AcDbLine
 10
415.15
 20
281.85
 30
0.0
 11
415.15
 21
279.65
 31
0.0
  0
LINE
  5
CD
330
1F
100
AcDbEntity
  8
0
  6
CONTINUOUS
 62
     7
100
AcDbLine
 10
266.7943999999999
 20
225.495018
 30
0.0
 11
265.4950179999999
 21
226.7944
 31
0.0
  0
LINE
  5
CE
330
1F
100
AcDbEntity
  8
0
  6
CONTINUOUS
 62
     7
100
AcDbLine
 10
321.85
 20
376.75
 30
0.0
 11
347.2510459999999
 21
376.75
 31
0.0
  0
LINE
  5
CF
330
1F
100
AcDbEntity
  8
0
  6
CONTINUOUS
 62
     7
100
AcDbLine
 10
415.15
 20
279.6499999999999
 30
0.0
 11
416.75
 21
279.6499999999999
 31
0.0
  0
ARC
  5
D0
330
1F
100
AcDbEntity
  8
0
  6
CONTINUOUS
 62
     7
100
AcDbCircle
 10
126.5
 20
197.25
 30
0.0
 40
2.500000000000002
100
AcDbArc
 50
0.0
 51
90.0
  0
LINE
  5
D1
330
1F
100
AcDbEntity
  8
0
  6
CONTINUOUS
 62
     7
100
AcDbLine
 10
-285.87132
 20
309.3723659999999
 30
0.0
 11
-219.372366
 21
375.8713199999999
 31
0.0
  0
LINE
  5
D2
330
1F
100
AcDbEntity
  8
0
  6
CONTINUOUS
 62
     7
100
AcDbLine
 10
-286.7500000000001
 20
281.85
 30
0.0
 11
-286.7500000000001
 21
307.251046
 31
0.0
  0
LINE
  5
D3
330
1F
100
AcDbEntity
  8
0
  6
CONTINUOUS
 62
     7
100
AcDbLine
 10
-191.85
 20
375.15
 30
0.0
 11
-189.65
 21
375.15
 31
0.0
  0
LINE
  5
D4
330
1F
100
AcDbEntity
  8
0
  6
CONTINUOUS
 62
     7
100
AcDbLine
 10
-219.372366
 20
185.6286799999999
 30
0.0
 11
-285.87132
 21
252.127634
 31
0.0
  0
ARC
  5
D5
330
1F
100
AcDbEntity
  8
0
  6
CONTINUOUS
 62
     7
100
AcDbCircle
 10
126.5
 20
364.2499999999999
 30
0.0
 40
2.500000000000002
100
AcDbArc
 50
270.0
 51
0.0
  0
LINE
  5
D6
330
1F
100
AcDbEntity
  8
0
  6
CONTINUOUS
 62
     7
100
AcDbLine
 10
349.3723660000001
 20
375.8713199999999
 30
0.0
 11
415.87132
 21
309.3723659999999
 31
0.0
  0
CIRCLE
  5
D7
330
1F
100
AcDbEntity
  8
0
  6
CONTINUOUS
 62
     7
100
AcDbCircle
 10
320.75
 20
280.7500000000001
 30
0.0
 40
77.25000000000004
  0
LINE
  5
D8
330
1F
100
AcDbEntity
  8
0
  6
CONTINUOUS
 62
     7
100
AcDbLine
 10
265.4950179999999
 20
334.7056000000001
 30
0.0
 11
266.7943999999999
 21
336.004982
 31
0.0
  0
LINE
  5
D9
330
1F
100
AcDbEntity
  8
0
  6
CONTINUOUS
 62
     7
100
AcDbLine
 10
-217.251046
 20
376.75
 30
0.0
 11
-191.85
 21
376.75
 31
0.0
  0
LINE
  5
DA
330
1F
100
AcDbEntity
  8
0
  6
CONTINUOUS
 62
     7
100
AcDbLine
 10
-95.62868000000002
 20
252.127634
 30
0.0
 11
-162.127634
 21
185.62868
 31
0.0
  0
LINE
  5
DB
330
1F
100
AcDbEntity
  8
0
  6
CONTINUOUS
 62
     7
100
AcDbLine
 10
292.1276339999999
 20
185.6286799999999
 30
0.0
 11
225.62868
 21
252.127634
 31
0.0
  0
ARC
  5
DC
330
1F
100
AcDbEntity
  8
0
  6
CONTINUOUS
 62
     7
100
AcDbCircle
 10
264.888564
 20
336.611436
 30
0.0
 40
2.000000000000002
100
AcDbArc
 50
287.651533
 51
342.348467
  0
ARC
  5
DD
330
1F
100
AcDbEntity
  8
0
  6
CONTINUOUS
 62
     7
100
AcDbCircle
 10
376.611436
 20
336.611436
 30
0.0
 40
2.000000000000002
100
AcDbArc
 50
197.651533
 51
252.348467
  0
CIRCLE
  5
DE
330
1F
100
AcDbEntity
  8
0
  6
CONTINUOUS
 62
     7
100
AcDbCircle
 10
320.75
 20
280.7500000000001
 30
0.0
 40
79.74999999999999
  0
LINE
  5
DF
330
1F
100
AcDbEntity
  8
0
  6
CONTINUOUS
 62
     7
100
AcDbLine
 10
416.75
 20
307.251046
 30
0.0
 11
416.75
 21
281.85
 31
0.0
  0
LINE
  5
E0
330
1F
100
AcDbEntity
  8
0
  6
CENTER
 62
     1
100
AcDbLine
 10
236.9999999999999
 20
280.7500000000001
 30
0.0
 11
404.5
 21
280.7500000000001
 31
0.0
  0
LINE
  5
E2
330
1F
100
AcDbEntity
  8
0
  6
CENTER
 62
     1
100
AcDbLine
 10
320.75
 20
197.0
 30
0.0
 11
320.75
 21
364.4999999999999
 31
0.0
  0
CIRCLE
  5
E3
330
1F
100
AcDbEntity
  8
0
  6
CONTINUOUS
 62
     7
100
AcDbCircle
 10
320.75
 20
280.7500000000001
 30
0.0
 40
69.99999999999994
  0
LINE
  5
E4
330
1F
100
AcDbEntity
  8
0
  6
CONTINUOUS
 62
     7
100
AcDbLine
 10
-162.127634
 20
375.8713199999999
 30
0.0
 11
-95.62868000000003
 21
309.3723659999999
 31
0.0
  0
LINE
  5
E5
330
1F
100
AcDbEntity
  8
0
  6
CONTINUOUS
 62
     7
100
AcDbLine
 10
374.7056
 20
336.0049819999999
 30
0.0
 11
376.004982
 21
334.7056
 31
0.0
  0
LINE
  5
E6
330
1F
100
AcDbEntity
  8
0
  6
CENTER
 62
     1
100
AcDbLine
 10
0.0
 20
216.25
 30
0.0
 11
0.0
 21
206.25
 31
0.0
  0
LINE
  5
E7
330
1F
100
AcDbEntity
  8
0
  6
CONTINUOUS
 62
     7
100
AcDbLine
 10
-285.15
 20
281.85
 30
0.0
 11
-286.75
 21
281.85
 31
0.0
  0
ARC
  5
E8
330
1F
100
AcDbEntity
  8
0
  6
CONTINUOUS
 62
     7
100
AcDbCircle
 10
-283.7500000000001
 20
254.248954
 30
0.0
 40
3.000000000000003
100
AcDbArc
 50
180.0
 51
225.0
  0
LINE
  5
E9
330
1F
100
AcDbEntity
  8
0
  6
CONTINUOUS
 62
     7
100
AcDbLine
 10
-93.25000000000006
 20
281.7500000000001
 30
0.0
 11
-93.25000000000006
 21
279.7500000000001
 31
0.0
  0
LINE
  5
EA
330
1F
100
AcDbEntity
  8
0
  6
CONTINUOUS
 62
     7
100
AcDbLine
 10
224.7499999999999
 20
281.7500000000001
 30
0.0
 11
224.7499999999999
 21
307.251046
 31
0.0
  0
ARC
  5
EB
330
1F
100
AcDbEntity
  8
0
  6
CONTINUOUS
 62
     7
100
AcDbCircle
 10
-6.499528712600011
 20
357.2232323012
 30
0.0
 40
2.600339073000002
100
AcDbArc
 50
197.3855182533
 51
257.4081425676
  0
LINE
  5
EC
330
1F
100
AcDbEntity
  8
0
  6
CONTINUOUS
 62
     7
100
AcDbLine
 10
-7.061048903799994
 20
354.6843917751999
 30
0.0
 11
-6.792044903800032
 21
354.6395717752
 31
0.0
  0
LINE
  5
ED
330
1F
100
AcDbEntity
  8
0
  6
CONTINUOUS
 62
     7
100
AcDbLine
 10
-7.028179096200016
 20
354.8816722248
 30
0.0
 11
-7.061048903799994
 21
354.6843917751999
 31
0.0
  0
ARC
  5
EE
330
1F
100
AcDbEntity
  8
0
  6
CONTINUOUS
 62
     7
100
AcDbCircle
 10
347.2510459999999
 20
187.75
 30
0.0
 40
3.000000000000003
100
AcDbArc
 50
270.0
 51
315.0
  0
ARC
  5
EF
330
1F
100
AcDbEntity
  8
0
  6
CONTINUOUS
 62
     7
100
AcDbCircle
 10
227.7499999999999
 20
254.248954
 30
0.0
 40
3.000000000000003
100
AcDbArc
 50
180.0
 51
225.0
  0
LINE
  5
F0
330
1F
100
AcDbEntity
  8
0
  6
CONTINUOUS
 62
     7
100
AcDbLine
 10
-7.609507385400005
 20
206.6281550326
 30
0.0
 11
-7.857067385400041
 21
206.4944490326
 31
0.0
  0
LINE
  5
F1
330
1F
100
AcDbEntity
  8
0
  6
CONTINUOUS
 62
     7
100
AcDbLine
 10
-6.792044903800032
 20
354.6395717752
 30
0.0
 11
-6.759175096200054
 21
354.8368522248
 31
0.0
  0
ARC
  5
F2
330
1F
100
AcDbEntity
  8
0
  6
CONTINUOUS
 62
     7
100
AcDbCircle
 10
413.75
 20
307.251046
 30
0.0
 40
3.000000000000003
100
AcDbArc
 50
0.0
 51
45.0
  0
ARC
  5
F3
330
1F
100
AcDbEntity
  8
0
  6
CONTINUOUS
 62
     7
100
AcDbCircle
 10
294.248954
 20
187.75
 30
0.0
 40
3.000000000000003
100
AcDbArc
 50
225.0
 51
270.0
  0
LINE
  5
F4
330
1F
100
AcDbEntity
  8
0
  6
CONTINUOUS
 62
     7
100
AcDbLine
 10
-9.088352690399981
 20
356.9791231003999
 30
0.0
 11
-8.888583309600017
 21
356.9887248996
 31
0.0
  0
LINE
  5
F5
330
1F
100
AcDbEntity
  8
0
  6
CONTINUOUS
 62
     7
100
AcDbLine
 10
224.7499999999999
 20
281.7500000000001
 30
0.0
 11
223.25
 21
281.7500000000001
 31
0.0
  0
LINE
  5
F6
330
1F
100
AcDbEntity
  8
0
  6
CONTINUOUS
 62
     7
100
AcDbLine
 10
223.25
 20
281.7500000000001
 30
0.0
 11
223.25
 21
279.7500000000001
 31
0.0
  0
LINE
  5
F7
330
1F
100
AcDbEntity
  8
0
  6
CONTINUOUS
 62
     7
100
AcDbLine
 10
-9.09999999979999
 20
204.2761433336
 30
0.0
 11
-8.900000000200025
 21
204.2761526664
 31
0.0
  0
ARC
  5
F8
330
1F
100
AcDbEntity
  8
0
  6
CONTINUOUS
 62
     7
100
AcDbCircle
 10
347.2510459999999
 20
373.75
 30
0.0
 40
3.000000000000003
100
AcDbArc
 50
45.0
 51
90.0
  0
ARC
  5
F9
330
1F
100
AcDbEntity
  8
0
  6
CONTINUOUS
 62
     7
100
AcDbCircle
 10
-6.498886473400023
 20
204.2762647106
 30
0.0
 40
2.401113529200027
100
AcDbArc
 50
121.6029932577
 51
180.0026736189
  0
LINE
  5
FA
330
1F
100
AcDbEntity
  8
0
  6
CONTINUOUS
 62
     7
100
AcDbLine
 10
-93.25000000000006
 20
279.7500000000001
 30
0.0
 11
-94.75
 21
279.7500000000001
 31
0.0
  0
LINE
  5
FB
330
1F
100
AcDbEntity
  8
0
  6
CONTINUOUS
 62
     7
100
AcDbLine
 10
-191.75
 20
183.25
 30
0.0
 11
-191.75
 21
184.75
 31
0.0
  0
LINE
  5
FC
330
1F
100
AcDbEntity
  8
0
  6
CONTINUOUS
 62
     7
100
AcDbLine
 10
319.75
 20
183.25
 30
0.0
 11
321.7500000000001
 21
183.25
 31
0.0
  0
LINE
  5
FD
330
1F
100
AcDbEntity
  8
0
  6
CONTINUOUS
 62
     7
100
AcDbLine
 10
-8.889546975600016
 20
356.9985742881999
 30
0.0
 11
-9.08738902440004
 21
356.9692737118
 31
0.0
  0
LINE
  5
FE
330
1F
100
AcDbEntity
  8
0
  6
CONTINUOUS
 62
     7
100
AcDbLine
 10
-8.854249678000025
 20
356.7565723758
 30
0.0
 11
-9.047994322000042
 21
356.7069436241999
 31
0.0
  0
LINE
  5
FF
330
1F
100
AcDbEntity
  8
0
  6
CONTINUOUS
 62
     7
100
AcDbLine
 10
-7.066414454799996
 20
354.6854372246
 30
0.0
 11
-7.022813545200012
 21
354.8806267753999
 31
0.0
  0
ARC
  5
100
330
1F
100
AcDbEntity
  8
0
  6
CONTINUOUS
 62
     7
100
AcDbCircle
 10
413.75
 20
254.248954
 30
0.0
 40
3.000000000000003
100
AcDbArc
 50
315.0
 51
0.0
  0
LINE
  5
101
330
1F
100
AcDbEntity
  8
0
  6
CONTINUOUS
 62
     7
100
AcDbLine
 10
-6.499996857399992
 20
206.677032
 30
0.0
 11
-6.500003142600019
 21
206.877032
 31
0.0
  0
ARC
  5
102
330
1F
100
AcDbEntity
  8
0
  6
CONTINUOUS
 62
     7
100
AcDbCircle
 10
-6.499921452600033
 20
204.277526691
 30
0.0
 40
2.599505310199979
100
AcDbArc
 50
90.00180052870002
 51
115.1449604065
  0
ARC
  5
103
330
1F
100
AcDbEntity
  8
0
  6
CONTINUOUS
 62
     7
100
AcDbCircle
 10
-6.499921452600033
 20
204.277526691
 30
0.0
 40
2.399505310200001
100
AcDbArc
 50
90.00180052870002
 51
115.1449604065
  0
LINE
  5
104
330
1F
100
AcDbEntity
  8
0
  6
CONTINUOUS
 62
     7
100
AcDbLine
 10
-8.888583309600017
 20
356.9887248996
 30
0.0
 11
-8.900115309599999
 21
357.2286528995999
 31
0.0
  0
LINE
  5
105
330
1F
100
AcDbEntity
  8
0
  6
CONTINUOUS
 62
     7
100
AcDbLine
 10
-9.08738902440004
 20
356.9692737118
 30
0.0
 11
-9.050043024400045
 21
356.7171077118
 31
0.0
  0
LINE
  5
106
330
1F
100
AcDbEntity
  8
0
  6
CONTINUOUS
 62
     7
100
AcDbLine
 10
-8.852200975600022
 20
356.7464082881999
 30
0.0
 11
-8.889546975600016
 21
356.9985742881999
 31
0.0
  0
ARC
  5
107
330
1F
100
AcDbEntity
  8
0
  6
CONTINUOUS
 62
     7
100
AcDbCircle
 10
294.248954
 20
373.75
 30
0.0
 40
3.000000000000003
100
AcDbArc
 50
90.0
 51
135.0
  0
LINE
  5
108
330
1F
100
AcDbEntity
  8
0
  6
CONTINUOUS
 62
     7
100
AcDbLine
 10
-7.757142959800012
 20
206.3212920442
 30
0.0
 11
-7.861949040199989
 21
206.4916319558
 31
0.0
  0
LINE
  5
109
330
1F
100
AcDbEntity
  8
0
  6
CONTINUOUS
 62
     7
100
AcDbLine
 10
-164.248954
 20
184.75
 30
0.0
 11
-189.75
 21
184.75
 31
0.0
  0
LINE
  5
10A
330
1F
100
AcDbEntity
  8
0
  6
CONTINUOUS
 62
     7
100
AcDbLine
 10
-7.857067385400041
 20
206.4944490326
 30
0.0
 11
-7.762024614600072
 21
206.3184749674
 31
0.0
  0
ARC
  5
10B
330
1F
100
AcDbEntity
  8
0
  6
CONTINUOUS
 62
     7
100
AcDbCircle
 10
-6.499528712600011
 20
357.2232323012
 30
0.0
 40
2.400339073000024
100
AcDbArc
 50
197.3855182533
 51
257.4081425676
  0
LINE
  5
10C
330
1F
100
AcDbEntity
  8
0
  6
CONTINUOUS
 62
     7
100
AcDbLine
 10
-6.759175096200054
 20
354.8368522248
 30
0.0
 11
-7.028179096200016
 21
354.8816722248
 31
0.0
  0
LINE
  5
10D
330
1F
100
AcDbEntity
  8
0
  6
CONTINUOUS
 62
     7
100
AcDbLine
 10
321.7500000000001
 20
183.25
 30
0.0
 11
321.7500000000001
 21
184.75
 31
0.0
  0
LINE
  5
10E
330
1F
100
AcDbEntity
  8
0
  6
CONTINUOUS
 62
     7
100
AcDbLine
 10
319.75
 20
184.75
 30
0.0
 11
319.75
 21
183.25
 31
0.0
  0
LINE
  5
10F
330
1F
100
AcDbEntity
  8
0
  6
CONTINUOUS
 62
     7
100
AcDbLine
 10
-94.75
 20
281.7500000000001
 30
0.0
 11
-93.25000000000006
 21
281.7500000000001
 31
0.0
  0
LINE
  5
110
330
1F
100
AcDbEntity
  8
0
  6
CONTINUOUS
 62
     7
100
AcDbLine
 10
224.7499999999999
 20
254.248954
 30
0.0
 11
224.7499999999999
 21
279.75
 31
0.0
  0
ARC
  5
111
330
1F
100
AcDbEntity
  8
0
  6
CONTINUOUS
 62
     7
100
AcDbCircle
 10
227.7499999999999
 20
307.251046
 30
0.0
 40
3.000000000000003
100
AcDbArc
 50
135.0
 51
180.0
  0
LINE
  5
112
330
1F
100
AcDbEntity
  8
0
  6
CONTINUOUS
 62
     7
100
AcDbLine
 10
-189.75
 20
183.25
 30
0.0
 11
-191.75
 21
183.25
 31
0.0
  0
LINE
  5
113
330
1F
100
AcDbEntity
  8
0
  6
CONTINUOUS
 62
     7
100
AcDbLine
 10
-189.75
 20
184.75
 30
0.0
 11
-189.75
 21
183.25
 31
0.0
  0
LINE
  5
114
330
1F
100
AcDbEntity
  8
0
  6
CONTINUOUS
 62
     7
100
AcDbLine
 10
223.25
 20
279.7500000000001
 30
0.0
 11
224.7499999999999
 21
279.7500000000001
 31
0.0
  0
LINE
  5
115
330
1F
100
AcDbEntity
  8
0
  6
CONTINUOUS
 62
     7
100
AcDbLine
 10
-9.000000000000007
 20
279.7500000000001
 30
0.0
 11
-14.00000000000001
 21
279.7500000000001
 31
0.0
  0
LINE
  5
116
330
1F
100
AcDbEntity
  8
0
  6
CONTINUOUS
 62
     7
100
AcDbLine
 10
133.9999999999999
 20
279.7500000000001
 30
0.0
 11
129.0
 21
279.7500000000001
 31
0.0
  0
ARC
  5
117
330
1F
100
AcDbEntity
  8
0
  6
CONTINUOUS
 62
     7
100
AcDbCircle
 10
-6.498886473400023
 20
204.2762647106
 30
0.0
 40
2.601113529200005
100
AcDbArc
 50
121.6029932577
 51
180.0026736189
  0
LINE
  5
118
330
1F
100
AcDbEntity
  8
0
  6
CONTINUOUS
 62
     7
100
AcDbLine
 10
-7.60447698979999
 20
206.6306915648
 30
0.0
 11
-7.519495010199995
 21
206.4496444352
 31
0.0
  0
LINE
  5
119
330
1F
100
AcDbEntity
  8
0
  6
CONTINUOUS
 62
     7
100
AcDbLine
 10
-9.050043024400045
 20
356.7171077118
 30
0.0
 11
-8.852200975600022
 21
356.7464082881999
 31
0.0
  0
LINE
  5
11A
330
1F
100
AcDbEntity
  8
0
  6
CONTINUOUS
 62
     7
100
AcDbLine
 10
-191.75
 20
184.75
 30
0.0
 11
-217.251046
 21
184.75
 31
0.0
  0
LINE
  5
11B
330
1F
100
AcDbEntity
  8
0
  6
CONTINUOUS
 62
     7
100
AcDbLine
 10
-8.982514322000034
 20
356.4513176242
 30
0.0
 11
-8.788769678000019
 21
356.5009463758
 31
0.0
  0
LINE
  5
11C
330
1F
100
AcDbEntity
  8
0
  6
CONTINUOUS
 62
     7
100
AcDbLine
 10
-8.788769678000019
 20
356.5009463758
 30
0.0
 11
-8.854249678000025
 21
356.7565723758
 31
0.0
  0
LINE
  5
11D
330
1F
100
AcDbEntity
  8
0
  6
CONTINUOUS
 62
     7
100
AcDbLine
 10
-8.790210411800004
 20
356.5060119594
 30
0.0
 11
-8.981073588199994
 21
356.4462520406
 31
0.0
  0
LINE
  5
11E
330
1F
100
AcDbEntity
  8
0
  6
CONTINUOUS
 62
     7
100
AcDbLine
 10
347.2510459999999
 20
184.75
 30
0.0
 11
321.7500000000001
 21
184.75
 31
0.0
  0
LINE
  5
11F
330
1F
100
AcDbEntity
  8
0
  6
CONTINUOUS
 62
     7
100
AcDbLine
 10
-9.000000000000007
 20
281.7500000000001
 30
0.0
 11
-14.00000000000001
 21
281.7500000000001
 31
0.0
  0
LINE
  5
120
330
1F
100
AcDbEntity
  8
0
  6
CONTINUOUS
 62
     7
100
AcDbLine
 10
-7.762024614600072
 20
206.3184749674
 30
0.0
 11
-7.514464614600036
 21
206.4521809674
 31
0.0
  0
LINE
  5
121
330
1F
100
AcDbEntity
  8
0
  6
CONTINUOUS
 62
     7
100
AcDbLine
 10
-7.514464614600036
 20
206.4521809674
 30
0.0
 11
-7.609507385400005
 21
206.6281550326
 31
0.0
  0
LINE
  5
122
330
1F
100
AcDbEntity
  8
0
  6
CONTINUOUS
 62
     7
100
AcDbLine
 10
133.9999999999999
 20
281.7500000000001
 30
0.0
 11
129.0
 21
281.7500000000001
 31
0.0
  0
LINE
  5
123
330
1F
100
AcDbEntity
  8
0
  6
CONTINUOUS
 62
     7
100
AcDbLine
 10
-94.75
 20
279.7500000000001
 30
0.0
 11
-94.75
 21
254.2489540000001
 31
0.0
  0
LINE
  5
124
330
1F
100
AcDbEntity
  8
0
  6
CONTINUOUS
 62
     7
100
AcDbLine
 10
319.75
 20
184.75
 30
0.0
 11
294.248954
 21
184.75
 31
0.0
  0
LINE
  5
125
330
1F
100
AcDbEntity
  8
0
  6
CONTINUOUS
 62
     7
100
AcDbLine
 10
-9.099884690400017
 20
357.2190511004
 30
0.0
 11
-9.088352690399981
 21
356.9791231003999
 31
0.0
  0
LINE
  5
126
330
1F
100
AcDbEntity
  8
0
  6
CONTINUOUS
 62
     7
100
AcDbLine
 10
-94.75
 20
307.251046
 30
0.0
 11
-94.75
 21
281.75
 31
0.0
  0
LINE
  5
127
330
1F
100
AcDbEntity
  8
0
  6
CONTINUOUS
 62
     7
100
AcDbLine
 10
-8.900115309599999
 20
357.2286528995999
 30
0.0
 11
-9.099884690400017
 21
357.2190511004
 31
0.0
  0
LINE
  5
128
330
1F
100
AcDbEntity
  8
0
  6
CONTINUOUS
 62
     7
100
AcDbLine
 10
-9.047994322000042
 20
356.7069436241999
 30
0.0
 11
-8.982514322000034
 21
356.4513176242
 31
0.0
  0
LINE
  5
129
330
1F
100
AcDbEntity
  8
0
  6
CONTINUOUS
 62
     7
100
AcDbLine
 10
70.99999999999996
 20
199.75
 30
0.0
 11
70.99999999999996
 21
361.75
 31
0.0
  0
LINE
  5
12A
330
1F
100
AcDbEntity
  8
0
  6
CONTINUOUS
 62
     7
100
AcDbLine
 10
111.0
 20
199.75
 30
0.0
 11
111.0
 21
361.75
 31
0.0
  0
LINE
  5
12B
330
1F
100
AcDbEntity
  8
0
  6
CONTINUOUS
 62
     7
100
AcDbLine
 10
-14.00000000000001
 20
376.75
 30
0.0
 11
-9.000000000000007
 21
376.75
 31
0.0
  0
LINE
  5
12C
330
1F
100
AcDbEntity
  8
0
  6
CONTINUOUS
 62
     7
100
AcDbLine
 10
90.99999999999997
 20
199.75
 30
0.0
 11
90.99999999999997
 21
361.75
 31
0.0
  0
LINE
  5
12D
330
1F
100
AcDbEntity
  8
0
  6
CONTINUOUS
 62
     7
100
AcDbLine
 10
-9.000000000000007
 20
184.75
 30
0.0
 11
-14.00000000000001
 21
184.75
 31
0.0
  0
LINE
  5
12E
330
1F
100
AcDbEntity
  8
0
  6
CONTINUOUS
 62
     7
100
AcDbLine
 10
50.99999999999999
 20
199.75
 30
0.0
 11
50.99999999999999
 21
361.75
 31
0.0
  0
LINE
  5
12F
330
1F
100
AcDbEntity
  8
0
  6
CONTINUOUS
 62
     7
100
AcDbLine
 10
-6.770087436999972
 20
354.83805939
 30
0.0
 11
-6.781132563000059
 21
354.63836461
 31
0.0
  0
LINE
  5
130
330
1F
100
AcDbEntity
  8
0
  6
CONTINUOUS
 62
     7
100
AcDbLine
 10
121.0
 20
199.75
 30
0.0
 11
121.0
 21
361.75
 31
0.0
  0
LINE
  5
131
330
1F
100
AcDbEntity
  8
0
  6
CONTINUOUS
 62
     7
100
AcDbLine
 10
59.10109484799997
 20
360.394801834
 30
0.0
 11
58.90114915200001
 21
360.399462166
 31
0.0
  0
LINE
  5
132
330
1F
100
AcDbEntity
  8
0
  6
CENTER
 62
     1
100
AcDbLine
 10
139.9999999999999
 20
280.7500000000001
 30
0.0
 11
-20.00000000000002
 21
280.7500000000001
 31
0.0
  0
LINE
  5
133
330
1F
100
AcDbEntity
  8
0
  6
CONTINUOUS
 62
     7
100
AcDbLine
 10
58.90114915200001
 20
360.399462166
 30
0.0
 11
58.90002715199999
 21
360.351324166
 31
0.0
  0
LINE
  5
134
330
1F
100
AcDbEntity
  8
0
  6
CONTINUOUS
 62
     7
100
AcDbLine
 10
58.90002715199999
 20
360.351324166
 30
0.0
 11
59.09997284799995
 21
360.3466638339999
 31
0.0
  0
ELLIPSE
  5
135
330
1F
100
AcDbEntity
  8
0
  6
CONTINUOUS
 62
     7
100
AcDbEllipse
 10
47.76537199999997
 20
280.7500000000001
 30
0.0
 11
0.0
 21
-74.00000000000004
 31
0.0
210
0.0
220
0.0
230
1.0
 40
0.5773499999999995
 41
4.6853586619
 42
4.7394192989
  0
LINE
  5
136
330
1F
100
AcDbEntity
  8
0
  6
CONTINUOUS
 62
     7
100
AcDbLine
 10
58.99999999999999
 20
360.3489939999999
 30
0.0
 11
58.99999999999999
 21
199.75
 31
0.0
  0
LINE
  5
137
330
1F
100
AcDbEntity
  8
0
  6
CONTINUOUS
 62
     7
100
AcDbLine
 10
59.10087877219999
 20
360.390161605
 30
0.0
 11
59.1042367722
 21
360.438219605
 31
0.0
  0
LINE
  5
138
330
1F
100
AcDbEntity
  8
0
  6
CONTINUOUS
 62
     7
100
AcDbLine
 10
59.09997284799995
 20
360.3466638339999
 30
0.0
 11
59.10109484799997
 21
360.394801834
 31
0.0
  0
LINE
  5
139
330
1F
100
AcDbEntity
  8
0
  6
CONTINUOUS
 62
     7
100
AcDbLine
 10
61.0
 20
199.75
 30
0.0
 11
61.0
 21
360.3489939999999
 31
0.0
  0
LINE
  5
13A
330
1F
100
AcDbEntity
  8
0
  6
CONTINUOUS
 62
     7
100
AcDbLine
 10
59.1042367722
 20
360.438219605
 30
0.0
 11
58.90472322779999
 21
360.4521603949999
 31
0.0
  0
LINE
  5
13B
330
1F
100
AcDbEntity
  8
0
  6
CONTINUOUS
 62
     7
100
AcDbLine
 10
133.9999999999999
 20
184.75
 30
0.0
 11
129.0
 21
184.75
 31
0.0
  0
LINE
  5
13C
330
1F
100
AcDbEntity
  8
0
  6
CONTINUOUS
 62
     7
100
AcDbLine
 10
58.90472322779999
 20
360.4521603949999
 30
0.0
 11
58.90136522779999
 21
360.404102395
 31
0.0
  0
ARC
  5
13D
330
1F
100
AcDbEntity
  8
0
  6
CONTINUOUS
 62
     7
100
AcDbCircle
 10
-0.4433760000000508
 20
202.25
 30
0.0
 40
2.500000000000002
100
AcDbArc
 50
270.0
 51
330.0
  0
LINE
  5
13E
330
1F
100
AcDbEntity
  8
0
  6
CONTINUOUS
 62
     7
100
AcDbLine
 10
-6.781132563000059
 20
354.63836461
 30
0.0
 11
-6.505522563000021
 21
354.62312061
 31
0.0
  0
LINE
  5
13F
330
1F
100
AcDbEntity
  8
0
  6
CONTINUOUS
 62
     7
100
AcDbLine
 10
80.99999999999996
 20
199.75
 30
0.0
 11
80.99999999999996
 21
361.75
 31
0.0
  0
LINE
  5
140
330
1F
100
AcDbEntity
  8
0
  6
CONTINUOUS
 62
     7
100
AcDbLine
 10
58.90136522779999
 20
360.404102395
 30
0.0
 11
59.10087877219999
 21
360.390161605
 31
0.0
  0
LINE
  5
141
330
1F
100
AcDbEntity
  8
0
  6
CONTINUOUS
 62
     7
100
AcDbLine
 10
129.0
 20
376.75
 30
0.0
 11
133.9999999999999
 21
376.75
 31
0.0
  0
LINE
  5
142
330
1F
100
AcDbEntity
  8
0
  6
CONTINUOUS
 62
     7
100
AcDbLine
 10
1.721687999999943
 20
201.0
 30
0.0
 11
5.057057999999946
 21
206.777032
 31
0.0
  0
LINE
  5
143
330
1F
100
AcDbEntity
  8
0
  6
CONTINUOUS
 62
     7
100
AcDbLine
 10
-9.000000000000007
 20
183.25
 30
0.0
 11
-14.00000000000001
 21
183.25
 31
0.0
  0
LINE
  5
144
330
1F
100
AcDbEntity
  8
0
  6
CONTINUOUS
 62
     7
100
AcDbLine
 10
-9.000000000000007
 20
361.75
 30
0.0
 11
-0.4433760000000508
 21
361.75
 31
0.0
  0
ARC
  5
145
330
1F
100
AcDbEntity
  8
0
  6
CONTINUOUS
 62
     7
100
AcDbCircle
 10
-0.4433760000000508
 20
359.2499999999999
 30
0.0
 40
2.500000000000002
100
AcDbArc
 50
30.0
 51
90.0
  0
LINE
  5
146
330
1F
100
AcDbEntity
  8
0
  6
CONTINUOUS
 62
     7
100
AcDbLine
 10
-6.505522563000021
 20
354.62312061
 30
0.0
 11
-6.494477437000046
 21
354.8228153899999
 31
0.0
  0
LINE
  5
147
330
1F
100
AcDbEntity
  8
0
  6
CONTINUOUS
 62
     7
100
AcDbLine
 10
-6.494477437000046
 20
354.8228153899999
 30
0.0
 11
-6.770087436999972
 21
354.83805939
 31
0.0
  0
LINE
  5
148
330
1F
100
AcDbEntity
  8
0
  6
CONTINUOUS
 62
     7
100
AcDbLine
 10
133.9999999999999
 20
183.25
 30
0.0
 11
129.0
 21
183.25
 31
0.0
  0
LINE
  5
149
330
1F
100
AcDbEntity
  8
257
  6
CONTINUOUS
 62
     7
100
AcDbLine
 10
108.437338
 20
294.408566
 30
0.0
 11
108.101166
 21
294.408566
 31
0.0
  0
LINE
  5
14A
330
1F
100
AcDbEntity
  8
0
  6
CONTINUOUS
 62
     7
100
AcDbLine
 10
-9.000000000000007
 20
199.75
 30
0.0
 11
-0.4433760000000508
 21
199.75
 31
0.0
  0
LINE
  5
14B
330
1F
100
AcDbEntity
  8
0
  6
CONTINUOUS
 62
     7
100
AcDbLine
 10
1.721687999999943
 20
360.4999999999999
 30
0.0
 11
5.057057999999947
 21
354.722968
 31
0.0
  0
LINE
  5
14C
330
1F
100
AcDbEntity
  8
0
  6
CONTINUOUS
 62
     7
100
AcDbLine
 10
-0.6811651856000189
 20
206.188530377
 30
0.0
 11
-0.70834318559998
 21
206.221574377
 31
0.0
  0
LINE
  5
14D
330
1F
100
AcDbEntity
  8
0
  6
CONTINUOUS
 62
     7
100
AcDbLine
 10
-0.7314475124000075
 20
206.2523956412
 30
0.0
 11
-0.891192487600001
 21
206.1320563588
 31
0.0
  0
LINE
  5
14E
330
1F
100
AcDbEntity
  8
0
  6
CONTINUOUS
 62
     7
100
AcDbLine
 10
-0.891192487600001
 20
206.1320563588
 30
0.0
 11
-0.8654484876000623
 21
206.0978823588
 31
0.0
  0
LINE
  5
14F
330
1F
100
AcDbEntity
  8
0
  6
CONTINUOUS
 62
     7
100
AcDbLine
 10
-0.8654484876000623
 20
206.0978823588
 30
0.0
 11
-0.7057035124000688
 21
206.2182216412
 31
0.0
  0
LINE
  5
150
330
1F
100
AcDbEntity
  8
0
  6
CONTINUOUS
 62
     7
100
AcDbLine
 10
-0.7289535048000673
 20
206.2489336755999
 30
0.0
 11
-0.7531935048000205
 21
206.2841416756
 31
0.0
  0
LINE
  5
151
330
1F
100
AcDbEntity
  8
0
  6
CONTINUOUS
 62
     7
100
AcDbLine
 10
-0.3118805462000163
 20
205.9324369166
 30
0.0
 11
-0.3505285462000463
 21
205.9477469166
 31
0.0
  0
LINE
  5
152
330
1F
100
AcDbEntity
  8
0
  6
CONTINUOUS
 62
     7
100
AcDbLine
 10
-0.4518459010000586
 20
205.9983401592
 30
0.0
 11
-0.5481620990000491
 21
205.8230598408
 31
0.0
  0
LINE
  5
153
330
1F
100
AcDbEntity
  8
0
  6
CONTINUOUS
 62
     7
100
AcDbLine
 10
-0.5443646823999893
 20
206.0600084186
 30
0.0
 11
-0.576850682400043
 21
206.0859004186
 31
0.0
  0
LINE
  5
154
330
1F
100
AcDbEntity
  8
0
  6
CONTINUOUS
 62
     7
100
AcDbLine
 10
-0.6292822930000219
 20
206.133313379
 30
0.0
 11
-0.6583002930000692
 21
206.163039379
 31
0.0
  0
LINE
  5
155
330
1F
100
AcDbEntity
  8
0
  6
CONTINUOUS
 62
     7
100
AcDbLine
 10
-0.7057035124000688
 20
206.2182216412
 30
0.0
 11
-0.7314475124000075
 21
206.2523956412
 31
0.0
  0
LINE
  5
156
330
1F
100
AcDbEntity
  8
0
  6
CONTINUOUS
 62
     7
100
AcDbLine
 10
-0.3467062110000252
 20
205.9461402822
 30
0.0
 11
-0.3846842110000193
 21
205.9630382822
 31
0.0
  0
LINE
  5
157
330
1F
100
AcDbEntity
  8
0
  6
CONTINUOUS
 62
     7
100
AcDbLine
 10
-0.5069570394000134
 20
205.8005198012
 30
0.0
 11
-0.4697450394000047
 21
205.7820758012
 31
0.0
  0
LINE
  5
158
330
1F
100
AcDbEntity
  8
0
  6
CONTINUOUS
 62
     7
100
AcDbLine
 10
-0.5736578450000196
 20
206.0832454122
 30
0.0
 11
-0.6050658450000301
 21
206.1104854122
 31
0.0
  0
LINE
  5
159
330
1F
100
AcDbEntity
  8
0
  6
CONTINUOUS
 62
     7
100
AcDbLine
 10
-0.4181389606000563
 20
205.9797161988
 30
0.0
 11
-0.5069570394000134
 21
205.8005198012
 31
0.0
  0
LINE
  5
15A
330
1F
100
AcDbEntity
  8
0
  6
CONTINUOUS
 62
     7
100
AcDbLine
 10
-0.7531935048000205
 20
206.2841416756
 30
0.0
 11
-0.9179264952000055
 21
206.1707263244
 31
0.0
  0
LINE
  5
15B
330
1F
100
AcDbEntity
  8
0
  6
CONTINUOUS
 62
     7
100
AcDbLine
 10
-0.7391806656000255
 20
205.9621748172
 30
0.0
 11
-0.6019913344000316
 21
206.1077051828
 31
0.0
  0
LINE
  5
15C
330
1F
100
AcDbEntity
  8
0
  6
CONTINUOUS
 62
     7
100
AcDbLine
 10
-0.6322453344000389
 20
206.1362251828
 30
0.0
 11
-0.7694346656000328
 21
205.9906948172
 31
0.0
  0
LINE
  5
15D
330
1F
100
AcDbEntity
  8
0
  6
CONTINUOUS
 62
     7
100
AcDbLine
 10
-0.70834318559998
 20
206.221574377
 30
0.0
 11
-0.8628088144000401
 21
206.094529623
 31
0.0
  0
LINE
  5
15E
330
1F
100
AcDbEntity
  8
0
  6
CONTINUOUS
 62
     7
100
AcDbLine
 10
-0.9179264952000055
 20
206.1707263244
 30
0.0
 11
-0.8936864951999968
 21
206.1355183244
 31
0.0
  0
LINE
  5
15F
330
1F
100
AcDbEntity
  8
0
  6
CONTINUOUS
 62
     7
100
AcDbLine
 10
-0.8043033953999967
 20
206.0264186194
 30
0.0
 11
-0.6554126046000031
 21
206.1599533806
 31
0.0
  0
LINE
  5
160
330
1F
100
AcDbEntity
  8
0
  6
CONTINUOUS
 62
     7
100
AcDbLine
 10
-0.8936864951999968
 20
206.1355183244
 30
0.0
 11
-0.7289535048000673
 21
206.2489336755999
 31
0.0
  0
LINE
  5
161
330
1F
100
AcDbEntity
  8
0
  6
CONTINUOUS
 62
     7
100
AcDbLine
 10
-0.7508682288000501
 20
206.280606398
 30
0.0
 11
-0.7729642288000216
 21
206.3158003980001
 31
0.0
  0
LINE
  5
162
330
1F
100
AcDbEntity
  8
0
  6
CONTINUOUS
 62
     7
100
AcDbLine
 10
-0.7729642288000216
 20
206.3158003980001
 30
0.0
 11
-0.9423477712000028
 21
206.209455602
 31
0.0
  0
LINE
  5
163
330
1F
100
AcDbEntity
  8
0
  6
CONTINUOUS
 62
     7
100
AcDbLine
 10
-0.9423477712000028
 20
206.209455602
 30
0.0
 11
-0.9202517712000313
 21
206.174261602
 31
0.0
  0
LINE
  5
164
330
1F
100
AcDbEntity
  8
0
  6
CONTINUOUS
 62
     7
100
AcDbLine
 10
-0.8356308144000235
 20
206.061485623
 30
0.0
 11
-0.6811651856000189
 21
206.188530377
 31
0.0
  0
LINE
  5
165
330
1F
100
AcDbEntity
  8
0
  6
CONTINUOUS
 62
     7
100
AcDbLine
 10
-0.3846842110000193
 20
205.9630382822
 30
0.0
 11
-0.465987789000033
 21
205.7803097178
 31
0.0
  0
LINE
  5
166
330
1F
100
AcDbEntity
  8
0
  6
CONTINUOUS
 62
     7
100
AcDbLine
 10
-0.4280097890000389
 20
205.7634117178
 30
0.0
 11
-0.3467062110000252
 21
205.9461402822
 31
0.0
  0
LINE
  5
167
330
1F
100
AcDbEntity
  8
0
  6
CONTINUOUS
 62
     7
100
AcDbLine
 10
-0.4481431598000185
 20
205.9962011886
 30
0.0
 11
-0.4847171598000299
 21
206.0183851886
 31
0.0
  0
LINE
  5
168
330
1F
100
AcDbEntity
  8
0
  6
CONTINUOUS
 62
     7
100
AcDbLine
 10
-0.6050658450000301
 20
206.1104854122
 30
0.0
 11
-0.736106155000027
 21
205.9593945877999
 31
0.0
  0
LINE
  5
169
330
1F
100
AcDbEntity
  8
0
  6
CONTINUOUS
 62
     7
100
AcDbLine
 10
-0.9202517712000313
 20
206.174261602
 30
0.0
 11
-0.7508682288000501
 21
206.280606398
 31
0.0
  0
LINE
  5
16A
330
1F
100
AcDbEntity
  8
0
  6
CONTINUOUS
 62
     7
100
AcDbLine
 10
-0.5481620990000491
 20
205.8230598408
 30
0.0
 11
-0.5107060990000023
 21
205.8024778408
 31
0.0
  0
LINE
  5
16B
330
1F
100
AcDbEntity
  8
0
  6
CONTINUOUS
 62
     7
100
AcDbLine
 10
-0.3505285462000463
 20
205.9477469166
 30
0.0
 11
-0.4241874538000179
 21
205.7618050834
 31
0.0
  0
LINE
  5
16C
330
1F
100
AcDbEntity
  8
0
  6
CONTINUOUS
 62
     7
100
AcDbLine
 10
-0.4697450394000047
 20
205.7820758012
 30
0.0
 11
-0.3809269605999921
 21
205.9612721988
 31
0.0
  0
LINE
  5
16D
330
1F
100
AcDbEntity
  8
0
  6
CONTINUOUS
 62
     7
100
AcDbLine
 10
-0.576850682400043
 20
206.0859004186
 30
0.0
 11
-0.701505317599993
 21
205.9294995814
 31
0.0
  0
LINE
  5
16E
330
1F
100
AcDbEntity
  8
0
  6
CONTINUOUS
 62
     7
100
AcDbLine
 10
-0.8014157070000416
 20
206.023332621
 30
0.0
 11
-0.7723977069999943
 21
205.9936066210001
 31
0.0
  0
LINE
  5
16F
330
1F
100
AcDbEntity
  8
0
  6
CONTINUOUS
 62
     7
100
AcDbLine
 10
-0.4847171598000299
 20
206.0183851886
 30
0.0
 11
-0.5884388402000451
 21
205.8473828114
 31
0.0
  0
LINE
  5
170
330
1F
100
AcDbEntity
  8
0
  6
CONTINUOUS
 62
     7
100
AcDbLine
 10
-0.5920372298000021
 20
205.8496717784001
 30
0.0
 11
-0.4811187702000175
 21
206.0160962216
 31
0.0
  0
LINE
  5
171
330
1F
100
AcDbEntity
  8
0
  6
CONTINUOUS
 62
     7
100
AcDbLine
 10
-0.5884388402000451
 20
205.8473828114
 30
0.0
 11
-0.5518648402000337
 21
205.8251988114
 31
0.0
  0
LINE
  5
172
330
1F
100
AcDbEntity
  8
0
  6
CONTINUOUS
 62
     7
100
AcDbLine
 10
-0.6656559894000491
 20
205.9010413736
 30
0.0
 11
-0.6311379894000102
 21
205.8758413736
 31
0.0
  0
LINE
  5
173
330
1F
100
AcDbEntity
  8
0
  6
CONTINUOUS
 62
     7
100
AcDbLine
 10
-0.736106155000027
 20
205.9593945877999
 30
0.0
 11
-0.7046981550000164
 21
205.9321545878
 31
0.0
  0
LINE
  5
174
330
1F
100
AcDbEntity
  8
0
  6
CONTINUOUS
 62
     7
100
AcDbLine
 10
-0.7723977069999943
 20
205.9936066210001
 30
0.0
 11
-0.6292822930000219
 21
206.133313379
 31
0.0
  0
LINE
  5
175
330
1F
100
AcDbEntity
  8
0
  6
CONTINUOUS
 62
     7
100
AcDbLine
 10
-0.5167147702000441
 20
206.0398202216
 30
0.0
 11
-0.6276332298000287
 21
205.8733957784
 31
0.0
  0
LINE
  5
176
330
1F
100
AcDbEntity
  8
0
  6
CONTINUOUS
 62
     7
100
AcDbLine
 10
-0.6583002930000692
 20
206.163039379
 30
0.0
 11
-0.8014157070000416
 21
206.023332621
 31
0.0
  0
LINE
  5
177
330
1F
100
AcDbEntity
  8
0
  6
CONTINUOUS
 62
     7
100
AcDbLine
 10
-0.3809269605999921
 20
205.9612721988
 30
0.0
 11
-0.4181389606000563
 21
205.9797161988
 31
0.0
  0
LINE
  5
178
330
1F
100
AcDbEntity
  8
0
  6
CONTINUOUS
 62
     7
100
AcDbLine
 10
-0.4241874538000179
 20
205.7618050834
 30
0.0
 11
-0.3855394538000434
 21
205.7464950834
 31
0.0
  0
LINE
  5
179
330
1F
100
AcDbEntity
  8
0
  6
CONTINUOUS
 62
     7
100
AcDbLine
 10
-0.5518648402000337
 20
205.8251988114
 30
0.0
 11
-0.4481431598000185
 21
205.9962011886
 31
0.0
  0
LINE
  5
17A
330
1F
100
AcDbEntity
  8
0
  6
CONTINUOUS
 62
     7
100
AcDbLine
 10
-0.701505317599993
 20
205.9294995814
 30
0.0
 11
-0.6690193175999948
 21
205.9036075814001
 31
0.0
  0
LINE
  5
17B
330
1F
100
AcDbEntity
  8
0
  6
CONTINUOUS
 62
     7
100
AcDbLine
 10
-0.7046981550000164
 20
205.9321545878
 30
0.0
 11
-0.5736578450000196
 21
206.0832454122
 31
0.0
  0
LINE
  5
17C
330
1F
100
AcDbEntity
  8
0
  6
CONTINUOUS
 62
     7
100
AcDbLine
 10
-0.6554126046000031
 20
206.1599533806
 30
0.0
 11
-0.6839526046000244
 21
206.1917753806
 31
0.0
  0
LINE
  5
17D
330
1F
100
AcDbEntity
  8
0
  6
CONTINUOUS
 62
     7
100
AcDbLine
 10
-0.4811187702000175
 20
206.0160962216
 30
0.0
 11
-0.5167147702000441
 21
206.0398202216
 31
0.0
  0
LINE
  5
17E
330
1F
100
AcDbEntity
  8
0
  6
CONTINUOUS
 62
     7
100
AcDbLine
 10
-0.6019913344000316
 20
206.1077051828
 30
0.0
 11
-0.6322453344000389
 21
206.1362251828
 31
0.0
  0
LINE
  5
17F
330
1F
100
AcDbEntity
  8
0
  6
CONTINUOUS
 62
     7
100
AcDbLine
 10
-0.5107060990000023
 20
205.8024778408
 30
0.0
 11
-0.4143899010000118
 21
205.9777581592
 31
0.0
  0
LINE
  5
180
330
1F
100
AcDbEntity
  8
0
  6
CONTINUOUS
 62
     7
100
AcDbLine
 10
-0.6276332298000287
 20
205.8733957784
 30
0.0
 11
-0.5920372298000021
 21
205.8496717784001
 31
0.0
  0
LINE
  5
181
330
1F
100
AcDbEntity
  8
0
  6
CONTINUOUS
 62
     7
100
AcDbLine
 10
-0.547728010600046
 20
206.0625746264
 30
0.0
 11
-0.6656559894000491
 21
205.9010413736
 31
0.0
  0
LINE
  5
182
330
1F
100
AcDbEntity
  8
0
  6
CONTINUOUS
 62
     7
100
AcDbLine
 10
-0.6311379894000102
 20
205.8758413736
 30
0.0
 11
-0.513210010600007
 21
206.0373746264
 31
0.0
  0
LINE
  5
183
330
1F
100
AcDbEntity
  8
0
  6
CONTINUOUS
 62
     7
100
AcDbLine
 10
-0.7694346656000328
 20
205.9906948172
 30
0.0
 11
-0.7391806656000255
 21
205.9621748172
 31
0.0
  0
LINE
  5
184
330
1F
100
AcDbEntity
  8
0
  6
CONTINUOUS
 62
     7
100
AcDbLine
 10
-0.6839526046000244
 20
206.1917753806
 30
0.0
 11
-0.8328433954000181
 21
206.0582406194
 31
0.0
  0
LINE
  5
185
330
1F
100
AcDbEntity
  8
0
  6
CONTINUOUS
 62
     7
100
AcDbLine
 10
-0.8628088144000401
 20
206.094529623
 30
0.0
 11
-0.8356308144000235
 21
206.061485623
 31
0.0
  0
LINE
  5
186
330
1F
100
AcDbEntity
  8
0
  6
CONTINUOUS
 62
     7
100
AcDbLine
 10
-0.513210010600007
 20
206.0373746264
 30
0.0
 11
-0.547728010600046
 21
206.0625746264
 31
0.0
  0
LINE
  5
187
330
1F
100
AcDbEntity
  8
0
  6
CONTINUOUS
 62
     7
100
AcDbLine
 10
-0.465987789000033
 20
205.7803097178
 30
0.0
 11
-0.4280097890000389
 21
205.7634117178
 31
0.0
  0
LINE
  5
188
330
1F
100
AcDbEntity
  8
0
  6
CONTINUOUS
 62
     7
100
AcDbLine
 10
-0.3855394538000434
 20
205.7464950834
 30
0.0
 11
-0.3118805462000163
 21
205.9324369166
 31
0.0
  0
LINE
  5
189
330
1F
100
AcDbEntity
  8
0
  6
CONTINUOUS
 62
     7
100
AcDbLine
 10
-0.4143899010000118
 20
205.9777581592
 30
0.0
 11
-0.4518459010000586
 21
205.9983401592
 31
0.0
  0
LINE
  5
18A
330
1F
100
AcDbEntity
  8
0
  6
CONTINUOUS
 62
     7
100
AcDbLine
 10
-0.6690193175999948
 20
205.9036075814001
 30
0.0
 11
-0.5443646823999893
 21
206.0600084186
 31
0.0
  0
LINE
  5
18B
330
1F
100
AcDbEntity
  8
0
  6
CONTINUOUS
 62
     7
100
AcDbLine
 10
-0.8328433954000181
 20
206.0582406194
 30
0.0
 11
-0.8043033953999967
 21
206.0264186194
 31
0.0
  0
LINE
  5
18C
330
1F
100
AcDbEntity
  8
0
  6
CONTINUOUS
 62
     7
100
AcDbLine
 10
-1.055570231400016
 20
206.4675444424
 30
0.0
 11
-0.8625857686000438
 21
206.5200515576
 31
0.0
  0
LINE
  5
18D
330
1F
100
AcDbEntity
  8
0
  6
CONTINUOUS
 62
     7
100
AcDbLine
 10
-0.8817800524000274
 20
206.5966799382
 30
0.0
 11
-1.076783947600024
 21
206.5522560618
 31
0.0
  0
LINE
  5
18E
330
1F
100
AcDbEntity
  8
0
  6
CONTINUOUS
 62
     7
100
AcDbLine
 10
-1.076783947600024
 20
206.5522560618
 30
0.0
 11
-1.067805947600031
 21
206.5128460618
 31
0.0
  0
LINE
  5
18F
330
1F
100
AcDbEntity
  8
0
  6
CONTINUOUS
 62
     7
100
AcDbLine
 10
-1.023713286600059
 20
206.3744568122
 30
0.0
 11
-1.007305286600035
 21
206.3349688121999
 31
0.0
  0
LINE
  5
190
330
1F
100
AcDbEntity
  8
0
  6
CONTINUOUS
 62
     7
100
AcDbLine
 10
-0.8728020524000346
 20
206.5572699382
 30
0.0
 11
-0.8817800524000274
 21
206.5966799382
 31
0.0
  0
LINE
  5
191
330
1F
100
AcDbEntity
  8
0
  6
CONTINUOUS
 62
     7
100
AcDbLine
 10
-1.039987468800019
 20
206.4186302962
 30
0.0
 11
-1.025269468799994
 21
206.3784402962
 31
0.0
  0
LINE
  5
192
330
1F
100
AcDbEntity
  8
0
  6
CONTINUOUS
 62
     7
100
AcDbLine
 10
-0.8738117686000191
 20
206.5613115576
 30
0.0
 11
-1.066796231400047
 21
206.5088044424
 31
0.0
  0
LINE
  5
193
330
1F
100
AcDbEntity
  8
0
  6
CONTINUOUS
 62
     7
100
AcDbLine
 10
-0.8809634562000346
 20
206.5927289952
 30
0.0
 11
-0.8883474562000337
 21
206.6324849952
 31
0.0
  0
LINE
  5
194
330
1F
100
AcDbEntity
  8
0
  6
CONTINUOUS
 62
     7
100
AcDbLine
 10
-1.091411859599989
 20
206.6399548736
 30
0.0
 11
-1.085641859600028
 21
206.5999488736
 31
0.0
  0
LINE
  5
195
330
1F
100
AcDbEntity
  8
0
  6
CONTINUOUS
 62
     7
100
AcDbLine
 10
-0.9862148366000523
 20
206.2897087232001
 30
0.0
 11
-0.9670968366000121
 21
206.2527727232
 31
0.0
  0
LINE
  5
196
330
1F
100
AcDbEntity
  8
0
  6
CONTINUOUS
 62
     7
100
AcDbLine
 10
-0.8971588162000055
 20
206.7052757054
 30
0.0
 11
-1.096109183800043
 21
206.6848122946
 31
0.0
  0
LINE
  5
197
330
1F
100
AcDbEntity
  8
0
  6
CONTINUOUS
 62
     7
100
AcDbLine
 10
-0.7894791634000531
 20
206.3447072768
 30
0.0
 11
-0.8085971634000377
 21
206.3816432768
 31
0.0
  0
LINE
  5
198
330
1F
100
AcDbEntity
  8
0
  6
CONTINUOUS
 62
     7
100
AcDbLine
 10
-0.8085971634000377
 20
206.3816432768
 30
0.0
 11
-0.9862148366000523
 21
206.2897087232001
 31
0.0
  0
LINE
  5
199
330
1F
100
AcDbEntity
  8
0
  6
CONTINUOUS
 62
     7
100
AcDbLine
 10
-0.9670968366000121
 20
206.2527727232
 30
0.0
 11
-0.7894791634000531
 21
206.3447072768
 31
0.0
  0
LINE
  5
19A
330
1F
100
AcDbEntity
  8
0
  6
CONTINUOUS
 62
     7
100
AcDbLine
 10
-0.8243209166000631
 20
206.415584012
 30
0.0
 11
-1.005599083400033
 21
206.331095988
 31
0.0
  0
LINE
  5
19B
330
1F
100
AcDbEntity
  8
0
  6
CONTINUOUS
 62
     7
100
AcDbLine
 10
-0.852184531200062
 20
206.4874057038
 30
0.0
 11
-1.039987468800019
 21
206.4186302962
 31
0.0
  0
LINE
  5
19C
330
1F
100
AcDbEntity
  8
0
  6
CONTINUOUS
 62
     7
100
AcDbLine
 10
-0.8508045980000767
 20
206.4833734678
 30
0.0
 11
-0.8637965980000661
 21
206.5241534678
 31
0.0
  0
LINE
  5
19D
330
1F
100
AcDbEntity
  8
0
  6
CONTINUOUS
 62
     7
100
AcDbLine
 10
-0.7914601348000261
 20
206.3483476792
 30
0.0
 11
-0.9651158652000391
 21
206.2491323208
 31
0.0
  0
LINE
  5
19E
330
1F
100
AcDbEntity
  8
0
  6
CONTINUOUS
 62
     7
100
AcDbLine
 10
-1.077600543800017
 20
206.5562070048
 30
0.0
 11
-0.8809634562000346
 21
206.5927289952
 31
0.0
  0
LINE
  5
19F
330
1F
100
AcDbEntity
  8
0
  6
CONTINUOUS
 62
     7
100
AcDbLine
 10
-0.887690140400077
 20
206.6284991264
 30
0.0
 11
-0.8934601404000375
 21
206.6685051264
 31
0.0
  0
LINE
  5
1A0
330
1F
100
AcDbEntity
  8
0
  6
CONTINUOUS
 62
     7
100
AcDbLine
 10
-1.085641859600028
 20
206.5999488736
 30
0.0
 11
-0.887690140400077
 21
206.6284991264
 31
0.0
  0
LINE
  5
1A1
330
1F
100
AcDbEntity
  8
0
  6
CONTINUOUS
 62
     7
100
AcDbLine
 10
-1.096109183800043
 20
206.6848122946
 30
0.0
 11
-1.091911183800032
 21
206.6439982946
 31
0.0
  0
LINE
  5
1A2
330
1F
100
AcDbEntity
  8
0
  6
CONTINUOUS
 62
     7
100
AcDbLine
 10
-0.896823245200018
 20
206.7011932468
 30
0.0
 11
-0.8993472452000217
 21
206.7421612468
 31
0.0
  0
LINE
  5
1A3
330
1F
100
AcDbEntity
  8
0
  6
CONTINUOUS
 62
     7
100
AcDbLine
 10
-0.8993472452000217
 20
206.7421612468
 30
0.0
 11
-1.098968754800034
 21
206.7298627532
 31
0.0
  0
LINE
  5
1A4
330
1F
100
AcDbEntity
  8
0
  6
CONTINUOUS
 62
     7
100
AcDbLine
 10
-1.09644475480003
 20
206.6888947532
 30
0.0
 11
-0.896823245200018
 21
206.7011932468
 31
0.0
  0
LINE
  5
1A5
330
1F
100
AcDbEntity
  8
0
  6
CONTINUOUS
 62
     7
100
AcDbLine
 10
-1.041367402000004
 20
206.4226625322
 30
0.0
 11
-0.8508045980000767
 21
206.4833734678
 31
0.0
  0
LINE
  5
1A6
330
1F
100
AcDbEntity
  8
0
  6
CONTINUOUS
 62
     7
100
AcDbLine
 10
-0.899179060400046
 20
206.738064225
 30
0.0
 11
-0.9000210603999914
 21
206.779084225
 31
0.0
  0
LINE
  5
1A7
330
1F
100
AcDbEntity
  8
0
  6
CONTINUOUS
 62
     7
100
AcDbLine
 10
-0.7708281348000612
 20
206.3122356792
 30
0.0
 11
-0.7914601348000261
 21
206.3483476792
 31
0.0
  0
LINE
  5
1A8
330
1F
100
AcDbEntity
  8
0
  6
CONTINUOUS
 62
     7
100
AcDbLine
 10
-0.8883474562000337
 20
206.6324849952
 30
0.0
 11
-1.084984543800016
 21
206.5959630048
 31
0.0
  0
LINE
  5
1A9
330
1F
100
AcDbEntity
  8
0
  6
CONTINUOUS
 62
     7
100
AcDbLine
 10
-1.091911183800032
 20
206.6439982946
 30
0.0
 11
-0.8929608162000502
 21
206.6644617054
 31
0.0
  0
LINE
  5
1AA
330
1F
100
AcDbEntity
  8
0
  6
CONTINUOUS
 62
     7
100
AcDbLine
 10
-1.098968754800034
 20
206.7298627532
 30
0.0
 11
-1.09644475480003
 21
206.6888947532
 31
0.0
  0
LINE
  5
1AB
330
1F
100
AcDbEntity
  8
0
  6
CONTINUOUS
 62
     7
100
AcDbLine
 10
-0.9880450834000021
 20
206.293431988
 30
0.0
 11
-0.8067669166000324
 21
206.377920012
 31
0.0
  0
LINE
  5
1AC
330
1F
100
AcDbEntity
  8
0
  6
CONTINUOUS
 62
     7
100
AcDbLine
 10
-0.8934601404000375
 20
206.6685051264
 30
0.0
 11
-1.091411859599989
 21
206.6399548736
 31
0.0
  0
LINE
  5
1AD
330
1F
100
AcDbEntity
  8
0
  6
CONTINUOUS
 62
     7
100
AcDbLine
 10
-0.8374665312000373
 20
206.4472157038
 30
0.0
 11
-0.852184531200062
 21
206.4874057038
 31
0.0
  0
LINE
  5
1AE
330
1F
100
AcDbEntity
  8
0
  6
CONTINUOUS
 62
     7
100
AcDbLine
 10
-0.8637965980000661
 20
206.5241534678
 30
0.0
 11
-1.054359401999994
 21
206.4634425322
 31
0.0
  0
LINE
  5
1AF
330
1F
100
AcDbEntity
  8
0
  6
CONTINUOUS
 62
     7
100
AcDbLine
 10
-0.8390227134000283
 20
206.4511991878
 30
0.0
 11
-1.023713286600059
 21
206.3744568122
 31
0.0
  0
LINE
  5
1B0
330
1F
100
AcDbEntity
  8
0
  6
CONTINUOUS
 62
     7
100
AcDbLine
 10
-1.007305286600035
 20
206.3349688121999
 30
0.0
 11
-0.8226147134000605
 21
206.4117111878
 31
0.0
  0
LINE
  5
1B1
330
1F
100
AcDbEntity
  8
0
  6
CONTINUOUS
 62
     7
100
AcDbLine
 10
-1.025269468799994
 20
206.3784402962
 30
0.0
 11
-0.8374665312000373
 21
206.4472157038
 31
0.0
  0
LINE
  5
1B2
330
1F
100
AcDbEntity
  8
0
  6
CONTINUOUS
 62
     7
100
AcDbLine
 10
-1.067805947600031
 20
206.5128460618
 30
0.0
 11
-0.8728020524000346
 21
206.5572699382
 31
0.0
  0
LINE
  5
1B3
330
1F
100
AcDbEntity
  8
0
  6
CONTINUOUS
 62
     7
100
AcDbLine
 10
-0.8929608162000502
 20
206.6644617054
 30
0.0
 11
-0.8971588162000055
 21
206.7052757054
 31
0.0
  0
LINE
  5
1B4
330
1F
100
AcDbEntity
  8
0
  6
CONTINUOUS
 62
     7
100
AcDbLine
 10
-0.9651158652000391
 20
206.2491323208
 30
0.0
 11
-0.9444838652000742
 21
206.2130203208
 31
0.0
  0
LINE
  5
1B5
330
1F
100
AcDbEntity
  8
0
  6
CONTINUOUS
 62
     7
100
AcDbLine
 10
-0.8625857686000438
 20
206.5200515576
 30
0.0
 11
-0.8738117686000191
 21
206.5613115576
 31
0.0
  0
LINE
  5
1B6
330
1F
100
AcDbEntity
  8
0
  6
CONTINUOUS
 62
     7
100
AcDbLine
 10
-1.084984543800016
 20
206.5959630048
 30
0.0
 11
-1.077600543800017
 21
206.5562070048
 31
0.0
  0
LINE
  5
1B7
330
1F
100
AcDbEntity
  8
0
  6
CONTINUOUS
 62
     7
100
AcDbLine
 10
-1.054359401999994
 20
206.4634425322
 30
0.0
 11
-1.041367402000004
 21
206.4226625322
 31
0.0
  0
LINE
  5
1B8
330
1F
100
AcDbEntity
  8
0
  6
CONTINUOUS
 62
     7
100
AcDbLine
 10
-0.9444838652000742
 20
206.2130203208
 30
0.0
 11
-0.7708281348000612
 21
206.3122356792
 31
0.0
  0
LINE
  5
1B9
330
1F
100
AcDbEntity
  8
0
  6
CONTINUOUS
 62
     7
100
AcDbLine
 10
-0.8067669166000324
 20
206.377920012
 30
0.0
 11
-0.8243209166000631
 21
206.415584012
 31
0.0
  0
LINE
  5
1BA
330
1F
100
AcDbEntity
  8
0
  6
CONTINUOUS
 62
     7
100
AcDbLine
 10
-1.005599083400033
 20
206.331095988
 30
0.0
 11
-0.9880450834000021
 21
206.293431988
 31
0.0
  0
LINE
  5
1BB
330
1F
100
AcDbEntity
  8
0
  6
CONTINUOUS
 62
     7
100
AcDbLine
 10
-0.8226147134000605
 20
206.4117111878
 30
0.0
 11
-0.8390227134000283
 21
206.4511991878
 31
0.0
  0
LINE
  5
1BC
330
1F
100
AcDbEntity
  8
0
  6
CONTINUOUS
 62
     7
100
AcDbLine
 10
-1.066796231400047
 20
206.5088044424
 30
0.0
 11
-1.055570231400016
 21
206.4675444424
 31
0.0
  0
LINE
  5
1BD
330
1F
100
AcDbEntity
  8
0
  6
CONTINUOUS
 62
     7
100
AcDbLine
 10
-0.0564930656000717
 20
205.878428809
 30
0.0
 11
-0.0644509343999955
 21
205.678587191
 31
0.0
  0
LINE
  5
1BE
330
1F
100
AcDbEntity
  8
0
  6
CONTINUOUS
 62
     7
100
AcDbLine
 10
-0.1646401898000582
 20
205.8918423882
 30
0.0
 11
-0.206496189800065
 21
205.9006723882
 31
0.0
  0
LINE
  5
1BF
330
1F
100
AcDbEntity
  8
0
  6
CONTINUOUS
 62
     7
100
AcDbLine
 10
-0.2059238102000149
 20
205.6961496118
 30
0.0
 11
-0.1646401898000582
 21
205.8918423882
 31
0.0
  0
LINE
  5
1C0
330
1F
100
AcDbEntity
  8
0
  6
CONTINUOUS
 62
     7
100
AcDbLine
 10
-0.206496189800065
 20
205.9006723882
 30
0.0
 11
-0.2477798102000217
 21
205.7049796118
 31
0.0
  0
LINE
  5
1C1
330
1F
100
AcDbEntity
  8
0
  6
CONTINUOUS
 62
     7
100
AcDbLine
 10
0.2837142109999857
 20
205.9225567238
 30
0.0
 11
0.2439642109999807
 21
205.9103627238
 31
0.0
  0
LINE
  5
1C2
330
1F
100
AcDbEntity
  8
0
  6
CONTINUOUS
 62
     7
100
AcDbLine
 10
0.2479523097999592
 20
205.9114962398
 30
0.0
 11
0.2077303097999805
 21
205.9009602398
 31
0.0
  0
LINE
  5
1C3
330
1F
100
AcDbEntity
  8
0
  6
CONTINUOUS
 62
     7
100
AcDbLine
 10
0.2543637291999579
 20
205.7065174132
 30
0.0
 11
0.2117762707999349
 21
205.9019305868
 31
0.0
  0
LINE
  5
1C4
330
1F
100
AcDbEntity
  8
0
  6
CONTINUOUS
 62
     7
100
AcDbLine
 10
0.1208461364000102
 20
205.6833593806
 30
0.0
 11
0.1632781363999358
 21
205.6888853806
 31
0.0
  0
LINE
  5
1C5
330
1F
100
AcDbEntity
  8
0
  6
CONTINUOUS
 62
     7
100
AcDbLine
 10
0.2096265559999866
 20
205.6968589886
 30
0.0
 11
0.1753334439999477
 21
205.8938970114
 31
0.0
  0
LINE
  5
1C6
330
1F
100
AcDbEntity
  8
0
  6
CONTINUOUS
 62
     7
100
AcDbLine
 10
0.2439642109999807
 20
205.9103627238
 30
0.0
 11
0.3026197889999804
 21
205.7191572762
 31
0.0
  0
LINE
  5
1C7
330
1F
100
AcDbEntity
  8
0
  6
CONTINUOUS
 62
     7
100
AcDbLine
 10
0.1753334439999477
 20
205.8938970114
 30
0.0
 11
0.1332174440000222
 21
205.8865670114
 31
0.0
  0
LINE
  5
1C8
330
1F
100
AcDbEntity
  8
0
  6
CONTINUOUS
 62
     7
100
AcDbLine
 10
-0.2023457972000209
 20
205.899703999
 30
0.0
 11
-0.2437897972000225
 21
205.910309999
 31
0.0
  0
LINE
  5
1C9
330
1F
100
AcDbEntity
  8
0
  6
CONTINUOUS
 62
     7
100
AcDbLine
 10
0.2137737291999509
 20
205.6976714132
 30
0.0
 11
0.2543637291999579
 21
205.7065174132
 31
0.0
  0
LINE
  5
1CA
330
1F
100
AcDbEntity
  8
0
  6
CONTINUOUS
 62
     7
100
AcDbLine
 10
0.0181909343999753
 20
205.8768288416
 30
0.0
 11
0.0270050655999943
 21
205.6770231584
 31
0.0
  0
LINE
  5
1CB
330
1F
100
AcDbEntity
  8
0
  6
CONTINUOUS
 62
     7
100
AcDbLine
 10
-0.2437897972000225
 20
205.910309999
 30
0.0
 11
-0.2933742028000119
 21
205.716554001
 31
0.0
  0
LINE
  5
1CC
330
1F
100
AcDbEntity
  8
0
  6
CONTINUOUS
 62
     7
100
AcDbLine
 10
-0.2519302028000103
 20
205.705948001
 30
0.0
 11
-0.2023457972000209
 21
205.899703999
 31
0.0
  0
LINE
  5
1CD
330
1F
100
AcDbEntity
  8
0
  6
CONTINUOUS
 62
     7
100
AcDbLine
 10
0.137449863599981
 20
205.8872106194
 30
0.0
 11
0.0950178635999443
 21
205.8816846194
 31
0.0
  0
LINE
  5
1CE
330
1F
100
AcDbEntity
  8
0
  6
CONTINUOUS
 62
     7
100
AcDbLine
 10
-0.0644509343999955
 20
205.678587191
 30
0.0
 11
-0.0229149343999868
 21
205.676933191
 31
0.0
  0
LINE
  5
1CF
330
1F
100
AcDbEntity
  8
0
  6
CONTINUOUS
 62
     7
100
AcDbLine
 10
-0.2396716688000122
 20
205.9091617904
 30
0.0
 11
-0.2805856688000152
 21
205.9215177904
 31
0.0
  0
LINE
  5
1D0
330
1F
100
AcDbEntity
  8
0
  6
CONTINUOUS
 62
     7
100
AcDbLine
 10
-0.014957065600063
 20
205.876774809
 30
0.0
 11
-0.0564930656000717
 21
205.878428809
 31
0.0
  0
LINE
  5
1D1
330
1F
100
AcDbEntity
  8
0
  6
CONTINUOUS
 62
     7
100
AcDbLine
 10
0.1675105560000056
 20
205.6895289886
 30
0.0
 11
0.2096265559999866
 21
205.6968589886
 31
0.0
  0
LINE
  5
1D2
330
1F
100
AcDbEntity
  8
0
  6
CONTINUOUS
 62
     7
100
AcDbLine
 10
-0.1308734507999842
 20
205.8862167836
 30
0.0
 11
-0.1553745492000602
 21
205.6877232164
 31
0.0
  0
LINE
  5
1D3
330
1F
100
AcDbEntity
  8
0
  6
CONTINUOUS
 62
     7
100
AcDbLine
 10
-0.2933742028000119
 20
205.716554001
 30
0.0
 11
-0.2519302028000103
 21
205.705948001
 31
0.0
  0
LINE
  5
1D4
330
1F
100
AcDbEntity
  8
0
  6
CONTINUOUS
 62
     7
100
AcDbLine
 10
-0.3384063312000252
 20
205.7300582096
 30
0.0
 11
-0.2974923312000222
 21
205.7177022096
 31
0.0
  0
LINE
  5
1D5
330
1F
100
AcDbEntity
  8
0
  6
CONTINUOUS
 62
     7
100
AcDbLine
 10
-0.2765615800000565
 20
205.9202089934001
 30
0.0
 11
-0.3157755800000106
 21
205.9338869934
 31
0.0
  0
LINE
  5
1D6
330
1F
100
AcDbEntity
  8
0
  6
CONTINUOUS
 62
     7
100
AcDbLine
 10
0.2077303097999805
 20
205.9009602398
 30
0.0
 11
0.2584096901999677
 21
205.7074877602
 31
0.0
  0
LINE
  5
1D7
330
1F
100
AcDbEntity
  8
0
  6
CONTINUOUS
 62
     7
100
AcDbLine
 10
0.1166074671999917
 20
205.6828990294
 30
0.0
 11
0.0992565327999628
 21
205.8821449706
 31
0.0
  0
LINE
  5
1D8
330
1F
100
AcDbEntity
  8
0
  6
CONTINUOUS
 62
     7
100
AcDbLine
 10
-0.1266848602000104
 20
205.8856095188
 30
0.0
 11
-0.1688428602000247
 21
205.8926355187999
 31
0.0
  0
LINE
  5
1D9
330
1F
100
AcDbEntity
  8
0
  6
CONTINUOUS
 62
     7
100
AcDbLine
 10
-0.2805856688000152
 20
205.9215177904
 30
0.0
 11
-0.3384063312000252
 21
205.7300582096
 31
0.0
  0
LINE
  5
1DA
330
1F
100
AcDbEntity
  8
0
  6
CONTINUOUS
 62
     7
100
AcDbLine
 10
-0.2974923312000222
 20
205.7177022096
 30
0.0
 11
-0.2396716688000122
 21
205.9091617904
 31
0.0
  0
LINE
  5
1DB
330
1F
100
AcDbEntity
  8
0
  6
CONTINUOUS
 62
     7
100
AcDbLine
 10
0.2117762707999349
 20
205.9019305868
 30
0.0
 11
0.1711862707999279
 21
205.8930845868
 31
0.0
  0
LINE
  5
1DC
330
1F
100
AcDbEntity
  8
0
  6
CONTINUOUS
 62
     7
100
AcDbLine
 10
-0.3157755800000106
 20
205.9338869934
 30
0.0
 11
-0.3816444199999935
 21
205.7450450066
 31
0.0
  0
LINE
  5
1DD
330
1F
100
AcDbEntity
  8
0
  6
CONTINUOUS
 62
     7
100
AcDbLine
 10
0.0697130655999967
 20
205.6789071584
 30
0.0
 11
0.0608989343999222
 21
205.8787128416
 31
0.0
  0
LINE
  5
1DE
330
1F
100
AcDbEntity
  8
0
  6
CONTINUOUS
 62
     7
100
AcDbLine
 10
-0.0523554046000241
 20
205.87817806
 30
0.0
 11
-0.093787404600032
 21
205.88155206
 31
0.0
  0
LINE
  5
1DF
330
1F
100
AcDbEntity
  8
0
  6
CONTINUOUS
 62
     7
100
AcDbLine
 10
-0.3816444199999935
 20
205.7450450066
 30
0.0
 11
-0.3424304200000394
 21
205.7313670066
 31
0.0
  0
LINE
  5
1E0
330
1F
100
AcDbEntity
  8
0
  6
CONTINUOUS
 62
     7
100
AcDbLine
 10
-0.3424304200000394
 20
205.7313670066
 30
0.0
 11
-0.2765615800000565
 21
205.9202089934001
 31
0.0
  0
LINE
  5
1E1
330
1F
100
AcDbEntity
  8
0
  6
CONTINUOUS
 62
     7
100
AcDbLine
 10
-0.1141545492000517
 20
205.6826352164
 30
0.0
 11
-0.0896534507999758
 21
205.8811287836
 31
0.0
  0
LINE
  5
1E2
330
1F
100
AcDbEntity
  8
0
  6
CONTINUOUS
 62
     7
100
AcDbLine
 10
0.0566305327999728
 20
205.8784329706
 30
0.0
 11
0.0739814671999461
 21
205.6791870294
 31
0.0
  0
LINE
  5
1E3
330
1F
100
AcDbEntity
  8
0
  6
CONTINUOUS
 62
     7
100
AcDbLine
 10
-0.0896534507999758
 20
205.8811287836
 30
0.0
 11
-0.1308734507999842
 21
205.8862167836
 31
0.0
  0
LINE
  5
1E4
330
1F
100
AcDbEntity
  8
0
  6
CONTINUOUS
 62
     7
100
AcDbLine
 10
0.2986316902000019
 20
205.7180237602
 30
0.0
 11
0.2479523097999592
 21
205.9114962398
 31
0.0
  0
LINE
  5
1E5
330
1F
100
AcDbEntity
  8
0
  6
CONTINUOUS
 62
     7
100
AcDbLine
 10
0.0224246483999657
 20
205.8769258498
 30
0.0
 11
-0.0191093515999885
 21
205.8768538498
 31
0.0
  0
LINE
  5
1E6
330
1F
100
AcDbEntity
  8
0
  6
CONTINUOUS
 62
     7
100
AcDbLine
 10
-0.1688428602000247
 20
205.8926355187999
 30
0.0
 11
-0.201721139799993
 21
205.6953564812
 31
0.0
  0
LINE
  5
1E7
330
1F
100
AcDbEntity
  8
0
  6
CONTINUOUS
 62
     7
100
AcDbLine
 10
0.0270050655999943
 20
205.6770231584
 30
0.0
 11
0.0697130655999967
 21
205.6789071584
 31
0.0
  0
LINE
  5
1E8
330
1F
100
AcDbEntity
  8
0
  6
CONTINUOUS
 62
     7
100
AcDbLine
 10
0.0992565327999628
 20
205.8821449706
 30
0.0
 11
0.0566305327999728
 21
205.8784329706
 31
0.0
  0
LINE
  5
1E9
330
1F
100
AcDbEntity
  8
0
  6
CONTINUOUS
 62
     7
100
AcDbLine
 10
0.3026197889999804
 20
205.7191572762
 30
0.0
 11
0.34236978899993
 21
205.7313512762
 31
0.0
  0
LINE
  5
1EA
330
1F
100
AcDbEntity
  8
0
  6
CONTINUOUS
 62
     7
100
AcDbLine
 10
0.1332174440000222
 20
205.8865670114
 30
0.0
 11
0.1675105560000056
 21
205.6895289886
 31
0.0
  0
LINE
  5
1EB
330
1F
100
AcDbEntity
  8
0
  6
CONTINUOUS
 62
     7
100
AcDbLine
 10
0.0608989343999222
 20
205.8787128416
 30
0.0
 11
0.0181909343999753
 21
205.8768288416
 31
0.0
  0
LINE
  5
1EC
330
1F
100
AcDbEntity
  8
0
  6
CONTINUOUS
 62
     7
100
AcDbLine
 10
-0.0191093515999885
 20
205.8768538498
 30
0.0
 11
-0.0187626484000614
 21
205.6768541501999
 31
0.0
  0
LINE
  5
1ED
330
1F
100
AcDbEntity
  8
0
  6
CONTINUOUS
 62
     7
100
AcDbLine
 10
-0.0229149343999868
 20
205.676933191
 30
0.0
 11
-0.014957065600063
 21
205.876774809
 31
0.0
  0
LINE
  5
1EE
330
1F
100
AcDbEntity
  8
0
  6
CONTINUOUS
 62
     7
100
AcDbLine
 10
-0.0187626484000614
 20
205.6768541501999
 30
0.0
 11
0.0227713515999484
 21
205.6769261502
 31
0.0
  0
LINE
  5
1EF
330
1F
100
AcDbEntity
  8
0
  6
CONTINUOUS
 62
     7
100
AcDbLine
 10
-0.093787404600032
 20
205.88155206
 30
0.0
 11
-0.1100205953999955
 21
205.68221194
 31
0.0
  0
LINE
  5
1F0
330
1F
100
AcDbEntity
  8
0
  6
CONTINUOUS
 62
     7
100
AcDbLine
 10
-0.201721139799993
 20
205.6953564812
 30
0.0
 11
-0.1595631398000341
 21
205.6883304812
 31
0.0
  0
LINE
  5
1F1
330
1F
100
AcDbEntity
  8
0
  6
CONTINUOUS
 62
     7
100
AcDbLine
 10
-0.2477798102000217
 20
205.7049796118
 30
0.0
 11
-0.2059238102000149
 21
205.6961496118
 31
0.0
  0
LINE
  5
1F2
330
1F
100
AcDbEntity
  8
0
  6
CONTINUOUS
 62
     7
100
AcDbLine
 10
0.1632781363999358
 20
205.6888853806
 30
0.0
 11
0.137449863599981
 21
205.8872106194
 31
0.0
  0
LINE
  5
1F3
330
1F
100
AcDbEntity
  8
0
  6
CONTINUOUS
 62
     7
100
AcDbLine
 10
0.1711862707999279
 20
205.8930845868
 30
0.0
 11
0.2137737291999509
 21
205.6976714132
 31
0.0
  0
LINE
  5
1F4
330
1F
100
AcDbEntity
  8
0
  6
CONTINUOUS
 62
     7
100
AcDbLine
 10
-0.1100205953999955
 20
205.68221194
 30
0.0
 11
-0.0685885954000431
 21
205.67883794
 31
0.0
  0
LINE
  5
1F5
330
1F
100
AcDbEntity
  8
0
  6
CONTINUOUS
 62
     7
100
AcDbLine
 10
0.2584096901999677
 20
205.7074877602
 30
0.0
 11
0.2986316902000019
 21
205.7180237602
 31
0.0
  0
LINE
  5
1F6
330
1F
100
AcDbEntity
  8
0
  6
CONTINUOUS
 62
     7
100
AcDbLine
 10
-0.0685885954000431
 20
205.67883794
 30
0.0
 11
-0.0523554046000241
 21
205.87817806
 31
0.0
  0
LINE
  5
1F7
330
1F
100
AcDbEntity
  8
0
  6
CONTINUOUS
 62
     7
100
AcDbLine
 10
0.34236978899993
 20
205.7313512762
 30
0.0
 11
0.2837142109999857
 21
205.9225567238
 31
0.0
  0
LINE
  5
1F8
330
1F
100
AcDbEntity
  8
0
  6
CONTINUOUS
 62
     7
100
AcDbLine
 10
0.0739814671999461
 20
205.6791870294
 30
0.0
 11
0.1166074671999917
 21
205.6828990294
 31
0.0
  0
LINE
  5
1F9
330
1F
100
AcDbEntity
  8
0
  6
CONTINUOUS
 62
     7
100
AcDbLine
 10
-0.1553745492000602
 20
205.6877232164
 30
0.0
 11
-0.1141545492000517
 21
205.6826352164
 31
0.0
  0
LINE
  5
1FA
330
1F
100
AcDbEntity
  8
0
  6
CONTINUOUS
 62
     7
100
AcDbLine
 10
0.0227713515999484
 20
205.6769261502
 30
0.0
 11
0.0224246483999657
 21
205.8769258498
 31
0.0
  0
LINE
  5
1FB
330
1F
100
AcDbEntity
  8
0
  6
CONTINUOUS
 62
     7
100
AcDbLine
 10
0.0950178635999444
 20
205.8816846194
 30
0.0
 11
0.1208461364000102
 21
205.6833593806
 31
0.0
  0
LINE
  5
1FC
330
1F
100
AcDbEntity
  8
0
  6
CONTINUOUS
 62
     7
100
AcDbLine
 10
-0.1595631398000341
 20
205.6883304812
 30
0.0
 11
-0.1266848602000104
 21
205.8856095188
 31
0.0
  0
LINE
  5
1FD
330
1F
100
AcDbEntity
  8
0
  6
CONTINUOUS
 62
     7
100
AcDbLine
 10
0.4241177245999928
 20
205.9828836442
 30
0.0
 11
0.3858957245999606
 21
205.9636136442
 31
0.0
  0
LINE
  5
1FE
330
1F
100
AcDbEntity
  8
0
  6
CONTINUOUS
 62
     7
100
AcDbLine
 10
0.5141542753999695
 20
205.8042963558
 30
0.0
 11
0.4241177245999928
 21
205.9828836442
 31
0.0
  0
LINE
  5
1FF
330
1F
100
AcDbEntity
  8
0
  6
CONTINUOUS
 62
     7
100
AcDbLine
 10
0.3507366867999684
 20
205.9478302536
 30
0.0
 11
0.4330753131999709
 21
205.7655657464
 31
0.0
  0
LINE
  5
200
330
1F
100
AcDbEntity
  8
0
  6
CONTINUOUS
 62
     7
100
AcDbLine
 10
0.5552608016000105
 20
205.8271729672
 30
0.0
 11
0.4576631983999602
 21
206.0017430328
 31
0.0
  0
LINE
  5
201
330
1F
100
AcDbEntity
  8
0
  6
CONTINUOUS
 62
     7
100
AcDbLine
 10
0.4540152079999804
 20
205.999601021
 30
0.0
 11
0.5589087919999902
 21
205.829314979
 31
0.0
  0
LINE
  5
202
330
1F
100
AcDbEntity
  8
0
  6
CONTINUOUS
 62
     7
100
AcDbLine
 10
0.6691348926000096
 20
205.9037005144
 30
0.0
 11
0.5504731073999736
 21
206.0646954856
 31
0.0
  0
LINE
  5
203
330
1F
100
AcDbEntity
  8
0
  6
CONTINUOUS
 62
     7
100
AcDbLine
 10
0.6322605309999618
 20
205.876629224
 30
0.0
 11
0.5203834690000186
 21
206.042410776
 31
0.0
  0
LINE
  5
204
330
1F
100
AcDbEntity
  8
0
  6
CONTINUOUS
 62
     7
100
AcDbLine
 10
0.472083313199978
 20
205.7831877464
 30
0.0
 11
0.3897446867999754
 21
205.9654522536
 31
0.0
  0
LINE
  5
205
330
1F
100
AcDbEntity
  8
0
  6
CONTINUOUS
 62
     7
100
AcDbLine
 10
0.3546742217999665
 20
205.9495085312
 30
0.0
 11
0.3149842217999854
 21
205.9335865312
 31
0.0
  0
LINE
  5
206
330
1F
100
AcDbEntity
  8
0
  6
CONTINUOUS
 62
     7
100
AcDbLine
 10
0.4330753131999709
 20
205.7655657464
 30
0.0
 11
0.472083313199978
 21
205.7831877464
 31
0.0
  0
LINE
  5
207
330
1F
100
AcDbEntity
  8
0
  6
CONTINUOUS
 62
     7
100
AcDbLine
 10
0.3858957245999606
 20
205.9636136442
 30
0.0
 11
0.4759322753999928
 21
205.7850263558
 31
0.0
  0
LINE
  5
208
330
1F
100
AcDbEntity
  8
0
  6
CONTINUOUS
 62
     7
100
AcDbLine
 10
0.4893992080000076
 20
206.021397021
 30
0.0
 11
0.4540152079999804
 21
205.999601021
 31
0.0
  0
LINE
  5
209
330
1F
100
AcDbEntity
  8
0
  6
CONTINUOUS
 62
     7
100
AcDbLine
 10
0.4759322753999928
 20
205.7850263558
 30
0.0
 11
0.5141542753999695
 21
205.8042963558
 31
0.0
  0
LINE
  5
20A
330
1F
100
AcDbEntity
  8
0
  6
CONTINUOUS
 62
     7
100
AcDbLine
 10
0.3894477781999917
 20
205.7479654688
 30
0.0
 11
0.4291377781999728
 21
205.7638874688
 31
0.0
  0
LINE
  5
20B
330
1F
100
AcDbEntity
  8
0
  6
CONTINUOUS
 62
     7
100
AcDbLine
 10
0.4291377781999728
 20
205.7638874688
 30
0.0
 11
0.3546742217999665
 21
205.9495085312
 31
0.0
  0
LINE
  5
20C
330
1F
100
AcDbEntity
  8
0
  6
CONTINUOUS
 62
     7
100
AcDbLine
 10
0.6333224947999705
 20
206.1372941634
 30
0.0
 11
0.7774135051999975
 21
205.9985938366
 31
0.0
  0
LINE
  5
20D
330
1F
100
AcDbEntity
  8
0
  6
CONTINUOUS
 62
     7
100
AcDbLine
 10
0.3189428025999752
 20
205.9350781438
 30
0.0
 11
0.2797688026
 21
205.9212561438
 31
0.0
  0
LINE
  5
20E
330
1F
100
AcDbEntity
  8
0
  6
CONTINUOUS
 62
     7
100
AcDbLine
 10
0.3149842217999854
 20
205.9335865312
 30
0.0
 11
0.3894477781999917
 21
205.7479654688
 31
0.0
  0
LINE
  5
20F
330
1F
100
AcDbEntity
  8
0
  6
CONTINUOUS
 62
     7
100
AcDbLine
 10
0.5977845309999563
 20
205.853363224
 30
0.0
 11
0.6322605309999618
 21
205.876629224
 31
0.0
  0
LINE
  5
210
330
1F
100
AcDbEntity
  8
0
  6
CONTINUOUS
 62
     7
100
AcDbLine
 10
0.3897446867999754
 20
205.9654522536
 30
0.0
 11
0.3507366867999684
 21
205.9478302536
 31
0.0
  0
LINE
  5
211
330
1F
100
AcDbEntity
  8
0
  6
CONTINUOUS
 62
     7
100
AcDbLine
 10
0.420337198399956
 20
205.9808750328
 30
0.0
 11
0.5179348016000063
 21
205.8063049672
 31
0.0
  0
LINE
  5
212
330
1F
100
AcDbEntity
  8
0
  6
CONTINUOUS
 62
     7
100
AcDbLine
 10
0.2797688026
 20
205.9212561438
 30
0.0
 11
0.3463151973999712
 21
205.7326518562
 31
0.0
  0
LINE
  5
213
330
1F
100
AcDbEntity
  8
0
  6
CONTINUOUS
 62
     7
100
AcDbLine
 10
0.8071055051999676
 20
206.0294398365999
 30
0.0
 11
0.6630144947999961
 21
206.1681401634
 31
0.0
  0
LINE
  5
214
330
1F
100
AcDbEntity
  8
0
  6
CONTINUOUS
 62
     7
100
AcDbLine
 10
0.3463151973999712
 20
205.7326518562
 30
0.0
 11
0.3854891973999464
 21
205.7464738562
 31
0.0
  0
LINE
  5
215
330
1F
100
AcDbEntity
  8
0
  6
CONTINUOUS
 62
     7
100
AcDbLine
 10
0.5942927919999619
 20
205.851110979
 30
0.0
 11
0.4893992080000076
 21
206.021397021
 31
0.0
  0
LINE
  5
216
330
1F
100
AcDbEntity
  8
0
  6
CONTINUOUS
 62
     7
100
AcDbLine
 10
0.3854891973999464
 20
205.7464738562
 30
0.0
 11
0.3189428025999752
 21
205.9350781438
 31
0.0
  0
LINE
  5
217
330
1F
100
AcDbEntity
  8
0
  6
CONTINUOUS
 62
     7
100
AcDbLine
 10
0.8383231558000137
 20
206.0646400816
 30
0.0
 11
0.6884328442000043
 21
206.1970519184
 31
0.0
  0
LINE
  5
218
330
1F
100
AcDbEntity
  8
0
  6
CONTINUOUS
 62
     7
100
AcDbLine
 10
0.6085203273999973
 20
206.1136366058
 30
0.0
 11
0.5763363273999511
 21
206.0854626058
 31
0.0
  0
LINE
  5
219
330
1F
100
AcDbEntity
  8
0
  6
CONTINUOUS
 62
     7
100
AcDbLine
 10
0.5763363273999511
 20
206.0854626058
 30
0.0
 11
0.7080716725999525
 21
205.9349773942
 31
0.0
  0
LINE
  5
21A
330
1F
100
AcDbEntity
  8
0
  6
CONTINUOUS
 62
     7
100
AcDbLine
 10
0.6363470951999406
 20
206.1403050026
 30
0.0
 11
0.6053670951999823
 21
206.1107550026
 31
0.0
  0
LINE
  5
21B
330
1F
100
AcDbEntity
  8
0
  6
CONTINUOUS
 62
     7
100
AcDbLine
 10
0.7080716725999525
 20
205.9349773942
 30
0.0
 11
0.7402556725999432
 21
205.9631513942
 31
0.0
  0
LINE
  5
21C
330
1F
100
AcDbEntity
  8
0
  6
CONTINUOUS
 62
     7
100
AcDbLine
 10
0.547184944399981
 20
206.062165005
 30
0.0
 11
0.6724230556000022
 21
205.906230995
 31
0.0
  0
LINE
  5
21D
330
1F
100
AcDbEntity
  8
0
  6
CONTINUOUS
 62
     7
100
AcDbLine
 10
0.7048230555999901
 20
205.932252995
 30
0.0
 11
0.579584944399969
 21
206.088187005
 31
0.0
  0
LINE
  5
21E
330
1F
100
AcDbEntity
  8
0
  6
CONTINUOUS
 62
     7
100
AcDbLine
 10
0.7774135051999975
 20
205.9985938366
 30
0.0
 11
0.8071055051999676
 21
206.0294398365999
 31
0.0
  0
LINE
  5
21F
330
1F
100
AcDbEntity
  8
0
  6
CONTINUOUS
 62
     7
100
AcDbLine
 10
0.6053670951999823
 20
206.1107550026
 30
0.0
 11
0.7434089047999581
 21
205.9660329974
 31
0.0
  0
LINE
  5
220
330
1F
100
AcDbEntity
  8
0
  6
CONTINUOUS
 62
     7
100
AcDbLine
 10
0.7743889047999719
 20
205.9955829974
 30
0.0
 11
0.6363470951999406
 21
206.1403050026
 31
0.0
  0
LINE
  5
221
330
1F
100
AcDbEntity
  8
0
  6
CONTINUOUS
 62
     7
100
AcDbLine
 10
0.7402556725999432
 20
205.9631513942
 30
0.0
 11
0.6085203273999973
 21
206.1136366058
 31
0.0
  0
LINE
  5
222
330
1F
100
AcDbEntity
  8
0
  6
CONTINUOUS
 62
     7
100
AcDbLine
 10
0.579584944399969
 20
206.088187005
 30
0.0
 11
0.547184944399981
 21
206.062165005
 31
0.0
  0
LINE
  5
223
330
1F
100
AcDbEntity
  8
0
  6
CONTINUOUS
 62
     7
100
AcDbLine
 10
0.635652892599925
 20
205.8790225144
 30
0.0
 11
0.6691348926000096
 21
205.9037005144
 31
0.0
  0
LINE
  5
224
330
1F
100
AcDbEntity
  8
0
  6
CONTINUOUS
 62
     7
100
AcDbLine
 10
0.6724230556000022
 20
205.906230995
 30
0.0
 11
0.7048230555999901
 21
205.932252995
 31
0.0
  0
LINE
  5
225
330
1F
100
AcDbEntity
  8
0
  6
CONTINUOUS
 62
     7
100
AcDbLine
 10
0.5169911073999445
 20
206.0400174856
 30
0.0
 11
0.635652892599925
 21
205.8790225144
 31
0.0
  0
LINE
  5
226
330
1F
100
AcDbEntity
  8
0
  6
CONTINUOUS
 62
     7
100
AcDbLine
 10
0.5203834690000186
 20
206.042410776
 30
0.0
 11
0.4859074689999576
 21
206.019144776
 31
0.0
  0
LINE
  5
227
330
1F
100
AcDbEntity
  8
0
  6
CONTINUOUS
 62
     7
100
AcDbLine
 10
0.6630144947999961
 20
206.1681401634
 30
0.0
 11
0.6333224947999705
 21
206.1372941634
 31
0.0
  0
LINE
  5
228
330
1F
100
AcDbEntity
  8
0
  6
CONTINUOUS
 62
     7
100
AcDbLine
 10
0.4859074689999576
 20
206.019144776
 30
0.0
 11
0.5977845309999563
 21
205.853363224
 31
0.0
  0
LINE
  5
229
330
1F
100
AcDbEntity
  8
0
  6
CONTINUOUS
 62
     7
100
AcDbLine
 10
0.5504731073999736
 20
206.0646954856
 30
0.0
 11
0.5169911073999445
 21
206.0400174856
 31
0.0
  0
LINE
  5
22A
330
1F
100
AcDbEntity
  8
0
  6
CONTINUOUS
 62
     7
100
AcDbLine
 10
0.5589087919999902
 20
205.829314979
 30
0.0
 11
0.5942927919999619
 21
205.851110979
 31
0.0
  0
LINE
  5
22B
330
1F
100
AcDbEntity
  8
0
  6
CONTINUOUS
 62
     7
100
AcDbLine
 10
0.4576631983999602
 20
206.0017430328
 30
0.0
 11
0.420337198399956
 21
205.9808750328
 31
0.0
  0
LINE
  5
22C
330
1F
100
AcDbEntity
  8
0
  6
CONTINUOUS
 62
     7
100
AcDbLine
 10
0.5179348016000063
 20
205.8063049672
 30
0.0
 11
0.5552608016000105
 21
205.8271729672
 31
0.0
  0
LINE
  5
22D
330
1F
100
AcDbEntity
  8
0
  6
CONTINUOUS
 62
     7
100
AcDbLine
 10
0.7434089047999581
 20
205.9660329974
 30
0.0
 11
0.7743889047999719
 21
205.9955829974
 31
0.0
  0
POINT
  5
22E
330
1F
100
AcDbEntity
  8
0
 62
     1
100
AcDbPoint
 10
-190.75
 20
280.7500000000001
 30
0.0
  0
LINE
  5
22F
330
1F
100
AcDbEntity
  8
0
  6
CONTINUOUS
 62
     7
100
AcDbLine
 10
0.9000176589999964
 20
354.7210887728
 30
0.0
 11
1.09998234099995
 21
354.7248472272
 31
0.0
  0
LINE
  5
230
330
1F
100
AcDbEntity
  8
0
  6
CONTINUOUS
 62
     7
100
AcDbLine
 10
1.096738107799977
 20
354.807421361
 30
0.0
 11
1.093218107799998
 21
354.8448253609999
 31
0.0
  0
LINE
  5
231
330
1F
100
AcDbEntity
  8
0
  6
CONTINUOUS
 62
     7
100
AcDbLine
 10
0.8895261829999779
 20
354.8600485955999
 30
0.0
 11
0.8945241829999562
 21
354.8223225956
 31
0.0
  0
LINE
  5
232
330
1F
100
AcDbEntity
  8
0
  6
CONTINUOUS
 62
     7
100
AcDbLine
 10
0.8993116589999239
 20
354.7586507728
 30
0.0
 11
0.9000176589999964
 21
354.7210887728
 31
0.0
  0
LINE
  5
233
330
1F
100
AcDbEntity
  8
0
  6
CONTINUOUS
 62
     7
100
AcDbLine
 10
0.8843814845999609
 20
354.8900837633999
 30
0.0
 11
1.080082515399983
 21
354.9313282366
 31
0.0
  0
LINE
  5
234
330
1F
100
AcDbEntity
  8
0
  6
CONTINUOUS
 62
     7
100
AcDbLine
 10
0.8672440379999813
 20
354.9637427186
 30
0.0
 11
0.8774340379999468
 21
354.9234347186
 31
0.0
  0
LINE
  5
235
330
1F
100
AcDbEntity
  8
0
  6
CONTINUOUS
 62
     7
100
AcDbLine
 10
1.060041991999938
 20
355.0167680032
 30
0.0
 11
1.048175991999967
 21
355.0566520032
 31
0.0
  0
LINE
  5
236
330
1F
100
AcDbEntity
  8
0
  6
CONTINUOUS
 62
     7
100
AcDbLine
 10
1.046912394399968
 20
355.0605981678
 30
0.0
 11
1.033404394399973
 21
355.0999561678
 31
0.0
  0
LINE
  5
237
330
1F
100
AcDbEntity
  8
0
  6
CONTINUOUS
 62
     7
100
AcDbLine
 10
1.016852356799935
 20
355.1425900963999
 30
0.0
 11
0.8305476432000081
 21
355.0698539036
 31
0.0
  0
LINE
  5
238
330
1F
100
AcDbEntity
  8
0
  6
CONTINUOUS
 62
     7
100
AcDbLine
 10
0.7978372823999602
 20
355.1396572044
 30
0.0
 11
0.8167432824000009
 21
355.1012332044
 31
0.0
  0
LINE
  5
239
330
1F
100
AcDbEntity
  8
0
  6
CONTINUOUS
 62
     7
100
AcDbLine
 10
0.8994526335999731
 20
354.7548995876
 30
0.0
 11
1.099135366399939
 21
354.7661604124
 31
0.0
  0
LINE
  5
23A
330
1F
100
AcDbEntity
  8
0
  6
CONTINUOUS
 62
     7
100
AcDbLine
 10
0.8167432824000009
 20
355.1012332044
 30
0.0
 11
0.9961967175999842
 21
355.1895307956
 31
0.0
  0
LINE
  5
23B
330
1F
100
AcDbEntity
  8
0
  6
CONTINUOUS
 62
     7
100
AcDbLine
 10
0.975325341199984
 20
355.2317429063999
 30
0.0
 11
0.9547973411999644
 21
355.2693249064
 31
0.0
  0
LINE
  5
23C
330
1F
100
AcDbEntity
  8
0
  6
CONTINUOUS
 62
     7
100
AcDbLine
 10
0.9547973411999644
 20
355.2693249064
 30
0.0
 11
0.7792746587999555
 21
355.1734510936
 31
0.0
  0
LINE
  5
23D
330
1F
100
AcDbEntity
  8
0
  6
CONTINUOUS
 62
     7
100
AcDbLine
 10
0.7792746587999555
 20
355.1734510936
 30
0.0
 11
0.7998026587999751
 21
355.1358690936
 31
0.0
  0
LINE
  5
23E
330
1F
100
AcDbEntity
  8
0
  6
CONTINUOUS
 62
     7
100
AcDbLine
 10
0.8836677255999459
 20
354.8938215752
 30
0.0
 11
0.8900957256000042
 21
354.8562975752
 31
0.0
  0
LINE
  5
23F
330
1F
100
AcDbEntity
  8
0
  6
CONTINUOUS
 62
     7
100
AcDbLine
 10
0.8683460079999539
 20
354.9597359968
 30
0.0
 11
1.060041991999938
 21
355.0167680032
 31
0.0
  0
LINE
  5
240
330
1F
100
AcDbEntity
  8
0
  6
CONTINUOUS
 62
     7
100
AcDbLine
 10
0.8945241829999562
 20
354.8223225956
 30
0.0
 11
1.09279181699995
 21
354.8485894043999
 31
0.0
  0
LINE
  5
241
330
1F
100
AcDbEntity
  8
0
  6
CONTINUOUS
 62
     7
100
AcDbLine
 10
0.7998026587999751
 20
355.1358690936
 30
0.0
 11
0.975325341199984
 21
355.2317429063999
 31
0.0
  0
LINE
  5
242
330
1F
100
AcDbEntity
  8
0
  6
CONTINUOUS
 62
     7
100
AcDbLine
 10
1.087793816999971
 20
354.8863154044
 30
0.0
 11
0.8895261829999779
 21
354.8600485955999
 31
0.0
  0
LINE
  5
243
330
1F
100
AcDbEntity
  8
0
  6
CONTINUOUS
 62
     7
100
AcDbLine
 10
0.84423560559993
 20
355.0350318322
 30
0.0
 11
0.8577436055999255
 21
354.9956738322
 31
0.0
  0
LINE
  5
244
330
1F
100
AcDbEntity
  8
0
  6
CONTINUOUS
 62
     7
100
AcDbLine
 10
0.9526670997999642
 20
355.2730340526
 30
0.0
 11
0.9305710997999372
 21
355.3096700526
 31
0.0
  0
LINE
  5
245
330
1F
100
AcDbEntity
  8
0
  6
CONTINUOUS
 62
     7
100
AcDbLine
 10
0.7593089001999842
 20
355.2063779474
 30
0.0
 11
0.7814049002000112
 21
355.1697419473999
 31
0.0
  0
LINE
  5
246
330
1F
100
AcDbEntity
  8
0
  6
CONTINUOUS
 62
     7
100
AcDbLine
 10
0.7814049002000112
 20
355.1697419473999
 30
0.0
 11
0.9526670997999642
 21
355.2730340526
 31
0.0
  0
LINE
  5
247
330
1F
100
AcDbEntity
  8
0
  6
CONTINUOUS
 62
     7
100
AcDbLine
 10
0.9284956078000062
 20
355.3129645167999
 30
0.0
 11
0.9092996077999516
 21
355.3421585168001
 31
0.0
  0
LINE
  5
248
330
1F
100
AcDbEntity
  8
0
  6
CONTINUOUS
 62
     7
100
AcDbLine
 10
0.9092996077999516
 20
355.3421585168001
 30
0.0
 11
0.7421883921999717
 21
355.2322774832001
 31
0.0
  0
LINE
  5
249
330
1F
100
AcDbEntity
  8
0
  6
CONTINUOUS
 62
     7
100
AcDbLine
 10
0.7421883921999717
 20
355.2322774832001
 30
0.0
 11
0.7613843921999708
 21
355.2030834832
 31
0.0
  0
LINE
  5
24A
330
1F
100
AcDbEntity
  8
0
  6
CONTINUOUS
 62
     7
100
AcDbLine
 10
1.015231847800002
 20
355.1464950782
 30
0.0
 11
0.998001847800023
 21
355.1856550782
 31
0.0
  0
LINE
  5
24B
330
1F
100
AcDbEntity
  8
0
  6
CONTINUOUS
 62
     7
100
AcDbLine
 10
0.9305710997999372
 20
355.3096700526
 30
0.0
 11
0.7593089001999842
 21
355.2063779474
 31
0.0
  0
LINE
  5
24C
330
1F
100
AcDbEntity
  8
0
  6
CONTINUOUS
 62
     7
100
AcDbLine
 10
0.7613843921999708
 20
355.2030834832
 30
0.0
 11
0.9284956078000062
 21
355.3129645167999
 31
0.0
  0
LINE
  5
24D
330
1F
100
AcDbEntity
  8
0
  6
CONTINUOUS
 62
     7
100
AcDbLine
 10
0.8305476432000081
 20
355.0698539036
 30
0.0
 11
0.8456676431999877
 21
355.0311259036
 31
0.0
  0
LINE
  5
24E
330
1F
100
AcDbEntity
  8
0
  6
CONTINUOUS
 62
     7
100
AcDbLine
 10
0.8577436055999255
 20
354.9956738322
 30
0.0
 11
1.046912394399968
 21
355.0605981678
 31
0.0
  0
LINE
  5
24F
330
1F
100
AcDbEntity
  8
0
  6
CONTINUOUS
 62
     7
100
AcDbLine
 10
0.9073286761999699
 20
355.3450448155999
 30
0.0
 11
0.8871166761999505
 21
355.3735608155999
 31
0.0
  0
LINE
  5
250
330
1F
100
AcDbEntity
  8
0
  6
CONTINUOUS
 62
     7
100
AcDbLine
 10
1.080796274399942
 20
354.9275904247999
 30
0.0
 11
0.8836677255999459
 21
354.8938215752
 31
0.0
  0
LINE
  5
251
330
1F
100
AcDbEntity
  8
0
  6
CONTINUOUS
 62
     7
100
AcDbLine
 10
0.8321681521999413
 20
355.0659489218
 30
0.0
 11
1.015231847800002
 21
355.1464950782
 31
0.0
  0
LINE
  5
252
330
1F
100
AcDbEntity
  8
0
  6
CONTINUOUS
 62
     7
100
AcDbLine
 10
0.9961967175999842
 20
355.1895307956
 30
0.0
 11
0.977290717599999
 21
355.2279547956
 31
0.0
  0
LINE
  5
253
330
1F
100
AcDbEntity
  8
0
  6
CONTINUOUS
 62
     7
100
AcDbLine
 10
-1.099136939600009
 20
206.733959775
 30
0.0
 11
-0.899179060400046
 21
206.738064225
 31
0.0
  0
LINE
  5
254
330
1F
100
AcDbEntity
  8
0
  6
CONTINUOUS
 62
     7
100
AcDbLine
 10
1.093218107799998
 20
354.8448253609999
 30
0.0
 11
0.8940978922000187
 21
354.8260866389999
 31
0.0
  0
LINE
  5
255
330
1F
100
AcDbEntity
  8
0
  6
CONTINUOUS
 62
     7
100
AcDbLine
 10
1.097019366399943
 20
354.8036824124
 30
0.0
 11
0.8973366335999766
 21
354.7924215875999
 31
0.0
  0
LINE
  5
256
330
1F
100
AcDbEntity
  8
0
  6
CONTINUOUS
 62
     7
100
AcDbLine
 10
0.8149381521999621
 20
355.1051089218
 30
0.0
 11
0.8321681521999413
 21
355.0659489218
 31
0.0
  0
LINE
  5
257
330
1F
100
AcDbEntity
  8
0
  6
CONTINUOUS
 62
     7
100
AcDbLine
 10
1.080082515399983
 20
354.9313282366
 30
0.0
 11
1.07223451539995
 21
354.9685662366
 31
0.0
  0
LINE
  5
258
330
1F
100
AcDbEntity
  8
0
  6
CONTINUOUS
 62
     7
100
AcDbLine
 10
1.061143961999966
 20
355.0127612814
 30
0.0
 11
0.8672440379999813
 21
354.9637427186
 31
0.0
  0
LINE
  5
259
330
1F
100
AcDbEntity
  8
0
  6
CONTINUOUS
 62
     7
100
AcDbLine
 10
0.8976178921999978
 20
354.7886826389999
 30
0.0
 11
1.096738107799977
 21
354.807421361
 31
0.0
  0
LINE
  5
25A
330
1F
100
AcDbEntity
  8
0
  6
CONTINUOUS
 62
     7
100
AcDbLine
 10
1.0872242744
 20
354.8900664248
 30
0.0
 11
1.080796274399942
 21
354.9275904247999
 31
0.0
  0
LINE
  5
25B
330
1F
100
AcDbEntity
  8
0
  6
CONTINUOUS
 62
     7
100
AcDbLine
 10
-0.9000210603999914
 20
206.779084225
 30
0.0
 11
-1.099978939600066
 21
206.774979775
 31
0.0
  0
LINE
  5
25C
330
1F
100
AcDbEntity
  8
0
  6
CONTINUOUS
 62
     7
100
AcDbLine
 10
0.8973366335999766
 20
354.7924215875999
 30
0.0
 11
0.8994526335999731
 21
354.7548995876
 31
0.0
  0
LINE
  5
25D
330
1F
100
AcDbEntity
  8
0
  6
CONTINUOUS
 62
     7
100
AcDbLine
 10
1.048175991999967
 20
355.0566520032
 30
0.0
 11
0.8564800079999824
 21
354.9996199967999
 31
0.0
  0
LINE
  5
25E
330
1F
100
AcDbEntity
  8
0
  6
CONTINUOUS
 62
     7
100
AcDbLine
 10
0.8765334845999284
 20
354.9273217633999
 30
0.0
 11
0.8843814845999609
 21
354.8900837633999
 31
0.0
  0
LINE
  5
25F
330
1F
100
AcDbEntity
  8
0
  6
CONTINUOUS
 62
     7
100
AcDbLine
 10
0.8774340379999468
 20
354.9234347186
 30
0.0
 11
1.071333961999932
 21
354.9724532814
 31
0.0
  0
LINE
  5
260
330
1F
100
AcDbEntity
  8
0
  6
CONTINUOUS
 62
     7
100
AcDbLine
 10
0.8564800079999824
 20
354.9996199967999
 30
0.0
 11
0.8683460079999539
 21
354.9597359968
 31
0.0
  0
LINE
  5
261
330
1F
100
AcDbEntity
  8
0
  6
CONTINUOUS
 62
     7
100
AcDbLine
 10
1.033404394399973
 20
355.0999561678
 30
0.0
 11
0.84423560559993
 21
355.0350318322
 31
0.0
  0
LINE
  5
262
330
1F
100
AcDbEntity
  8
0
  6
CONTINUOUS
 62
     7
100
AcDbLine
 10
-1.099978939600066
 20
206.774979775
 30
0.0
 11
-1.099136939600009
 21
206.733959775
 31
0.0
  0
LINE
  5
263
330
1F
100
AcDbEntity
  8
0
  6
CONTINUOUS
 62
     7
100
AcDbLine
 10
1.09998234099995
 20
354.7248472272
 30
0.0
 11
1.099276340999988
 21
354.7624092272
 31
0.0
  0
LINE
  5
264
330
1F
100
AcDbEntity
  8
0
  6
CONTINUOUS
 62
     7
100
AcDbLine
 10
0.8456676431999877
 20
355.0311259036
 30
0.0
 11
1.031972356799971
 21
355.1038620964
 31
0.0
  0
LINE
  5
265
330
1F
100
AcDbEntity
  8
0
  6
CONTINUOUS
 62
     7
100
AcDbLine
 10
1.099135366399939
 20
354.7661604124
 30
0.0
 11
1.097019366399943
 21
354.8036824124
 31
0.0
  0
LINE
  5
266
330
1F
100
AcDbEntity
  8
0
  6
CONTINUOUS
 62
     7
100
AcDbLine
 10
0.998001847800023
 20
355.1856550782
 30
0.0
 11
0.8149381521999621
 21
355.1051089218
 31
0.0
  0
LINE
  5
267
330
1F
100
AcDbEntity
  8
0
  6
CONTINUOUS
 62
     7
100
AcDbLine
 10
1.099276340999988
 20
354.7624092272
 30
0.0
 11
0.8993116589999239
 21
354.7586507728
 31
0.0
  0
LINE
  5
268
330
1F
100
AcDbEntity
  8
0
  6
CONTINUOUS
 62
     7
100
AcDbLine
 10
0.8940978922000187
 20
354.8260866389999
 30
0.0
 11
0.8976178921999978
 21
354.7886826389999
 31
0.0
  0
LINE
  5
269
330
1F
100
AcDbEntity
  8
0
  6
CONTINUOUS
 62
     7
100
AcDbLine
 10
0.977290717599999
 20
355.2279547956
 30
0.0
 11
0.7978372823999602
 21
355.1396572044
 31
0.0
  0
LINE
  5
26A
330
1F
100
AcDbEntity
  8
0
  6
CONTINUOUS
 62
     7
100
AcDbLine
 10
1.031972356799971
 20
355.1038620964
 30
0.0
 11
1.016852356799935
 21
355.1425900963999
 31
0.0
  0
LINE
  5
26B
330
1F
100
AcDbEntity
  8
0
  6
CONTINUOUS
 62
     7
100
AcDbLine
 10
0.8900957256000042
 20
354.8562975752
 30
0.0
 11
1.0872242744
 21
354.8900664248
 31
0.0
  0
LINE
  5
26C
330
1F
100
AcDbEntity
  8
0
  6
CONTINUOUS
 62
     7
100
AcDbLine
 10
1.09279181699995
 20
354.8485894043999
 30
0.0
 11
1.087793816999971
 21
354.8863154044
 31
0.0
  0
LINE
  5
26D
330
1F
100
AcDbEntity
  8
0
  6
CONTINUOUS
 62
     7
100
AcDbLine
 10
1.07223451539995
 20
354.9685662366
 30
0.0
 11
0.8765334845999284
 21
354.9273217633999
 31
0.0
  0
LINE
  5
26E
330
1F
100
AcDbEntity
  8
0
  6
CONTINUOUS
 62
     7
100
AcDbLine
 10
1.071333961999932
 20
354.9724532814
 30
0.0
 11
1.061143961999966
 21
355.0127612814
 31
0.0
  0
LINE
  5
26F
330
1F
100
AcDbEntity
  8
0
  6
CONTINUOUS
 62
     7
100
AcDbLine
 10
0.6071646902000016
 20
355.6404918621999
 30
0.0
 11
0.5710346901999785
 21
355.6634158622001
 31
0.0
  0
LINE
  5
270
330
1F
100
AcDbEntity
  8
0
  6
CONTINUOUS
 62
     7
100
AcDbLine
 10
0.7546082617999605
 20
355.5235534214
 30
0.0
 11
0.6146677381999588
 21
355.3806665785999
 31
0.0
  0
LINE
  5
271
330
1F
100
AcDbEntity
  8
0
  6
CONTINUOUS
 62
     7
100
AcDbLine
 10
0.5710346901999785
 20
355.6634158622001
 30
0.0
 11
0.4638853097999607
 21
355.4945401377999
 31
0.0
  0
LINE
  5
272
330
1F
100
AcDbEntity
  8
0
  6
CONTINUOUS
 62
     7
100
AcDbLine
 10
0.8850513823999706
 20
355.3763695326
 30
0.0
 11
0.8638653823999642
 21
355.4041535326
 31
0.0
  0
LINE
  5
273
330
1F
100
AcDbEntity
  8
0
  6
CONTINUOUS
 62
     7
100
AcDbLine
 10
0.4964555903999579
 20
355.4739829378
 30
0.0
 11
0.5315395903999209
 21
355.4495589378
 31
0.0
  0
LINE
  5
274
330
1F
100
AcDbEntity
  8
0
  6
CONTINUOUS
 62
     7
100
AcDbLine
 10
0.4638853097999607
 20
355.4945401377999
 30
0.0
 11
0.5000153097999838
 21
355.4716161378
 31
0.0
  0
LINE
  5
275
330
1F
100
AcDbEntity
  8
0
  6
CONTINUOUS
 62
     7
100
AcDbLine
 10
0.5000153097999838
 20
355.4716161378
 30
0.0
 11
0.6071646902000016
 21
355.6404918621999
 31
0.0
  0
LINE
  5
276
330
1F
100
AcDbEntity
  8
0
  6
CONTINUOUS
 62
     7
100
AcDbLine
 10
0.5303036327999333
 20
355.6869868907999
 30
0.0
 11
0.4304643671999564
 21
355.5136891091999
 31
0.0
  0
LINE
  5
277
330
1F
100
AcDbEntity
  8
0
  6
CONTINUOUS
 62
     7
100
AcDbLine
 10
0.4675403671999812
 20
355.4923291092
 30
0.0
 11
0.5673796327999581
 21
355.6656268908
 31
0.0
  0
LINE
  5
278
330
1F
100
AcDbEntity
  8
0
  6
CONTINUOUS
 62
     7
100
AcDbLine
 10
0.6635395329999683
 20
355.3312794856
 30
0.0
 11
0.6868955329999427
 21
355.3047554856
 31
0.0
  0
LINE
  5
279
330
1F
100
AcDbEntity
  8
0
  6
CONTINUOUS
 62
     7
100
AcDbLine
 10
0.6822883820000181
 20
355.5860567182
 30
0.0
 11
0.6492263819999899
 21
355.6112127182
 31
0.0
  0
LINE
  5
27A
330
1F
100
AcDbEntity
  8
0
  6
CONTINUOUS
 62
     7
100
AcDbLine
 10
0.5265609567999818
 20
355.6890379924
 30
0.0
 11
0.4886429567999562
 21
355.7087779924
 31
0.0
  0
LINE
  5
27B
330
1F
100
AcDbEntity
  8
0
  6
CONTINUOUS
 62
     7
100
AcDbLine
 10
0.4304643671999564
 20
355.5136891091999
 30
0.0
 11
0.4675403671999812
 21
355.4923291092
 31
0.0
  0
LINE
  5
27C
330
1F
100
AcDbEntity
  8
0
  6
CONTINUOUS
 62
     7
100
AcDbLine
 10
0.4886429567999562
 20
355.7087779924
 30
0.0
 11
0.3962890431999933
 21
355.5313780075999
 31
0.0
  0
LINE
  5
27D
330
1F
100
AcDbEntity
  8
0
  6
CONTINUOUS
 62
     7
100
AcDbLine
 10
0.8871166761999505
 20
355.3735608155999
 30
0.0
 11
0.7239473237999894
 21
355.2579071844
 31
0.0
  0
LINE
  5
27E
330
1F
100
AcDbEntity
  8
0
  6
CONTINUOUS
 62
     7
100
AcDbLine
 10
0.6855436535999626
 20
355.5834712944001
 30
0.0
 11
0.5579283463999496
 21
355.4294767056
 31
0.0
  0
LINE
  5
27F
330
1F
100
AcDbEntity
  8
0
  6
CONTINUOUS
 62
     7
100
AcDbLine
 10
0.8112595975999781
 20
355.4660619212
 30
0.0
 11
0.7869875975999863
 21
355.4917379211999
 31
0.0
  0
LINE
  5
280
330
1F
100
AcDbEntity
  8
0
  6
CONTINUOUS
 62
     7
100
AcDbLine
 10
0.7048266176000184
 20
355.2828824673999
 30
0.0
 11
0.7260126175999693
 21
355.2550984674
 31
0.0
  0
LINE
  5
281
330
1F
100
AcDbEntity
  8
0
  6
CONTINUOUS
 62
     7
100
AcDbLine
 10
0.7175576535999872
 20
355.5569412944
 30
0.0
 11
0.6855436535999626
 21
355.5834712944001
 31
0.0
  0
LINE
  5
282
330
1F
100
AcDbEntity
  8
0
  6
CONTINUOUS
 62
     7
100
AcDbLine
 10
0.528121617999977
 20
355.4520472818
 30
0.0
 11
0.5611836179999496
 21
355.4268912818
 31
0.0
  0
LINE
  5
283
330
1F
100
AcDbEntity
  8
0
  6
CONTINUOUS
 62
     7
100
AcDbLine
 10
0.6176952985999518
 20
355.3778222168
 30
0.0
 11
0.7515807013999676
 21
355.5263977831999
 31
0.0
  0
LINE
  5
284
330
1F
100
AcDbEntity
  8
0
  6
CONTINUOUS
 62
     7
100
AcDbLine
 10
0.610724409599972
 20
355.6381250621999
 30
0.0
 11
0.4964555903999579
 21
355.4739829378
 31
0.0
  0
LINE
  5
285
330
1F
100
AcDbEntity
  8
0
  6
CONTINUOUS
 62
     7
100
AcDbLine
 10
0.5673796327999581
 20
355.6656268908
 30
0.0
 11
0.5303036327999333
 21
355.6869868907999
 31
0.0
  0
LINE
  5
286
330
1F
100
AcDbEntity
  8
0
  6
CONTINUOUS
 62
     7
100
AcDbLine
 10
0.6868955329999427
 20
355.3047554856
 30
0.0
 11
0.836996466999973
 21
355.4369285144
 31
0.0
  0
LINE
  5
287
330
1F
100
AcDbEntity
  8
0
  6
CONTINUOUS
 62
     7
100
AcDbLine
 10
0.6492263819999899
 20
355.6112127182
 30
0.0
 11
0.528121617999977
 21
355.4520472818
 31
0.0
  0
LINE
  5
288
330
1F
100
AcDbEntity
  8
0
  6
CONTINUOUS
 62
     7
100
AcDbLine
 10
0.7869875975999863
 20
355.4917379211999
 30
0.0
 11
0.6416484023999414
 21
355.3543460787999
 31
0.0
  0
LINE
  5
289
330
1F
100
AcDbEntity
  8
0
  6
CONTINUOUS
 62
     7
100
AcDbLine
 10
0.7441593237999533
 20
355.2293911844
 30
0.0
 11
0.9073286761999699
 21
355.3450448155999
 31
0.0
  0
LINE
  5
28A
330
1F
100
AcDbEntity
  8
0
  6
CONTINUOUS
 62
     7
100
AcDbLine
 10
0.8392806607999681
 20
355.4342403458
 30
0.0
 11
0.6846113391999475
 21
355.3074436542
 31
0.0
  0
LINE
  5
28B
330
1F
100
AcDbEntity
  8
0
  6
CONTINUOUS
 62
     7
100
AcDbLine
 10
0.7260126175999693
 20
355.2550984674
 30
0.0
 11
0.8850513823999706
 21
355.3763695326
 31
0.0
  0
LINE
  5
28C
330
1F
100
AcDbEntity
  8
0
  6
CONTINUOUS
 62
     7
100
AcDbLine
 10
0.8638653823999642
 20
355.4041535326
 30
0.0
 11
0.7048266176000184
 21
355.2828824673999
 31
0.0
  0
LINE
  5
28D
330
1F
100
AcDbEntity
  8
0
  6
CONTINUOUS
 62
     7
100
AcDbLine
 10
0.836996466999973
 20
355.4369285144
 30
0.0
 11
0.8136404669999986
 21
355.4634525144
 31
0.0
  0
LINE
  5
28E
330
1F
100
AcDbEntity
  8
0
  6
CONTINUOUS
 62
     7
100
AcDbLine
 10
0.6146677381999588
 20
355.3806665785999
 30
0.0
 11
0.6443477381999907
 21
355.3515985786
 31
0.0
  0
LINE
  5
28F
330
1F
100
AcDbEntity
  8
0
  6
CONTINUOUS
 62
     7
100
AcDbLine
 10
0.6443477381999907
 20
355.3515985786
 30
0.0
 11
0.7842882617999369
 21
355.4944854213999
 31
0.0
  0
LINE
  5
290
330
1F
100
AcDbEntity
  8
0
  6
CONTINUOUS
 62
     7
100
AcDbLine
 10
0.5579283463999496
 20
355.4294767056
 30
0.0
 11
0.5899423463999742
 21
355.4029467056
 31
0.0
  0
LINE
  5
291
330
1F
100
AcDbEntity
  8
0
  6
CONTINUOUS
 62
     7
100
AcDbLine
 10
0.6846113391999475
 20
355.3074436542
 30
0.0
 11
0.707011339199981
 21
355.2801196542
 31
0.0
  0
LINE
  5
292
330
1F
100
AcDbEntity
  8
0
  6
CONTINUOUS
 62
     7
100
AcDbLine
 10
0.7206927014000164
 20
355.5542317831999
 30
0.0
 11
0.5868072985999451
 21
355.4056562168
 31
0.0
  0
LINE
  5
293
330
1F
100
AcDbEntity
  8
0
  6
CONTINUOUS
 62
     7
100
AcDbLine
 10
0.6416484023999414
 20
355.3543460787999
 30
0.0
 11
0.6659204023999887
 21
355.3286700788
 31
0.0
  0
LINE
  5
294
330
1F
100
AcDbEntity
  8
0
  6
CONTINUOUS
 62
     7
100
AcDbLine
 10
0.5611836179999496
 20
355.4268912818
 30
0.0
 11
0.6822883820000181
 21
355.5860567182
 31
0.0
  0
LINE
  5
295
330
1F
100
AcDbEntity
  8
0
  6
CONTINUOUS
 62
     7
100
AcDbLine
 10
0.6458084095999905
 20
355.6137010622
 30
0.0
 11
0.610724409599972
 21
355.6381250621999
 31
0.0
  0
LINE
  5
296
330
1F
100
AcDbEntity
  8
0
  6
CONTINUOUS
 62
     7
100
AcDbLine
 10
0.8616806608000016
 20
355.4069163458
 30
0.0
 11
0.8392806607999681
 21
355.4342403458
 31
0.0
  0
LINE
  5
297
330
1F
100
AcDbEntity
  8
0
  6
CONTINUOUS
 62
     7
100
AcDbLine
 10
0.707011339199981
 20
355.2801196542
 30
0.0
 11
0.8616806608000016
 21
355.4069163458
 31
0.0
  0
LINE
  5
298
330
1F
100
AcDbEntity
  8
0
  6
CONTINUOUS
 62
     7
100
AcDbLine
 10
0.8136404669999986
 20
355.4634525144
 30
0.0
 11
0.6635395329999683
 21
355.3312794856
 31
0.0
  0
LINE
  5
299
330
1F
100
AcDbEntity
  8
0
  6
CONTINUOUS
 62
     7
100
AcDbLine
 10
0.7515807013999676
 20
355.5263977831999
 30
0.0
 11
0.7206927014000164
 21
355.5542317831999
 31
0.0
  0
LINE
  5
29A
330
1F
100
AcDbEntity
  8
0
  6
CONTINUOUS
 62
     7
100
AcDbLine
 10
0.5899423463999742
 20
355.4029467056
 30
0.0
 11
0.7175576535999872
 21
355.5569412944
 31
0.0
  0
LINE
  5
29B
330
1F
100
AcDbEntity
  8
0
  6
CONTINUOUS
 62
     7
100
AcDbLine
 10
0.6659204023999887
 20
355.3286700788
 30
0.0
 11
0.8112595975999781
 21
355.4660619212
 31
0.0
  0
LINE
  5
29C
330
1F
100
AcDbEntity
  8
0
  6
CONTINUOUS
 62
     7
100
AcDbLine
 10
0.7842882617999369
 20
355.4944854213999
 30
0.0
 11
0.7546082617999605
 21
355.5235534214
 31
0.0
  0
LINE
  5
29D
330
1F
100
AcDbEntity
  8
0
  6
CONTINUOUS
 62
     7
100
AcDbLine
 10
0.5315395903999209
 20
355.4495589378
 30
0.0
 11
0.6458084095999905
 21
355.6137010622
 31
0.0
  0
LINE
  5
29E
330
1F
100
AcDbEntity
  8
0
  6
CONTINUOUS
 62
     7
100
AcDbLine
 10
0.7239473237999894
 20
355.2579071844
 30
0.0
 11
0.7441593237999533
 21
355.2293911844
 31
0.0
  0
LINE
  5
29F
330
1F
100
AcDbEntity
  8
0
  6
CONTINUOUS
 62
     7
100
AcDbLine
 10
0.5868072985999451
 20
355.4056562168
 30
0.0
 11
0.6176952985999518
 21
355.3778222168
 31
0.0
  0
LINE
  5
2A0
330
1F
100
AcDbEntity
  8
0
  6
CONTINUOUS
 62
     7
100
AcDbLine
 10
-0.8703909409999988
 20
354.9520858936
 30
0.0
 11
-0.8588849410000043
 21
354.9920638935999
 31
0.0
  0
LINE
  5
2A1
330
1F
100
AcDbEntity
  8
0
  6
CONTINUOUS
 62
     7
100
AcDbLine
 10
-14.00000000000001
 20
376.75
 30
0.0
 11
-14.00000000000001
 21
183.25
 31
0.0
  0
LINE
  5
2A2
330
1F
100
AcDbEntity
  8
0
  6
CONTINUOUS
 62
     7
100
AcDbLine
 10
-9.000000000000007
 20
376.75
 30
0.0
 11
-9.000000000000007
 21
183.25
 31
0.0
  0
LINE
  5
2A3
330
1F
100
AcDbEntity
  8
0
  6
CONTINUOUS
 62
     7
100
AcDbLine
 10
-1.06258905900003
 20
355.0074021064
 30
0.0
 11
-0.8703909409999988
 21
354.9520858936
 31
0.0
  0
LINE
  5
2A4
330
1F
100
AcDbEntity
  8
0
  6
CONTINUOUS
 62
     7
100
AcDbLine
 10
42.99999999999998
 20
202.25
 30
0.0
 11
42.99999999999998
 21
359.2499999999999
 31
0.0
  0
LINE
  5
2A5
330
1F
100
AcDbEntity
  8
0
  6
CONTINUOUS
 62
     7
100
AcDbLine
 10
-0.8791646126000141
 20
354.9156749795999
 30
0.0
 11
-0.8693266126000299
 21
354.9560949796
 31
0.0
  0
LINE
  5
2A6
330
1F
100
AcDbEntity
  8
0
  6
CONTINUOUS
 62
     7
100
AcDbLine
 10
-1.090445567200005
 20
354.8675013747999
 30
0.0
 11
-1.095237567200036
 21
354.8249593748
 31
0.0
  0
LINE
  5
2A7
330
1F
100
AcDbEntity
  8
0
  6
CONTINUOUS
 62
     7
100
AcDbLine
 10
28.99999999999997
 20
354.75
 30
0.0
 11
28.99999999999997
 21
206.75
 31
0.0
  0
LINE
  5
2A8
330
1F
100
AcDbEntity
  8
0
  6
CONTINUOUS
 62
     7
100
AcDbLine
 10
-0.8782673422000342
 20
354.9197253416
 30
0.0
 11
-1.074388657800018
 21
354.9589226583999
 31
0.0
  0
LINE
  5
2A9
330
1F
100
AcDbEntity
  8
0
  6
CONTINUOUS
 62
     7
100
AcDbLine
 10
48.99999999999999
 20
361.75
 30
0.0
 11
48.99999999999999
 21
199.75
 31
0.0
  0
LINE
  5
2AA
330
1F
100
AcDbEntity
  8
0
  6
CONTINUOUS
 62
     7
100
AcDbLine
 10
-1.09562439940003
 20
354.8207130678001
 30
0.0
 11
-1.098598399400019
 21
354.7780070677999
 31
0.0
  0
CIRCLE
  5
2AB
330
1F
100
AcDbEntity
  8
0
  6
CONTINUOUS
 62
     7
100
AcDbCircle
 10
-190.75
 20
280.7500000000001
 30
0.0
 40
70.0
  0
LINE
  5
2AC
330
1F
100
AcDbEntity
  8
0
  6
CONTINUOUS
 62
     7
100
AcDbLine
 10
-0.8922717938000257
 20
354.8408767311999
 30
0.0
 11
-0.8856717938000025
 21
354.8831347312
 31
0.0
  0
LINE
  5
2AD
330
1F
100
AcDbEntity
  8
0
  6
CONTINUOUS
 62
     7
100
AcDbLine
 10
-1.049852329800038
 20
355.0513447765999
 30
0.0
 11
-0.8601156702000012
 21
354.9880992234
 31
0.0
  0
LINE
  5
2AE
330
1F
100
AcDbEntity
  8
0
  6
CENTER
 62
     1
100
AcDbLine
 10
-190.75
 20
197.0
 30
0.0
 11
-190.75
 21
364.4999999999999
 31
0.0
  0
LINE
  5
2AF
330
1F
100
AcDbEntity
  8
0
  6
CONTINUOUS
 62
     7
100
AcDbLine
 10
-1.099950098600033
 20
354.7309833632
 30
0.0
 11
-0.9000219014000388
 21
354.7256246368
 31
0.0
  0
LINE
  5
2B0
330
1F
100
AcDbEntity
  8
0
  6
CONTINUOUS
 62
     7
100
AcDbLine
 10
-0.8988759014000314
 20
354.7683806367999
 30
0.0
 11
-1.098804098600026
 21
354.7737393632
 31
0.0
  0
LINE
  5
2B1
330
1F
100
AcDbEntity
  8
0
  6
CONTINUOUS
 62
     7
100
AcDbLine
 10
8.999999999999952
 20
354.75
 30
0.0
 11
8.999999999999952
 21
206.75
 31
0.0
  0
LINE
  5
2B2
330
1F
100
AcDbEntity
  8
0
  6
CONTINUOUS
 62
     7
100
AcDbLine
 10
129.0
 20
376.75
 30
0.0
 11
129.0
 21
183.25
 31
0.0
  0
LINE
  5
2B3
330
1F
100
AcDbEntity
  8
0
  6
CONTINUOUS
 62
     7
100
AcDbLine
 10
40.99873599999998
 20
206.699748
 30
0.0
 11
40.99873599999998
 21
354.800252
 31
0.0
  0
LINE
  5
2B4
330
1F
100
AcDbEntity
  8
0
  6
CONTINUOUS
 62
     7
100
AcDbLine
 10
-0.8469716702000363
 20
355.0275312234
 30
0.0
 11
-1.036708329800018
 21
355.0907767766
 31
0.0
  0
LINE
  5
2B5
330
1F
100
AcDbEntity
  8
0
  6
CONTINUOUS
 62
     7
100
AcDbLine
 10
-1.082534657800061
 20
354.9181646584
 30
0.0
 11
-0.8864133422000209
 21
354.8789673415999
 31
0.0
  0
LINE
  5
2B6
330
1F
100
AcDbEntity
  8
0
  6
CONTINUOUS
 62
     7
100
AcDbLine
 10
-1.098598399400019
 20
354.7780070677999
 30
0.0
 11
-0.899081600600038
 21
354.7641129321999
 31
0.0
  0
LINE
  5
2B7
330
1F
100
AcDbEntity
  8
0
  6
CONTINUOUS
 62
     7
100
AcDbLine
 10
-1.073491387400038
 20
354.9629730204
 30
0.0
 11
-0.8791646126000141
 21
354.9156749795999
 31
0.0
  0
LINE
  5
2B8
330
1F
100
AcDbEntity
  8
0
  6
CONTINUOUS
 62
     7
100
AcDbLine
 10
-0.8999863442000211
 20
354.728041632
 30
0.0
 11
-1.099985655800051
 21
354.728566368
 31
0.0
  0
LINE
  5
2B9
330
1F
100
AcDbEntity
  8
0
  6
CONTINUOUS
 62
     7
100
AcDbLine
 10
-9.000000000000007
 20
278.7500000000001
 30
0.0
 11
5.057057999999947
 21
278.7500000000001
 31
0.0
  0
LINE
  5
2BA
330
1F
100
AcDbEntity
  8
0
  6
CONTINUOUS
 62
     7
100
AcDbLine
 10
-1.095237567200036
 20
354.8249593748
 30
0.0
 11
-0.8964944328000435
 21
354.8025726252
 31
0.0
  0
LINE
  5
2BB
330
1F
100
AcDbEntity
  8
0
  6
CONTINUOUS
 62
     7
100
AcDbLine
 10
-0.8588849410000043
 20
354.9920638935999
 30
0.0
 11
-1.051083059000035
 21
355.0473801064
 31
0.0
  0
LINE
  5
2BC
330
1F
100
AcDbEntity
  8
0
  6
CONTINUOUS
 62
     7
100
AcDbLine
 10
-0.8864133422000209
 20
354.8789673415999
 30
0.0
 11
-0.8782673422000342
 21
354.9197253416
 31
0.0
  0
LINE
  5
2BD
330
1F
100
AcDbEntity
  8
0
  6
CONTINUOUS
 62
     7
100
AcDbLine
 10
109.0
 20
361.75
 30
0.0
 11
109.0
 21
199.75
 31
0.0
  0
LINE
  5
2BE
330
1F
100
AcDbEntity
  8
0
  6
CENTER
 62
     1
100
AcDbLine
 10
-264.7500000000001
 20
280.7500000000001
 30
0.0
 11
-116.75
 21
280.7500000000001
 31
0.0
  0
LINE
  5
2BF
330
1F
100
AcDbEntity
  8
0
  6
CONTINUOUS
 62
     7
100
AcDbLine
 10
-0.8601156702000012
 20
354.9880992234
 30
0.0
 11
-0.8469716702000363
 21
355.0275312234
 31
0.0
  0
LINE
  5
2C0
330
1F
100
AcDbEntity
  8
0
  6
CONTINUOUS
 62
     7
100
AcDbLine
 10
-0.8693266126000299
 20
354.9560949796
 30
0.0
 11
-1.063653387399999
 21
355.0033930204
 31
0.0
  0
LINE
  5
2C1
330
1F
100
AcDbEntity
  8
0
  6
CONTINUOUS
 62
     7
100
AcDbLine
 10
-0.899081600600038
 20
354.7641129321999
 30
0.0
 11
-0.8961076005999935
 21
354.8068189322
 31
0.0
  0
LINE
  5
2C2
330
1F
100
AcDbEntity
  8
0
  6
CONTINUOUS
 62
     7
100
AcDbLine
 10
78.99999999999996
 20
361.75
 30
0.0
 11
78.99999999999996
 21
199.75
 31
0.0
  0
LINE
  5
2C3
330
1F
100
AcDbEntity
  8
0
  6
CONTINUOUS
 62
     7
100
AcDbLine
 10
18.99999999999996
 20
354.75
 30
0.0
 11
18.99999999999996
 21
206.75
 31
0.0
  0
LINE
  5
2C4
330
1F
100
AcDbEntity
  8
0
  6
CONTINUOUS
 62
     7
100
AcDbLine
 10
-0.8856717938000025
 20
354.8831347312
 30
0.0
 11
-1.083276206200079
 21
354.9139972688
 31
0.0
  0
LINE
  5
2C5
330
1F
100
AcDbEntity
  8
0
  6
CONTINUOUS
 62
     7
100
AcDbLine
 10
-0.8964944328000435
 20
354.8025726252
 30
0.0
 11
-0.8917024328000123
 21
354.8451146252
 31
0.0
  0
LINE
  5
2C6
330
1F
100
AcDbEntity
  8
0
  6
CONTINUOUS
 62
     7
100
AcDbLine
 10
-1.083276206200079
 20
354.9139972688
 30
0.0
 11
-1.089876206200047
 21
354.8717392687999
 31
0.0
  0
LINE
  5
2C7
330
1F
100
AcDbEntity
  8
0
  6
CONTINUOUS
 62
     7
100
AcDbLine
 10
-0.8961076005999935
 20
354.8068189322
 30
0.0
 11
-1.09562439940003
 21
354.8207130678001
 31
0.0
  0
LINE
  5
2C8
330
1F
100
AcDbEntity
  8
0
  6
CONTINUOUS
 62
     7
100
AcDbLine
 10
-1.063653387399999
 20
355.0033930204
 30
0.0
 11
-1.073491387400038
 21
354.9629730204
 31
0.0
  0
LINE
  5
2C9
330
1F
100
AcDbEntity
  8
0
  6
CONTINUOUS
 62
     7
100
AcDbLine
 10
-1.098804098600026
 20
354.7737393632
 30
0.0
 11
-1.099950098600033
 21
354.7309833632
 31
0.0
  0
LINE
  5
2CA
330
1F
100
AcDbEntity
  8
0
  6
CONTINUOUS
 62
     7
100
AcDbLine
 10
-0.9000219014000388
 20
354.7256246368
 30
0.0
 11
-0.8988759014000314
 21
354.7683806367999
 31
0.0
  0
LINE
  5
2CB
330
1F
100
AcDbEntity
  8
0
  6
CONTINUOUS
 62
     7
100
AcDbLine
 10
-1.099985655800051
 20
354.728566368
 30
0.0
 11
-1.099999655800044
 21
354.723230368
 31
0.0
  0
LINE
  5
2CC
330
1F
100
AcDbEntity
  8
0
  6
CONTINUOUS
 62
     7
100
AcDbLine
 10
-0.9000003442000137
 20
354.722705632
 30
0.0
 11
-0.8999863442000211
 21
354.728041632
 31
0.0
  0
LINE
  5
2CD
330
1F
100
AcDbEntity
  8
0
  6
CONTINUOUS
 62
     7
100
AcDbLine
 10
38.99999999999998
 20
354.75
 30
0.0
 11
38.99999999999998
 21
206.75
 31
0.0
  0
LINE
  5
2CE
330
1F
100
AcDbEntity
  8
0
  6
CONTINUOUS
 62
     7
100
AcDbLine
 10
-1.099999655800044
 20
354.723230368
 30
0.0
 11
-0.9000003442000137
 21
354.722705632
 31
0.0
  0
LINE
  5
2CF
330
1F
100
AcDbEntity
  8
0
  6
CONTINUOUS
 62
     7
100
AcDbLine
 10
119.0
 20
361.75
 30
0.0
 11
119.0
 21
199.75
 31
0.0
  0
LINE
  5
2D0
330
1F
100
AcDbEntity
  8
0
  6
CONTINUOUS
 62
     7
100
AcDbLine
 10
-1.051083059000035
 20
355.0473801064
 30
0.0
 11
-1.06258905900003
 21
355.0074021064
 31
0.0
  0
LINE
  5
2D1
330
1F
100
AcDbEntity
  8
0
  6
CONTINUOUS
 62
     7
100
AcDbLine
 10
88.99999999999997
 20
361.75
 30
0.0
 11
88.99999999999997
 21
199.75
 31
0.0
  0
LINE
  5
2D2
330
1F
100
AcDbEntity
  8
0
  6
CONTINUOUS
 62
     7
100
AcDbLine
 10
-1.074388657800018
 20
354.9589226583999
 30
0.0
 11
-1.082534657800061
 21
354.9181646584
 31
0.0
  0
LINE
  5
2D3
330
1F
100
AcDbEntity
  8
0
  6
CONTINUOUS
 62
     7
100
AcDbLine
 10
68.99999999999994
 20
361.75
 30
0.0
 11
68.99999999999994
 21
199.75
 31
0.0
  0
LINE
  5
2D4
330
1F
100
AcDbEntity
  8
0
  6
CONTINUOUS
 62
     7
100
AcDbLine
 10
-0.8917024328000123
 20
354.8451146252
 30
0.0
 11
-1.090445567200005
 21
354.8675013747999
 31
0.0
  0
LINE
  5
2D5
330
1F
100
AcDbEntity
  8
0
  6
CONTINUOUS
 62
     7
100
AcDbLine
 10
-9.000000000000007
 20
282.7500000000001
 30
0.0
 11
5.057057999999947
 21
282.7500000000001
 31
0.0
  0
LINE
  5
2D6
330
1F
100
AcDbEntity
  8
0
  6
CONTINUOUS
 62
     7
100
AcDbLine
 10
-1.089876206200047
 20
354.8717392687999
 30
0.0
 11
-0.8922717938000257
 21
354.8408767311999
 31
0.0
  0
LINE
  5
2D7
330
1F
100
AcDbEntity
  8
0
  6
CONTINUOUS
 62
     7
100
AcDbLine
 10
133.9999999999999
 20
376.75
 30
0.0
 11
133.9999999999999
 21
183.25
 31
0.0
  0
LINE
  5
2D8
330
1F
100
AcDbEntity
  8
0
  6
CONTINUOUS
 62
     7
100
AcDbLine
 10
0.2927614937999756
 20
355.5743838172
 30
0.0
 11
0.33175549379999
 21
355.5599458171999
 31
0.0
  0
LINE
  5
2D9
330
1F
100
AcDbEntity
  8
0
  6
CONTINUOUS
 62
     7
100
AcDbLine
 10
0.1446033795999835
 20
355.6116539877999
 30
0.0
 11
0.186661379599995
 21
355.6037699878
 31
0.0
  0
LINE
  5
2DA
330
1F
100
AcDbEntity
  8
0
  6
CONTINUOUS
 62
     7
100
AcDbLine
 10
0.4342070431999634
 20
355.5116380076
 30
0.0
 11
0.5265609567999818
 21
355.6890379924
 31
0.0
  0
LINE
  5
2DB
330
1F
100
AcDbEntity
  8
0
  6
CONTINUOUS
 62
     7
100
AcDbLine
 10
0.1772317009999802
 20
355.8089281348
 30
0.0
 11
0.1349157009999935
 21
355.8150001348
 31
0.0
  0
LINE
  5
2DC
330
1F
100
AcDbEntity
  8
0
  6
CONTINUOUS
 62
     7
100
AcDbLine
 10
0.261217813600001
 20
355.5845980451999
 30
0.0
 11
0.3147021863999511
 21
355.7773139547999
 31
0.0
  0
LINE
  5
2DD
330
1F
100
AcDbEntity
  8
0
  6
CONTINUOUS
 62
     7
100
AcDbLine
 10
0.3582808969999629
 20
355.7633016402
 30
0.0
 11
0.3187568970000054
 21
355.7760956402
 31
0.0
  0
LINE
  5
2DE
330
1F
100
AcDbEntity
  8
0
  6
CONTINUOUS
 62
     7
100
AcDbLine
 10
0.362458021599954
 20
355.5471084104
 30
0.0
 11
0.4000860215999658
 21
355.5295024104
 31
0.0
  0
LINE
  5
2DF
330
1F
100
AcDbEntity
  8
0
  6
CONTINUOUS
 62
     7
100
AcDbLine
 10
0.2235106203999915
 20
355.8003460121999
 30
0.0
 11
0.18145262039998
 21
355.8082300122001
 31
0.0
  0
LINE
  5
2E0
330
1F
100
AcDbEntity
  8
0
  6
CONTINUOUS
 62
     7
100
AcDbLine
 10
0.2276852691999731
 20
355.7994708998
 30
0.0
 11
0.1824867307999578
 21
355.6046451001999
 31
0.0
  0
LINE
  5
2E1
330
1F
100
AcDbEntity
  8
0
  6
CONTINUOUS
 62
     7
100
AcDbLine
 10
0.269367269200016
 20
355.7898008998
 30
0.0
 11
0.2276852691999731
 21
355.7994708998
 31
0.0
  0
LINE
  5
2E2
330
1F
100
AcDbEntity
  8
0
  6
CONTINUOUS
 62
     7
100
AcDbLine
 10
0.1349157009999935
 20
355.8150001348
 30
0.0
 11
0.1065082989999411
 21
355.6170278652
 31
0.0
  0
LINE
  5
2E3
330
1F
100
AcDbEntity
  8
0
  6
CONTINUOUS
 62
     7
100
AcDbLine
 10
-0.0476385386000144
 20
355.8222763119999
 30
0.0
 11
-0.0427654614000295
 21
355.622335688
 31
0.0
  0
LINE
  5
2E4
330
1F
100
AcDbEntity
  8
0
  6
CONTINUOUS
 62
     7
100
AcDbLine
 10
0.2200258135999777
 20
355.5960300452
 30
0.0
 11
0.261217813600001
 21
355.5845980451999
 31
0.0
  0
LINE
  5
2E5
330
1F
100
AcDbEntity
  8
0
  6
CONTINUOUS
 62
     7
100
AcDbLine
 10
0.186661379599995
 20
355.6037699878
 30
0.0
 11
0.2235106203999915
 21
355.8003460121999
 31
0.0
  0
LINE
  5
2E6
330
1F
100
AcDbEntity
  8
0
  6
CONTINUOUS
 62
     7
100
AcDbLine
 10
-0.0012434614000134
 20
355.623347688
 30
0.0
 11
-0.0061165385999984
 21
355.823288312
 31
0.0
  0
LINE
  5
2E7
330
1F
100
AcDbEntity
  8
0
  6
CONTINUOUS
 62
     7
100
AcDbLine
 10
-0.0518653923999857
 20
355.8220837489999
 30
0.0
 11
-0.0945113924000762
 21
355.819235749
 31
0.0
  0
LINE
  5
2E8
330
1F
100
AcDbEntity
  8
0
  6
CONTINUOUS
 62
     7
100
AcDbLine
 10
-0.0019625032000037
 20
355.82330325
 30
0.0
 11
-0.0053974968000636
 21
355.62333275
 31
0.0
  0
LINE
  5
2E9
330
1F
100
AcDbEntity
  8
0
  6
CONTINUOUS
 62
     7
100
AcDbLine
 10
0.33175549379999
 20
355.5599458171999
 30
0.0
 11
0.4012005061999613
 21
355.7475021827999
 31
0.0
  0
LINE
  5
2EA
330
1F
100
AcDbEntity
  8
0
  6
CONTINUOUS
 62
     7
100
AcDbLine
 10
0.0693846157999722
 20
355.6206693953999
 30
0.0
 11
0.1107106157999249
 21
355.6165153954
 31
0.0
  0
LINE
  5
2EB
330
1F
100
AcDbEntity
  8
0
  6
CONTINUOUS
 62
     7
100
AcDbLine
 10
0.3622065061999469
 20
355.7619401827999
 30
0.0
 11
0.2927614937999756
 21
355.5743838172
 31
0.0
  0
LINE
  5
2EC
330
1F
100
AcDbEntity
  8
0
  6
CONTINUOUS
 62
     7
100
AcDbLine
 10
0.089387384199946
 20
355.8196666045999
 30
0.0
 11
0.0693846157999722
 21
355.6206693953999
 31
0.0
  0
LINE
  5
2ED
330
1F
100
AcDbEntity
  8
0
  6
CONTINUOUS
 62
     7
100
AcDbLine
 10
-0.0811846076000378
 20
355.619680251
 30
0.0
 11
-0.0385386076000027
 21
355.6225282509999
 31
0.0
  0
LINE
  5
2EE
330
1F
100
AcDbEntity
  8
0
  6
CONTINUOUS
 62
     7
100
AcDbLine
 10
-0.0385386076000027
 20
355.6225282509999
 30
0.0
 11
-0.0518653923999857
 21
355.8220837489999
 31
0.0
  0
LINE
  5
2EF
330
1F
100
AcDbEntity
  8
0
  6
CONTINUOUS
 62
     7
100
AcDbLine
 10
0.3187568970000054
 20
355.7760956402
 30
0.0
 11
0.2571631029999466
 21
355.5858163598
 31
0.0
  0
LINE
  5
2F0
330
1F
100
AcDbEntity
  8
0
  6
CONTINUOUS
 62
     7
100
AcDbLine
 10
-0.1412976410000155
 20
355.81418536
 30
0.0
 11
-0.1194463590000194
 21
355.61538264
 31
0.0
  0
LINE
  5
2F1
330
1F
100
AcDbEntity
  8
0
  6
CONTINUOUS
 62
     7
100
AcDbLine
 10
-0.0769223590000312
 20
355.62005664
 30
0.0
 11
-0.0987736410000273
 21
355.81885936
 31
0.0
  0
LINE
  5
2F2
330
1F
100
AcDbEntity
  8
0
  6
CONTINUOUS
 62
     7
100
AcDbLine
 10
0.1488242989999833
 20
355.6109558652
 30
0.0
 11
0.1772317009999802
 21
355.8089281348
 31
0.0
  0
LINE
  5
2F3
330
1F
100
AcDbEntity
  8
0
  6
CONTINUOUS
 62
     7
100
AcDbLine
 10
-0.0427654614000295
 20
355.622335688
 30
0.0
 11
-0.0012434614000134
 21
355.623347688
 31
0.0
  0
LINE
  5
2F4
330
1F
100
AcDbEntity
  8
0
  6
CONTINUOUS
 62
     7
100
AcDbLine
 10
-0.1455232660000361
 20
355.8136295318
 30
0.0
 11
-0.187811265999982
 21
355.8071475318
 31
0.0
  0
LINE
  5
2F5
330
1F
100
AcDbEntity
  8
0
  6
CONTINUOUS
 62
     7
100
AcDbLine
 10
-0.1575087340000003
 20
355.6094564682001
 30
0.0
 11
-0.1152207339999989
 21
355.6159384682001
 31
0.0
  0
LINE
  5
2F6
330
1F
100
AcDbEntity
  8
0
  6
CONTINUOUS
 62
     7
100
AcDbLine
 10
0.3147021863999511
 20
355.7773139547999
 30
0.0
 11
0.2735101863999834
 21
355.7887459547999
 31
0.0
  0
LINE
  5
2F7
330
1F
100
AcDbEntity
  8
0
  6
CONTINUOUS
 62
     7
100
AcDbLine
 10
0.0735262069999632
 20
355.6203398336
 30
0.0
 11
0.0852457930000106
 21
355.8199961663999
 31
0.0
  0
LINE
  5
2F8
330
1F
100
AcDbEntity
  8
0
  6
CONTINUOUS
 62
     7
100
AcDbLine
 10
0.4434156354000129
 20
355.7299432327999
 30
0.0
 11
0.4050556353999979
 21
355.7459832327999
 31
0.0
  0
LINE
  5
2F9
330
1F
100
AcDbEntity
  8
0
  6
CONTINUOUS
 62
     7
100
AcDbLine
 10
0.1107106157999249
 20
355.6165153954
 30
0.0
 11
0.1307133842000097
 21
355.8155126046
 31
0.0
  0
LINE
  5
2FA
330
1F
100
AcDbEntity
  8
0
  6
CONTINUOUS
 62
     7
100
AcDbLine
 10
0.4848459783999837
 20
355.7106535896
 30
0.0
 11
0.4472179783999719
 21
355.7282595896
 31
0.0
  0
LINE
  5
2FB
330
1F
100
AcDbEntity
  8
0
  6
CONTINUOUS
 62
     7
100
AcDbLine
 10
0.032026206999991
 20
355.6227758336
 30
0.0
 11
0.0735262069999632
 21
355.6203398336
 31
0.0
  0
LINE
  5
2FC
330
1F
100
AcDbEntity
  8
0
  6
CONTINUOUS
 62
     7
100
AcDbLine
 10
-0.1152207339999989
 20
355.6159384682001
 30
0.0
 11
-0.1455232660000361
 21
355.8136295318
 31
0.0
  0
LINE
  5
2FD
330
1F
100
AcDbEntity
  8
0
  6
CONTINUOUS
 62
     7
100
AcDbLine
 10
-0.1920276885999939
 20
355.8064085372
 30
0.0
 11
-0.2339596886000161
 21
355.7981305372
 31
0.0
  0
LINE
  5
2FE
330
1F
100
AcDbEntity
  8
0
  6
CONTINUOUS
 62
     7
100
AcDbLine
 10
-0.2339596886000161
 20
355.7981305372
 30
0.0
 11
-0.1952243114000107
 21
355.6019174627999
 31
0.0
  0
LINE
  5
2FF
330
1F
100
AcDbEntity
  8
0
  6
CONTINUOUS
 62
     7
100
AcDbLine
 10
0.2966871029999596
 20
355.5730223598
 30
0.0
 11
0.3582808969999629
 21
355.7633016402
 31
0.0
  0
LINE
  5
300
330
1F
100
AcDbEntity
  8
0
  6
CONTINUOUS
 62
     7
100
AcDbLine
 10
0.4050556353999979
 20
355.7459832327999
 30
0.0
 11
0.3279003645999534
 21
355.5614647672001
 31
0.0
  0
LINE
  5
301
330
1F
100
AcDbEntity
  8
0
  6
CONTINUOUS
 62
     7
100
AcDbLine
 10
-0.0987736410000273
 20
355.81885936
 30
0.0
 11
-0.1412976410000155
 21
355.81418536
 31
0.0
  0
LINE
  5
302
330
1F
100
AcDbEntity
  8
0
  6
CONTINUOUS
 62
     7
100
AcDbLine
 10
0.4000860215999658
 20
355.5295024104
 30
0.0
 11
0.4848459783999837
 21
355.7106535896
 31
0.0
  0
LINE
  5
303
330
1F
100
AcDbEntity
  8
0
  6
CONTINUOUS
 62
     7
100
AcDbLine
 10
0.4472179783999719
 20
355.7282595896
 30
0.0
 11
0.362458021599954
 21
355.5471084104
 31
0.0
  0
LINE
  5
304
330
1F
100
AcDbEntity
  8
0
  6
CONTINUOUS
 62
     7
100
AcDbLine
 10
0.1065082989999411
 20
355.6170278652
 30
0.0
 11
0.1488242989999833
 21
355.6109558652
 31
0.0
  0
LINE
  5
305
330
1F
100
AcDbEntity
  8
0
  6
CONTINUOUS
 62
     7
100
AcDbLine
 10
0.3279003645999534
 20
355.5614647672001
 30
0.0
 11
0.3662603645999685
 21
355.5454247672
 31
0.0
  0
LINE
  5
306
330
1F
100
AcDbEntity
  8
0
  6
CONTINUOUS
 62
     7
100
AcDbLine
 10
-0.0061165385999984
 20
355.823288312
 30
0.0
 11
-0.0476385386000144
 21
355.8222763119999
 31
0.0
  0
LINE
  5
307
330
1F
100
AcDbEntity
  8
0
  6
CONTINUOUS
 62
     7
100
AcDbLine
 10
0.1824867307999578
 20
355.6046451001999
 30
0.0
 11
0.2241687307999451
 21
355.5949751002
 31
0.0
  0
LINE
  5
308
330
1F
100
AcDbEntity
  8
0
  6
CONTINUOUS
 62
     7
100
AcDbLine
 10
0.3962890431999933
 20
355.5313780075999
 30
0.0
 11
0.4342070431999634
 21
355.5116380076
 31
0.0
  0
LINE
  5
309
330
1F
100
AcDbEntity
  8
0
  6
CONTINUOUS
 62
     7
100
AcDbLine
 10
0.3662603645999685
 20
355.5454247672
 30
0.0
 11
0.4434156354000129
 21
355.7299432327999
 31
0.0
  0
LINE
  5
30A
330
1F
100
AcDbEntity
  8
0
  6
CONTINUOUS
 62
     7
100
AcDbLine
 10
0.0396034967999892
 20
355.82258925
 30
0.0
 11
-0.0019625032000037
 21
355.82330325
 31
0.0
  0
LINE
  5
30B
330
1F
100
AcDbEntity
  8
0
  6
CONTINUOUS
 62
     7
100
AcDbLine
 10
-0.0053974968000636
 20
355.62333275
 30
0.0
 11
0.0361685031999293
 21
355.62261875
 31
0.0
  0
LINE
  5
30C
330
1F
100
AcDbEntity
  8
0
  6
CONTINUOUS
 62
     7
100
AcDbLine
 10
-0.0945113924000762
 20
355.819235749
 30
0.0
 11
-0.0811846076000378
 21
355.619680251
 31
0.0
  0
LINE
  5
30D
330
1F
100
AcDbEntity
  8
0
  6
CONTINUOUS
 62
     7
100
AcDbLine
 10
0.0852457930000106
 20
355.8199961663999
 30
0.0
 11
0.0437457929999829
 21
355.8224321663999
 31
0.0
  0
LINE
  5
30E
330
1F
100
AcDbEntity
  8
0
  6
CONTINUOUS
 62
     7
100
AcDbLine
 10
0.2735101863999834
 20
355.7887459547999
 30
0.0
 11
0.2200258135999777
 21
355.5960300452
 31
0.0
  0
LINE
  5
30F
330
1F
100
AcDbEntity
  8
0
  6
CONTINUOUS
 62
     7
100
AcDbLine
 10
0.1307133842000097
 20
355.8155126046
 30
0.0
 11
0.089387384199946
 21
355.8196666045999
 31
0.0
  0
LINE
  5
310
330
1F
100
AcDbEntity
  8
0
  6
CONTINUOUS
 62
     7
100
AcDbLine
 10
0.2571631029999466
 20
355.5858163598
 30
0.0
 11
0.2966871029999596
 21
355.5730223598
 31
0.0
  0
LINE
  5
311
330
1F
100
AcDbEntity
  8
0
  6
CONTINUOUS
 62
     7
100
AcDbLine
 10
0.0361685031999293
 20
355.62261875
 30
0.0
 11
0.0396034967999892
 21
355.82258925
 31
0.0
  0
LINE
  5
312
330
1F
100
AcDbEntity
  8
0
  6
CONTINUOUS
 62
     7
100
AcDbLine
 10
-0.1194463590000194
 20
355.61538264
 30
0.0
 11
-0.0769223590000312
 21
355.62005664
 31
0.0
  0
LINE
  5
313
330
1F
100
AcDbEntity
  8
0
  6
CONTINUOUS
 62
     7
100
AcDbLine
 10
-0.187811265999982
 20
355.8071475318
 30
0.0
 11
-0.1575087340000003
 21
355.6094564682001
 31
0.0
  0
LINE
  5
314
330
1F
100
AcDbEntity
  8
0
  6
CONTINUOUS
 62
     7
100
AcDbLine
 10
0.0437457929999829
 20
355.8224321663999
 30
0.0
 11
0.032026206999991
 21
355.6227758336
 31
0.0
  0
LINE
  5
315
330
1F
100
AcDbEntity
  8
0
  6
CONTINUOUS
 62
     7
100
AcDbLine
 10
0.4012005061999613
 20
355.7475021827999
 30
0.0
 11
0.3622065061999469
 21
355.7619401827999
 31
0.0
  0
LINE
  5
316
330
1F
100
AcDbEntity
  8
0
  6
CONTINUOUS
 62
     7
100
AcDbLine
 10
0.2241687307999451
 20
355.5949751002
 30
0.0
 11
0.269367269200016
 21
355.7898008998
 31
0.0
  0
LINE
  5
317
330
1F
100
AcDbEntity
  8
0
  6
CONTINUOUS
 62
     7
100
AcDbLine
 10
0.18145262039998
 20
355.8082300122001
 30
0.0
 11
0.1446033795999835
 21
355.6116539877999
 31
0.0
  0
LINE
  5
318
330
1F
100
AcDbEntity
  8
0
  6
CONTINUOUS
 62
     7
100
AcDbLine
 10
-0.227448490600024
 20
355.5941228702
 30
0.0
 11
-0.2824715094000285
 21
355.7864051298
 31
0.0
  0
LINE
  5
319
330
1F
100
AcDbEntity
  8
0
  6
CONTINUOUS
 62
     7
100
AcDbLine
 10
-0.4943015816000207
 20
355.7059437285999
 30
0.0
 11
-0.4078864184000053
 21
355.5255762714
 31
0.0
  0
LINE
  5
31A
330
1F
100
AcDbEntity
  8
0
  6
CONTINUOUS
 62
     7
100
AcDbLine
 10
-0.4078864184000053
 20
355.5255762714
 30
0.0
 11
-0.3693104184000484
 21
355.5440582714
 31
0.0
  0
LINE
  5
31B
330
1F
100
AcDbEntity
  8
0
  6
CONTINUOUS
 62
     7
100
AcDbLine
 10
-0.6183269118000267
 20
355.6330037772
 30
0.0
 11
-0.6522569118000421
 21
355.6089817772
 31
0.0
  0
LINE
  5
31C
330
1F
100
AcDbEntity
  8
0
  6
CONTINUOUS
 62
     7
100
AcDbLine
 10
-0.5662644172000353
 20
355.42280697
 30
0.0
 11
-0.5333584172000361
 21
355.44821497
 31
0.0
  0
LINE
  5
31D
330
1F
100
AcDbEntity
  8
0
  6
CONTINUOUS
 62
     7
100
AcDbLine
 10
-0.4557255816000083
 20
355.7244257286
 30
0.0
 11
-0.4943015816000207
 21
355.7059437285999
 31
0.0
  0
LINE
  5
31E
330
1F
100
AcDbEntity
  8
0
  6
CONTINUOUS
 62
     7
100
AcDbLine
 10
-0.5062001078000034
 20
355.467443129
 30
0.0
 11
-0.4713301078000387
 21
355.490017129
 31
0.0
  0
LINE
  5
31F
330
1F
100
AcDbEntity
  8
0
  6
CONTINUOUS
 62
     7
100
AcDbLine
 10
-0.5333584172000361
 20
355.44821497
 30
0.0
 11
-0.6555895828000424
 21
355.6065170299999
 31
0.0
  0
LINE
  5
320
330
1F
100
AcDbEntity
  8
0
  6
CONTINUOUS
 62
     7
100
AcDbLine
 10
-0.4518364950000242
 20
355.7261879404
 30
0.0
 11
-0.3731995050000325
 21
355.5422960595999
 31
0.0
  0
LINE
  5
321
330
1F
100
AcDbEntity
  8
0
  6
CONTINUOUS
 62
     7
100
AcDbLine
 10
-0.5630310970000663
 20
355.4254124666
 30
0.0
 11
-0.6917289030000107
 21
355.5785035333999
 31
0.0
  0
LINE
  5
322
330
1F
100
AcDbEntity
  8
0
  6
CONTINUOUS
 62
     7
100
AcDbLine
 10
-0.2674124906000275
 20
355.5826868701999
 30
0.0
 11
-0.227448490600024
 21
355.5941228702
 31
0.0
  0
LINE
  5
323
330
1F
100
AcDbEntity
  8
0
  6
CONTINUOUS
 62
     7
100
AcDbLine
 10
-0.6231718326000224
 20
355.3726100062
 30
0.0
 11
-0.591645832600074
 21
355.4014740062
 31
0.0
  0
LINE
  5
324
330
1F
100
AcDbEntity
  8
0
  6
CONTINUOUS
 62
     7
100
AcDbLine
 10
-0.1952243114000107
 20
355.6019174627999
 30
0.0
 11
-0.1532923113999884
 21
355.6101954627999
 31
0.0
  0
LINE
  5
325
330
1F
100
AcDbEntity
  8
0
  6
CONTINUOUS
 62
     7
100
AcDbLine
 10
-0.5395911146000021
 20
355.6818172307999
 30
0.0
 11
-0.5764171146000474
 21
355.6601312307999
 31
0.0
  0
LINE
  5
326
330
1F
100
AcDbEntity
  8
0
  6
CONTINUOUS
 62
     7
100
AcDbLine
 10
-0.7916094582000599
 20
355.4869557803999
 30
0.0
 11
-0.650370541800005
 21
355.3453522196
 31
0.0
  0
LINE
  5
327
330
1F
100
AcDbEntity
  8
0
  6
CONTINUOUS
 62
     7
100
AcDbLine
 10
-0.6555895828000424
 20
355.6065170299999
 30
0.0
 11
-0.6884955827999861
 21
355.5811090299999
 31
0.0
  0
LINE
  5
328
330
1F
100
AcDbEntity
  8
0
  6
CONTINUOUS
 62
     7
100
AcDbLine
 10
-0.6884955827999861
 20
355.5811090299999
 30
0.0
 11
-0.5662644172000353
 21
355.42280697
 31
0.0
  0
LINE
  5
329
330
1F
100
AcDbEntity
  8
0
  6
CONTINUOUS
 62
     7
100
AcDbLine
 10
-0.650370541800005
 20
355.3453522196
 30
0.0
 11
-0.6200805418000166
 21
355.3755642196001
 31
0.0
  0
LINE
  5
32A
330
1F
100
AcDbEntity
  8
0
  6
CONTINUOUS
 62
     7
100
AcDbLine
 10
-0.6200805418000166
 20
355.3755642196001
 30
0.0
 11
-0.761319458200016
 21
355.5171677804
 31
0.0
  0
LINE
  5
32B
330
1F
100
AcDbEntity
  8
0
  6
CONTINUOUS
 62
     7
100
AcDbLine
 10
-0.7945620407999732
 20
355.4838825378
 30
0.0
 11
-0.823538040799987
 21
355.4524065378
 31
0.0
  0
LINE
  5
32C
330
1F
100
AcDbEntity
  8
0
  6
CONTINUOUS
 62
     7
100
AcDbLine
 10
-0.6522569118000421
 20
355.6089817772
 30
0.0
 11
-0.5366910881999809
 21
355.4457502228
 31
0.0
  0
LINE
  5
32D
330
1F
100
AcDbEntity
  8
0
  6
CONTINUOUS
 62
     7
100
AcDbLine
 10
-0.4749308854000156
 20
355.4877927692
 30
0.0
 11
-0.4381048854000258
 21
355.5094787691999
 31
0.0
  0
LINE
  5
32E
330
1F
100
AcDbEntity
  8
0
  6
CONTINUOUS
 62
     7
100
AcDbLine
 10
-0.4981101082000561
 20
355.7040180623999
 30
0.0
 11
-0.5358641082000015
 21
355.6839060624
 31
0.0
  0
LINE
  5
32F
330
1F
100
AcDbEntity
  8
0
  6
CONTINUOUS
 62
     7
100
AcDbLine
 10
-0.5027610882000211
 20
355.4697722228
 30
0.0
 11
-0.6183269118000267
 21
355.6330037772
 31
0.0
  0
LINE
  5
330
330
1F
100
AcDbEntity
  8
0
  6
CONTINUOUS
 62
     7
100
AcDbLine
 10
-0.7267021674000063
 20
355.5489859937999
 30
0.0
 11
-0.7582281674000102
 21
355.5201219938
 31
0.0
  0
LINE
  5
331
330
1F
100
AcDbEntity
  8
0
  6
CONTINUOUS
 62
     7
100
AcDbLine
 10
-0.823538040799987
 20
355.4524065378
 30
0.0
 11
-0.6763939592000501
 21
355.3169494621999
 31
0.0
  0
LINE
  5
332
330
1F
100
AcDbEntity
  8
0
  6
CONTINUOUS
 62
     7
100
AcDbLine
 10
-0.2314595440000566
 20
355.5930645731999
 30
0.0
 11
-0.1910915440000438
 21
355.6028245732
 31
0.0
  0
LINE
  5
333
330
1F
100
AcDbEntity
  8
0
  6
CONTINUOUS
 62
     7
100
AcDbLine
 10
-0.614887892199989
 20
355.6353328709999
 30
0.0
 11
-0.5062001078000034
 21
355.467443129
 31
0.0
  0
LINE
  5
334
330
1F
100
AcDbEntity
  8
0
  6
CONTINUOUS
 62
     7
100
AcDbLine
 10
-0.6763939592000501
 20
355.3169494621999
 30
0.0
 11
-0.6474179592000362
 21
355.3484254622
 31
0.0
  0
LINE
  5
335
330
1F
100
AcDbEntity
  8
0
  6
CONTINUOUS
 62
     7
100
AcDbLine
 10
-0.6474179592000362
 20
355.3484254622
 30
0.0
 11
-0.7945620407999732
 21
355.4838825378
 31
0.0
  0
LINE
  5
336
330
1F
100
AcDbEntity
  8
0
  6
CONTINUOUS
 62
     7
100
AcDbLine
 10
-0.5764171146000474
 20
355.6601312307999
 30
0.0
 11
-0.4749308854000156
 21
355.4877927692
 31
0.0
  0
LINE
  5
337
330
1F
100
AcDbEntity
  8
0
  6
CONTINUOUS
 62
     7
100
AcDbLine
 10
-0.8263645836000255
 20
355.4492013013999
 30
0.0
 11
-0.8539445836000525
 21
355.4165453014
 31
0.0
  0
LINE
  5
338
330
1F
100
AcDbEntity
  8
0
  6
CONTINUOUS
 62
     7
100
AcDbLine
 10
-0.8539445836000525
 20
355.4165453014
 30
0.0
 11
-0.7011474163999831
 21
355.2874986986
 31
0.0
  0
LINE
  5
339
330
1F
100
AcDbEntity
  8
0
  6
CONTINUOUS
 62
     7
100
AcDbLine
 10
-0.2989882210000516
 20
355.5722155895999
 30
0.0
 11
-0.3697677789999965
 21
355.7592724103999
 31
0.0
  0
LINE
  5
33A
330
1F
100
AcDbEntity
  8
0
  6
CONTINUOUS
 62
     7
100
AcDbLine
 10
-0.4381048854000258
 20
355.5094787691999
 30
0.0
 11
-0.5395911146000021
 21
355.6818172307999
 31
0.0
  0
LINE
  5
33B
330
1F
100
AcDbEntity
  8
0
  6
CONTINUOUS
 62
     7
100
AcDbLine
 10
-0.591645832600074
 20
355.4014740062
 30
0.0
 11
-0.7267021674000063
 21
355.5489859937999
 31
0.0
  0
LINE
  5
33C
330
1F
100
AcDbEntity
  8
0
  6
CONTINUOUS
 62
     7
100
AcDbLine
 10
-0.3264009502000342
 20
355.7737448142
 30
0.0
 11
-0.3658549502000286
 21
355.7606608142
 31
0.0
  0
LINE
  5
33D
330
1F
100
AcDbEntity
  8
0
  6
CONTINUOUS
 62
     7
100
AcDbLine
 10
-0.4418318918000264
 20
355.5073899376
 30
0.0
 11
-0.4040778918000254
 21
355.5275019376001
 31
0.0
  0
LINE
  5
33E
330
1F
100
AcDbEntity
  8
0
  6
CONTINUOUS
 62
     7
100
AcDbLine
 10
-0.2824715094000285
 20
355.7864051298
 30
0.0
 11
-0.322435509400032
 21
355.7749691297999
 31
0.0
  0
LINE
  5
33F
330
1F
100
AcDbEntity
  8
0
  6
CONTINUOUS
 62
     7
100
AcDbLine
 10
-0.3693104184000484
 20
355.5440582714
 30
0.0
 11
-0.4557255816000083
 21
355.7244257286
 31
0.0
  0
LINE
  5
340
330
1F
100
AcDbEntity
  8
0
  6
CONTINUOUS
 62
     7
100
AcDbLine
 10
-0.4713301078000387
 20
355.490017129
 30
0.0
 11
-0.5800178922000243
 21
355.657906871
 31
0.0
  0
LINE
  5
341
330
1F
100
AcDbEntity
  8
0
  6
CONTINUOUS
 62
     7
100
AcDbLine
 10
-0.5366910881999809
 20
355.4457502228
 30
0.0
 11
-0.5027610882000211
 21
355.4697722228
 31
0.0
  0
LINE
  5
342
330
1F
100
AcDbEntity
  8
0
  6
CONTINUOUS
 62
     7
100
AcDbLine
 10
-0.302901049800075
 20
355.5708271858
 30
0.0
 11
-0.2634470498000252
 21
355.5839111858
 31
0.0
  0
LINE
  5
343
330
1F
100
AcDbEntity
  8
0
  6
CONTINUOUS
 62
     7
100
AcDbLine
 10
-0.4125404950000022
 20
355.7429919403999
 30
0.0
 11
-0.4518364950000242
 21
355.7261879404
 31
0.0
  0
LINE
  5
344
330
1F
100
AcDbEntity
  8
0
  6
CONTINUOUS
 62
     7
100
AcDbLine
 10
-0.2784604560000514
 20
355.7874634267999
 30
0.0
 11
-0.2314595440000566
 21
355.5930645731999
 31
0.0
  0
LINE
  5
345
330
1F
100
AcDbEntity
  8
0
  6
CONTINUOUS
 62
     7
100
AcDbLine
 10
-0.322435509400032
 20
355.7749691297999
 30
0.0
 11
-0.2674124906000275
 21
355.5826868701999
 31
0.0
  0
LINE
  5
346
330
1F
100
AcDbEntity
  8
0
  6
CONTINUOUS
 62
     7
100
AcDbLine
 10
-0.4086117790000343
 20
355.7445744104
 30
0.0
 11
-0.337832221000034
 21
355.5575175896
 31
0.0
  0
LINE
  5
347
330
1F
100
AcDbEntity
  8
0
  6
CONTINUOUS
 62
     7
100
AcDbLine
 10
-0.7235229030000401
 20
355.5517755334
 30
0.0
 11
-0.5948250970000402
 21
355.3986844665999
 31
0.0
  0
LINE
  5
348
330
1F
100
AcDbEntity
  8
0
  6
CONTINUOUS
 62
     7
100
AcDbLine
 10
-0.5800178922000243
 20
355.657906871
 30
0.0
 11
-0.614887892199989
 21
355.6353328709999
 31
0.0
  0
LINE
  5
349
330
1F
100
AcDbEntity
  8
0
  6
CONTINUOUS
 62
     7
100
AcDbLine
 10
-0.5948250970000402
 20
355.3986844665999
 30
0.0
 11
-0.5630310970000663
 21
355.4254124666
 31
0.0
  0
LINE
  5
34A
330
1F
100
AcDbEntity
  8
0
  6
CONTINUOUS
 62
     7
100
AcDbLine
 10
-0.3697677789999965
 20
355.7592724103999
 30
0.0
 11
-0.4086117790000343
 21
355.7445744104
 31
0.0
  0
LINE
  5
34B
330
1F
100
AcDbEntity
  8
0
  6
CONTINUOUS
 62
     7
100
AcDbLine
 10
-0.7582281674000102
 20
355.5201219938
 30
0.0
 11
-0.6231718326000224
 21
355.3726100062
 31
0.0
  0
LINE
  5
34C
330
1F
100
AcDbEntity
  8
0
  6
CONTINUOUS
 62
     7
100
AcDbLine
 10
-0.4040778918000254
 20
355.5275019376001
 30
0.0
 11
-0.4981101082000561
 21
355.7040180623999
 31
0.0
  0
LINE
  5
34D
330
1F
100
AcDbEntity
  8
0
  6
CONTINUOUS
 62
     7
100
AcDbLine
 10
-0.6917289030000107
 20
355.5785035333999
 30
0.0
 11
-0.7235229030000401
 21
355.5517755334
 31
0.0
  0
LINE
  5
34E
330
1F
100
AcDbEntity
  8
0
  6
CONTINUOUS
 62
     7
100
AcDbLine
 10
-0.1910915440000438
 20
355.6028245732
 30
0.0
 11
-0.2380924560000386
 21
355.7972234268
 31
0.0
  0
LINE
  5
34F
330
1F
100
AcDbEntity
  8
0
  6
CONTINUOUS
 62
     7
100
AcDbLine
 10
-0.761319458200016
 20
355.5171677804
 30
0.0
 11
-0.7916094582000599
 21
355.4869557803999
 31
0.0
  0
LINE
  5
350
330
1F
100
AcDbEntity
  8
0
  6
CONTINUOUS
 62
     7
100
AcDbLine
 10
-0.2634470498000252
 20
355.5839111858
 30
0.0
 11
-0.3264009502000342
 21
355.7737448142
 31
0.0
  0
LINE
  5
351
330
1F
100
AcDbEntity
  8
0
  6
CONTINUOUS
 62
     7
100
AcDbLine
 10
-0.3658549502000286
 20
355.7606608142
 30
0.0
 11
-0.302901049800075
 21
355.5708271858
 31
0.0
  0
LINE
  5
352
330
1F
100
AcDbEntity
  8
0
  6
CONTINUOUS
 62
     7
100
AcDbLine
 10
-0.337832221000034
 20
355.5575175896
 30
0.0
 11
-0.2989882210000516
 21
355.5722155895999
 31
0.0
  0
LINE
  5
353
330
1F
100
AcDbEntity
  8
0
  6
CONTINUOUS
 62
     7
100
AcDbLine
 10
-0.3731995050000325
 20
355.5422960595999
 30
0.0
 11
-0.333903505000066
 21
355.5591000596
 31
0.0
  0
LINE
  5
354
330
1F
100
AcDbEntity
  8
0
  6
CONTINUOUS
 62
     7
100
AcDbLine
 10
-0.5358641082000015
 20
355.6839060624
 30
0.0
 11
-0.4418318918000264
 21
355.5073899376
 31
0.0
  0
LINE
  5
355
330
1F
100
AcDbEntity
  8
0
  6
CONTINUOUS
 62
     7
100
AcDbLine
 10
-0.1532923113999884
 20
355.6101954627999
 30
0.0
 11
-0.1920276885999939
 21
355.8064085372
 31
0.0
  0
LINE
  5
356
330
1F
100
AcDbEntity
  8
0
  6
CONTINUOUS
 62
     7
100
AcDbLine
 10
-0.2380924560000386
 20
355.7972234268
 30
0.0
 11
-0.2784604560000514
 21
355.7874634267999
 31
0.0
  0
LINE
  5
357
330
1F
100
AcDbEntity
  8
0
  6
CONTINUOUS
 62
     7
100
AcDbLine
 10
-0.333903505000066
 20
355.5591000596
 30
0.0
 11
-0.4125404950000022
 21
355.7429919403999
 31
0.0
  0
LINE
  5
358
330
1F
100
AcDbEntity
  8
0
  6
CONTINUOUS
 62
     7
100
AcDbLine
 10
-0.7011474163999831
 20
355.2874986986
 30
0.0
 11
-0.6735674164000116
 21
355.3201546986
 31
0.0
  0
LINE
  5
359
330
1F
100
AcDbEntity
  8
0
  6
CONTINUOUS
 62
     7
100
AcDbLine
 10
-1.001521641800063
 20
355.1779761496
 30
0.0
 11
-1.018453641800032
 21
355.1386741496
 31
0.0
  0
LINE
  5
35A
330
1F
100
AcDbEntity
  8
0
  6
CONTINUOUS
 62
     7
100
AcDbLine
 10
-0.8010196544000481
 20
355.1335084096
 30
0.0
 11
-0.9811563456000316
 21
355.2204035903999
 31
0.0
  0
LINE
  5
35B
330
1F
100
AcDbEntity
  8
0
  6
CONTINUOUS
 62
     7
100
AcDbLine
 10
-0.8347743582000078
 20
355.0595418504
 30
0.0
 11
-0.8178423581999827
 21
355.0988438504
 31
0.0
  0
LINE
  5
35C
330
1F
100
AcDbEntity
  8
0
  6
CONTINUOUS
 62
     7
100
AcDbLine
 10
-0.7455314702000115
 20
355.2273685006
 30
0.0
 11
-0.7214534702000286
 21
355.2612765006
 31
0.0
  0
LINE
  5
35D
330
1F
100
AcDbEntity
  8
0
  6
CONTINUOUS
 62
     7
100
AcDbLine
 10
-0.7658559518000096
 20
355.1959203845999
 30
0.0
 11
-0.7432039518000533
 21
355.2307943846
 31
0.0
  0
LINE
  5
35E
330
1F
100
AcDbEntity
  8
0
  6
CONTINUOUS
 62
     7
100
AcDbLine
 10
-0.9357711470000529
 20
355.301331728
 30
0.0
 11
-0.9569371470000698
 21
355.265575728
 31
0.0
  0
LINE
  5
35F
330
1F
100
AcDbEntity
  8
0
  6
CONTINUOUS
 62
     7
100
AcDbLine
 10
-0.8029578118000646
 20
355.1297006306
 30
0.0
 11
-0.7827538117999855
 21
355.1673806306
 31
0.0
  0
LINE
  5
360
330
1F
100
AcDbEntity
  8
0
  6
CONTINUOUS
 62
     7
100
AcDbLine
 10
-0.7827538117999855
 20
355.1673806306
 30
0.0
 11
-0.9590141882000469
 21
355.2618913694
 31
0.0
  0
LINE
  5
361
330
1F
100
AcDbEntity
  8
0
  6
CONTINUOUS
 62
     7
100
AcDbLine
 10
-0.7239287848000431
 20
355.2579396917999
 30
0.0
 11
-0.6984867848000564
 21
355.2907876918
 31
0.0
  0
LINE
  5
362
330
1F
100
AcDbEntity
  8
0
  6
CONTINUOUS
 62
     7
100
AcDbLine
 10
-0.6735674164000116
 20
355.3201546986
 30
0.0
 11
-0.8263645836000255
 21
355.4492013013999
 31
0.0
  0
LINE
  5
363
330
1F
100
AcDbEntity
  8
0
  6
CONTINUOUS
 62
     7
100
AcDbLine
 10
-0.8178423581999827
 20
355.0988438504
 30
0.0
 11
-1.001521641800063
 21
355.1779761496
 31
0.0
  0
LINE
  5
364
330
1F
100
AcDbEntity
  8
0
  6
CONTINUOUS
 62
     7
100
AcDbLine
 10
-1.020058549000002
 20
355.1347186198
 30
0.0
 11
-1.035284548999982
 21
355.0947646197999
 31
0.0
  0
LINE
  5
365
330
1F
100
AcDbEntity
  8
0
  6
CONTINUOUS
 62
     7
100
AcDbLine
 10
-0.9997503456000145
 20
355.1818575904
 30
0.0
 11
-0.8196136543999755
 21
355.0949624096
 31
0.0
  0
LINE
  5
366
330
1F
100
AcDbEntity
  8
0
  6
CONTINUOUS
 62
     7
100
AcDbLine
 10
-0.933580048199989
 20
355.3048636153999
 30
0.0
 11
-0.7658559518000096
 21
355.1959203845999
 31
0.0
  0
LINE
  5
367
330
1F
100
AcDbEntity
  8
0
  6
CONTINUOUS
 62
     7
100
AcDbLine
 10
-1.035284548999982
 20
355.0947646197999
 30
0.0
 11
-0.8483954510000169
 21
355.0235433801999
 31
0.0
  0
LINE
  5
368
330
1F
100
AcDbEntity
  8
0
  6
CONTINUOUS
 62
     7
100
AcDbLine
 10
-0.8331694510000376
 20
355.0634973802
 30
0.0
 11
-1.020058549000002
 21
355.1347186198
 31
0.0
  0
LINE
  5
369
330
1F
100
AcDbEntity
  8
0
  6
CONTINUOUS
 62
     7
100
AcDbLine
 10
-1.036708329800018
 20
355.0907767766
 30
0.0
 11
-1.049852329800038
 21
355.0513447765999
 31
0.0
  0
LINE
  5
36A
330
1F
100
AcDbEntity
  8
0
  6
CONTINUOUS
 62
     7
100
AcDbLine
 10
-0.7848308530000181
 20
355.163696272
 30
0.0
 11
-0.7636648530000567
 21
355.199452272
 31
0.0
  0
LINE
  5
36B
330
1F
100
AcDbEntity
  8
0
  6
CONTINUOUS
 62
     7
100
AcDbLine
 10
-0.8820472152000214
 20
355.3804083081999
 30
0.0
 11
-0.7239287848000431
 21
355.2579396917999
 31
0.0
  0
LINE
  5
36C
330
1F
100
AcDbEntity
  8
0
  6
CONTINUOUS
 62
     7
100
AcDbLine
 10
-0.8483954510000169
 20
355.0235433801999
 30
0.0
 11
-0.8331694510000376
 21
355.0634973802
 31
0.0
  0
LINE
  5
36D
330
1F
100
AcDbEntity
  8
0
  6
CONTINUOUS
 62
     7
100
AcDbLine
 10
-0.7214534702000286
 20
355.2612765006
 30
0.0
 11
-0.8845225298000359
 21
355.3770714994
 31
0.0
  0
LINE
  5
36E
330
1F
100
AcDbEntity
  8
0
  6
CONTINUOUS
 62
     7
100
AcDbLine
 10
-0.9109280482000326
 20
355.3397376154001
 30
0.0
 11
-0.933580048199989
 21
355.3048636153999
 31
0.0
  0
LINE
  5
36F
330
1F
100
AcDbEntity
  8
0
  6
CONTINUOUS
 62
     7
100
AcDbLine
 10
-0.8845225298000359
 20
355.3770714994
 30
0.0
 11
-0.9086005298000743
 21
355.3431634994
 31
0.0
  0
LINE
  5
370
330
1F
100
AcDbEntity
  8
0
  6
CONTINUOUS
 62
     7
100
AcDbLine
 10
-0.8566052151999792
 20
355.4132563081999
 30
0.0
 11
-0.8820472152000214
 21
355.3804083081999
 31
0.0
  0
LINE
  5
371
330
1F
100
AcDbEntity
  8
0
  6
CONTINUOUS
 62
     7
100
AcDbLine
 10
-0.7432039518000533
 20
355.2307943846
 30
0.0
 11
-0.9109280482000326
 21
355.3397376154001
 31
0.0
  0
LINE
  5
372
330
1F
100
AcDbEntity
  8
0
  6
CONTINUOUS
 62
     7
100
AcDbLine
 10
-0.9569371470000698
 20
355.265575728
 30
0.0
 11
-0.7848308530000181
 21
355.163696272
 31
0.0
  0
LINE
  5
373
330
1F
100
AcDbEntity
  8
0
  6
CONTINUOUS
 62
     7
100
AcDbLine
 10
-0.7636648530000567
 20
355.199452272
 30
0.0
 11
-0.9357711470000529
 21
355.301331728
 31
0.0
  0
LINE
  5
374
330
1F
100
AcDbEntity
  8
0
  6
CONTINUOUS
 62
     7
100
AcDbLine
 10
-0.9590141882000469
 20
355.2618913694
 30
0.0
 11
-0.979218188200015
 21
355.2242113693999
 31
0.0
  0
LINE
  5
375
330
1F
100
AcDbEntity
  8
0
  6
CONTINUOUS
 62
     7
100
AcDbLine
 10
-0.979218188200015
 20
355.2242113693999
 30
0.0
 11
-0.8029578118000646
 21
355.1297006306
 31
0.0
  0
LINE
  5
376
330
1F
100
AcDbEntity
  8
0
  6
CONTINUOUS
 62
     7
100
AcDbLine
 10
-0.9811563456000316
 20
355.2204035903999
 30
0.0
 11
-0.9997503456000145
 21
355.1818575904
 31
0.0
  0
LINE
  5
377
330
1F
100
AcDbEntity
  8
0
  6
CONTINUOUS
 62
     7
100
AcDbLine
 10
-0.8196136543999755
 20
355.0949624096
 30
0.0
 11
-0.8010196544000481
 21
355.1335084096
 31
0.0
  0
LINE
  5
378
330
1F
100
AcDbEntity
  8
0
  6
CONTINUOUS
 62
     7
100
AcDbLine
 10
-1.018453641800032
 20
355.1386741496
 30
0.0
 11
-0.8347743582000078
 21
355.0595418504
 31
0.0
  0
LINE
  5
379
330
1F
100
AcDbEntity
  8
0
  6
CONTINUOUS
 62
     7
100
AcDbLine
 10
-0.6984867848000564
 20
355.2907876918
 30
0.0
 11
-0.8566052151999792
 21
355.4132563081999
 31
0.0
  0
LINE
  5
37A
330
1F
100
AcDbEntity
  8
0
  6
CONTINUOUS
 62
     7
100
AcDbLine
 10
-0.9086005298000743
 20
355.3431634994
 30
0.0
 11
-0.7455314702000115
 21
355.2273685006
 31
0.0
  0
LINE
  5
37B
330
1F
100
AcDbEntity
  8
0
  6
CONTINUOUS
 62
     7
100
AcDbLine
 10
0.946842988599983
 20
206.2169881384
 30
0.0
 11
0.9678849886000096
 21
206.2542281384
 31
0.0
  0
LINE
  5
37C
330
1F
100
AcDbEntity
  8
0
  6
CONTINUOUS
 62
     7
100
AcDbLine
 10
0.9227209265999514
 20
206.1780554178
 30
0.0
 11
0.9446829265999934
 21
206.2133474178
 31
0.0
  0
LINE
  5
37D
330
1F
100
AcDbEntity
  8
0
  6
CONTINUOUS
 62
     7
100
AcDbLine
 10
0.7093281265999618
 20
206.2228309606
 30
0.0
 11
0.8697838733999763
 21
206.1034410394
 31
0.0
  0
LINE
  5
37E
330
1F
100
AcDbEntity
  8
0
  6
CONTINUOUS
 62
     7
100
AcDbLine
 10
0.8697838733999763
 20
206.1034410394
 30
0.0
 11
0.8946178734000054
 21
206.1368170394
 31
0.0
  0
LINE
  5
37F
330
1F
100
AcDbEntity
  8
0
  6
CONTINUOUS
 62
     7
100
AcDbLine
 10
0.8946178734000054
 20
206.1368170394
 30
0.0
 11
0.7341621265999354
 21
206.2562069606
 31
0.0
  0
LINE
  5
380
330
1F
100
AcDbEntity
  8
0
  6
CONTINUOUS
 62
     7
100
AcDbLine
 10
0.7118767991999841
 20
206.2261117236
 30
0.0
 11
0.6856987991999963
 21
206.1938217236
 31
0.0
  0
LINE
  5
381
330
1F
100
AcDbEntity
  8
0
  6
CONTINUOUS
 62
     7
100
AcDbLine
 10
0.8410572007999662
 20
206.0678702764
 30
0.0
 11
0.867235200799954
 21
206.1001602764
 31
0.0
  0
LINE
  5
382
330
1F
100
AcDbEntity
  8
0
  6
CONTINUOUS
 62
     7
100
AcDbLine
 10
0.6856987991999963
 20
206.1938217236
 30
0.0
 11
0.8410572007999662
 21
206.0678702764
 31
0.0
  0
LINE
  5
383
330
1F
100
AcDbEntity
  8
0
  6
CONTINUOUS
 62
     7
100
AcDbLine
 10
0.7341621265999354
 20
206.2562069606
 30
0.0
 11
0.7093281265999618
 21
206.2228309606
 31
0.0
  0
LINE
  5
384
330
1F
100
AcDbEntity
  8
0
  6
CONTINUOUS
 62
     7
100
AcDbLine
 10
0.7317543507999735
 20
206.2528267358
 30
0.0
 11
0.8970256491999673
 21
206.1401972642001
 31
0.0
  0
LINE
  5
385
330
1F
100
AcDbEntity
  8
0
  6
CONTINUOUS
 62
     7
100
AcDbLine
 10
0.867235200799954
 20
206.1001602764
 30
0.0
 11
0.7118767991999841
 21
206.2261117236
 31
0.0
  0
LINE
  5
386
330
1F
100
AcDbEntity
  8
0
  6
CONTINUOUS
 62
     7
100
AcDbLine
 10
0.9446829265999934
 20
206.2133474178
 30
0.0
 11
0.7748770733999599
 21
206.3190165822
 31
0.0
  0
LINE
  5
387
330
1F
100
AcDbEntity
  8
0
  6
CONTINUOUS
 62
     7
100
AcDbLine
 10
0.7748770733999599
 20
206.3190165822
 30
0.0
 11
0.7529150733999734
 21
206.2837245822
 31
0.0
  0
LINE
  5
388
330
1F
100
AcDbEntity
  8
0
  6
CONTINUOUS
 62
     7
100
AcDbLine
 10
0.6884328442000043
 20
206.1970519184
 30
0.0
 11
0.6601148441999771
 21
206.1649959184
 31
0.0
  0
LINE
  5
389
330
1F
100
AcDbEntity
  8
0
  6
CONTINUOUS
 62
     7
100
AcDbLine
 10
0.6601148441999771
 20
206.1649959184
 30
0.0
 11
0.8100051557999866
 21
206.0325840816
 31
0.0
  0
LINE
  5
38A
330
1F
100
AcDbEntity
  8
0
  6
CONTINUOUS
 62
     7
100
AcDbLine
 10
0.7529150733999734
 20
206.2837245822
 30
0.0
 11
0.9227209265999514
 21
206.1780554178
 31
0.0
  0
LINE
  5
38B
330
1F
100
AcDbEntity
  8
0
  6
CONTINUOUS
 62
     7
100
AcDbLine
 10
0.9678849886000096
 20
206.2542281384
 30
0.0
 11
0.793759011399997
 21
206.3526158616
 31
0.0
  0
LINE
  5
38C
330
1F
100
AcDbEntity
  8
0
  6
CONTINUOUS
 62
     7
100
AcDbLine
 10
0.9204536491999593
 20
206.1745752642
 30
0.0
 11
0.7551823507999655
 21
206.2872047358
 31
0.0
  0
LINE
  5
38D
330
1F
100
AcDbEntity
  8
0
  6
CONTINUOUS
 62
     7
100
AcDbLine
 10
0.8100051557999866
 20
206.0325840816
 30
0.0
 11
0.8383231558000137
 21
206.0646400816
 31
0.0
  0
LINE
  5
38E
330
1F
100
AcDbEntity
  8
0
  6
CONTINUOUS
 62
     7
100
AcDbLine
 10
0.7727170113999704
 20
206.3153758616
 30
0.0
 11
0.946842988599983
 21
206.2169881384
 31
0.0
  0
LINE
  5
38F
330
1F
100
AcDbEntity
  8
0
  6
CONTINUOUS
 62
     7
100
AcDbLine
 10
0.7551823507999655
 20
206.2872047358
 30
0.0
 11
0.7317543507999735
 21
206.2528267358
 31
0.0
  0
LINE
  5
390
330
1F
100
AcDbEntity
  8
0
  6
CONTINUOUS
 62
     7
100
AcDbLine
 10
0.8970256491999673
 20
206.1401972642001
 30
0.0
 11
0.9204536491999593
 21
206.1745752642
 31
0.0
  0
MTEXT
  5
391
330
1F
100
AcDbEntity
  8
0
 62
     7
100
AcDbMText
 10
170.6639398636364
 20
144.6227272727273
 30
0.0
 40
6.0
 41
0.0
 71
     1
 72
     1
  1
{\fＭＳ ゴシック;\W1.011853;ＫＦＥＢ－１３０ＤＫ}
  0
LINE
  5
392
330
1F
100
AcDbEntity
  8
0
  6
CONTINUOUS
 62
     7
100
AcDbLine
 10
1.000000000000001
 20
282.7500000000001
 30
0.0
 11
1.000000000000001
 21
354.7229680000001
 31
0.0
  0
LINE
  5
393
330
1F
100
AcDbEntity
  8
0
  6
CONTINUOUS
 62
     7
100
AcDbLine
 10
1.099969498599973
 20
206.7745623178
 30
0.0
 11
0.9000305013999732
 21
206.7795016822
 31
0.0
  0
LINE
  5
394
330
1F
100
AcDbEntity
  8
0
  6
CONTINUOUS
 62
     7
100
AcDbLine
 10
1.078856107600001
 20
206.5624677668
 30
0.0
 11
1.087470107599964
 21
206.6116077667999
 31
0.0
  0
LINE
  5
395
330
1F
100
AcDbEntity
  8
0
  6
CONTINUOUS
 62
     7
100
AcDbLine
 10
1.057203746399948
 20
206.4731801912
 30
0.0
 11
1.067931746399964
 21
206.5133741912
 31
0.0
  0
LINE
  5
396
330
1F
100
AcDbEntity
  8
0
  6
CONTINUOUS
 62
     7
100
AcDbLine
 10
0.8651207389999693
 20
206.5287402008
 30
0.0
 11
0.852734738999994
 21
206.4890242008
 31
0.0
  0
LINE
  5
397
330
1F
100
AcDbEntity
  8
0
  6
CONTINUOUS
 62
     7
100
AcDbLine
 10
30.99999999999997
 20
206.75
 30
0.0
 11
38.99999999999998
 21
206.75
 31
0.0
  0
LINE
  5
398
330
1F
100
AcDbEntity
  8
0
  6
CONTINUOUS
 62
     7
100
AcDbLine
 10
0.8827535795999375
 20
206.601491231
 30
0.0
 11
0.8737095795999794
 21
206.560919231
 31
0.0
  0
LINE
  5
399
330
1F
100
AcDbEntity
  8
0
  6
CONTINUOUS
 62
     7
100
AcDbLine
 10
0.8746962535999825
 20
206.5649498088
 30
0.0
 11
0.8639682535999671
 21
206.5247558088
 31
0.0
  0
LINE
  5
39A
330
1F
100
AcDbEntity
  8
0
  6
CONTINUOUS
 62
     7
100
AcDbLine
 10
0.8415497397999405
 20
206.4577812886
 30
0.0
 11
0.8254397397999824
 21
206.4181572886
 31
0.0
  0
LINE
  5
39B
330
1F
100
AcDbEntity
  8
0
  6
CONTINUOUS
 62
     7
100
AcDbLine
 10
0.8093294991999289
 20
206.3831467952
 30
0.0
 11
0.9912145007999751
 21
206.2999732048
 31
0.0
  0
LINE
  5
39C
330
1F
100
AcDbEntity
  8
0
  6
CONTINUOUS
 62
     7
100
AcDbLine
 10
-6.500000000000005
 20
354.722968
 30
0.0
 11
-1.000000000000001
 21
354.722968
 31
0.0
  0
LINE
  5
39D
330
1F
100
AcDbEntity
  8
0
  6
CONTINUOUS
 62
     7
100
AcDbLine
 10
1.00901850079993
 20
206.3389072048001
 30
0.0
 11
0.8271334991999391
 21
206.4220807952
 31
0.0
  0
LINE
  5
39E
330
1F
100
AcDbEntity
  8
0
  6
CONTINUOUS
 62
     7
100
AcDbLine
 10
1.098749498599949
 20
206.7251783178
 30
0.0
 11
1.099969498599973
 21
206.7745623178
 31
0.0
  0
LINE
  5
39F
330
1F
100
AcDbEntity
  8
0
  6
CONTINUOUS
 62
     7
100
AcDbLine
 10
0.8990539209999815
 20
206.7350445634
 30
0.0
 11
0.8953999209999619
 21
206.6857785634
 31
0.0
  0
LINE
  5
3A0
330
1F
100
AcDbEntity
  8
0
  6
CONTINUOUS
 62
     7
100
AcDbLine
 10
0.8111880951999773
 20
206.3869919038
 30
0.0
 11
0.7917380952000008
 21
206.3488539038
 31
0.0
  0
LINE
  5
3A1
330
1F
100
AcDbEntity
  8
0
  6
CONTINUOUS
 62
     7
100
AcDbLine
 10
1.026822260199955
 20
206.3824547114
 30
0.0
 11
0.8415497397999405
 21
206.4577812886
 31
0.0
  0
LINE
  5
3A2
330
1F
100
AcDbEntity
  8
0
  6
CONTINUOUS
 62
     7
100
AcDbLine
 10
1.000000000000001
 20
206.777032
 30
0.0
 11
1.000000000000001
 21
278.7500000000001
 31
0.0
  0
LINE
  5
3A3
330
1F
100
AcDbEntity
  8
0
  6
CONTINUOUS
 62
     7
100
AcDbLine
 10
20.99999999999996
 20
206.75
 30
0.0
 11
20.99999999999996
 21
354.75
 31
0.0
  0
LINE
  5
3A4
330
1F
100
AcDbEntity
  8
0
  6
CONTINUOUS
 62
     7
100
AcDbLine
 10
28.99999999999997
 20
354.75
 30
0.0
 11
20.99999999999996
 21
354.75
 31
0.0
  0
LINE
  5
3A5
330
1F
100
AcDbEntity
  8
0
  6
CONTINUOUS
 62
     7
100
AcDbLine
 10
0.89047389239999
 20
206.6461402332
 30
0.0
 11
0.8818598923999721
 21
206.5970002332
 31
0.0
  0
LINE
  5
3A6
330
1F
100
AcDbEntity
  8
0
  6
CONTINUOUS
 62
     7
100
AcDbLine
 10
1.088208275599967
 20
206.616538619
 30
0.0
 11
1.094362275600003
 21
206.666046619
 31
0.0
  0
LINE
  5
3A7
330
1F
100
AcDbEntity
  8
0
  6
CONTINUOUS
 62
     7
100
AcDbLine
 10
1.07796242039998
 20
206.557976769
 30
0.0
 11
0.8827535795999375
 21
206.601491231
 31
0.0
  0
LINE
  5
3A8
330
1F
100
AcDbEntity
  8
0
  6
CONTINUOUS
 62
     7
100
AcDbLine
 10
0.8400404721999322
 20
206.4538317892001
 30
0.0
 11
1.028331527799964
 21
206.3864042108
 31
0.0
  0
LINE
  5
3A9
330
1F
100
AcDbEntity
  8
0
  6
CONTINUOUS
 62
     7
100
AcDbLine
 10
1.028331527799964
 20
206.3864042108
 30
0.0
 11
1.04234552779997
 21
206.4255382108
 31
0.0
  0
LINE
  5
3AA
330
1F
100
AcDbEntity
  8
0
  6
CONTINUOUS
 62
     7
100
AcDbLine
 10
1.087470107599964
 20
206.6116077667999
 30
0.0
 11
0.89047389239999
 21
206.6461402332
 31
0.0
  0
LINE
  5
3AB
330
1F
100
AcDbEntity
  8
0
  6
CONTINUOUS
 62
     7
100
AcDbLine
 10
8.999999999999952
 20
354.75
 30
0.0
 11
5.041451999999946
 21
354.75
 31
0.0
  0
LINE
  5
3AC
330
1F
100
AcDbEntity
  8
0
  6
CONTINUOUS
 62
     7
100
AcDbLine
 10
1.04234552779997
 20
206.4255382108
 30
0.0
 11
0.8540544721999943
 21
206.4929657892
 31
0.0
  0
LINE
  5
3AD
330
1F
100
AcDbEntity
  8
0
  6
CONTINUOUS
 62
     7
100
AcDbLine
 10
0.889735724399987
 20
206.641209381
 30
0.0
 11
1.088208275599967
 21
206.616538619
 31
0.0
  0
LINE
  5
3AE
330
1F
100
AcDbEntity
  8
0
  6
CONTINUOUS
 62
     7
100
AcDbLine
 10
1.043665260999971
 20
206.4294797992
 30
0.0
 11
1.056051260999946
 21
206.4691957992
 31
0.0
  0
LINE
  5
3AF
330
1F
100
AcDbEntity
  8
0
  6
CONTINUOUS
 62
     7
100
AcDbLine
 10
0.9699059047999503
 20
206.2579900962
 30
0.0
 11
0.9893559047999823
 21
206.2961280962
 31
0.0
  0
LINE
  5
3B0
330
1F
100
AcDbEntity
  8
0
  6
CONTINUOUS
 62
     7
100
AcDbLine
 10
0.9893559047999823
 20
206.2961280962
 30
0.0
 11
0.8111880951999773
 21
206.3869919038
 31
0.0
  0
LINE
  5
3B1
330
1F
100
AcDbEntity
  8
0
  6
CONTINUOUS
 62
     7
100
AcDbLine
 10
1.000000000000001
 20
206.777032
 30
0.0
 11
5.057057999999947
 21
206.777032
 31
0.0
  0
LINE
  5
3B2
330
1F
100
AcDbEntity
  8
0
  6
CONTINUOUS
 62
     7
100
AcDbLine
 10
0.8818598923999721
 20
206.5970002332
 30
0.0
 11
1.078856107600001
 21
206.5624677668
 31
0.0
  0
LINE
  5
3B3
330
1F
100
AcDbEntity
  8
0
  6
CONTINUOUS
 62
     7
100
AcDbLine
 10
0.9912145007999751
 20
206.2999732048
 30
0.0
 11
1.00901850079993
 21
206.3389072048001
 31
0.0
  0
LINE
  5
3B4
330
1F
100
AcDbEntity
  8
0
  6
CONTINUOUS
 62
     7
100
AcDbLine
 10
0.793759011399997
 20
206.3526158616
 30
0.0
 11
0.7727170113999704
 21
206.3153758616
 31
0.0
  0
LINE
  5
3B5
330
1F
100
AcDbEntity
  8
0
  6
CONTINUOUS
 62
     7
100
AcDbLine
 10
0.7917380952000008
 20
206.3488539038
 30
0.0
 11
0.9699059047999503
 21
206.2579900962
 31
0.0
  0
LINE
  5
3B6
330
1F
100
AcDbEntity
  8
0
  6
CONTINUOUS
 62
     7
100
AcDbLine
 10
1.056051260999946
 20
206.4691957992
 30
0.0
 11
0.8651207389999693
 21
206.5287402008
 31
0.0
  0
LINE
  5
3B7
330
1F
100
AcDbEntity
  8
0
  6
CONTINUOUS
 62
     7
100
AcDbLine
 10
0.852734738999994
 20
206.4890242008
 30
0.0
 11
1.043665260999971
 21
206.4294797992
 31
0.0
  0
LINE
  5
3B8
330
1F
100
AcDbEntity
  8
0
  6
CONTINUOUS
 62
     7
100
AcDbLine
 10
-1.000000000000001
 20
354.722968
 30
0.0
 11
-1.000000000000001
 21
282.75
 31
0.0
  0
LINE
  5
3B9
330
1F
100
AcDbEntity
  8
0
  6
CONTINUOUS
 62
     7
100
AcDbLine
 10
5.041451999999946
 20
206.75
 30
0.0
 11
8.999999999999952
 21
206.75
 31
0.0
  0
LINE
  5
3BA
330
1F
100
AcDbEntity
  8
0
  6
CONTINUOUS
 62
     7
100
AcDbLine
 10
1.094362275600003
 20
206.666046619
 30
0.0
 11
0.8958897243999675
 21
206.690717381
 31
0.0
  0
LINE
  5
3BB
330
1F
100
AcDbEntity
  8
0
  6
CONTINUOUS
 62
     7
100
AcDbLine
 10
1.010712260199997
 20
206.3428307114
 30
0.0
 11
1.026822260199955
 21
206.3824547114
 31
0.0
  0
LINE
  5
3BC
330
1F
100
AcDbEntity
  8
0
  6
CONTINUOUS
 62
     7
100
AcDbLine
 10
1.094852079000008
 20
206.6709854366
 30
0.0
 11
1.098506078999972
 21
206.7202514366
 31
0.0
  0
LINE
  5
3BD
330
1F
100
AcDbEntity
  8
0
  6
CONTINUOUS
 62
     7
100
AcDbLine
 10
0.8639682535999671
 20
206.5247558088
 30
0.0
 11
1.057203746399948
 21
206.4731801912
 31
0.0
  0
LINE
  5
3BE
330
1F
100
AcDbEntity
  8
0
  6
CONTINUOUS
 62
     7
100
AcDbLine
 10
30.99999999999997
 20
206.75
 30
0.0
 11
30.99999999999997
 21
354.75
 31
0.0
  0
LINE
  5
3BF
330
1F
100
AcDbEntity
  8
0
  6
CONTINUOUS
 62
     7
100
AcDbLine
 10
10.99999999999995
 20
206.75
 30
0.0
 11
10.99999999999995
 21
354.75
 31
0.0
  0
LINE
  5
3C0
330
1F
100
AcDbEntity
  8
0
  6
CONTINUOUS
 62
     7
100
AcDbLine
 10
1.000000000000001
 20
354.722968
 30
0.0
 11
5.057057999999947
 21
354.722968
 31
0.0
  0
LINE
  5
3C1
330
1F
100
AcDbEntity
  8
0
  6
CONTINUOUS
 62
     7
100
AcDbLine
 10
18.99999999999996
 20
354.75
 30
0.0
 11
10.99999999999995
 21
354.75
 31
0.0
  0
LINE
  5
3C2
330
1F
100
AcDbEntity
  8
0
  6
CONTINUOUS
 62
     7
100
AcDbLine
 10
0.8953999209999619
 20
206.6857785634
 30
0.0
 11
1.094852079000008
 21
206.6709854366
 31
0.0
  0
LINE
  5
3C3
330
1F
100
AcDbEntity
  8
0
  6
CONTINUOUS
 62
     7
100
AcDbLine
 10
10.99999999999995
 20
206.75
 30
0.0
 11
18.99999999999996
 21
206.75
 31
0.0
  0
LINE
  5
3C4
330
1F
100
AcDbEntity
  8
0
  6
CONTINUOUS
 62
     7
100
AcDbLine
 10
-1.000000000000001
 20
278.7500000000001
 30
0.0
 11
-1.000000000000001
 21
206.777032
 31
0.0
  0
LINE
  5
3C5
330
1F
100
AcDbEntity
  8
0
  6
CONTINUOUS
 62
     7
100
AcDbLine
 10
0.8958897243999675
 20
206.690717381
 30
0.0
 11
0.889735724399987
 21
206.641209381
 31
0.0
  0
LINE
  5
3C6
330
1F
100
AcDbEntity
  8
0
  6
CONTINUOUS
 62
     7
100
AcDbLine
 10
1.067931746399964
 20
206.5133741912
 30
0.0
 11
0.8746962535999825
 21
206.5649498088
 31
0.0
  0
LINE
  5
3C7
330
1F
100
AcDbEntity
  8
0
  6
CONTINUOUS
 62
     7
100
AcDbLine
 10
0.8254397397999824
 20
206.4181572886
 30
0.0
 11
1.010712260199997
 21
206.3428307114
 31
0.0
  0
LINE
  5
3C8
330
1F
100
AcDbEntity
  8
0
  6
CONTINUOUS
 62
     7
100
AcDbLine
 10
0.8271334991999391
 20
206.4220807952
 30
0.0
 11
0.8093294991999289
 21
206.3831467952
 31
0.0
  0
LINE
  5
3C9
330
1F
100
AcDbEntity
  8
0
  6
CONTINUOUS
 62
     7
100
AcDbLine
 10
1.098506078999972
 20
206.7202514366
 30
0.0
 11
0.8990539209999815
 21
206.7350445634
 31
0.0
  0
LINE
  5
3CA
330
1F
100
AcDbEntity
  8
0
  6
CONTINUOUS
 62
     7
100
AcDbLine
 10
0.8540544721999943
 20
206.4929657892
 30
0.0
 11
0.8400404721999322
 21
206.4538317892001
 31
0.0
  0
LINE
  5
3CB
330
1F
100
AcDbEntity
  8
0
  6
CONTINUOUS
 62
     7
100
AcDbLine
 10
1.068918420399967
 20
206.517404769
 30
0.0
 11
1.07796242039998
 21
206.557976769
 31
0.0
  0
LINE
  5
3CC
330
1F
100
AcDbEntity
  8
0
  6
CONTINUOUS
 62
     7
100
AcDbLine
 10
20.99999999999996
 20
206.75
 30
0.0
 11
28.99999999999997
 21
206.75
 31
0.0
  0
LINE
  5
3CD
330
1F
100
AcDbEntity
  8
0
  6
CONTINUOUS
 62
     7
100
AcDbLine
 10
0.8737095795999794
 20
206.560919231
 30
0.0
 11
1.068918420399967
 21
206.517404769
 31
0.0
  0
LINE
  5
3CE
330
1F
100
AcDbEntity
  8
0
  6
CONTINUOUS
 62
     7
100
AcDbLine
 10
-6.500000000000005
 20
206.777032
 30
0.0
 11
-1.000000000000001
 21
206.777032
 31
0.0
  0
LINE
  5
3CF
330
1F
100
AcDbEntity
  8
0
  6
CONTINUOUS
 62
     7
100
AcDbLine
 10
38.99999999999998
 20
354.75
 30
0.0
 11
30.99999999999997
 21
354.75
 31
0.0
  0
LINE
  5
3D0
330
1F
100
AcDbEntity
  8
0
  6
CONTINUOUS
 62
     7
100
AcDbLine
 10
0.9000305013999732
 20
206.7795016822
 30
0.0
 11
0.8988105014000047
 21
206.7301176822
 31
0.0
  0
LINE
  5
3D1
330
1F
100
AcDbEntity
  8
0
  6
CONTINUOUS
 62
     7
100
AcDbLine
 10
0.8988105014000047
 20
206.7301176822
 30
0.0
 11
1.098749498599949
 21
206.7251783178
 31
0.0
  0
LINE
  5
3D2
330
1F
100
AcDbEntity
  8
0
  6
CONTINUOUS
 62
     7
100
AcDbLine
 10
121.0
 20
199.75
 30
0.0
 11
126.5
 21
199.75
 31
0.0
  0
LINE
  5
3D3
330
1F
100
AcDbEntity
  8
0
  6
CONTINUOUS
 62
     7
100
AcDbLine
 10
68.99999999999994
 20
361.75
 30
0.0
 11
50.99999999999999
 21
361.75
 31
0.0
  0
LINE
  5
3D4
330
1F
100
AcDbEntity
  8
0
  6
CONTINUOUS
 62
     7
100
AcDbLine
 10
61.0
 20
199.75
 30
0.0
 11
68.99999999999994
 21
199.75
 31
0.0
  0
ARC
  5
3D5
330
1F
100
AcDbEntity
  8
0
  6
CONTINUOUS
 62
     7
100
AcDbCircle
 10
110.0
 20
199.75
 30
0.0
 40
1.000000000000001
100
AcDbArc
 50
180.0
 51
0.0
  0
LINE
  5
3D6
330
1F
100
AcDbEntity
  8
0
  6
CONTINUOUS
 62
     7
100
AcDbLine
 10
88.99999999999997
 20
361.75
 30
0.0
 11
80.99999999999996
 21
361.75
 31
0.0
  0
LINE
  5
3D7
330
1F
100
AcDbEntity
  8
0
  6
CONTINUOUS
 62
     7
100
AcDbLine
 10
50.99999999999999
 20
199.75
 30
0.0
 11
58.99999999999999
 21
199.75
 31
0.0
  0
LINE
  5
3D8
330
1F
100
AcDbEntity
  8
0
  6
CONTINUOUS
 62
     7
100
AcDbLine
 10
119.0
 20
361.75
 30
0.0
 11
111.0
 21
361.75
 31
0.0
  0
LINE
  5
3D9
330
1F
100
AcDbEntity
  8
0
  6
CONTINUOUS
 62
     7
100
AcDbLine
 10
111.0
 20
199.75
 30
0.0
 11
119.0
 21
199.75
 31
0.0
  0
LINE
  5
3DA
330
1F
100
AcDbEntity
  8
0
  6
CONTINUOUS
 62
     7
100
AcDbLine
 10
98.99999999999997
 20
361.75
 30
0.0
 11
90.99999999999997
 21
361.75
 31
0.0
  0
LINE
  5
3DB
330
1F
100
AcDbEntity
  8
0
  6
CONTINUOUS
 62
     7
100
AcDbLine
 10
109.0
 20
361.75
 30
0.0
 11
101.0
 21
361.75
 31
0.0
  0
LINE
  5
3DC
330
1F
100
AcDbEntity
  8
0
  6
CONTINUOUS
 62
     7
100
AcDbLine
 10
101.0
 20
199.75
 30
0.0
 11
109.0
 21
199.75
 31
0.0
  0
LINE
  5
3DD
330
1F
100
AcDbEntity
  8
0
  6
CONTINUOUS
 62
     7
100
AcDbLine
 10
90.99999999999997
 20
199.75
 30
0.0
 11
98.99999999999997
 21
199.75
 31
0.0
  0
ARC
  5
3DE
330
1F
100
AcDbEntity
  8
0
  6
CONTINUOUS
 62
     7
100
AcDbCircle
 10
39.99999999999998
 20
354.75
 30
0.0
 40
1.000000000000001
100
AcDbArc
 50
2.880479999999999
 51
180.0
  0
ARC
  5
3DF
330
1F
100
AcDbEntity
  8
0
  6
CONTINUOUS
 62
     7
100
AcDbCircle
 10
39.99999999999998
 20
206.75
 30
0.0
 40
1.000000000000001
100
AcDbArc
 50
180.0
 51
357.11952
  0
ARC
  5
3E0
330
1F
100
AcDbEntity
  8
0
  6
CONTINUOUS
 62
     7
100
AcDbCircle
 10
29.99999999999997
 20
354.75
 30
0.0
 40
1.000000000000001
100
AcDbArc
 50
0.0
 51
180.0
  0
ARC
  5
3E1
330
1F
100
AcDbEntity
  8
0
  6
CONTINUOUS
 62
     7
100
AcDbCircle
 10
79.99999999999996
 20
361.75
 30
0.0
 40
1.000000000000001
100
AcDbArc
 50
0.0
 51
180.0
  0
ARC
  5
3E2
330
1F
100
AcDbEntity
  8
0
  6
CONTINUOUS
 62
     7
100
AcDbCircle
 10
29.99999999999997
 20
206.75
 30
0.0
 40
1.000000000000001
100
AcDbArc
 50
180.0
 51
0.0
  0
ARC
  5
3E3
330
1F
100
AcDbEntity
  8
0
  6
CONTINUOUS
 62
     7
100
AcDbCircle
 10
19.99999999999996
 20
354.75
 30
0.0
 40
1.000000000000001
100
AcDbArc
 50
0.0
 51
180.0
  0
ARC
  5
3E4
330
1F
100
AcDbEntity
  8
0
  6
CONTINUOUS
 62
     7
100
AcDbCircle
 10
60.0
 20
199.75
 30
0.0
 40
1.000000000000001
100
AcDbArc
 50
180.0
 51
0.0
  0
LINE
  5
3E5
330
1F
100
AcDbEntity
  8
0
  6
CONTINUOUS
 62
     7
100
AcDbLine
 10
48.99999999999999
 20
361.75
 30
0.0
 11
45.49999999999999
 21
361.75
 31
0.0
  0
ARC
  5
3E6
330
1F
100
AcDbEntity
  8
0
  6
CONTINUOUS
 62
     7
100
AcDbCircle
 10
120.0
 20
361.75
 30
0.0
 40
1.000000000000001
100
AcDbArc
 50
0.0
 51
180.0
  0
ARC
  5
3E7
330
1F
100
AcDbEntity
  8
0
  6
CONTINUOUS
 62
     7
100
AcDbCircle
 10
19.99999999999996
 20
206.75
 30
0.0
 40
1.000000000000001
100
AcDbArc
 50
180.0
 51
0.0
  0
ARC
  5
3E8
330
1F
100
AcDbEntity
  8
0
  6
CONTINUOUS
 62
     7
100
AcDbCircle
 10
9.999999999999954
 20
354.75
 30
0.0
 40
1.000000000000001
100
AcDbArc
 50
0.0
 51
180.0
  0
ARC
  5
3E9
330
1F
100
AcDbEntity
  8
0
  6
CONTINUOUS
 62
     7
100
AcDbCircle
 10
9.999999999999954
 20
206.75
 30
0.0
 40
1.000000000000001
100
AcDbArc
 50
180.0
 51
0.0
  0
ARC
  5
3EA
330
1F
100
AcDbEntity
  8
0
  6
CONTINUOUS
 62
     7
100
AcDbCircle
 10
89.99999999999997
 20
361.75
 30
0.0
 40
1.000000000000001
100
AcDbArc
 50
0.0
 51
180.0
  0
ARC
  5
3EB
330
1F
100
AcDbEntity
  8
0
  6
CONTINUOUS
 62
     7
100
AcDbCircle
 10
99.99999999999997
 20
361.75
 30
0.0
 40
1.000000000000001
100
AcDbArc
 50
0.0
 51
180.0
  0
ARC
  5
3EC
330
1F
100
AcDbEntity
  8
0
  6
CONTINUOUS
 62
     7
100
AcDbCircle
 10
99.99999999999997
 20
199.75
 30
0.0
 40
1.000000000000001
100
AcDbArc
 50
180.0
 51
0.0
  0
LINE
  5
3ED
330
1F
100
AcDbEntity
  8
0
  6
CONTINUOUS
 62
     7
100
AcDbLine
 10
80.99999999999996
 20
199.75
 30
0.0
 11
88.99999999999997
 21
199.75
 31
0.0
  0
ARC
  5
3EE
330
1F
100
AcDbEntity
  8
0
  6
CONTINUOUS
 62
     7
100
AcDbCircle
 10
79.99999999999996
 20
199.75
 30
0.0
 40
1.000000000000001
100
AcDbArc
 50
180.0
 51
0.0
  0
ARC
  5
3EF
330
1F
100
AcDbEntity
  8
0
  6
CONTINUOUS
 62
     7
100
AcDbCircle
 10
69.99999999999994
 20
361.75
 30
0.0
 40
1.000000000000001
100
AcDbArc
 50
0.0
 51
180.0
  0
ARC
  5
3F0
330
1F
100
AcDbEntity
  8
0
  6
CONTINUOUS
 62
     7
100
AcDbCircle
 10
49.99999999999999
 20
199.75
 30
0.0
 40
1.000000000000001
100
AcDbArc
 50
180.0
 51
0.0
  0
ARC
  5
3F1
330
1F
100
AcDbEntity
  8
0
  6
CONTINUOUS
 62
     7
100
AcDbCircle
 10
69.99999999999994
 20
199.75
 30
0.0
 40
1.000000000000001
100
AcDbArc
 50
180.0
 51
0.0
  0
ARC
  5
3F2
330
1F
100
AcDbEntity
  8
0
  6
CONTINUOUS
 62
     7
100
AcDbCircle
 10
110.0
 20
361.75
 30
0.0
 40
1.000000000000001
100
AcDbArc
 50
0.0
 51
180.0
  0
ARC
  5
3F3
330
1F
100
AcDbEntity
  8
0
  6
CONTINUOUS
 62
     7
100
AcDbCircle
 10
120.0
 20
199.75
 30
0.0
 40
1.000000000000001
100
AcDbArc
 50
180.0
 51
0.0
  0
LINE
  5
3F4
330
1F
100
AcDbEntity
  8
0
  6
CONTINUOUS
 62
     7
100
AcDbLine
 10
45.49999999999999
 20
199.75
 30
0.0
 11
48.99999999999999
 21
199.75
 31
0.0
  0
LINE
  5
3F5
330
1F
100
AcDbEntity
  8
0
  6
CONTINUOUS
 62
     7
100
AcDbLine
 10
78.99999999999996
 20
361.75
 30
0.0
 11
70.99999999999996
 21
361.75
 31
0.0
  0
ARC
  5
3F6
330
1F
100
AcDbEntity
  8
0
  6
CONTINUOUS
 62
     7
100
AcDbCircle
 10
89.99999999999997
 20
199.75
 30
0.0
 40
1.000000000000001
100
AcDbArc
 50
180.0
 51
0.0
  0
LINE
  5
3F7
330
1F
100
AcDbEntity
  8
0
  6
CONTINUOUS
 62
     7
100
AcDbLine
 10
98.99999999999997
 20
289.25
 30
0.0
 11
101.0
 21
289.25
 31
0.0
  0
LINE
  5
3F8
330
1F
100
AcDbEntity
  8
0
  6
CONTINUOUS
 62
     7
100
AcDbLine
 10
70.99999999999996
 20
199.75
 30
0.0
 11
78.99999999999996
 21
199.75
 31
0.0
  0
ARC
  5
3F9
330
1F
100
AcDbEntity
  8
0
  6
CONTINUOUS
 62
     7
100
AcDbCircle
 10
49.99999999999999
 20
361.75
 30
0.0
 40
1.000000000000001
100
AcDbArc
 50
0.0
 51
180.0
  0
LINE
  5
3FA
330
1F
100
AcDbEntity
  8
0
  6
CONTINUOUS
 62
     7
100
AcDbLine
 10
126.5
 20
361.75
 30
0.0
 11
121.0
 21
361.75
 31
0.0
  0
LINE
  5
3FB
330
1F
100
AcDbEntity
  8
0
  6
CONTINUOUS
 62
     7
100
AcDbLine
 10
59.62751050999998
 20
361.1841600008
 30
0.0
 11
59.53917748999999
 21
361.3635959992
 31
0.0
  0
LINE
  5
3FC
330
1F
100
AcDbEntity
  8
0
  6
CONTINUOUS
 62
     7
100
AcDbLine
 10
59.66308805139997
 20
361.1997073012
 30
0.0
 11
59.58256394860001
 21
361.3827806988
 31
0.0
  0
LINE
  5
3FD
330
1F
100
AcDbEntity
  8
0
  6
CONTINUOUS
 62
     7
100
AcDbLine
 10
59.58256394860001
 20
361.3827806988
 30
0.0
 11
59.54308194859998
 21
361.3654146988
 31
0.0
  0
LINE
  5
3FE
330
1F
100
AcDbEntity
  8
0
  6
CONTINUOUS
 62
     7
100
AcDbLine
 10
59.23449460019997
 20
361.1514313955999
 30
0.0
 11
59.37193339980001
 21
361.0061366044
 31
0.0
  0
LINE
  5
3FF
330
1F
100
AcDbEntity
  8
0
  6
CONTINUOUS
 62
     7
100
AcDbLine
 10
59.26634260019997
 20
361.1815573956
 30
0.0
 11
59.23449460019997
 21
361.1514313955999
 31
0.0
  0
LINE
  5
400
330
1F
100
AcDbEntity
  8
0
  6
CONTINUOUS
 62
     7
100
AcDbLine
 10
59.49675996319997
 20
361.1096207061999
 30
0.0
 11
59.3794720368
 21
361.2716192937999
 31
0.0
  0
LINE
  5
401
330
1F
100
AcDbEntity
  8
0
  6
CONTINUOUS
 62
     7
100
AcDbLine
 10
59.54308194859998
 20
361.3654146988
 30
0.0
 11
59.62360605139993
 21
361.1823413012
 31
0.0
  0
LINE
  5
402
330
1F
100
AcDbEntity
  8
0
  6
CONTINUOUS
 62
     7
100
AcDbLine
 10
59.59367860779996
 20
361.167604116
 30
0.0
 11
59.49786539219998
 21
361.343159884
 31
0.0
  0
LINE
  5
403
330
1F
100
AcDbEntity
  8
0
  6
CONTINUOUS
 62
     7
100
AcDbLine
 10
59.69521299539998
 20
361.212200701
 30
0.0
 11
59.73609499539995
 21
361.2260807009999
 31
0.0
  0
LINE
  5
404
330
1F
100
AcDbEntity
  8
0
  6
CONTINUOUS
 62
     7
100
AcDbLine
 10
59.76154988839999
 20
361.4397886775999
 30
0.0
 11
59.72151388839997
 21
361.4299606775999
 31
0.0
  0
LINE
  5
405
330
1F
100
AcDbEntity
  8
0
  6
CONTINUOUS
 62
     7
100
AcDbLine
 10
59.80514794539998
 20
361.2446433123999
 30
0.0
 11
59.84559394540001
 21
361.2527953124001
 31
0.0
  0
LINE
  5
406
330
1F
100
AcDbEntity
  8
0
  6
CONTINUOUS
 62
     7
100
AcDbLine
 10
59.84559394540001
 20
361.2527953124001
 30
0.0
 11
59.80607805459997
 21
361.4488526876
 31
0.0
  0
LINE
  5
407
330
1F
100
AcDbEntity
  8
0
  6
CONTINUOUS
 62
     7
100
AcDbLine
 10
59.34047701919997
 20
361.243268501
 30
0.0
 11
59.30609301919998
 21
361.216004501
 31
0.0
  0
LINE
  5
408
330
1F
100
AcDbEntity
  8
0
  6
CONTINUOUS
 62
     7
100
AcDbLine
 10
59.46473898079996
 20
361.086555499
 30
0.0
 11
59.34047701919997
 21
361.243268501
 31
0.0
  0
LINE
  5
409
330
1F
100
AcDbEntity
  8
0
  6
CONTINUOUS
 62
     7
100
AcDbLine
 10
59.7656320546
 20
361.4407006876
 30
0.0
 11
59.80514794539998
 21
361.2446433123999
 31
0.0
  0
LINE
  5
40A
330
1F
100
AcDbEntity
  8
0
  6
CONTINUOUS
 62
     7
100
AcDbLine
 10
59.88223503379997
 20
361.2585117342
 30
0.0
 11
59.85094096620003
 21
361.4560482657999
 31
0.0
  0
LINE
  5
40B
330
1F
100
AcDbEntity
  8
0
  6
CONTINUOUS
 62
     7
100
AcDbLine
 10
59.85094096620003
 20
361.4560482657999
 30
0.0
 11
59.81018896619994
 21
361.4495922658
 31
0.0
  0
LINE
  5
40C
330
1F
100
AcDbEntity
  8
0
  6
CONTINUOUS
 62
     7
100
AcDbLine
 10
59.81018896619994
 20
361.4495922658
 30
0.0
 11
59.84148303379999
 21
361.2520557341999
 31
0.0
  0
LINE
  5
40D
330
1F
100
AcDbEntity
  8
0
  6
CONTINUOUS
 62
     7
100
AcDbLine
 10
59.55688660779995
 20
361.1475241159999
 30
0.0
 11
59.59367860779996
 21
361.167604116
 31
0.0
  0
LINE
  5
40E
330
1F
100
AcDbEntity
  8
0
  6
CONTINUOUS
 62
     7
100
AcDbLine
 10
59.62360605139993
 20
361.1823413012
 30
0.0
 11
59.66308805139997
 21
361.1997073012
 31
0.0
  0
LINE
  5
40F
330
1F
100
AcDbEntity
  8
0
  6
CONTINUOUS
 62
     7
100
AcDbLine
 10
59.8780809776
 20
361.2579426382
 30
0.0
 11
59.91903297759998
 21
361.2626806382
 31
0.0
  0
LINE
  5
410
330
1F
100
AcDbEntity
  8
0
  6
CONTINUOUS
 62
     7
100
AcDbLine
 10
59.42151551639996
 20
361.2993858702
 30
0.0
 11
59.52461248359997
 21
361.1280061298
 31
0.0
  0
LINE
  5
411
330
1F
100
AcDbEntity
  8
0
  6
CONTINUOUS
 62
     7
100
AcDbLine
 10
59.731934604
 20
361.224768677
 30
0.0
 11
59.77334260399996
 21
361.236840677
 31
0.0
  0
LINE
  5
412
330
1F
100
AcDbEntity
  8
0
  6
CONTINUOUS
 62
     7
100
AcDbLine
 10
59.69930840260002
 20
361.213691446
 30
0.0
 11
59.62681959740002
 21
361.400092554
 31
0.0
  0
LINE
  5
413
330
1F
100
AcDbEntity
  8
0
  6
CONTINUOUS
 62
     7
100
AcDbLine
 10
59.50160548999994
 20
361.3450999991999
 30
0.0
 11
59.58993851
 21
361.1656640007999
 31
0.0
  0
LINE
  5
414
330
1F
100
AcDbEntity
  8
0
  6
CONTINUOUS
 62
     7
100
AcDbLine
 10
59.80607805459997
 20
361.4488526876
 30
0.0
 11
59.7656320546
 21
361.4407006876
 31
0.0
  0
LINE
  5
415
330
1F
100
AcDbEntity
  8
0
  6
CONTINUOUS
 62
     7
100
AcDbLine
 10
59.84148303379999
 20
361.2520557341999
 30
0.0
 11
59.88223503379997
 21
361.2585117342
 31
0.0
  0
LINE
  5
416
330
1F
100
AcDbEntity
  8
0
  6
CONTINUOUS
 62
     7
100
AcDbLine
 10
59.43371393039997
 20
361.062076385
 30
0.0
 11
59.30273406959996
 21
361.213219615
 31
0.0
  0
LINE
  5
417
330
1F
100
AcDbEntity
  8
0
  6
CONTINUOUS
 62
     7
100
AcDbLine
 10
59.49321738479996
 20
361.1071703902
 30
0.0
 11
59.52816538479999
 21
361.1302463901999
 31
0.0
  0
LINE
  5
418
330
1F
100
AcDbEntity
  8
0
  6
CONTINUOUS
 62
     7
100
AcDbLine
 10
59.67595739599996
 20
361.416775323
 30
0.0
 11
59.731934604
 21
361.224768677
 31
0.0
  0
LINE
  5
419
330
1F
100
AcDbEntity
  8
0
  6
CONTINUOUS
 62
     7
100
AcDbLine
 10
59.3794720368
 20
361.2716192937999
 30
0.0
 11
59.34396403679997
 21
361.2459112937999
 31
0.0
  0
LINE
  5
41A
330
1F
100
AcDbEntity
  8
0
  6
CONTINUOUS
 62
     7
100
AcDbLine
 10
59.30609301919998
 20
361.216004501
 30
0.0
 11
59.43035498080001
 21
361.0592914989999
 31
0.0
  0
LINE
  5
41B
330
1F
100
AcDbEntity
  8
0
  6
CONTINUOUS
 62
     7
100
AcDbLine
 10
59.72151388839997
 20
361.4299606775999
 30
0.0
 11
59.76919411159992
 21
361.2357273224
 31
0.0
  0
LINE
  5
41C
330
1F
100
AcDbEntity
  8
0
  6
CONTINUOUS
 62
     7
100
AcDbLine
 10
59.91903297759998
 20
361.2626806382
 30
0.0
 11
59.89604702239998
 21
361.4613553617999
 31
0.0
  0
LINE
  5
41D
330
1F
100
AcDbEntity
  8
0
  6
CONTINUOUS
 62
     7
100
AcDbLine
 10
59.89604702239998
 20
361.4613553617999
 30
0.0
 11
59.85509502239999
 21
361.4566173618
 31
0.0
  0
LINE
  5
41E
330
1F
100
AcDbEntity
  8
0
  6
CONTINUOUS
 62
     7
100
AcDbLine
 10
59.85509502239999
 20
361.4566173618
 30
0.0
 11
59.8780809776
 21
361.2579426382
 31
0.0
  0
LINE
  5
41F
330
1F
100
AcDbEntity
  8
0
  6
CONTINUOUS
 62
     7
100
AcDbLine
 10
59.4005519304
 20
361.0333383849999
 30
0.0
 11
59.43371393039997
 21
361.062076385
 31
0.0
  0
LINE
  5
420
330
1F
100
AcDbEntity
  8
0
  6
CONTINUOUS
 62
     7
100
AcDbLine
 10
59.45743151639999
 20
361.3209918702
 30
0.0
 11
59.42151551639996
 21
361.2993858702
 31
0.0
  0
LINE
  5
421
330
1F
100
AcDbEntity
  8
0
  6
CONTINUOUS
 62
     7
100
AcDbLine
 10
59.30273406959996
 20
361.213219615
 30
0.0
 11
59.26957206959993
 21
361.1844816149999
 31
0.0
  0
LINE
  5
422
330
1F
100
AcDbEntity
  8
0
  6
CONTINUOUS
 62
     7
100
AcDbLine
 10
59.65907040259993
 20
361.198043446
 30
0.0
 11
59.69930840260002
 21
361.213691446
 31
0.0
  0
LINE
  5
423
330
1F
100
AcDbEntity
  8
0
  6
CONTINUOUS
 62
     7
100
AcDbLine
 10
59.62681959740002
 20
361.400092554
 30
0.0
 11
59.58658159739999
 21
361.384444554
 31
0.0
  0
LINE
  5
424
330
1F
100
AcDbEntity
  8
0
  6
CONTINUOUS
 62
     7
100
AcDbLine
 10
59.71736539599998
 20
361.428847323
 30
0.0
 11
59.67595739599996
 21
361.416775323
 31
0.0
  0
LINE
  5
425
330
1F
100
AcDbEntity
  8
0
  6
CONTINUOUS
 62
     7
100
AcDbLine
 10
59.76919411159992
 20
361.2357273224
 30
0.0
 11
59.80923011159999
 21
361.2455553224
 31
0.0
  0
LINE
  5
426
330
1F
100
AcDbEntity
  8
0
  6
CONTINUOUS
 62
     7
100
AcDbLine
 10
59.43035498080001
 20
361.0592914989999
 30
0.0
 11
59.46473898079996
 21
361.086555499
 31
0.0
  0
LINE
  5
427
330
1F
100
AcDbEntity
  8
0
  6
CONTINUOUS
 62
     7
100
AcDbLine
 10
59.52816538479999
 20
361.1302463901999
 30
0.0
 11
59.41796261519999
 21
361.2971456098001
 31
0.0
  0
LINE
  5
428
330
1F
100
AcDbEntity
  8
0
  6
CONTINUOUS
 62
     7
100
AcDbLine
 10
59.26957206959993
 20
361.1844816149999
 30
0.0
 11
59.4005519304
 21
361.0333383849999
 31
0.0
  0
LINE
  5
429
330
1F
100
AcDbEntity
  8
0
  6
CONTINUOUS
 62
     7
100
AcDbLine
 10
59.41796261519999
 20
361.2971456098001
 30
0.0
 11
59.38301461520001
 21
361.2740696098
 31
0.0
  0
LINE
  5
42A
330
1F
100
AcDbEntity
  8
0
  6
CONTINUOUS
 62
     7
100
AcDbLine
 10
59.52461248359997
 20
361.1280061298
 30
0.0
 11
59.5605284836
 21
361.1496121297999
 31
0.0
  0
LINE
  5
42B
330
1F
100
AcDbEntity
  8
0
  6
CONTINUOUS
 62
     7
100
AcDbLine
 10
59.5605284836
 20
361.1496121297999
 30
0.0
 11
59.45743151639999
 21
361.3209918702
 31
0.0
  0
LINE
  5
42C
330
1F
100
AcDbEntity
  8
0
  6
CONTINUOUS
 62
     7
100
AcDbLine
 10
59.49786539219998
 20
361.343159884
 30
0.0
 11
59.46107339219997
 21
361.3230798839999
 31
0.0
  0
LINE
  5
42D
330
1F
100
AcDbEntity
  8
0
  6
CONTINUOUS
 62
     7
100
AcDbLine
 10
59.58658159739999
 20
361.384444554
 30
0.0
 11
59.65907040259993
 21
361.198043446
 31
0.0
  0
LINE
  5
42E
330
1F
100
AcDbEntity
  8
0
  6
CONTINUOUS
 62
     7
100
AcDbLine
 10
59.34396403679997
 20
361.2459112937999
 30
0.0
 11
59.46125196320001
 21
361.0839127061999
 31
0.0
  0
LINE
  5
42F
330
1F
100
AcDbEntity
  8
0
  6
CONTINUOUS
 62
     7
100
AcDbLine
 10
59.63091500459999
 20
361.401583299
 30
0.0
 11
59.69521299539998
 21
361.212200701
 31
0.0
  0
LINE
  5
430
330
1F
100
AcDbEntity
  8
0
  6
CONTINUOUS
 62
     7
100
AcDbLine
 10
59.58993851
 20
361.1656640007999
 30
0.0
 11
59.62751050999998
 21
361.1841600008
 31
0.0
  0
LINE
  5
431
330
1F
100
AcDbEntity
  8
0
  6
CONTINUOUS
 62
     7
100
AcDbLine
 10
59.38301461520001
 20
361.2740696098
 30
0.0
 11
59.49321738479996
 21
361.1071703902
 31
0.0
  0
LINE
  5
432
330
1F
100
AcDbEntity
  8
0
  6
CONTINUOUS
 62
     7
100
AcDbLine
 10
59.73609499539995
 20
361.2260807009999
 30
0.0
 11
59.67179700460001
 21
361.415463299
 31
0.0
  0
LINE
  5
433
330
1F
100
AcDbEntity
  8
0
  6
CONTINUOUS
 62
     7
100
AcDbLine
 10
59.53917748999999
 20
361.3635959992
 30
0.0
 11
59.50160548999994
 21
361.3450999991999
 31
0.0
  0
LINE
  5
434
330
1F
100
AcDbEntity
  8
0
  6
CONTINUOUS
 62
     7
100
AcDbLine
 10
59.67179700460001
 20
361.415463299
 30
0.0
 11
59.63091500459999
 21
361.401583299
 31
0.0
  0
LINE
  5
435
330
1F
100
AcDbEntity
  8
0
  6
CONTINUOUS
 62
     7
100
AcDbLine
 10
59.77334260399996
 20
361.236840677
 30
0.0
 11
59.71736539599998
 21
361.428847323
 31
0.0
  0
LINE
  5
436
330
1F
100
AcDbEntity
  8
0
  6
CONTINUOUS
 62
     7
100
AcDbLine
 10
59.46125196320001
 20
361.0839127061999
 30
0.0
 11
59.49675996319997
 21
361.1096207061999
 31
0.0
  0
LINE
  5
437
330
1F
100
AcDbEntity
  8
0
  6
CONTINUOUS
 62
     7
100
AcDbLine
 10
59.80923011159999
 20
361.2455553224
 30
0.0
 11
59.76154988839999
 21
361.4397886775999
 31
0.0
  0
LINE
  5
438
330
1F
100
AcDbEntity
  8
0
  6
CONTINUOUS
 62
     7
100
AcDbLine
 10
59.40378139979996
 20
361.0362626044
 30
0.0
 11
59.26634260019997
 21
361.1815573956
 31
0.0
  0
LINE
  5
439
330
1F
100
AcDbEntity
  8
0
  6
CONTINUOUS
 62
     7
100
AcDbLine
 10
59.37193339980001
 20
361.0061366044
 30
0.0
 11
59.40378139979996
 21
361.0362626044
 31
0.0
  0
LINE
  5
43A
330
1F
100
AcDbEntity
  8
0
  6
CONTINUOUS
 62
     7
100
AcDbLine
 10
59.46107339219997
 20
361.3230798839999
 30
0.0
 11
59.55688660779995
 21
361.1475241159999
 31
0.0
  0
LINE
  5
43B
330
1F
100
AcDbEntity
  8
0
  6
CONTINUOUS
 62
     7
100
AcDbLine
 10
59.94262708399994
 20
361.464829356
 30
0.0
 11
59.90029708399997
 21
361.461755356
 31
0.0
  0
LINE
  5
43C
330
1F
100
AcDbEntity
  8
0
  6
CONTINUOUS
 62
     7
100
AcDbLine
 10
60.28475951839995
 20
361.21927341
 30
0.0
 11
60.32429151839996
 21
361.2047874099999
 31
0.0
  0
LINE
  5
43D
330
1F
100
AcDbEntity
  8
0
  6
CONTINUOUS
 62
     7
100
AcDbLine
 10
60.32033169020001
 20
361.2063346867999
 30
0.0
 11
60.3591756902
 21
361.1901966868
 31
0.0
  0
LINE
  5
43E
330
1F
100
AcDbEntity
  8
0
  6
CONTINUOUS
 62
     7
100
AcDbLine
 10
60.21216548939995
 20
361.2405521916
 30
0.0
 11
60.25274948939996
 21
361.2294861916
 31
0.0
  0
LINE
  5
43F
330
1F
100
AcDbEntity
  8
0
  6
CONTINUOUS
 62
     7
100
AcDbLine
 10
60.25274948939996
 20
361.2294861916
 30
0.0
 11
60.30536251059998
 21
361.4224418084
 31
0.0
  0
LINE
  5
440
330
1F
100
AcDbEntity
  8
0
  6
CONTINUOUS
 62
     7
100
AcDbLine
 10
60.3591756902
 20
361.1901966868
 30
0.0
 11
60.4359083098
 21
361.3748913132
 31
0.0
  0
LINE
  5
441
330
1F
100
AcDbEntity
  8
0
  6
CONTINUOUS
 62
     7
100
AcDbLine
 10
60.4359083098
 20
361.3748913132
 30
0.0
 11
60.39706430979997
 21
361.3910293132
 31
0.0
  0
LINE
  5
442
330
1F
100
AcDbEntity
  8
0
  6
CONTINUOUS
 62
     7
100
AcDbLine
 10
60.3495591014
 20
361.4084374041999
 30
0.0
 11
60.30944910139996
 21
361.4212334042001
 31
0.0
  0
LINE
  5
443
330
1F
100
AcDbEntity
  8
0
  6
CONTINUOUS
 62
     7
100
AcDbLine
 10
60.39706430979997
 20
361.3910293132
 30
0.0
 11
60.32033169020001
 21
361.2063346867999
 31
0.0
  0
LINE
  5
444
330
1F
100
AcDbEntity
  8
0
  6
CONTINUOUS
 62
     7
100
AcDbLine
 10
60.39310448159996
 20
361.3925765899999
 30
0.0
 11
60.35357248159995
 21
361.40706259
 31
0.0
  0
LINE
  5
445
330
1F
100
AcDbEntity
  8
0
  6
CONTINUOUS
 62
     7
100
AcDbLine
 10
60.18046801479998
 20
361.2477677955999
 30
0.0
 11
60.21675598519999
 21
361.4444482044
 31
0.0
  0
LINE
  5
446
330
1F
100
AcDbEntity
  8
0
  6
CONTINUOUS
 62
     7
100
AcDbLine
 10
60.35494708479999
 20
361.1920692898
 30
0.0
 11
60.39962908479995
 21
361.1710332897999
 31
0.0
  0
LINE
  5
447
330
1F
100
AcDbEntity
  8
0
  6
CONTINUOUS
 62
     7
100
AcDbLine
 10
60.48481891519997
 20
361.3519827102
 30
0.0
 11
60.4401369152
 21
361.3730187102
 31
0.0
  0
LINE
  5
448
330
1F
100
AcDbEntity
  8
0
  6
CONTINUOUS
 62
     7
100
AcDbLine
 10
60.39962908479995
 20
361.1710332897999
 30
0.0
 11
60.48481891519997
 21
361.3519827102
 31
0.0
  0
LINE
  5
449
330
1F
100
AcDbEntity
  8
0
  6
CONTINUOUS
 62
     7
100
AcDbLine
 10
59.98940101219996
 20
361.4662949785999
 30
0.0
 11
59.9469370122
 21
361.4650489785999
 31
0.0
  0
LINE
  5
44A
330
1F
100
AcDbEntity
  8
0
  6
CONTINUOUS
 62
     7
100
AcDbLine
 10
60.10793300299999
 20
361.2597763454
 30
0.0
 11
60.127794997
 21
361.4587876545999
 31
0.0
  0
LINE
  5
44B
330
1F
100
AcDbEntity
  8
0
  6
CONTINUOUS
 62
     7
100
AcDbLine
 10
59.90029708399997
 20
361.461755356
 30
0.0
 11
59.91478291599994
 21
361.262280644
 31
0.0
  0
LINE
  5
44C
330
1F
100
AcDbEntity
  8
0
  6
CONTINUOUS
 62
     7
100
AcDbLine
 10
60.26067809059998
 20
361.4345332796
 30
0.0
 11
60.22081809059998
 21
361.4436112795999
 31
0.0
  0
LINE
  5
44D
330
1F
100
AcDbEntity
  8
0
  6
CONTINUOUS
 62
     7
100
AcDbLine
 10
60.39518682759998
 20
361.173261162
 30
0.0
 11
60.43876882759997
 21
361.1500311619999
 31
0.0
  0
LINE
  5
44E
330
1F
100
AcDbEntity
  8
0
  6
CONTINUOUS
 62
     7
100
AcDbLine
 10
60.43876882759997
 20
361.1500311619999
 30
0.0
 11
60.53284317239999
 21
361.326524838
 31
0.0
  0
LINE
  5
44F
330
1F
100
AcDbEntity
  8
0
  6
CONTINUOUS
 62
     7
100
AcDbLine
 10
60.53284317239999
 20
361.326524838
 30
0.0
 11
60.4892611724
 21
361.3497548379999
 31
0.0
  0
LINE
  5
450
330
1F
100
AcDbEntity
  8
0
  6
CONTINUOUS
 62
     7
100
AcDbLine
 10
60.4892611724
 20
361.3497548379999
 30
0.0
 11
60.39518682759998
 21
361.173261162
 31
0.0
  0
LINE
  5
451
330
1F
100
AcDbEntity
  8
0
  6
CONTINUOUS
 62
     7
100
AcDbLine
 10
60.26477851060002
 20
361.4335078084
 30
0.0
 11
60.21216548939995
 21
361.2405521916
 31
0.0
  0
LINE
  5
452
330
1F
100
AcDbEntity
  8
0
  6
CONTINUOUS
 62
     7
100
AcDbLine
 10
60.32429151839996
 20
361.2047874099999
 30
0.0
 11
60.39310448159996
 21
361.3925765899999
 31
0.0
  0
LINE
  5
453
330
1F
100
AcDbEntity
  8
0
  6
CONTINUOUS
 62
     7
100
AcDbLine
 10
60.21675598519999
 20
361.4444482044
 30
0.0
 11
60.17651798519996
 21
361.4518722044
 31
0.0
  0
LINE
  5
454
330
1F
100
AcDbEntity
  8
0
  6
CONTINUOUS
 62
     7
100
AcDbLine
 10
60.35357248159995
 20
361.40706259
 30
0.0
 11
60.28475951839995
 21
361.21927341
 31
0.0
  0
LINE
  5
455
330
1F
100
AcDbEntity
  8
0
  6
CONTINUOUS
 62
     7
100
AcDbLine
 10
60.43442483739997
 20
361.1524876967999
 30
0.0
 11
60.47721883739998
 21
361.1268576968
 31
0.0
  0
LINE
  5
456
330
1F
100
AcDbEntity
  8
0
  6
CONTINUOUS
 62
     7
100
AcDbLine
 10
60.47721883739998
 20
361.1268576968
 30
0.0
 11
60.57998116259999
 21
361.2984383031999
 31
0.0
  0
LINE
  5
457
330
1F
100
AcDbEntity
  8
0
  6
CONTINUOUS
 62
     7
100
AcDbLine
 10
60.127794997
 20
361.4587876545999
 30
0.0
 11
60.08711499699998
 21
361.4628476545999
 31
0.0
  0
LINE
  5
458
330
1F
100
AcDbEntity
  8
0
  6
CONTINUOUS
 62
     7
100
AcDbLine
 10
60.04049993519994
 20
361.465594106
 30
0.0
 11
60.02912406479999
 21
361.265917894
 31
0.0
  0
LINE
  5
459
330
1F
100
AcDbEntity
  8
0
  6
CONTINUOUS
 62
     7
100
AcDbLine
 10
60.17242716719995
 20
361.4525396184
 30
0.0
 11
60.13191716720001
 21
361.4582896184
 31
0.0
  0
LINE
  5
45A
330
1F
100
AcDbEntity
  8
0
  6
CONTINUOUS
 62
     7
100
AcDbLine
 10
59.99526698779994
 20
361.2663810214
 30
0.0
 11
59.98940101219996
 21
361.4662949785999
 31
0.0
  0
LINE
  5
45B
330
1F
100
AcDbEntity
  8
0
  6
CONTINUOUS
 62
     7
100
AcDbLine
 10
59.9937039924
 20
361.4663286152
 30
0.0
 11
59.99096400759996
 21
361.2663473848
 31
0.0
  0
LINE
  5
45C
330
1F
100
AcDbEntity
  8
0
  6
CONTINUOUS
 62
     7
100
AcDbLine
 10
60.08287193519995
 20
361.463180106
 30
0.0
 11
60.04049993519994
 21
361.465594106
 31
0.0
  0
LINE
  5
45D
330
1F
100
AcDbEntity
  8
0
  6
CONTINUOUS
 62
     7
100
AcDbLine
 10
60.4401369152
 20
361.3730187102
 30
0.0
 11
60.35494708479999
 21
361.1920692898
 31
0.0
  0
LINE
  5
45E
330
1F
100
AcDbEntity
  8
0
  6
CONTINUOUS
 62
     7
100
AcDbLine
 10
60.24866289859998
 20
361.2306945957999
 30
0.0
 11
60.28877289859996
 21
361.2178985957999
 31
0.0
  0
LINE
  5
45F
330
1F
100
AcDbEntity
  8
0
  6
CONTINUOUS
 62
     7
100
AcDbLine
 10
59.95711291599998
 20
361.265354644
 30
0.0
 11
59.94262708399994
 21
361.464829356
 31
0.0
  0
LINE
  5
460
330
1F
100
AcDbEntity
  8
0
  6
CONTINUOUS
 62
     7
100
AcDbLine
 10
60.17651798519996
 20
361.4518722044
 30
0.0
 11
60.14023001480001
 21
361.2551917956
 31
0.0
  0
LINE
  5
461
330
1F
100
AcDbEntity
  8
0
  6
CONTINUOUS
 62
     7
100
AcDbLine
 10
59.99096400759996
 20
361.2663473848
 30
0.0
 11
60.03344200759997
 21
361.2657653848
 31
0.0
  0
LINE
  5
462
330
1F
100
AcDbEntity
  8
0
  6
CONTINUOUS
 62
     7
100
AcDbLine
 10
60.30536251059998
 20
361.4224418084
 30
0.0
 11
60.26477851060002
 21
361.4335078084
 31
0.0
  0
LINE
  5
463
330
1F
100
AcDbEntity
  8
0
  6
CONTINUOUS
 62
     7
100
AcDbLine
 10
59.95280298779998
 20
361.2651350214
 30
0.0
 11
59.99526698779994
 21
361.2663810214
 31
0.0
  0
LINE
  5
464
330
1F
100
AcDbEntity
  8
0
  6
CONTINUOUS
 62
     7
100
AcDbLine
 10
60.13191716720001
 20
361.4582896184
 30
0.0
 11
60.10381083279997
 21
361.2602743815999
 31
0.0
  0
LINE
  5
465
330
1F
100
AcDbEntity
  8
0
  6
CONTINUOUS
 62
     7
100
AcDbLine
 10
60.10381083279997
 20
361.2602743815999
 30
0.0
 11
60.14432083279997
 21
361.2545243816
 31
0.0
  0
LINE
  5
466
330
1F
100
AcDbEntity
  8
0
  6
CONTINUOUS
 62
     7
100
AcDbLine
 10
60.03618199239996
 20
361.4657466152
 30
0.0
 11
59.9937039924
 21
361.4663286152
 31
0.0
  0
LINE
  5
467
330
1F
100
AcDbEntity
  8
0
  6
CONTINUOUS
 62
     7
100
AcDbLine
 10
60.14432083279997
 20
361.2545243816
 30
0.0
 11
60.17242716719995
 21
361.4525396184
 31
0.0
  0
LINE
  5
468
330
1F
100
AcDbEntity
  8
0
  6
CONTINUOUS
 62
     7
100
AcDbLine
 10
60.17640590939999
 20
361.2486047203999
 30
0.0
 11
60.21626590939999
 21
361.2395267204
 31
0.0
  0
LINE
  5
469
330
1F
100
AcDbEntity
  8
0
  6
CONTINUOUS
 62
     7
100
AcDbLine
 10
60.06725300299998
 20
361.2638363454
 30
0.0
 11
60.10793300299999
 21
361.2597763454
 31
0.0
  0
LINE
  5
46A
330
1F
100
AcDbEntity
  8
0
  6
CONTINUOUS
 62
     7
100
AcDbLine
 10
60.21626590939999
 20
361.2395267204
 30
0.0
 11
60.26067809059998
 21
361.4345332796
 31
0.0
  0
LINE
  5
46B
330
1F
100
AcDbEntity
  8
0
  6
CONTINUOUS
 62
     7
100
AcDbLine
 10
60.28877289859996
 20
361.2178985957999
 30
0.0
 11
60.3495591014
 21
361.4084374041999
 31
0.0
  0
LINE
  5
46C
330
1F
100
AcDbEntity
  8
0
  6
CONTINUOUS
 62
     7
100
AcDbLine
 10
60.02912406479999
 20
361.265917894
 30
0.0
 11
60.07149606479994
 21
361.2635038939999
 31
0.0
  0
LINE
  5
46D
330
1F
100
AcDbEntity
  8
0
  6
CONTINUOUS
 62
     7
100
AcDbLine
 10
60.08711499699998
 20
361.4628476545999
 30
0.0
 11
60.06725300299998
 21
361.2638363454
 31
0.0
  0
LINE
  5
46E
330
1F
100
AcDbEntity
  8
0
  6
CONTINUOUS
 62
     7
100
AcDbLine
 10
60.14023001480001
 20
361.2551917956
 30
0.0
 11
60.18046801479998
 21
361.2477677955999
 31
0.0
  0
LINE
  5
46F
330
1F
100
AcDbEntity
  8
0
  6
CONTINUOUS
 62
     7
100
AcDbLine
 10
60.22081809059998
 20
361.4436112795999
 30
0.0
 11
60.17640590939999
 21
361.2486047203999
 31
0.0
  0
LINE
  5
470
330
1F
100
AcDbEntity
  8
0
  6
CONTINUOUS
 62
     7
100
AcDbLine
 10
60.30944910139996
 20
361.4212334042001
 30
0.0
 11
60.24866289859998
 21
361.2306945957999
 31
0.0
  0
LINE
  5
471
330
1F
100
AcDbEntity
  8
0
  6
CONTINUOUS
 62
     7
100
AcDbLine
 10
59.9469370122
 20
361.4650489785999
 30
0.0
 11
59.95280298779998
 21
361.2651350214
 31
0.0
  0
LINE
  5
472
330
1F
100
AcDbEntity
  8
0
  6
CONTINUOUS
 62
     7
100
AcDbLine
 10
59.91478291599994
 20
361.262280644
 30
0.0
 11
59.95711291599998
 21
361.265354644
 31
0.0
  0
LINE
  5
473
330
1F
100
AcDbEntity
  8
0
  6
CONTINUOUS
 62
     7
100
AcDbLine
 10
60.03344200759997
 20
361.2657653848
 30
0.0
 11
60.03618199239996
 21
361.4657466152
 31
0.0
  0
LINE
  5
474
330
1F
100
AcDbEntity
  8
0
  6
CONTINUOUS
 62
     7
100
AcDbLine
 10
60.07149606479994
 20
361.2635038939999
 30
0.0
 11
60.08287193519995
 21
361.463180106
 31
0.0
  0
LINE
  5
475
330
1F
100
AcDbEntity
  8
0
  6
CONTINUOUS
 62
     7
100
AcDbLine
 10
60.94356654739996
 20
360.9233415625999
 30
0.0
 11
60.7694334526
 21
360.8249664374
 31
0.0
  0
LINE
  5
476
330
1F
100
AcDbEntity
  8
0
  6
CONTINUOUS
 62
     7
100
AcDbLine
 10
60.807348584
 20
360.7545059581999
 30
0.0
 11
60.98538341599996
 21
360.8456300417999
 31
0.0
  0
LINE
  5
477
330
1F
100
AcDbEntity
  8
0
  6
CONTINUOUS
 62
     7
100
AcDbLine
 10
60.70458144519996
 20
360.9198572928
 30
0.0
 11
60.73039544519992
 21
360.8850952928
 31
0.0
  0
LINE
  5
478
330
1F
100
AcDbEntity
  8
0
  6
CONTINUOUS
 62
     7
100
AcDbLine
 10
60.68265671739997
 20
360.946891757
 30
0.0
 11
60.83247928259993
 21
361.0793802429999
 31
0.0
  0
LINE
  5
479
330
1F
100
AcDbEntity
  8
0
  6
CONTINUOUS
 62
     7
100
AcDbLine
 10
60.57400018459996
 20
361.055637926
 30
0.0
 11
60.69939981539996
 21
361.211442074
 31
0.0
  0
LINE
  5
47A
330
1F
100
AcDbEntity
  8
0
  6
CONTINUOUS
 62
     7
100
AcDbLine
 10
60.98538341599996
 20
360.8456300417999
 30
0.0
 11
60.96622141599994
 21
360.8830680418
 31
0.0
  0
LINE
  5
47B
330
1F
100
AcDbEntity
  8
0
  6
CONTINUOUS
 62
     7
100
AcDbLine
 10
60.58420503899997
 20
361.2957628582
 30
0.0
 11
60.47299496099995
 21
361.1295331418
 31
0.0
  0
LINE
  5
47C
330
1F
100
AcDbEntity
  8
0
  6
CONTINUOUS
 62
     7
100
AcDbLine
 10
60.60245974459999
 20
361.0305834347999
 30
0.0
 11
60.73426825540001
 21
361.1810045652001
 31
0.0
  0
LINE
  5
47D
330
1F
100
AcDbEntity
  8
0
  6
CONTINUOUS
 62
     7
100
AcDbLine
 10
60.59937604619997
 20
361.0334015818
 30
0.0
 11
60.62982604619993
 21
361.0043835818
 31
0.0
  0
LINE
  5
47E
330
1F
100
AcDbEntity
  8
0
  6
CONTINUOUS
 62
     7
100
AcDbLine
 10
60.62982604619993
 20
361.0043835818
 30
0.0
 11
60.7678019538
 21
361.1491684182
 31
0.0
  0
LINE
  5
47F
330
1F
100
AcDbEntity
  8
0
  6
CONTINUOUS
 62
     7
100
AcDbLine
 10
60.9192855406
 20
360.9626397154
 30
0.0
 11
60.7493344594
 21
360.8572042846
 31
0.0
  0
LINE
  5
480
330
1F
100
AcDbEntity
  8
0
  6
CONTINUOUS
 62
     7
100
AcDbLine
 10
60.8055245054
 20
360.7582610286
 30
0.0
 11
60.82360650539997
 21
360.7189710285999
 31
0.0
  0
LINE
  5
481
330
1F
100
AcDbEntity
  8
0
  6
CONTINUOUS
 62
     7
100
AcDbLine
 10
60.82360650539997
 20
360.7189710285999
 30
0.0
 11
61.00528949459999
 21
360.8025849714001
 31
0.0
  0
LINE
  5
482
330
1F
100
AcDbEntity
  8
0
  6
CONTINUOUS
 62
     7
100
AcDbLine
 10
60.98720749459996
 20
360.8418749713999
 30
0.0
 11
60.8055245054
 21
360.7582610286
 31
0.0
  0
LINE
  5
483
330
1F
100
AcDbEntity
  8
0
  6
CONTINUOUS
 62
     7
100
AcDbLine
 10
60.82192336079994
 20
360.7228413269999
 30
0.0
 11
60.83834536080001
 21
360.682789327
 31
0.0
  0
LINE
  5
484
330
1F
100
AcDbEntity
  8
0
  6
CONTINUOUS
 62
     7
100
AcDbLine
 10
60.57079574459995
 20
361.0583294348
 30
0.0
 11
60.60245974459999
 21
361.0305834347999
 31
0.0
  0
LINE
  5
485
330
1F
100
AcDbEntity
  8
0
  6
CONTINUOUS
 62
     7
100
AcDbLine
 10
60.80377128259995
 20
361.1118442429999
 30
0.0
 11
60.65394871739998
 21
360.979355757
 31
0.0
  0
LINE
  5
486
330
1F
100
AcDbEntity
  8
0
  6
CONTINUOUS
 62
     7
100
AcDbLine
 10
60.67989932039996
 20
360.9501473008
 30
0.0
 11
60.70719732039997
 21
360.9164873007999
 31
0.0
  0
LINE
  5
487
330
1F
100
AcDbEntity
  8
0
  6
CONTINUOUS
 62
     7
100
AcDbLine
 10
60.78818658399998
 20
360.7919439582
 30
0.0
 11
60.807348584
 21
360.7545059581999
 31
0.0
  0
LINE
  5
488
330
1F
100
AcDbEntity
  8
0
  6
CONTINUOUS
 62
     7
100
AcDbLine
 10
60.70260425539997
 20
361.2087505652
 30
0.0
 11
60.57079574459995
 21
361.0583294348
 31
0.0
  0
LINE
  5
489
330
1F
100
AcDbEntity
  8
0
  6
CONTINUOUS
 62
     7
100
AcDbLine
 10
60.75158578699996
 20
360.8537374418
 30
0.0
 11
60.91703421299999
 21
360.9661065582
 31
0.0
  0
LINE
  5
48A
330
1F
100
AcDbEntity
  8
0
  6
CONTINUOUS
 62
     7
100
AcDbLine
 10
60.96622141599994
 20
360.8830680418
 30
0.0
 11
60.78818658399998
 21
360.7919439582
 31
0.0
  0
LINE
  5
48B
330
1F
100
AcDbEntity
  8
0
  6
CONTINUOUS
 62
     7
100
AcDbLine
 10
60.514452961
 20
361.1017971418
 30
0.0
 11
60.62566303899997
 21
361.2680268581999
 31
0.0
  0
LINE
  5
48C
330
1F
100
AcDbEntity
  8
0
  6
CONTINUOUS
 62
     7
100
AcDbLine
 10
60.80086355079995
 20
361.1149937222
 30
0.0
 11
60.77081755079999
 21
361.1461697222001
 31
0.0
  0
LINE
  5
48D
330
1F
100
AcDbEntity
  8
0
  6
CONTINUOUS
 62
     7
100
AcDbLine
 10
60.65394871739998
 20
360.979355757
 30
0.0
 11
60.68265671739997
 21
360.946891757
 31
0.0
  0
LINE
  5
48E
330
1F
100
AcDbEntity
  8
0
  6
CONTINUOUS
 62
     7
100
AcDbLine
 10
60.7694334526
 20
360.8249664374
 30
0.0
 11
60.79013745259998
 21
360.7883184374
 31
0.0
  0
LINE
  5
48F
330
1F
100
AcDbEntity
  8
0
  6
CONTINUOUS
 62
     7
100
AcDbLine
 10
61.00528949459999
 20
360.8025849714001
 30
0.0
 11
60.98720749459996
 21
360.8418749713999
 31
0.0
  0
LINE
  5
490
330
1F
100
AcDbEntity
  8
0
  6
CONTINUOUS
 62
     7
100
AcDbLine
 10
60.57998116259999
 20
361.2984383031999
 30
0.0
 11
60.53718716259998
 21
361.3240683032
 31
0.0
  0
LINE
  5
491
330
1F
100
AcDbEntity
  8
0
  6
CONTINUOUS
 62
     7
100
AcDbLine
 10
60.83834536080001
 20
360.682789327
 30
0.0
 11
61.02339463919998
 21
360.7586626729999
 31
0.0
  0
LINE
  5
492
330
1F
100
AcDbEntity
  8
0
  6
CONTINUOUS
 62
     7
100
AcDbLine
 10
61.02339463919998
 20
360.7586626729999
 30
0.0
 11
61.00697263919997
 21
360.7987146729999
 31
0.0
  0
LINE
  5
493
330
1F
100
AcDbEntity
  8
0
  6
CONTINUOUS
 62
     7
100
AcDbLine
 10
61.00697263919997
 20
360.7987146729999
 30
0.0
 11
60.82192336079994
 21
360.7228413269999
 31
0.0
  0
LINE
  5
494
330
1F
100
AcDbEntity
  8
0
  6
CONTINUOUS
 62
     7
100
AcDbLine
 10
60.7493344594
 20
360.8572042846
 30
0.0
 11
60.77152445939998
 21
360.8214362846001
 31
0.0
  0
LINE
  5
495
330
1F
100
AcDbEntity
  8
0
  6
CONTINUOUS
 62
     7
100
AcDbLine
 10
60.83683722040001
 20
360.6866990053999
 30
0.0
 11
60.85156722039997
 21
360.6459930054
 31
0.0
  0
LINE
  5
496
330
1F
100
AcDbEntity
  8
0
  6
CONTINUOUS
 62
     7
100
AcDbLine
 10
60.51068134479998
 20
361.104448264
 30
0.0
 11
60.54452734479992
 21
361.0794722639999
 31
0.0
  0
LINE
  5
497
330
1F
100
AcDbEntity
  8
0
  6
CONTINUOUS
 62
     7
100
AcDbLine
 10
60.73039544519992
 20
360.8850952928
 30
0.0
 11
60.89096455479997
 21
361.0043327072
 31
0.0
  0
LINE
  5
498
330
1F
100
AcDbEntity
  8
0
  6
CONTINUOUS
 62
     7
100
AcDbLine
 10
60.89096455479997
 20
361.0043327072
 30
0.0
 11
60.86515055479996
 21
361.0390947072
 31
0.0
  0
LINE
  5
499
330
1F
100
AcDbEntity
  8
0
  6
CONTINUOUS
 62
     7
100
AcDbLine
 10
60.53718716259998
 20
361.3240683032
 30
0.0
 11
60.43442483739997
 21
361.1524876967999
 31
0.0
  0
LINE
  5
49A
330
1F
100
AcDbEntity
  8
0
  6
CONTINUOUS
 62
     7
100
AcDbLine
 10
60.77081755079999
 20
361.1461697222001
 30
0.0
 11
60.62681044919993
 21
361.0073822778
 31
0.0
  0
LINE
  5
49B
330
1F
100
AcDbEntity
  8
0
  6
CONTINUOUS
 62
     7
100
AcDbLine
 10
60.91703421299999
 20
360.9661065582
 30
0.0
 11
60.89340421299999
 21
361.0008985581999
 31
0.0
  0
LINE
  5
49C
330
1F
100
AcDbEntity
  8
0
  6
CONTINUOUS
 62
     7
100
AcDbLine
 10
60.89340421299999
 20
361.0008985581999
 30
0.0
 11
60.72795578699996
 21
360.8885294418
 31
0.0
  0
LINE
  5
49D
330
1F
100
AcDbEntity
  8
0
  6
CONTINUOUS
 62
     7
100
AcDbLine
 10
60.66328065519999
 20
361.240399736
 30
0.0
 11
60.62943465519999
 21
361.265375736
 31
0.0
  0
LINE
  5
49E
330
1F
100
AcDbEntity
  8
0
  6
CONTINUOUS
 62
     7
100
AcDbLine
 10
60.79013745259998
 20
360.7883184374
 30
0.0
 11
60.9642705474
 21
360.8866935626
 31
0.0
  0
LINE
  5
49F
330
1F
100
AcDbEntity
  8
0
  6
CONTINUOUS
 62
     7
100
AcDbLine
 10
60.85156722039997
 20
360.6459930054
 30
0.0
 11
61.03963277960001
 21
360.7140469946
 31
0.0
  0
LINE
  5
4A0
330
1F
100
AcDbEntity
  8
0
  6
CONTINUOUS
 62
     7
100
AcDbLine
 10
60.62566303899997
 20
361.2680268581999
 30
0.0
 11
60.58420503899997
 21
361.2957628582
 31
0.0
  0
LINE
  5
4A1
330
1F
100
AcDbEntity
  8
0
  6
CONTINUOUS
 62
     7
100
AcDbLine
 10
60.66660381539995
 20
361.237838074
 30
0.0
 11
60.54120418460002
 21
361.082033926
 31
0.0
  0
LINE
  5
4A2
330
1F
100
AcDbEntity
  8
0
  6
CONTINUOUS
 62
     7
100
AcDbLine
 10
60.7678019538
 20
361.1491684182
 30
0.0
 11
60.73735195379998
 21
361.1781864182
 31
0.0
  0
LINE
  5
4A3
330
1F
100
AcDbEntity
  8
0
  6
CONTINUOUS
 62
     7
100
AcDbLine
 10
60.69939981539996
 20
361.211442074
 30
0.0
 11
60.66660381539995
 21
361.237838074
 31
0.0
  0
LINE
  5
4A4
330
1F
100
AcDbEntity
  8
0
  6
CONTINUOUS
 62
     7
100
AcDbLine
 10
60.54120418460002
 20
361.082033926
 30
0.0
 11
60.57400018459996
 21
361.055637926
 31
0.0
  0
LINE
  5
4A5
330
1F
100
AcDbEntity
  8
0
  6
CONTINUOUS
 62
     7
100
AcDbLine
 10
60.73426825540001
 20
361.1810045652001
 30
0.0
 11
60.70260425539997
 21
361.2087505652
 31
0.0
  0
LINE
  5
4A6
330
1F
100
AcDbEntity
  8
0
  6
CONTINUOUS
 62
     7
100
AcDbLine
 10
60.54452734479992
 20
361.0794722639999
 30
0.0
 11
60.66328065519999
 21
361.240399736
 31
0.0
  0
LINE
  5
4A7
330
1F
100
AcDbEntity
  8
0
  6
CONTINUOUS
 62
     7
100
AcDbLine
 10
60.73735195379998
 20
361.1781864182
 30
0.0
 11
60.59937604619997
 21
361.0334015818
 31
0.0
  0
LINE
  5
4A8
330
1F
100
AcDbEntity
  8
0
  6
CONTINUOUS
 62
     7
100
AcDbLine
 10
60.65685644919999
 20
360.9762062777999
 30
0.0
 11
60.80086355079995
 21
361.1149937222
 31
0.0
  0
LINE
  5
4A9
330
1F
100
AcDbEntity
  8
0
  6
CONTINUOUS
 62
     7
100
AcDbLine
 10
60.86515055479996
 20
361.0390947072
 30
0.0
 11
60.70458144519996
 21
360.9198572928
 31
0.0
  0
LINE
  5
4AA
330
1F
100
AcDbEntity
  8
0
  6
CONTINUOUS
 62
     7
100
AcDbLine
 10
60.70719732039997
 20
360.9164873007999
 30
0.0
 11
60.86253467959995
 21
361.0424646992
 31
0.0
  0
LINE
  5
4AB
330
1F
100
AcDbEntity
  8
0
  6
CONTINUOUS
 62
     7
100
AcDbLine
 10
60.62681044919993
 20
361.0073822778
 30
0.0
 11
60.65685644919999
 21
360.9762062777999
 31
0.0
  0
LINE
  5
4AC
330
1F
100
AcDbEntity
  8
0
  6
CONTINUOUS
 62
     7
100
AcDbLine
 10
60.77152445939998
 20
360.8214362846001
 30
0.0
 11
60.94147554059997
 21
360.9268717154
 31
0.0
  0
LINE
  5
4AD
330
1F
100
AcDbEntity
  8
0
  6
CONTINUOUS
 62
     7
100
AcDbLine
 10
60.47299496099995
 20
361.1295331418
 30
0.0
 11
60.514452961
 21
361.1017971418
 31
0.0
  0
LINE
  5
4AE
330
1F
100
AcDbEntity
  8
0
  6
CONTINUOUS
 62
     7
100
AcDbLine
 10
60.83247928259993
 20
361.0793802429999
 30
0.0
 11
60.80377128259995
 21
361.1118442429999
 31
0.0
  0
LINE
  5
4AF
330
1F
100
AcDbEntity
  8
0
  6
CONTINUOUS
 62
     7
100
AcDbLine
 10
60.86253467959995
 20
361.0424646992
 30
0.0
 11
60.83523667959994
 21
361.0761246992
 31
0.0
  0
LINE
  5
4B0
330
1F
100
AcDbEntity
  8
0
  6
CONTINUOUS
 62
     7
100
AcDbLine
 10
60.83523667959994
 20
361.0761246992
 30
0.0
 11
60.67989932039996
 21
360.9501473008
 31
0.0
  0
LINE
  5
4B1
330
1F
100
AcDbEntity
  8
0
  6
CONTINUOUS
 62
     7
100
AcDbLine
 10
60.72795578699996
 20
360.8885294418
 30
0.0
 11
60.75158578699996
 21
360.8537374418
 31
0.0
  0
LINE
  5
4B2
330
1F
100
AcDbEntity
  8
0
  6
CONTINUOUS
 62
     7
100
AcDbLine
 10
60.62943465519999
 20
361.265375736
 30
0.0
 11
60.51068134479998
 21
361.104448264
 31
0.0
  0
LINE
  5
4B3
330
1F
100
AcDbEntity
  8
0
  6
CONTINUOUS
 62
     7
100
AcDbLine
 10
60.94147554059997
 20
360.9268717154
 30
0.0
 11
60.9192855406
 21
360.9626397154
 31
0.0
  0
LINE
  5
4B4
330
1F
100
AcDbEntity
  8
0
  6
CONTINUOUS
 62
     7
100
AcDbLine
 10
60.9642705474
 20
360.8866935626
 30
0.0
 11
60.94356654739996
 21
360.9233415625999
 31
0.0
  0
LINE
  5
4B5
330
1F
100
AcDbEntity
  8
0
  6
CONTINUOUS
 62
     7
100
AcDbLine
 10
61.08800236859996
 20
360.5134292282
 30
0.0
 11
61.07996036859997
 21
360.5611992282001
 31
0.0
  0
LINE
  5
4B6
330
1F
100
AcDbEntity
  8
0
  6
CONTINUOUS
 62
     7
100
AcDbLine
 10
60.89553445479995
 20
360.4405908234
 30
0.0
 11
60.89907445479997
 21
360.3912568234
 31
0.0
  0
LINE
  5
4B7
330
1F
100
AcDbEntity
  8
0
  6
CONTINUOUS
 62
     7
100
AcDbLine
 10
60.89907445479997
 20
360.3912568234
 30
0.0
 11
61.09856154519999
 21
360.4055711766
 31
0.0
  0
LINE
  5
4B8
330
1F
100
AcDbEntity
  8
0
  6
CONTINUOUS
 62
     7
100
AcDbLine
 10
61.05521934399999
 20
360.6645273266
 30
0.0
 11
60.86196865599997
 21
360.6130086734
 31
0.0
  0
LINE
  5
4B9
330
1F
100
AcDbEntity
  8
0
  6
CONTINUOUS
 62
     7
100
AcDbLine
 10
60.89884659
 20
360.3960229396
 30
0.0
 11
60.90002858999993
 21
360.3466029396
 31
0.0
  0
LINE
  5
4BA
330
1F
100
AcDbEntity
  8
0
  6
CONTINUOUS
 62
     7
100
AcDbLine
 10
61.06769734399997
 20
360.6177213266
 30
0.0
 11
61.05521934399999
 21
360.6645273266
 31
0.0
  0
LINE
  5
4BB
330
1F
100
AcDbEntity
  8
0
  6
CONTINUOUS
 62
     7
100
AcDbLine
 10
60.90002858999993
 20
360.3466029396
 30
0.0
 11
61.09997141000001
 21
360.3513850604
 31
0.0
  0
LINE
  5
4BC
330
1F
100
AcDbEntity
  8
0
  6
CONTINUOUS
 62
     7
100
AcDbLine
 10
61.09878940999997
 20
360.4008050603999
 30
0.0
 11
60.89884659
 21
360.3960229396
 31
0.0
  0
LINE
  5
4BD
330
1F
100
AcDbEntity
  8
0
  6
CONTINUOUS
 62
     7
100
AcDbLine
 10
98.99999999999997
 20
361.75
 30
0.0
 11
98.99999999999997
 21
289.2499999999999
 31
0.0
  0
LINE
  5
4BE
330
1F
100
AcDbEntity
  8
0
  6
CONTINUOUS
 62
     7
100
AcDbLine
 10
101.0
 20
199.75
 30
0.0
 11
101.0
 21
272.25
 31
0.0
  0
LINE
  5
4BF
330
1F
100
AcDbEntity
  8
0
  6
CONTINUOUS
 62
     7
100
AcDbLine
 10
60.85021988359996
 20
360.649976142
 30
0.0
 11
60.8632138836
 21
360.608724142
 31
0.0
  0
LINE
  5
4C0
330
1F
100
AcDbEntity
  8
0
  6
CONTINUOUS
 62
     7
100
AcDbLine
 10
61.06879841759999
 20
360.6131645308
 30
0.0
 11
60.87334558239998
 21
360.5707594691999
 31
0.0
  0
LINE
  5
4C1
330
1F
100
AcDbEntity
  8
0
  6
CONTINUOUS
 62
     7
100
AcDbLine
 10
61.09856154519999
 20
360.4055711766
 30
0.0
 11
61.09502154519997
 21
360.4549051766001
 31
0.0
  0
LINE
  5
4C2
330
1F
100
AcDbEntity
  8
0
  6
CONTINUOUS
 62
     7
100
AcDbLine
 10
61.09502154519997
 20
360.4549051766001
 30
0.0
 11
60.89553445479995
 21
360.4405908234
 31
0.0
  0
LINE
  5
4C3
330
1F
100
AcDbEntity
  8
0
  6
CONTINUOUS
 62
     7
100
AcDbLine
 10
61.09997141000001
 20
360.3513850604
 30
0.0
 11
61.09878940999997
 21
360.4008050603999
 31
0.0
  0
LINE
  5
4C4
330
1F
100
AcDbEntity
  8
0
  6
CONTINUOUS
 62
     7
100
AcDbLine
 10
98.99999999999997
 20
272.25
 30
0.0
 11
98.99999999999997
 21
199.75
 31
0.0
  0
LINE
  5
4C5
330
1F
100
AcDbEntity
  8
0
  6
CONTINUOUS
 62
     7
100
AcDbLine
 10
61.05397411640001
 20
360.668811858
 30
0.0
 11
61.04098011640002
 21
360.710063858
 31
0.0
  0
LINE
  5
4C6
330
1F
100
AcDbEntity
  8
0
  6
CONTINUOUS
 62
     7
100
AcDbLine
 10
101.0
 20
272.25
 30
0.0
 11
98.99999999999997
 21
272.25
 31
0.0
  0
LINE
  5
4C7
330
1F
100
AcDbEntity
  8
0
  6
CONTINUOUS
 62
     7
100
AcDbLine
 10
101.0
 20
289.25
 30
0.0
 11
101.0
 21
361.7500000000001
 31
0.0
  0
LINE
  5
4C8
330
1F
100
AcDbEntity
  8
0
  6
CONTINUOUS
 62
     7
100
AcDbLine
 10
60.88273563140001
 20
360.5279967717999
 30
0.0
 11
60.89077763139999
 21
360.4802267717999
 31
0.0
  0
LINE
  5
4C9
330
1F
100
AcDbEntity
  8
0
  6
CONTINUOUS
 62
     7
100
AcDbLine
 10
60.89077763139999
 20
360.4802267717999
 30
0.0
 11
61.08800236859996
 21
360.5134292282
 31
0.0
  0
LINE
  5
4CA
330
1F
100
AcDbEntity
  8
0
  6
CONTINUOUS
 62
     7
100
AcDbLine
 10
61.04098011640002
 20
360.710063858
 30
0.0
 11
60.85021988359996
 21
360.649976142
 31
0.0
  0
LINE
  5
4CB
330
1F
100
AcDbEntity
  8
0
  6
CONTINUOUS
 62
     7
100
AcDbLine
 10
61.03963277960001
 20
360.7140469946
 30
0.0
 11
61.02490277959993
 21
360.7547529946
 31
0.0
  0
LINE
  5
4CC
330
1F
100
AcDbEntity
  8
0
  6
CONTINUOUS
 62
     7
100
AcDbLine
 10
61.09456606659997
 20
360.4596593311999
 30
0.0
 11
61.08867806659995
 21
360.5087393312
 31
0.0
  0
LINE
  5
4CD
330
1F
100
AcDbEntity
  8
0
  6
CONTINUOUS
 62
     7
100
AcDbLine
 10
60.8632138836
 20
360.608724142
 30
0.0
 11
61.05397411640001
 21
360.668811858
 31
0.0
  0
LINE
  5
4CE
330
1F
100
AcDbEntity
  8
0
  6
CONTINUOUS
 62
     7
100
AcDbLine
 10
60.86196865599997
 20
360.6130086734
 30
0.0
 11
60.87444665599995
 21
360.5662026734
 31
0.0
  0
LINE
  5
4CF
330
1F
100
AcDbEntity
  8
0
  6
CONTINUOUS
 62
     7
100
AcDbLine
 10
60.89598993340001
 20
360.4358366687999
 30
0.0
 11
61.09456606659997
 21
360.4596593311999
 31
0.0
  0
LINE
  5
4D0
330
1F
100
AcDbEntity
  8
0
  6
CONTINUOUS
 62
     7
100
AcDbLine
 10
60.88362158239996
 20
360.5233954692
 30
0.0
 11
61.07907441759996
 21
360.5658005307999
 31
0.0
  0
LINE
  5
4D1
330
1F
100
AcDbEntity
  8
0
  6
CONTINUOUS
 62
     7
100
AcDbLine
 10
60.87334558239998
 20
360.5707594691999
 30
0.0
 11
60.88362158239996
 21
360.5233954692
 31
0.0
  0
LINE
  5
4D2
330
1F
100
AcDbEntity
  8
0
  6
CONTINUOUS
 62
     7
100
AcDbLine
 10
61.08867806659995
 20
360.5087393312
 30
0.0
 11
60.89010193339994
 21
360.4849166688
 31
0.0
  0
LINE
  5
4D3
330
1F
100
AcDbEntity
  8
0
  6
CONTINUOUS
 62
     7
100
AcDbLine
 10
61.02490277959993
 20
360.7547529946
 30
0.0
 11
60.83683722040001
 21
360.6866990053999
 31
0.0
  0
LINE
  5
4D4
330
1F
100
AcDbEntity
  8
0
  6
CONTINUOUS
 62
     7
100
AcDbLine
 10
61.07907441759996
 20
360.5658005307999
 30
0.0
 11
61.06879841759999
 21
360.6131645308
 31
0.0
  0
LINE
  5
4D5
330
1F
100
AcDbEntity
  8
0
  6
CONTINUOUS
 62
     7
100
AcDbLine
 10
61.07996036859997
 20
360.5611992282001
 30
0.0
 11
60.88273563140001
 21
360.5279967717999
 31
0.0
  0
LINE
  5
4D6
330
1F
100
AcDbEntity
  8
0
  6
CONTINUOUS
 62
     7
100
AcDbLine
 10
60.89010193339994
 20
360.4849166688
 30
0.0
 11
60.89598993340001
 21
360.4358366687999
 31
0.0
  0
LINE
  5
4D7
330
1F
100
AcDbEntity
  8
0
  6
CONTINUOUS
 62
     7
100
AcDbLine
 10
60.87444665599995
 20
360.5662026734
 30
0.0
 11
61.06769734399997
 21
360.6177213266
 31
0.0
  0
ENDSEC
  0
SECTION
  2
OBJECTS
  0
DICTIONARY
  5
C
330
0
100
AcDbDictionary
  3
ACAD_GROUP
350
D
  3
ACAD_LAYOUT
350
1A
  3
ACAD_MATERIAL
350
43
  3
ACAD_MLEADERSTYLE
350
6B
  3
ACAD_MLINESTYLE
350
17
  3
ACAD_PLOTSETTINGS
350
19
  3
ACAD_SCALELIST
350
47
  3
ACAD_VISUALSTYLE
350
2A
  3
ACDBHEADERROUNDTRIPXREC
350
4D8
  3
ACDBVARIABLEDICTIONARY
350
4F9
  0
DICTIONARY
  5
500
330
8
100
AcDbDictionary
280
     1
  3
ACAD_XREC_ROUNDTRIP
360
501
  0
DICTIONARY
  5
D
102
{ACAD_REACTORS
330
C
102
}
330
C
100
AcDbDictionary
  0
DICTIONARY
  5
1A
102
{ACAD_REACTORS
330
C
102
}
330
C
100
AcDbDictionary
  0
DICTIONARY
  5
43
102
{ACAD_REACTORS
330
C
102
}
330
C
100
AcDbDictionary
  3
BYBLOCK
350
45
  3
BYLAYER
350
44
  3
GLOBAL
350
46
  0
DICTIONARY
  5
6B
102
{ACAD_REACTORS
330
C
102
}
330
C
100
AcDbDictionary
  3
STANDARD
350
6C
  0
DICTIONARY
  5
17
102
{ACAD_REACTORS
330
C
102
}
330
C
100
AcDbDictionary
  3
STANDARD
350
18
  0
DICTIONARY
  5
19
102
{ACAD_REACTORS
330
C
102
}
330
C
100
AcDbDictionary
  0
DICTIONARY
  5
47
102
{ACAD_REACTORS
330
C
102
}
330
C
100
AcDbDictionary
  3
A0
350
48
  3
A1
350
49
  3
A2
350
4A
  3
A3
350
4B
  3
A4
350
4C
  3
A5
350
4D
  3
A6
350
4E
  3
A7
350
4F
  3
A8
350
50
  3
A9
350
51
  3
B0
350
52
  3
B1
350
53
  3
B2
350
54
  3
B3
350
55
  3
B4
350
56
  3
B5
350
57
  3
B6
350
58
  3
B7
350
59
  3
B8
350
5A
  3
B9
350
5B
  3
C0
350
5C
  3
C1
350
5D
  3
C2
350
5E
  3
C3
350
5F
  3
C4
350
60
  3
C5
350
61
  3
C6
350
62
  3
C7
350
63
  3
C8
350
64
  3
C9
350
65
  3
D0
350
66
  3
D1
350
67
  3
D2
350
68
  0
DICTIONARY
  5
2A
102
{ACAD_REACTORS
330
C
102
}
330
C
100
AcDbDictionary
  3
2DWIREFRAME
350
2F
  3
BASIC
350
32
  3
BRIGHTEN
350
36
  3
COLORCHANGE
350
3A
  3
CONCEPTUAL
350
34
  3
DIM
350
35
  3
EDGECOLOROFF
350
3D
  3
FACEPATTERN
350
39
  3
FLAT
350
2B
  3
FLATWITHEDGES
350
2C
  3
GOURAUD
350
2D
  3
GOURAUDWITHEDGES
350
2E
  3
HIDDEN
350
31
  3
JITTEROFF
350
3B
  3
LINEPATTERN
350
38
  3
OVERHANGOFF
350
3C
  3
REALISTIC
350
33
  3
SHADED
350
42
  3
SHADED_WITH_EDGES
350
41
  3
SHADES_OF_GRAY
350
3E
  3
SKETCHY
350
3F
  3
THICKEN
350
37
  3
WIREFRAME
350
30
  3
X-RAY
350
40
  0
DICTIONARY
  5
4D8
102
{ACAD_REACTORS
330
C
102
}
330
C
100
AcDbDictionary
  3
CEPSNID
350
4E2
  3
CEPSNTYPE
350
4E1
  3
DIMSTYLEDATA
350
4F8
  3
FINGERPRINTGUID
350
4E3
  3
HYPERLINKBASE
350
4DB
  3
INSUNITS
350
4E0
  3
LAYOUTDICT
350
4DD
  3
LWETCUNION
350
4DF
  3
PLOTSETDICT
350
4DE
  3
PSVPSCALE
350
4E5
  3
PUCSBASE
350
4E8
  3
PUCSORGBACK
350
4EE
  3
PUCSORGBOTTOM
350
4EA
  3
PUCSORGFRONT
350
4ED
  3
PUCSORGLEFT
350
4EB
  3
PUCSORGRIGHT
350
4EC
  3
PUCSORGTOP
350
4E9
  3
PUCSORTHOREF
350
4E6
  3
PUCSORTHOVIEW
350
4E7
  3
STYLESHEET
350
4DC
  3
TSTACKALIGN
350
4D9
  3
TSTACKSIZE
350
4DA
  3
UCSBASE
350
4F1
  3
UCSORGBACK
350
4F7
  3
UCSORGBOTTOM
350
4F3
  3
UCSORGFRONT
350
4F6
  3
UCSORGLEFT
350
4F4
  3
UCSORGRIGHT
350
4F5
  3
UCSORGTOP
350
4F2
  3
UCSORTHOREF
350
4EF
  3
UCSORTHOVIEW
350
4F0
  3
VERSIONGUID
350
4E4
  0
DICTIONARY
  5
4F9
102
{ACAD_REACTORS
330
C
102
}
330
C
100
AcDbDictionary
  3
CANNOSCALE
350
502
  3
CMLEADERSTYLE
350
4FB
  3
CTABLESTYLE
350
4FA
  3
DIMASSOC
350
4FE
  3
HIDETEXT
350
4FF
  3
MSLTSCALE
350
503
  0
XRECORD
  5
501
102
{ACAD_REACTORS
330
500
102
}
330
500
100
AcDbXrecord
102
VTR_0.000_0.000_1.000_1.000_VISUALSTYLE
340
2F
102
VTR_0.000_0.000_1.000_1.000_GRIDDISPLAY
 70
     3
102
VTR_0.000_0.000_1.000_1.000_GRIDMAJOR
 70
     5
102
VTR_0.000_0.000_1.000_1.000_DEFAULTLIGHTING
280
     1
102
VTR_0.000_0.000_1.000_1.000_DEFAULTLIGHTINGTYPE
 70
     1
102
VTR_0.000_0.000_1.000_1.000_BRIGHTNESS
141
0.0
102
VTR_0.000_0.000_1.000_1.000_CONTRAST
142
0.0
  0
MATERIAL
  5
45
102
{ACAD_REACTORS
330
43
102
}
102
{ACAD_XDICTIONARY
360
506
102
}
330
43
100
AcDbMaterial
  1
BYBLOCK
  0
MATERIAL
  5
44
102
{ACAD_REACTORS
330
43
102
}
102
{ACAD_XDICTIONARY
360
504
102
}
330
43
100
AcDbMaterial
  1
BYLAYER
  0
MATERIAL
  5
46
102
{ACAD_REACTORS
330
43
102
}
102
{ACAD_XDICTIONARY
360
508
102
}
330
43
100
AcDbMaterial
  1
GLOBAL
  0
ACAD_PROXY_OBJECT
  5
6C
102
{ACAD_REACTORS
330
6B
102
}
330
6B
100
AcDbProxyObject
 90
      499
 91
      505
 93
      610
310
40901902A4063FBFFFFFE056BD1B81E855B9FC0AD7A3703D0AD73F4214DD185B99185C9900AD7A3703D0AC73F90141901A02B5E8DC0F42B1CFC02B5E8DC0F42B1CFE5764000000000000300FC0
340
14
340
0
340
11
340
0
 94
        0
1001
ACAD_MLEADERVER
1070
     2
  0
MLINESTYLE
  5
18
102
{ACAD_REACTORS
330
17
102
}
330
17
100
AcDbMlineStyle
  2
Standard
 70
     0
  3

 62
   256
 51
90.0
 52
90.0
 71
     2
 49
0.5
 62
   256
  6
BYLAYER
 49
-0.5
 62
   256
  6
BYLAYER
  0
ACAD_PROXY_OBJECT
  5
48
102
{ACAD_REACTORS
330
47
102
}
330
47
100
AcDbProxyObject
 90
      499
 91
      503
 93
       41
310
903313A31580
  0
ACAD_PROXY_OBJECT
  5
49
102
{ACAD_REACTORS
330
47
102
}
330
47
100
AcDbProxyObject
 90
      499
 91
      503
 93
      105
310
903313A324000000000000004000
  0
ACAD_PROXY_OBJECT
  5
4A
102
{ACAD_REACTORS
330
47
102
}
330
47
100
AcDbProxyObject
 90
      499
 91
      503
 93
      105
310
903313A344000000000000104000
  0
ACAD_PROXY_OBJECT
  5
4B
102
{ACAD_REACTORS
330
47
102
}
330
47
100
AcDbProxyObject
 90
      499
 91
      503
 93
      105
310
903313A354000000000000144000
  0
ACAD_PROXY_OBJECT
  5
4C
102
{ACAD_REACTORS
330
47
102
}
330
47
100
AcDbProxyObject
 90
      499
 91
      503
 93
      105
310
903313A384000000000000204000
  0
ACAD_PROXY_OBJECT
  5
4D
102
{ACAD_REACTORS
330
47
102
}
330
47
100
AcDbProxyObject
 90
      499
 91
      503
 93
      113
310
904313A31304000000000000244000
  0
ACAD_PROXY_OBJECT
  5
4E
102
{ACAD_REACTORS
330
47
102
}
330
47
100
AcDbProxyObject
 90
      499
 91
      503
 93
      113
310
904313A31364000000000000304000
  0
ACAD_PROXY_OBJECT
  5
4F
102
{ACAD_REACTORS
330
47
102
}
330
47
100
AcDbProxyObject
 90
      499
 91
      503
 93
      113
310
904313A32304000000000000344000
  0
ACAD_PROXY_OBJECT
  5
50
102
{ACAD_REACTORS
330
47
102
}
330
47
100
AcDbProxyObject
 90
      499
 91
      503
 93
      113
310
904313A333040000000000003E4000
  0
ACAD_PROXY_OBJECT
  5
51
102
{ACAD_REACTORS
330
47
102
}
330
47
100
AcDbProxyObject
 90
      499
 91
      503
 93
      113
310
904313A34304000000000000444000
  0
ACAD_PROXY_OBJECT
  5
52
102
{ACAD_REACTORS
330
47
102
}
330
47
100
AcDbProxyObject
 90
      499
 91
      503
 93
      113
310
904313A35304000000000000494000
  0
ACAD_PROXY_OBJECT
  5
53
102
{ACAD_REACTORS
330
47
102
}
330
47
100
AcDbProxyObject
 90
      499
 91
      503
 93
      121
310
905313A3130304000000000000594000
  0
ACAD_PROXY_OBJECT
  5
54
102
{ACAD_REACTORS
330
47
102
}
330
47
100
AcDbProxyObject
 90
      499
 91
      503
 93
      105
310
903323A310000000000000010100
  0
ACAD_PROXY_OBJECT
  5
55
102
{ACAD_REACTORS
330
47
102
}
330
47
100
AcDbProxyObject
 90
      499
 91
      503
 93
      105
310
903343A310000000000000410100
  0
ACAD_PROXY_OBJECT
  5
56
102
{ACAD_REACTORS
330
47
102
}
330
47
100
AcDbProxyObject
 90
      499
 91
      503
 93
      105
310
903383A310000000000000810100
  0
ACAD_PROXY_OBJECT
  5
57
102
{ACAD_REACTORS
330
47
102
}
330
47
100
AcDbProxyObject
 90
      499
 91
      503
 93
      113
310
90431303A310000000000000910100
  0
ACAD_PROXY_OBJECT
  5
58
102
{ACAD_REACTORS
330
47
102
}
330
47
100
AcDbProxyObject
 90
      499
 91
      503
 93
      121
310
9053130303A310000000000001650100
  0
ACAD_PROXY_OBJECT
  5
59
102
{ACAD_REACTORS
330
47
102
}
330
47
100
AcDbProxyObject
 90
      499
 91
      503
 93
      257
310
90E312F31323822203D2031272D3022000000000000200FC000000000000284000
  0
ACAD_PROXY_OBJECT
  5
5A
102
{ACAD_REACTORS
330
47
102
}
330
47
100
AcDbProxyObject
 90
      499
 91
      503
 93
      249
310
90D312F363422203D2031272D3022000000000000240FC000000000000284000
  0
ACAD_PROXY_OBJECT
  5
5B
102
{ACAD_REACTORS
330
47
102
}
330
47
100
AcDbProxyObject
 90
      499
 91
      503
 93
      249
310
90D312F333222203D2031272D3022000000000000280FC000000000000284000
  0
ACAD_PROXY_OBJECT
  5
5C
102
{ACAD_REACTORS
330
47
102
}
330
47
100
AcDbProxyObject
 90
      499
 91
      503
 93
      249
310
90D312F313622203D2031272D30220000000000002C0FC000000000000284000
  0
ACAD_PROXY_OBJECT
  5
5D
102
{ACAD_REACTORS
330
47
102
}
330
47
100
AcDbProxyObject
 90
      499
 91
      503
 93
      249
310
90D332F333222203D2031272D30220000000000002E0FC000000000000284000
  0
ACAD_PROXY_OBJECT
  5
5E
102
{ACAD_REACTORS
330
47
102
}
330
47
100
AcDbProxyObject
 90
      499
 91
      503
 93
      241
310
90C312F3822203D2031272D3022000000000000300FC000000000000284000
  0
ACAD_PROXY_OBJECT
  5
5F
102
{ACAD_REACTORS
330
47
102
}
330
47
100
AcDbProxyObject
 90
      499
 91
      503
 93
      249
310
90D332F313622203D2031272D3022000000000000320FC000000000000284000
  0
ACAD_PROXY_OBJECT
  5
60
102
{ACAD_REACTORS
330
47
102
}
330
47
100
AcDbProxyObject
 90
      499
 91
      503
 93
      241
310
90C312F3422203D2031272D3022000000000000340FC000000000000284000
  0
ACAD_PROXY_OBJECT
  5
61
102
{ACAD_REACTORS
330
47
102
}
330
47
100
AcDbProxyObject
 90
      499
 91
      503
 93
      241
310
90C332F3822203D2031272D3022000000000000360FC000000000000284000
  0
ACAD_PROXY_OBJECT
  5
62
102
{ACAD_REACTORS
330
47
102
}
330
47
100
AcDbProxyObject
 90
      499
 91
      503
 93
      241
310
90C312F3222203D2031272D3022000000000000380FC000000000000284000
  0
ACAD_PROXY_OBJECT
  5
63
102
{ACAD_REACTORS
330
47
102
}
330
47
100
AcDbProxyObject
 90
      499
 91
      503
 93
      241
310
90C332F3422203D2031272D30220000000000003A0FC000000000000284000
  0
ACAD_PROXY_OBJECT
  5
64
102
{ACAD_REACTORS
330
47
102
}
330
47
100
AcDbProxyObject
 90
      499
 91
      503
 93
      161
310
90A3122203D2031272D30224000000000000284000
  0
ACAD_PROXY_OBJECT
  5
65
102
{ACAD_REACTORS
330
47
102
}
330
47
100
AcDbProxyObject
 90
      499
 91
      503
 93
      257
310
90E312D312F3222203D2031272D30220000000000003E0FC000000000000284000
  0
ACAD_PROXY_OBJECT
  5
66
102
{ACAD_REACTORS
330
47
102
}
330
47
100
AcDbProxyObject
 90
      499
 91
      503
 93
      225
310
90A3322203D2031272D302200000000000002100000000000000284000
  0
ACAD_PROXY_OBJECT
  5
67
102
{ACAD_REACTORS
330
47
102
}
330
47
100
AcDbProxyObject
 90
      499
 91
      503
 93
      225
310
90A3622203D2031272D302200000000000006100000000000000284000
  0
ACAD_PROXY_OBJECT
  5
68
102
{ACAD_REACTORS
330
47
102
}
330
47
100
AcDbProxyObject
 90
      499
 91
      503
 93
      249
310
90D31272D3022203D2031272D30220000000000000A100000000000000284000
  0
ACAD_PROXY_OBJECT
  5
2F
102
{ACAD_REACTORS
330
2A
102
}
330
2A
100
AcDbProxyObject
 90
      499
 91
      501
 93
      436
310
42CC9915DA5C99599C985B595049028333333333333E33F0000000000000F90107901411070040501600405405064090741402480A0340
1001
ACAD
1000
AcDbSavedByObjectVersion
1070
     0
  0
ACAD_PROXY_OBJECT
  5
32
102
{ACAD_REACTORS
330
2A
102
}
330
2A
100
AcDbProxyObject
 90
      499
 91
      501
 93
      388
310
4150985CDA58D07406404333333333333E33F0000000000000F90107A41107004050150841D405064090741402480A0350
1001
ACAD
1000
AcDbSavedByObjectVersion
1070
     0
  0
ACAD_PROXY_OBJECT
  5
36
102
{ACAD_REACTORS
330
2A
102
}
330
2A
100
AcDbProxyObject
 90
      499
 91
      501
 93
      428
310
42109C9A59DA1D195B90C409028333333333333E33F0000000000000F9010790141107004050150841D405064090741402480A029950
1001
ACAD
1000
AcDbSavedByObjectVersion
1070
     0
  0
ACAD_PROXY_OBJECT
  5
3A
102
{ACAD_REACTORS
330
2A
102
}
330
2A
100
AcDbProxyObject
 90
      499
 91
      501
 93
      452
310
42D0DBDB1BDC90DA185B99D95104090240C333333333333E33F0000000000000F90108901411070040501508421405064090741402480A0350
1001
ACAD
1000
AcDbSavedByObjectVersion
1070
     0
  0
ACAD_PROXY_OBJECT
  5
34
102
{ACAD_REACTORS
330
2A
102
}
330
2A
100
AcDbProxyObject
 90
      499
 91
      501
 93
      500
310
4290DBDB98D95C1D1D585B10940D028333333333333E33F0000000000000F90107902409070040501000000000018199010841D405064090740C02480A0340
1001
ACAD
1000
AcDbSavedByObjectVersion
1070
     0
  0
ACAD_PROXY_OBJECT
  5
35
102
{ACAD_REACTORS
330
2A
102
}
330
2A
100
AcDbProxyObject
 90
      499
 91
      501
 93
      412
310
40D11A5B50B409028333333333333E33F0000000000000F9010790141107004050150841D405064090741402480A02677FFFFFD0
1001
ACAD
1000
AcDbSavedByObjectVersion
1070
     0
  0
ACAD_PROXY_OBJECT
  5
3D
102
{ACAD_REACTORS
330
2A
102
}
330
2A
100
AcDbProxyObject
 90
      499
 91
      501
 93
      452
310
43115919D950DBDB1BDC93D999916409028333333333333E33F0000000000000F9010790141107004050150841D405064090741402480A0350
1001
ACAD
1000
AcDbSavedByObjectVersion
1070
     0
  0
ACAD_PROXY_OBJECT
  5
39
102
{ACAD_REACTORS
330
2A
102
}
330
2A
100
AcDbProxyObject
 90
      499
 91
      501
 93
      444
310
42D19858D95C185D1D195C9B90F409028333333333333E33F0000000000000F9010790141107004050150841D405064090741402480A0350
1001
ACAD
1000
AcDbSavedByObjectVersion
1070
     0
  0
ACAD_PROXY_OBJECT
  5
2B
102
{ACAD_REACTORS
330
2A
102
}
330
2A
100
AcDbProxyObject
 90
      499
 91
      501
 93
      380
310
41119B185D240901404333333333333E33F0000000000000F9010740A907004050150841D405064090741402480A1B50
1001
ACAD
1000
AcDbSavedByObjectVersion
1070
     0
  0
ACAD_PROXY_OBJECT
  5
2C
102
{ACAD_REACTORS
330
2A
102
}
330
2A
100
AcDbProxyObject
 90
      499
 91
      501
 93
      468
310
43519B185D15DA5D1A115919D95CD0140901404333333333333E33F0000000000000F90107409019070040501600405405064090741402480A1B50
1001
ACAD
1000
AcDbSavedByObjectVersion
1070
     0
  0
ACAD_PROXY_OBJECT
  5
2D
102
{ACAD_REACTORS
330
2A
102
}
330
2A
100
AcDbProxyObject
 90
      499
 91
      501
 93
      404
310
41D1DBDD5C985D5910240902404333333333333E33F0000000000000F9010740A9070040501641D405064090741402480A1B50
1001
ACAD
1000
AcDbSavedByObjectVersion
1070
     0
  0
ACAD_PROXY_OBJECT
  5
2E
102
{ACAD_REACTORS
330
2A
102
}
330
2A
100
AcDbProxyObject
 90
      499
 91
      501
 93
      492
310
4411DBDD5C985D5915DA5D1A115919D95CD0340902404333333333333E33F0000000000000F90107409019070040501600405405064090741402480A1B50
1001
ACAD
1000
AcDbSavedByObjectVersion
1070
     0
  0
ACAD_PROXY_OBJECT
  5
31
102
{ACAD_REACTORS
330
2A
102
}
330
2A
100
AcDbProxyObject
 90
      499
 91
      501
 93
      476
310
41921A5919195B90640502408333333333333E33F0000000000000F901079024090700405020000000000001110200405405064090740C02480A0340
1001
ACAD
1000
AcDbSavedByObjectVersion
1070
     0
  0
ACAD_PROXY_OBJECT
  5
3B
102
{ACAD_REACTORS
330
2A
102
}
330
2A
100
AcDbProxyObject
 90
      499
 91
      501
 93
      428
310
42529A5D1D195C93D999914409028333333333333E33F0000000000000F9010790141107004050150A41D405064090741402480A0350
1001
ACAD
1000
AcDbSavedByObjectVersion
1070
     0
  0
ACAD_PROXY_OBJECT
  5
38
102
{ACAD_REACTORS
330
2A
102
}
330
2A
100
AcDbProxyObject
 90
      499
 91
      501
 93
      444
310
42D31A5B995C185D1D195C9B90E409028333333333333E33F0000000000000F9010790141107004050750841D405064090741402483A0350
1001
ACAD
1000
AcDbSavedByObjectVersion
1070
     0
  0
ACAD_PROXY_OBJECT
  5
3C
102
{ACAD_REACTORS
330
2A
102
}
330
2A
100
AcDbProxyObject
 90
      499
 91
      501
 93
      444
310
42D3DD995C9A185B99D3D999915409028333333333333E33F0000000000000F9010790141107004050150941D405064090741402480A0350
1001
ACAD
1000
AcDbSavedByObjectVersion
1070
     0
  0
ACAD_PROXY_OBJECT
  5
33
102
{ACAD_REACTORS
330
2A
102
}
330
2A
100
AcDbProxyObject
 90
      499
 91
      501
 93
      428
310
425499585B1A5CDD1A58D08409038333333333333E33F0000000000000F9010740A907004050150800405405064090740C02480A1B40
1001
ACAD
1000
AcDbSavedByObjectVersion
1070
     0
  0
ACAD_PROXY_OBJECT
  5
42
102
{ACAD_REACTORS
330
2A
102
}
330
2A
100
AcDbProxyObject
 90
      499
 91
      501
 93
      420
310
4194DA1859195911B40902404333333333333E33F0000000000000F9010740A41107004050150800405405064090840C02480A0B40
1001
ACAD
1000
AcDbSavedByObjectVersion
1070
     0
  0
ACAD_PROXY_OBJECT
  5
41
102
{ACAD_REACTORS
330
2A
102
}
330
2A
100
AcDbProxyObject
 90
      499
 91
      501
 93
      516
310
4454DA18591959081DDA5D1A08195919D95CD1A40902404333333333333E33F0000000000000F901074090142907004050250800405405064090740C02480A0B40
1001
ACAD
1000
AcDbSavedByObjectVersion
1070
     0
  0
ACAD_PROXY_OBJECT
  5
3E
102
{ACAD_REACTORS
330
2A
102
}
330
2A
100
AcDbProxyObject
 90
      499
 91
      501
 93
      532
310
4394DA1859195CC81BD98811DC985E5174090240C333333333333E33F0000000000000F901079024090741D01000000000000111010841D405064090740C02480A0340
1001
ACAD
1000
AcDbSavedByObjectVersion
1070
     0
  0
ACAD_PROXY_OBJECT
  5
3F
102
{ACAD_REACTORS
330
2A
102
}
330
2A
100
AcDbProxyObject
 90
      499
 91
      501
 93
      476
310
41D4DAD95D18DA1E51840502408333333333333E33F0000000000000F901079024090741D01000000000000111010B41D405064090741802480A0340
1001
ACAD
1000
AcDbSavedByObjectVersion
1070
     0
  0
ACAD_PROXY_OBJECT
  5
37
102
{ACAD_REACTORS
330
2A
102
}
330
2A
100
AcDbProxyObject
 90
      499
 91
      501
 93
      412
310
41D51A1A58DAD95B90D409028333333333333E33F0000000000000F9010790141107004050150C41D405064090741402480A0350
1001
ACAD
1000
AcDbSavedByObjectVersion
1070
     0
  0
ACAD_PROXY_OBJECT
  5
30
102
{ACAD_REACTORS
330
2A
102
}
330
2A
100
AcDbProxyObject
 90
      499
 91
      501
 93
      420
310
4255DA5C99599C985B595059028333333333333E33F0000000000000F90107901411070040501600405405064090740C02480A0340
1001
ACAD
1000
AcDbSavedByObjectVersion
1070
     0
  0
ACAD_PROXY_OBJECT
  5
40
102
{ACAD_REACTORS
330
2A
102
}
330
2A
100
AcDbProxyObject
 90
      499
 91
      501
 93
      404
310
41560B54985E51940902404000000000000E03F0000000000000F9010740501907004050150841D405064090740C02480A1B40
1001
ACAD
1000
AcDbSavedByObjectVersion
1070
     0
  0
XRECORD
  5
4E2
102
{ACAD_REACTORS
330
4D8
102
}
330
4D8
100
AcDbXrecord
340
0
  0
XRECORD
  5
4E1
102
{ACAD_REACTORS
330
4D8
102
}
330
4D8
100
AcDbXrecord
 90
        0
  0
XRECORD
  5
4F8
102
{ACAD_REACTORS
330
4D8
102
}
330
4D8
100
AcDbXrecord
1000
DSTYLE
1002
{
1070
   171
 70
     2
1070
   143
 40
25.4
1070
   274
 70
     2
1070
    41
 40
0.9
1070
   141
 40
0.09
1070
   271
 70
     4
1070
    43
 40
0.38
1070
   278
 70
    46
1070
    44
 40
0.45
1070
    42
 40
0.0625
1070
   147
 40
1.5
1070
   272
 70
     4
1070
    73
 70
     1
1070
   172
 70
     0
1070
    74
 70
     1
1070
   283
 70
     1
1070
   340
340
6F
1070
   140
 40
3.0
1070
   284
 70
     0
1070
    78
 70
     0
1002
}
  0
XRECORD
  5
4E3
102
{ACAD_REACTORS
330
4D8
102
}
330
4D8
100
AcDbXrecord
  1
{4AC94FEA-3D5D-411D-8F5D-CB972445A4A6}
  0
XRECORD
  5
4DB
102
{ACAD_REACTORS
330
4D8
102
}
330
4D8
100
AcDbXrecord
  1

  0
XRECORD
  5
4E0
102
{ACAD_REACTORS
330
4D8
102
}
330
4D8
100
AcDbXrecord
 90
        4
  0
XRECORD
  5
4DD
102
{ACAD_REACTORS
330
4D8
102
}
330
4D8
100
AcDbXrecord
340
1A
  0
XRECORD
  5
4DF
102
{ACAD_REACTORS
330
4D8
102
}
330
4D8
100
AcDbXrecord
 90
    10269
  0
XRECORD
  5
4DE
102
{ACAD_REACTORS
330
4D8
102
}
330
4D8
100
AcDbXrecord
340
19
  0
XRECORD
  5
4E5
102
{ACAD_REACTORS
330
4D8
102
}
330
4D8
100
AcDbXrecord
 40
0.0
  0
XRECORD
  5
4E8
102
{ACAD_REACTORS
330
4D8
102
}
330
4D8
100
AcDbXrecord
340
0
  0
XRECORD
  5
4EE
102
{ACAD_REACTORS
330
4D8
102
}
330
4D8
100
AcDbXrecord
 10
0.0
 20
0.0
 30
0.0
  0
XRECORD
  5
4EA
102
{ACAD_REACTORS
330
4D8
102
}
330
4D8
100
AcDbXrecord
 10
0.0
 20
0.0
 30
0.0
  0
XRECORD
  5
4ED
102
{ACAD_REACTORS
330
4D8
102
}
330
4D8
100
AcDbXrecord
 10
0.0
 20
0.0
 30
0.0
  0
XRECORD
  5
4EB
102
{ACAD_REACTORS
330
4D8
102
}
330
4D8
100
AcDbXrecord
 10
0.0
 20
0.0
 30
0.0
  0
XRECORD
  5
4EC
102
{ACAD_REACTORS
330
4D8
102
}
330
4D8
100
AcDbXrecord
 10
0.0
 20
0.0
 30
0.0
  0
XRECORD
  5
4E9
102
{ACAD_REACTORS
330
4D8
102
}
330
4D8
100
AcDbXrecord
 10
0.0
 20
0.0
 30
0.0
  0
XRECORD
  5
4E6
102
{ACAD_REACTORS
330
4D8
102
}
330
4D8
100
AcDbXrecord
340
0
  0
XRECORD
  5
4E7
102
{ACAD_REACTORS
330
4D8
102
}
330
4D8
100
AcDbXrecord
 70
     0
  0
XRECORD
  5
4DC
102
{ACAD_REACTORS
330
4D8
102
}
330
4D8
100
AcDbXrecord
  1

  0
XRECORD
  5
4D9
102
{ACAD_REACTORS
330
4D8
102
}
330
4D8
100
AcDbXrecord
 90
        1
  0
XRECORD
  5
4DA
102
{ACAD_REACTORS
330
4D8
102
}
330
4D8
100
AcDbXrecord
 90
       70
  0
XRECORD
  5
4F1
102
{ACAD_REACTORS
330
4D8
102
}
330
4D8
100
AcDbXrecord
340
0
  0
XRECORD
  5
4F7
102
{ACAD_REACTORS
330
4D8
102
}
330
4D8
100
AcDbXrecord
 10
0.0
 20
0.0
 30
0.0
  0
XRECORD
  5
4F3
102
{ACAD_REACTORS
330
4D8
102
}
330
4D8
100
AcDbXrecord
 10
0.0
 20
0.0
 30
0.0
  0
XRECORD
  5
4F6
102
{ACAD_REACTORS
330
4D8
102
}
330
4D8
100
AcDbXrecord
 10
0.0
 20
0.0
 30
0.0
  0
XRECORD
  5
4F4
102
{ACAD_REACTORS
330
4D8
102
}
330
4D8
100
AcDbXrecord
 10
0.0
 20
0.0
 30
0.0
  0
XRECORD
  5
4F5
102
{ACAD_REACTORS
330
4D8
102
}
330
4D8
100
AcDbXrecord
 10
0.0
 20
0.0
 30
0.0
  0
XRECORD
  5
4F2
102
{ACAD_REACTORS
330
4D8
102
}
330
4D8
100
AcDbXrecord
 10
0.0
 20
0.0
 30
0.0
  0
XRECORD
  5
4EF
102
{ACAD_REACTORS
330
4D8
102
}
330
4D8
100
AcDbXrecord
340
0
  0
XRECORD
  5
4F0
102
{ACAD_REACTORS
330
4D8
102
}
330
4D8
100
AcDbXrecord
 70
     0
  0
XRECORD
  5
4E4
102
{ACAD_REACTORS
330
4D8
102
}
330
4D8
100
AcDbXrecord
  1
{FAEB1C32-E019-11D5-929B-00C0DF256EC4}
  0
DICTIONARYVAR
  5
502
102
{ACAD_REACTORS
330
4F9
102
}
330
4F9
100
DictionaryVariables
280
     0
  1
1:1
  0
DICTIONARYVAR
  5
4FB
102
{ACAD_REACTORS
330
4F9
102
}
330
4F9
100
DictionaryVariables
280
     0
  1
Standard
  0
DICTIONARYVAR
  5
4FA
102
{ACAD_REACTORS
330
4F9
102
}
330
4F9
100
DictionaryVariables
280
     0
  1
Standard
  0
DICTIONARYVAR
  5
4FE
102
{ACAD_REACTORS
330
4F9
102
}
330
4F9
100
DictionaryVariables
280
     0
  1
2
  0
DICTIONARYVAR
  5
4FF
102
{ACAD_REACTORS
330
4F9
102
}
330
4F9
100
DictionaryVariables
280
     0
  1
1
  0
DICTIONARYVAR
  5
503
102
{ACAD_REACTORS
330
4F9
102
}
330
4F9
100
DictionaryVariables
280
     0
  1
1
  0
DICTIONARY
  5
506
330
45
100
AcDbDictionary
280
     1
  3
ACAD_XREC_ROUNDTRIP
360
507
  0
DICTIONARY
  5
504
330
44
100
AcDbDictionary
280
     1
  3
ACAD_XREC_ROUNDTRIP
360
505
  0
DICTIONARY
  5
508
330
46
100
AcDbDictionary
280
     1
  3
ACAD_XREC_ROUNDTRIP
360
509
  0
XRECORD
  5
507
102
{ACAD_REACTORS
330
506
102
}
330
506
100
AcDbXrecord
102
MATERIAL
148
0.0
149
0.0
149
0.0
 93
        0
 94
      127
282
     0
 72
     1
 77
     1
171
     1
175
     1
179
     1
273
     0
  0
XRECORD
  5
505
102
{ACAD_REACTORS
330
504
102
}
330
504
100
AcDbXrecord
102
MATERIAL
148
0.0
149
0.0
149
0.0
 93
        0
 94
      127
282
     0
 72
     1
 77
     1
171
     1
175
     1
179
     1
273
     0
  0
XRECORD
  5
509
102
{ACAD_REACTORS
330
508
102
}
330
508
100
AcDbXrecord
102
MATERIAL
148
0.0
149
0.0
149
0.0
 93
        0
 94
      127
282
     0
 72
     1
 77
     1
171
     1
175
     1
179
     1
273
     0
  0
ENDSEC
  0
EOF
