  0
SECTION
  2
HEADER
  9
$ACADVER
  1
AC1006
  9
$DWGCODEPAGE
  3
ansi_932
  9
$INSBASE
 10
0.0
 20
0.0
 30
0.0
  9
$EXTMIN
 10
4.49999999998946
 20
294.7125109416031
  9
$EXTMAX
 10
117.0023967489562
 20
355.500000000007
  9
$LIMMIN
 10
0.0
 20
0.0
  9
$LIMMAX
 10
12.0
 20
9.0
  9
$ORTHOMODE
 70
     0
  9
$REGENMODE
 70
     1
  9
$FILLMODE
 70
     1
  9
$QTEXTMODE
 70
     0
  9
$MIRRTEXT
 70
     1
  9
$DRAGMODE
 70
     2
  9
$LTSCALE
 40
1.0
  9
$OSMODE
 70
    37
  9
$ATTMODE
 70
     1
  9
$TEXTSIZE
 40
0.2
  9
$TRACEWID
 40
0.05
  9
$TEXTSTYLE
  7
STANDARD
  9
$CLAYER
  8
0
  9
$CELTYPE
  6
BYLAYER
  9
$CECOLOR
 62
   256
  9
$DIMSCALE
 40
1.0
  9
$DIMASZ
 40
3.0
  9
$DIMEXO
 40
0.0625
  9
$DIMDLI
 40
0.38
  9
$DIMRND
 40
0.0
  9
$DIMDLE
 40
0.0
  9
$DIMEXE
 40
1.5
  9
$DIMTP
 40
0.0
  9
$DIMTM
 40
0.0
  9
$DIMTXT
 40
3.0
  9
$DIMCEN
 40
0.09
  9
$DIMTSZ
 40
0.0
  9
$DIMTOL
 70
     0
  9
$DIMLIM
 70
     0
  9
$DIMTIH
 70
     1
  9
$DIMTOH
 70
     1
  9
$DIMSE1
 70
     0
  9
$DIMSE2
 70
     0
  9
$DIMTAD
 70
     1
  9
$DIMZIN
 70
     0
  9
$DIMBLK
  1

  9
$DIMASO
 70
     1
  9
$DIMSHO
 70
     1
  9
$DIMPOST
  1

  9
$DIMAPOST
  1

  9
$DIMALT
 70
     0
  9
$DIMALTD
 70
     2
  9
$DIMALTF
 40
25.4
  9
$DIMLFAC
 40
1.0
  9
$DIMTOFL
 70
     0
  9
$DIMTVP
 40
0.0
  9
$DIMTIX
 70
     0
  9
$DIMSOXD
 70
     0
  9
$DIMSAH
 70
     0
  9
$DIMBLK1
  1

  9
$DIMBLK2
  1

  9
$LUNITS
 70
     2
  9
$LUPREC
 70
     4
  9
$SKETCHINC
 40
0.1
  9
$FILLETRAD
 40
0.5
  9
$AUNITS
 70
     0
  9
$AUPREC
 70
     0
  9
$MENU
  1
.
  9
$ELEVATION
 40
0.0
  9
$THICKNESS
 40
0.0
  9
$LIMCHECK
 70
     0
  9
$CHAMFERA
 40
0.0
  9
$CHAMFERB
 40
0.0
  9
$SKPOLY
 70
     0
  9
$TDCREATE
 40
2460654.614881655
  9
$TDUPDATE
 40
2460654.614881991
  9
$TDINDWG
 40
0.0000000116
  9
$TDUSRTIMER
 40
0.0000000116
  9
$USRTIMER
 70
     1
  9
$ANGBASE
 50
0.0
  9
$ANGDIR
 70
     0
  9
$PDMODE
 70
     0
  9
$PDSIZE
 40
0.0
  9
$PLINEWID
 40
0.0
  9
$COORDS
 70
     1
  9
$SPLFRAME
 70
     0
  9
$SPLINETYPE
 70
     6
  9
$SPLINESEGS
 70
     8
  9
$ATTDIA
 70
     0
  9
$ATTREQ
 70
     1
  9
$HANDLING
 70
     1
  9
$HANDSEED
  5
284
  9
$SURFTAB1
 70
     6
  9
$SURFTAB2
 70
     6
  9
$SURFTYPE
 70
     6
  9
$SURFU
 70
     6
  9
$SURFV
 70
     6
  9
$UCSNAME
  2

  9
$UCSORG
 10
0.0
 20
0.0
 30
0.0
  9
$UCSXDIR
 10
1.0
 20
0.0
 30
0.0
  9
$UCSYDIR
 10
0.0
 20
1.0
 30
0.0
  9
$USERI1
 70
     0
  9
$USERI2
 70
     0
  9
$USERI3
 70
     0
  9
$USERI4
 70
     0
  9
$USERI5
 70
     0
  9
$USERR1
 40
0.0
  9
$USERR2
 40
0.0
  9
$USERR3
 40
0.0
  9
$USERR4
 40
0.0
  9
$USERR5
 40
0.0
  9
$WORLDVIEW
 70
     1
  0
ENDSEC
  0
SECTION
  2
TABLES
  0
TABLE
  2
VPORT
 70
     1
  0
VPORT
  2
*ACTIVE
 70
     0
 10
0.0
 20
0.0
 11
1.0
 21
1.0
 12
60.75119837447283
 22
325.1062554708051
 13
0.0
 23
0.0
 14
0.5
 24
0.5
 15
0.5
 25
0.5
 16
0.0
 26
0.0
 36
1.0
 17
0.0
 27
0.0
 37
0.0
 40
60.78748905840388
 41
1.6
 42
50.0
 43
0.0
 44
0.0
 50
0.0
 51
0.0
 71
     0
 72
   100
 73
     1
 74
     3
 75
     0
 76
     0
 77
     0
 78
     0
  0
ENDTAB
  0
TABLE
  2
LTYPE
 70
     2
  0
LTYPE
  2
CONTINUOUS
 70
     0
  3
Solid line
 72
    65
 73
     0
 40
0.0
  0
LTYPE
  2
CENTER
 70
     0
  3

 72
    65
 73
     0
 40
0.0
  0
ENDTAB
  0
TABLE
  2
LAYER
 70
     1
  0
LAYER
  2
0
 70
     0
 62
     7
  6
CONTINUOUS
  0
ENDTAB
  0
TABLE
  2
STYLE
 70
     2
  0
STYLE
  2
STANDARD
 70
     0
 40
0.0
 41
1.0
 50
0.0
 71
     0
 42
0.2
  3
txt
  4

  0
STYLE
  2
ＭＳ_ゴシック
 70
     0
 40
0.0
 41
1.0
 50
0.0
 71
     0
 42
0.2
  3
ＭＳ ゴシック.shx
  4

  0
ENDTAB
  0
TABLE
  2
VIEW
 70
     0
  0
ENDTAB
  0
TABLE
  2
UCS
 70
     0
  0
ENDTAB
  0
ENDSEC
  0
SECTION
  2
BLOCKS
  0
ENDSEC
  0
SECTION
  2
ENTITIES
  0
LINE
  5
6F
  8
0
  6
CONTINUOUS
 62
     7
 10
29.99999999998942
 20
317.6500000000069
 30
0.0
 11
33.55739538481198
 21
317.6500000000069
 31
0.0
  0
ARC
  5
70
  8
0
  6
CONTINUOUS
 62
     7
 10
26.45025916638818
 20
320.7711566584227
 30
0.0
 40
4.529911992023867
 50
230.6110239235329
 51
269.9031827354415
  0
LINE
  5
71
  8
0
  6
CONTINUOUS
 62
     7
 10
16.24999999998942
 20
326.4426046151844
 30
0.0
 11
16.24999999998943
 21
330.0000000000069
 31
0.0
  0
LINE
  5
72
  8
0
  6
CONTINUOUS
 62
   253
 10
42.34999999998941
 20
330.0000000000069
 30
0.0
 11
43.74999999998941
 21
330.0000000000069
 31
0.0
  0
TEXT
  5
73
  8
0
  6
CONTINUOUS
 62
     7
 10
55.04295360760286
 20
294.3704764286608
 30
0.0
 40
3.0
  1
KFEB-30C
  0
LINE
  5
74
  8
0
  6
CONTINUOUS
 62
     7
 10
30.0
 20
343.7587488663596
 30
0.0
 11
33.557395384812
 21
343.7587488663596
 31
0.0
  0
LINE
  5
75
  8
0
  6
CONTINUOUS
 62
     7
 10
26.44260461516687
 20
343.7587488663596
 30
0.0
 11
30.0
 21
343.7587488663596
 31
0.0
  0
LINE
  5
76
  8
0
  6
CONTINUOUS
 62
     7
 10
105.2461050088904
 20
325.7431700506565
 30
0.0
 11
105.2496675518734
 21
325.7038607856858
 31
0.0
  0
LINE
  5
77
  8
0
  6
CONTINUOUS
 62
     7
 10
105.2496675518734
 20
325.7038607856858
 30
0.0
 11
105.2547975306794
 21
325.6646233180516
 31
0.0
  0
LINE
  5
78
  8
0
  6
CONTINUOUS
 62
     7
 10
105.2547975306794
 20
325.6646233180516
 30
0.0
 11
105.2615063097002
 21
325.6255862156798
 31
0.0
  0
LINE
  5
79
  8
0
  6
CONTINUOUS
 62
     7
 10
105.2615063097002
 20
325.6255862156798
 30
0.0
 11
105.2699159300031
 21
325.5863997724484
 31
0.0
  0
LINE
  5
7A
  8
0
  6
CONTINUOUS
 62
     7
 10
105.2699159300031
 20
325.5863997724484
 30
0.0
 11
105.2799954800788
 21
325.5475616787094
 31
0.0
  0
LINE
  5
7B
  8
0
  6
CONTINUOUS
 62
     7
 10
105.2799954800788
 20
325.5475616787094
 30
0.0
 11
105.2919298011155
 21
325.508726519005
 31
0.0
  0
LINE
  5
7C
  8
0
  6
CONTINUOUS
 62
     7
 10
105.2919298011155
 20
325.508726519005
 30
0.0
 11
105.3056714937848
 21
325.470426842966
 31
0.0
  0
LINE
  5
7D
  8
0
  6
CONTINUOUS
 62
     7
 10
105.3056714937848
 20
325.470426842966
 30
0.0
 11
105.3213243511356
 21
325.4326946132946
 31
0.0
  0
LINE
  5
7E
  8
0
  6
CONTINUOUS
 62
     7
 10
105.3213243511356
 20
325.4326946132946
 30
0.0
 11
105.3313138644321
 21
325.4111263174696
 31
0.0
  0
LINE
  5
7F
  8
0
  6
CONTINUOUS
 62
     7
 10
105.3313138644321
 20
325.4111263174696
 30
0.0
 11
105.3419789634909
 21
325.3898633274711
 31
0.0
  0
LINE
  5
80
  8
0
  6
CONTINUOUS
 62
     7
 10
105.3419789634909
 20
325.3898633274711
 30
0.0
 11
105.3534259037996
 21
325.368783998667
 31
0.0
  0
LINE
  5
81
  8
0
  6
CONTINUOUS
 62
     7
 10
105.3534259037996
 20
325.368783998667
 30
0.0
 11
105.3655848355116
 21
325.3481090583119
 31
0.0
  0
LINE
  5
82
  8
0
  6
CONTINUOUS
 62
     7
 10
105.3655848355116
 20
325.3481090583119
 30
0.0
 11
105.3785404050503
 21
325.3277820597452
 31
0.0
  0
LINE
  5
83
  8
0
  6
CONTINUOUS
 62
     7
 10
105.3785404050503
 20
325.3277820597452
 30
0.0
 11
105.3922539722148
 21
325.3079563040189
 31
0.0
  0
LINE
  5
84
  8
0
  6
CONTINUOUS
 62
     7
 10
105.3922539722148
 20
325.3079563040189
 30
0.0
 11
105.4068969423053
 21
325.2884945164618
 31
0.0
  0
LINE
  5
85
  8
0
  6
CONTINUOUS
 62
     7
 10
105.4068969423053
 20
325.2884945164618
 30
0.0
 11
105.4223827136238
 21
325.269632551481
 31
0.0
  0
LINE
  5
86
  8
0
  6
CONTINUOUS
 62
     7
 10
105.4223827136238
 20
325.269632551481
 30
0.0
 11
105.4340489356733
 21
325.2564866299973
 31
0.0
  0
LINE
  5
87
  8
0
  6
CONTINUOUS
 62
     7
 10
105.4340489356733
 20
325.2564866299973
 30
0.0
 11
105.4461845783541
 21
325.2437082679377
 31
0.0
  0
LINE
  5
88
  8
0
  6
CONTINUOUS
 62
     7
 10
105.4461845783541
 20
325.2437082679377
 30
0.0
 11
105.4587845106292
 21
325.2313465281119
 31
0.0
  0
LINE
  5
89
  8
0
  6
CONTINUOUS
 62
     7
 10
105.4587845106292
 20
325.2313465281119
 30
0.0
 11
105.4719695470546
 21
325.2193383012427
 31
0.0
  0
LINE
  5
8A
  8
0
  6
CONTINUOUS
 62
     7
 10
105.4719695470546
 20
325.2193383012427
 30
0.0
 11
105.4856411031894
 21
325.2078306660466
 31
0.0
  0
LINE
  5
8B
  8
0
  6
CONTINUOUS
 62
     7
 10
105.4856411031894
 20
325.2078306660466
 30
0.0
 11
105.499934543317
 21
325.1967702401517
 31
0.0
  0
LINE
  5
8C
  8
0
  6
CONTINUOUS
 62
     7
 10
105.499934543317
 20
325.1967702401517
 30
0.0
 11
105.5147298702284
 21
325.1863120159675
 31
0.0
  0
LINE
  5
8D
  8
0
  6
CONTINUOUS
 62
     7
 10
105.5147298702284
 20
325.1863120159675
 30
0.0
 11
105.5300536607173
 21
325.1764902162149
 31
0.0
  0
LINE
  5
8E
  8
0
  6
CONTINUOUS
 62
     7
 10
105.5300536607173
 20
325.1764902162149
 30
0.0
 11
105.5389674340762
 21
325.1712308996141
 31
0.0
  0
LINE
  5
8F
  8
0
  6
CONTINUOUS
 62
     7
 10
105.5389674340762
 20
325.1712308996141
 30
0.0
 11
105.5480265811315
 21
325.1662170752437
 31
0.0
  0
LINE
  5
90
  8
0
  6
CONTINUOUS
 62
     7
 10
105.5480265811315
 20
325.1662170752437
 30
0.0
 11
105.5572573007026
 21
325.1614437016493
 31
0.0
  0
LINE
  5
91
  8
0
  6
CONTINUOUS
 62
     7
 10
105.5572573007026
 20
325.1614437016493
 30
0.0
 11
105.5666260851849
 21
325.1569370150438
 31
0.0
  0
LINE
  5
92
  8
0
  6
CONTINUOUS
 62
     7
 10
105.5666260851849
 20
325.1569370150438
 30
0.0
 11
105.5794742930932
 21
325.1512971896884
 31
0.0
  0
LINE
  5
93
  8
0
  6
CONTINUOUS
 62
     7
 10
105.5794742930932
 20
325.1512971896884
 30
0.0
 11
105.5925718021896
 21
325.1461751876511
 31
0.0
  0
LINE
  5
94
  8
0
  6
CONTINUOUS
 62
     7
 10
105.5925718021896
 20
325.1461751876511
 30
0.0
 11
105.6026583720373
 21
325.1426521260667
 31
0.0
  0
LINE
  5
95
  8
0
  6
CONTINUOUS
 62
     7
 10
105.6026583720373
 20
325.1426521260667
 30
0.0
 11
105.6128572795857
 21
325.139454945558
 31
0.0
  0
LINE
  5
96
  8
0
  6
CONTINUOUS
 62
     7
 10
105.6128572795857
 20
325.139454945558
 30
0.0
 11
105.6232049460102
 21
325.1365802392426
 31
0.0
  0
LINE
  5
97
  8
0
  6
CONTINUOUS
 62
     7
 10
105.6232049460102
 20
325.1365802392426
 30
0.0
 11
105.6336459175469
 21
325.1340501043484
 31
0.0
  0
LINE
  5
98
  8
0
  6
CONTINUOUS
 62
     7
 10
105.6336459175469
 20
325.1340501043484
 30
0.0
 11
105.6449783856082
 21
325.1317195177581
 31
0.0
  0
LINE
  5
99
  8
0
  6
CONTINUOUS
 62
     7
 10
105.6449783856082
 20
325.1317195177581
 30
0.0
 11
105.6563952736963
 21
325.1298017055992
 31
0.0
  0
LINE
  5
9A
  8
0
  6
CONTINUOUS
 62
     7
 10
105.6563952736963
 20
325.1298017055992
 30
0.0
 11
105.6678732884053
 21
325.1283031134648
 31
0.0
  0
LINE
  5
9B
  8
0
  6
CONTINUOUS
 62
     7
 10
105.6678732884053
 20
325.1283031134648
 30
0.0
 11
105.679549079482
 21
325.1272168331468
 31
0.0
  0
LINE
  5
9C
  8
0
  6
CONTINUOUS
 62
     7
 10
105.679549079482
 20
325.1272168331468
 30
0.0
 11
105.6912628122752
 21
325.126564864237
 31
0.0
  0
LINE
  5
9D
  8
0
  6
CONTINUOUS
 62
     7
 10
105.6912628122752
 20
325.126564864237
 30
0.0
 11
105.7029891631311
 21
325.1263474804431
 31
0.0
  0
LINE
  5
9E
  8
0
  6
CONTINUOUS
 62
     7
 10
105.8238859468922
 20
348.5000000000069
 30
0.0
 11
105.7243755306316
 21
348.4900767456994
 31
0.0
  0
LINE
  5
9F
  8
0
  6
CONTINUOUS
 62
     7
 10
105.7243755306316
 20
348.4900767456994
 30
0.0
 11
105.6288149830383
 21
348.4607008666809
 31
0.0
  0
LINE
  5
A0
  8
0
  6
CONTINUOUS
 62
     7
 10
105.6288149830383
 20
348.4607008666809
 30
0.0
 11
105.5409973905743
 21
348.4130383802236
 31
0.0
  0
LINE
  5
A1
  8
0
  6
CONTINUOUS
 62
     7
 10
105.5409973905743
 20
348.4130383802236
 30
0.0
 11
105.4644084984505
 21
348.3489811542235
 31
0.0
  0
LINE
  5
A2
  8
0
  6
CONTINUOUS
 62
     7
 10
105.4644084984505
 20
348.3489811542235
 30
0.0
 11
105.4020883508816
 21
348.2710718132561
 31
0.0
  0
LINE
  5
A3
  8
0
  6
CONTINUOUS
 62
     7
 10
105.4020883508816
 20
348.2710718132561
 30
0.0
 11
105.3565106225588
 21
348.1824028141348
 31
0.0
  0
LINE
  5
A4
  8
0
  6
CONTINUOUS
 62
     7
 10
105.3565106225588
 20
348.1824028141348
 30
0.0
 11
105.3294844310377
 21
348.0864936969695
 31
0.0
  0
LINE
  5
A5
  8
0
  6
CONTINUOUS
 62
   253
 10
78.58372502418831
 20
337.5999973396907
 30
0.0
 11
78.85259578398443
 21
337.5120984545971
 31
0.0
  0
LINE
  5
A6
  8
0
  6
CONTINUOUS
 62
   253
 10
78.85259578398443
 20
337.5120984545971
 30
0.0
 11
79.1471128159574
 21
337.4621754956158
 31
0.0
  0
LINE
  5
A7
  8
0
  6
CONTINUOUS
 62
   253
 10
79.1471128159574
 20
337.4621754956158
 30
0.0
 11
79.45473200856851
 21
337.4523547885542
 31
0.0
  0
LINE
  5
A8
  8
0
  6
CONTINUOUS
 62
     7
 10
110.5710508389216
 20
341.4824305653813
 30
0.0
 11
110.6502940515044
 21
341.3907878937846
 31
0.0
  0
LINE
  5
A9
  8
0
  6
CONTINUOUS
 62
     7
 10
110.6502940515044
 20
341.3907878937846
 30
0.0
 11
110.7174749962852
 21
341.2859946942729
 31
0.0
  0
LINE
  5
AA
  8
0
  6
CONTINUOUS
 62
     7
 10
110.7174749962852
 20
341.2859946942729
 30
0.0
 11
110.7655616776311
 21
341.1755196846055
 31
0.0
  0
LINE
  5
AB
  8
0
  6
CONTINUOUS
 62
     7
 10
110.7655616776311
 20
341.1755196846055
 30
0.0
 11
110.7939743185956
 21
341.0590897080093
 31
0.0
  0
LINE
  5
AC
  8
0
  6
CONTINUOUS
 62
     7
 10
110.7939743185956
 20
341.0590897080093
 30
0.0
 11
110.8012154551161
 21
340.9433045951799
 31
0.0
  0
LINE
  5
AD
  8
0
  6
CONTINUOUS
 62
     7
 10
110.8012154551161
 20
340.9433045951799
 30
0.0
 11
110.7876037613467
 21
340.8251929233375
 31
0.0
  0
LINE
  5
AE
  8
0
  6
CONTINUOUS
 62
     7
 10
110.7876037613467
 20
340.8251929233375
 30
0.0
 11
110.7529975937579
 21
340.708795377771
 31
0.0
  0
LINE
  5
AF
  8
0
  6
CONTINUOUS
 62
     7
 10
110.7529975937579
 20
340.708795377771
 30
0.0
 11
110.6990655383528
 21
340.5980270815459
 31
0.0
  0
LINE
  5
B0
  8
0
  6
CONTINUOUS
 62
     7
 10
110.6990655383528
 20
340.5980270815459
 30
0.0
 11
110.6237695047817
 21
340.4896167868453
 31
0.0
  0
LINE
  5
B1
  8
0
  6
CONTINUOUS
 62
     7
 10
110.6237695047817
 20
340.4896167868453
 30
0.0
 11
110.5318043465851
 21
340.3908072361825
 31
0.0
  0
LINE
  5
B2
  8
0
  6
CONTINUOUS
 62
     7
 10
110.5318043465851
 20
340.3908072361825
 30
0.0
 11
110.4233132427069
 21
340.3009741869193
 31
0.0
  0
LINE
  5
B3
  8
0
  6
CONTINUOUS
 62
     7
 10
110.4233132427069
 20
340.3009741869193
 30
0.0
 11
110.2973220188576
 21
340.2200998268119
 31
0.0
  0
LINE
  5
B4
  8
0
  6
CONTINUOUS
 62
     7
 10
108.7231038671993
 20
340.2114361618844
 30
0.0
 11
108.5996124607946
 21
340.2879947287836
 31
0.0
  0
LINE
  5
B5
  8
0
  6
CONTINUOUS
 62
     7
 10
108.5996124607946
 20
340.2879947287836
 30
0.0
 11
108.4901370333149
 21
340.3750123871844
 31
0.0
  0
LINE
  5
B6
  8
0
  6
CONTINUOUS
 62
     7
 10
108.4901370333149
 20
340.3750123871844
 30
0.0
 11
108.3949227312785
 21
340.4728391151149
 31
0.0
  0
LINE
  5
B7
  8
0
  6
CONTINUOUS
 62
     7
 10
108.3949227312785
 20
340.4728391151149
 30
0.0
 11
108.3191175657308
 21
340.5759920119838
 31
0.0
  0
LINE
  5
B8
  8
0
  6
CONTINUOUS
 62
     7
 10
108.3191175657308
 20
340.5759920119838
 30
0.0
 11
108.2608026350799
 21
340.6868261956442
 31
0.0
  0
LINE
  5
B9
  8
0
  6
CONTINUOUS
 62
     7
 10
108.2608026350799
 20
340.6868261956442
 30
0.0
 11
108.2222095565075
 21
340.8026807032148
 31
0.0
  0
LINE
  5
BA
  8
0
  6
CONTINUOUS
 62
     7
 10
108.2222095565075
 20
340.8026807032148
 30
0.0
 11
108.2045444677966
 21
340.9207220285447
 31
0.0
  0
LINE
  5
BB
  8
0
  6
CONTINUOUS
 62
     7
 10
108.2045444677966
 20
340.9207220285447
 30
0.0
 11
108.2033586432796
 21
340.9601551085598
 31
0.0
  0
LINE
  5
BC
  8
0
  6
CONTINUOUS
 62
   253
 10
74.6223006962684
 20
307.5000000000069
 30
0.0
 11
74.71507499805855
 21
307.5086842307023
 31
0.0
  0
LINE
  5
BD
  8
0
  6
CONTINUOUS
 62
   253
 10
74.71507499805855
 20
307.5086842307023
 30
0.0
 11
74.80462660609132
 21
307.5344352593373
 31
0.0
  0
LINE
  5
BE
  8
0
  6
CONTINUOUS
 62
   253
 10
74.80462660609132
 20
307.5344352593373
 30
0.0
 11
74.8878447730735
 21
307.5763585744188
 31
0.0
  0
LINE
  5
BF
  8
0
  6
CONTINUOUS
 62
   253
 10
74.8878447730735
 20
307.5763585744188
 30
0.0
 11
74.9618387559646
 21
307.632997888988
 31
0.0
  0
LINE
  5
C0
  8
0
  6
CONTINUOUS
 62
   253
 10
74.9618387559646
 20
307.632997888988
 30
0.0
 11
75.02403823149467
 21
307.7023857275483
 31
0.0
  0
LINE
  5
C1
  8
0
  6
CONTINUOUS
 62
   253
 10
75.02403823149467
 20
307.7023857275483
 30
0.0
 11
75.07228258128514
 21
307.7821117701097
 31
0.0
  0
LINE
  5
C2
  8
0
  6
CONTINUOUS
 62
   253
 10
75.07228258128514
 20
307.7821117701097
 30
0.0
 11
75.10489594508272
 21
307.869406579288
 31
0.0
  0
LINE
  5
C3
  8
0
  6
CONTINUOUS
 62
   253
 10
79.45473200856854
 20
322.5476452114598
 30
0.0
 11
79.14711281595743
 21
322.5378245043982
 31
0.0
  0
LINE
  5
C4
  8
0
  6
CONTINUOUS
 62
   253
 10
79.14711281595743
 20
322.5378245043982
 30
0.0
 11
78.85259578398443
 21
322.4879015454168
 31
0.0
  0
LINE
  5
C5
  8
0
  6
CONTINUOUS
 62
   253
 10
78.85259578398443
 20
322.4879015454168
 30
0.0
 11
78.58372502418833
 21
322.4000026603233
 31
0.0
  0
LINE
  5
C6
  8
0
  6
CONTINUOUS
 62
     7
 10
108.2033586432796
 20
340.9601551085598
 30
0.0
 11
108.2044953481786
 21
340.9987807139252
 31
0.0
  0
LINE
  5
C7
  8
0
  6
CONTINUOUS
 62
     7
 10
108.2044953481786
 20
340.9987807139252
 30
0.0
 11
108.207897931715
 21
341.0373292555175
 31
0.0
  0
LINE
  5
C8
  8
0
  6
CONTINUOUS
 62
     7
 10
108.207897931715
 20
341.0373292555175
 30
0.0
 11
108.2135550915618
 21
341.0757021195992
 31
0.0
  0
LINE
  5
C9
  8
0
  6
CONTINUOUS
 62
     7
 10
108.2135550915618
 20
341.0757021195992
 30
0.0
 11
108.2214555264075
 21
341.1138006913497
 31
0.0
  0
LINE
  5
CA
  8
0
  6
CONTINUOUS
 62
     7
 10
108.2214555264075
 20
341.1138006913497
 30
0.0
 11
108.2319266027109
 21
341.1526797813838
 31
0.0
  0
LINE
  5
CB
  8
0
  6
CONTINUOUS
 62
     7
 10
108.2319266027109
 20
341.1526797813838
 30
0.0
 11
108.2447574990659
 21
341.1911999021933
 31
0.0
  0
LINE
  5
CC
  8
0
  6
CONTINUOUS
 62
     7
 10
108.2447574990659
 20
341.1911999021933
 30
0.0
 11
108.259911103127
 21
341.2292576465531
 31
0.0
  0
LINE
  5
CD
  8
0
  6
CONTINUOUS
 62
     7
 10
108.259911103127
 20
341.2292576465531
 30
0.0
 11
108.277350302549
 21
341.2667496072384
 31
0.0
  0
LINE
  5
CE
  8
0
  6
CONTINUOUS
 62
     7
 10
108.277350302549
 20
341.2667496072384
 30
0.0
 11
108.2964827511084
 21
341.3026135070829
 31
0.0
  0
LINE
  5
CF
  8
0
  6
CONTINUOUS
 62
     7
 10
108.2964827511084
 20
341.3026135070829
 30
0.0
 11
108.3177451155368
 21
341.3378822878552
 31
0.0
  0
LINE
  5
D0
  8
0
  6
CONTINUOUS
 62
     7
 10
108.3177451155368
 20
341.3378822878552
 30
0.0
 11
108.3410810712618
 21
341.3724669327666
 31
0.0
  0
LINE
  5
D1
  8
0
  6
CONTINUOUS
 62
     7
 10
108.3410810712618
 20
341.3724669327666
 30
0.0
 11
108.366434293711
 21
341.4062784250283
 31
0.0
  0
LINE
  5
D2
  8
0
  6
CONTINUOUS
 62
     7
 10
108.366434293711
 20
341.4062784250283
 30
0.0
 11
108.3946189836195
 21
341.4402375693433
 31
0.0
  0
LINE
  5
D3
  8
0
  6
CONTINUOUS
 62
     7
 10
108.3946189836195
 20
341.4402375693433
 30
0.0
 11
108.4248947643188
 21
341.473318863332
 31
0.0
  0
LINE
  5
D4
  8
0
  6
CONTINUOUS
 62
     7
 10
108.4248947643188
 20
341.473318863332
 30
0.0
 11
108.4337580925786
 21
341.4824462326287
 31
0.0
  0
LINE
  5
D5
  8
0
  6
CONTINUOUS
 62
     7
 10
108.758688489022
 20
334.2568299493573
 30
0.0
 11
108.7551259460391
 21
334.296139214328
 31
0.0
  0
LINE
  5
D6
  8
0
  6
CONTINUOUS
 62
     7
 10
108.7551259460391
 20
334.296139214328
 30
0.0
 11
108.7499959672331
 21
334.3353766819624
 31
0.0
  0
LINE
  5
D7
  8
0
  6
CONTINUOUS
 62
     7
 10
108.7499959672331
 20
334.3353766819624
 30
0.0
 11
108.7432871882122
 21
334.3744137843341
 31
0.0
  0
LINE
  5
D8
  8
0
  6
CONTINUOUS
 62
     7
 10
108.7432871882122
 20
334.3744137843341
 30
0.0
 11
108.7348775679094
 21
334.4136002275655
 31
0.0
  0
LINE
  5
D9
  8
0
  6
CONTINUOUS
 62
     7
 10
108.7348775679094
 20
334.4136002275655
 30
0.0
 11
108.7247980178336
 21
334.4524383213045
 31
0.0
  0
LINE
  5
DA
  8
0
  6
CONTINUOUS
 62
     7
 10
108.7247980178336
 20
334.4524383213045
 30
0.0
 11
108.712863696797
 21
334.491273481009
 31
0.0
  0
LINE
  5
DB
  8
0
  6
CONTINUOUS
 62
     7
 10
108.712863696797
 20
334.491273481009
 30
0.0
 11
108.6991220041276
 21
334.5295731570479
 31
0.0
  0
LINE
  5
DC
  8
0
  6
CONTINUOUS
 62
     7
 10
108.6991220041276
 20
334.5295731570479
 30
0.0
 11
108.6834691467769
 21
334.5673053867193
 31
0.0
  0
LINE
  5
DD
  8
0
  6
CONTINUOUS
 62
     7
 10
108.6834691467769
 20
334.5673053867193
 30
0.0
 11
108.6734796334803
 21
334.5888736825444
 31
0.0
  0
LINE
  5
DE
  8
0
  6
CONTINUOUS
 62
     7
 10
108.6734796334803
 20
334.5888736825444
 30
0.0
 11
108.6628145344216
 21
334.6101366725429
 31
0.0
  0
LINE
  5
DF
  8
0
  6
CONTINUOUS
 62
     7
 10
108.6628145344216
 20
334.6101366725429
 30
0.0
 11
108.6513675941128
 21
334.6312160013469
 31
0.0
  0
LINE
  5
E0
  8
0
  6
CONTINUOUS
 62
     7
 10
108.6513675941128
 20
334.6312160013469
 30
0.0
 11
108.6392086624008
 21
334.651890941702
 31
0.0
  0
LINE
  5
E1
  8
0
  6
CONTINUOUS
 62
     7
 10
108.6392086624008
 20
334.651890941702
 30
0.0
 11
108.6262530928622
 21
334.6722179402688
 31
0.0
  0
LINE
  5
E2
  8
0
  6
CONTINUOUS
 62
     7
 10
108.6262530928622
 20
334.6722179402688
 30
0.0
 11
108.6125395256977
 21
334.692043695995
 31
0.0
  0
LINE
  5
E3
  8
0
  6
CONTINUOUS
 62
     7
 10
108.6125395256977
 20
334.692043695995
 30
0.0
 11
108.5978965556072
 21
334.7115054835522
 31
0.0
  0
LINE
  5
E4
  8
0
  6
CONTINUOUS
 62
     7
 10
108.5978965556072
 20
334.7115054835522
 30
0.0
 11
108.5824107842886
 21
334.7303674485329
 31
0.0
  0
LINE
  5
E5
  8
0
  6
CONTINUOUS
 62
     7
 10
108.5824107842886
 20
334.7303674485329
 30
0.0
 11
108.5707445622392
 21
334.7435133700166
 31
0.0
  0
LINE
  5
E6
  8
0
  6
CONTINUOUS
 62
     7
 10
108.5707445622392
 20
334.7435133700166
 30
0.0
 11
108.5586089195583
 21
334.7562917320761
 31
0.0
  0
LINE
  5
E7
  8
0
  6
CONTINUOUS
 62
     7
 10
108.5586089195583
 20
334.7562917320761
 30
0.0
 11
108.5460089872833
 21
334.768653471902
 31
0.0
  0
LINE
  5
E8
  8
0
  6
CONTINUOUS
 62
     7
 10
108.5460089872833
 20
334.768653471902
 30
0.0
 11
108.5328239508578
 21
334.7806616987712
 31
0.0
  0
LINE
  5
E9
  8
0
  6
CONTINUOUS
 62
     7
 10
108.5328239508578
 20
334.7806616987712
 30
0.0
 11
108.519152394723
 21
334.7921693339673
 31
0.0
  0
LINE
  5
EA
  8
0
  6
CONTINUOUS
 62
     7
 10
108.519152394723
 20
334.7921693339673
 30
0.0
 11
108.5048589545954
 21
334.8032297598621
 31
0.0
  0
LINE
  5
EB
  8
0
  6
CONTINUOUS
 62
     7
 10
108.5048589545954
 20
334.8032297598621
 30
0.0
 11
108.4900636276841
 21
334.8136879840464
 31
0.0
  0
LINE
  5
EC
  8
0
  6
CONTINUOUS
 62
     7
 10
108.4900636276841
 20
334.8136879840464
 30
0.0
 11
108.4747398371951
 21
334.823509783799
 31
0.0
  0
LINE
  5
ED
  8
0
  6
CONTINUOUS
 62
     7
 10
108.4747398371951
 20
334.823509783799
 30
0.0
 11
108.4658260638362
 21
334.8287691003998
 31
0.0
  0
LINE
  5
EE
  8
0
  6
CONTINUOUS
 62
     7
 10
108.4658260638362
 20
334.8287691003998
 30
0.0
 11
108.456766916781
 21
334.8337829247702
 31
0.0
  0
LINE
  5
EF
  8
0
  6
CONTINUOUS
 62
     7
 10
108.456766916781
 20
334.8337829247702
 30
0.0
 11
108.4475361972099
 21
334.8385562983646
 31
0.0
  0
LINE
  5
F0
  8
0
  6
CONTINUOUS
 62
     7
 10
108.4475361972099
 20
334.8385562983646
 30
0.0
 11
108.4381674127276
 21
334.8430629849702
 31
0.0
  0
LINE
  5
F1
  8
0
  6
CONTINUOUS
 62
     7
 10
108.4381674127276
 20
334.8430629849702
 30
0.0
 11
108.4253192048192
 21
334.8487028103255
 31
0.0
  0
LINE
  5
F2
  8
0
  6
CONTINUOUS
 62
     7
 10
108.4253192048192
 20
334.8487028103255
 30
0.0
 11
108.4122216957228
 21
334.8538248123629
 31
0.0
  0
LINE
  5
F3
  8
0
  6
CONTINUOUS
 62
     7
 10
108.4122216957228
 20
334.8538248123629
 30
0.0
 11
108.4021351258751
 21
334.8573478739472
 31
0.0
  0
LINE
  5
F4
  8
0
  6
CONTINUOUS
 62
     7
 10
108.4021351258751
 20
334.8573478739472
 30
0.0
 11
108.3919362183267
 21
334.8605450544559
 31
0.0
  0
LINE
  5
F5
  8
0
  6
CONTINUOUS
 62
     7
 10
108.3919362183267
 20
334.8605450544559
 30
0.0
 11
108.3815885519023
 21
334.8634197607713
 31
0.0
  0
LINE
  5
F6
  8
0
  6
CONTINUOUS
 62
     7
 10
108.3815885519023
 20
334.8634197607713
 30
0.0
 11
108.3711475803655
 21
334.8659498956655
 31
0.0
  0
LINE
  5
F7
  8
0
  6
CONTINUOUS
 62
     7
 10
108.3711475803655
 20
334.8659498956655
 30
0.0
 11
108.3598151123042
 21
334.8682804822557
 31
0.0
  0
LINE
  5
F8
  8
0
  6
CONTINUOUS
 62
     7
 10
108.3598151123042
 20
334.8682804822557
 30
0.0
 11
108.3483982242161
 21
334.8701982944148
 31
0.0
  0
LINE
  5
F9
  8
0
  6
CONTINUOUS
 62
     7
 10
108.3483982242161
 20
334.8701982944148
 30
0.0
 11
108.3369202095071
 21
334.8716968865491
 31
0.0
  0
LINE
  5
FA
  8
0
  6
CONTINUOUS
 62
     7
 10
108.3369202095071
 20
334.8716968865491
 30
0.0
 11
108.3252444184304
 21
334.8727831668671
 31
0.0
  0
LINE
  5
FB
  8
0
  6
CONTINUOUS
 62
     7
 10
108.3252444184304
 20
334.8727831668671
 30
0.0
 11
108.3135306856372
 21
334.873435135777
 31
0.0
  0
LINE
  5
FC
  8
0
  6
CONTINUOUS
 62
     7
 10
108.3135306856372
 20
334.873435135777
 30
0.0
 11
108.3018043347814
 21
334.8736525195708
 31
0.0
  0
LINE
  5
FD
  8
0
  6
CONTINUOUS
 62
   253
 10
78.5471173713566
 20
345.9568917009793
 30
0.0
 11
78.77635037583771
 21
345.7631489074929
 31
0.0
  0
LINE
  5
FE
  8
0
  6
CONTINUOUS
 62
   253
 10
78.77635037583771
 20
345.7631489074929
 30
0.0
 11
79.03956208081182
 21
345.6189383705817
 31
0.0
  0
LINE
  5
FF
  8
0
  6
CONTINUOUS
 62
   253
 10
79.03956208081182
 20
345.6189383705817
 30
0.0
 11
79.32621162991938
 21
345.5300352990467
 31
0.0
  0
LINE
  5
100
  8
0
  6
CONTINUOUS
 62
   253
 10
79.32621162991938
 20
345.5300352990467
 30
0.0
 11
79.6248195499243
 21
345.5000000000069
 31
0.0
  0
LINE
  5
101
  8
0
  6
CONTINUOUS
 62
     7
 10
108.6753090668747
 20
348.0864936969695
 30
0.0
 11
108.6482828753537
 21
348.1824028141348
 31
0.0
  0
LINE
  5
102
  8
0
  6
CONTINUOUS
 62
     7
 10
108.6482828753537
 20
348.1824028141348
 30
0.0
 11
108.6027051470309
 21
348.2710718132561
 31
0.0
  0
LINE
  5
103
  8
0
  6
CONTINUOUS
 62
     7
 10
108.6027051470309
 20
348.2710718132561
 30
0.0
 11
108.540384999462
 21
348.3489811542235
 31
0.0
  0
LINE
  5
104
  8
0
  6
CONTINUOUS
 62
     7
 10
108.540384999462
 20
348.3489811542235
 30
0.0
 11
108.4637961073382
 21
348.4130383802236
 31
0.0
  0
LINE
  5
105
  8
0
  6
CONTINUOUS
 62
     7
 10
108.4637961073382
 20
348.4130383802236
 30
0.0
 11
108.3759785148742
 21
348.4607008666809
 31
0.0
  0
LINE
  5
106
  8
0
  6
CONTINUOUS
 62
     7
 10
108.3759785148742
 20
348.4607008666809
 30
0.0
 11
108.2804179672808
 21
348.4900767456994
 31
0.0
  0
LINE
  5
107
  8
0
  6
CONTINUOUS
 62
     7
 10
108.2804179672808
 20
348.4900767456994
 30
0.0
 11
108.1809075510203
 21
348.5000000000069
 31
0.0
  0
LINE
  5
108
  8
0
  6
CONTINUOUS
 62
     7
 10
108.1809075510203
 20
311.5000000000069
 30
0.0
 11
108.2804179672808
 21
311.5099232543145
 31
0.0
  0
LINE
  5
109
  8
0
  6
CONTINUOUS
 62
     7
 10
108.2804179672808
 20
311.5099232543145
 30
0.0
 11
108.3759785148742
 21
311.539299133333
 31
0.0
  0
LINE
  5
10A
  8
0
  6
CONTINUOUS
 62
     7
 10
108.3759785148742
 20
311.539299133333
 30
0.0
 11
108.4637961073382
 21
311.5869616197903
 31
0.0
  0
LINE
  5
10B
  8
0
  6
CONTINUOUS
 62
     7
 10
108.4637961073382
 20
311.5869616197903
 30
0.0
 11
108.540384999462
 21
311.6510188457904
 31
0.0
  0
LINE
  5
10C
  8
0
  6
CONTINUOUS
 62
     7
 10
108.540384999462
 20
311.6510188457904
 30
0.0
 11
108.6027051470309
 21
311.7289281867577
 31
0.0
  0
LINE
  5
10D
  8
0
  6
CONTINUOUS
 62
     7
 10
108.6027051470309
 20
311.7289281867577
 30
0.0
 11
108.6482828753537
 21
311.817597185879
 31
0.0
  0
LINE
  5
10E
  8
0
  6
CONTINUOUS
 62
     7
 10
108.6482828753537
 20
311.817597185879
 30
0.0
 11
108.6753090668747
 21
311.9135063030444
 31
0.0
  0
LINE
  5
10F
  8
0
  6
CONTINUOUS
 62
     7
 10
105.3294844310377
 20
311.9135063030444
 30
0.0
 11
105.3565106225588
 21
311.817597185879
 31
0.0
  0
LINE
  5
110
  8
0
  6
CONTINUOUS
 62
     7
 10
105.3565106225588
 20
311.817597185879
 30
0.0
 11
105.4020883508816
 21
311.7289281867577
 31
0.0
  0
LINE
  5
111
  8
0
  6
CONTINUOUS
 62
     7
 10
105.4020883508816
 20
311.7289281867577
 30
0.0
 11
105.4644084984505
 21
311.6510188457904
 31
0.0
  0
LINE
  5
112
  8
0
  6
CONTINUOUS
 62
     7
 10
105.4644084984505
 20
311.6510188457904
 30
0.0
 11
105.5409973905743
 21
311.5869616197903
 31
0.0
  0
LINE
  5
113
  8
0
  6
CONTINUOUS
 62
     7
 10
105.5409973905743
 20
311.5869616197903
 30
0.0
 11
105.6288149830383
 21
311.539299133333
 31
0.0
  0
LINE
  5
114
  8
0
  6
CONTINUOUS
 62
     7
 10
105.6288149830383
 20
311.539299133333
 30
0.0
 11
105.7243755306316
 21
311.5099232543145
 31
0.0
  0
LINE
  5
115
  8
0
  6
CONTINUOUS
 62
     7
 10
105.7243755306316
 20
311.5099232543145
 30
0.0
 11
105.8238859468922
 21
311.5000000000069
 31
0.0
  0
LINE
  5
116
  8
0
  6
CONTINUOUS
 62
   253
 10
108.0199133665204
 20
327.4502632150429
 30
0.0
 11
108.1183809540932
 21
327.4627452068301
 31
0.0
  0
LINE
  5
117
  8
0
  6
CONTINUOUS
 62
   253
 10
108.1183809540932
 20
327.4627452068301
 30
0.0
 11
108.2129681823278
 21
327.489829254748
 31
0.0
  0
LINE
  5
118
  8
0
  6
CONTINUOUS
 62
   253
 10
108.2129681823278
 20
327.489829254748
 30
0.0
 11
108.2999476070631
 21
327.530448044761
 31
0.0
  0
LINE
  5
119
  8
0
  6
CONTINUOUS
 62
   253
 10
108.2999476070631
 20
327.530448044761
 30
0.0
 11
108.3758915884906
 21
327.5830008927759
 31
0.0
  0
LINE
  5
11A
  8
0
  6
CONTINUOUS
 62
   253
 10
108.3758915884906
 20
327.5830008927759
 30
0.0
 11
108.4378073657965
 21
327.6454168235655
 31
0.0
  0
LINE
  5
11B
  8
0
  6
CONTINUOUS
 62
   253
 10
108.4378073657965
 20
327.6454168235655
 30
0.0
 11
108.4832549943192
 21
327.7152361826803
 31
0.0
  0
LINE
  5
11C
  8
0
  6
CONTINUOUS
 62
   253
 10
108.4832549943192
 20
327.7152361826803
 30
0.0
 11
108.5104434976155
 21
327.7897075652286
 31
0.0
  0
LINE
  5
11D
  8
0
  6
CONTINUOUS
 62
   253
 10
75.10489594508272
 20
352.130593420726
 30
0.0
 11
75.07228258128515
 21
352.2178882299042
 31
0.0
  0
LINE
  5
11E
  8
0
  6
CONTINUOUS
 62
   253
 10
75.07228258128515
 20
352.2178882299042
 30
0.0
 11
75.02403823149467
 21
352.2976142724656
 31
0.0
  0
LINE
  5
11F
  8
0
  6
CONTINUOUS
 62
   253
 10
75.02403823149467
 20
352.2976142724656
 30
0.0
 11
74.9618387559646
 21
352.3670021110259
 31
0.0
  0
LINE
  5
120
  8
0
  6
CONTINUOUS
 62
   253
 10
74.9618387559646
 20
352.3670021110259
 30
0.0
 11
74.8878447730735
 21
352.4236414255951
 31
0.0
  0
LINE
  5
121
  8
0
  6
CONTINUOUS
 62
   253
 10
74.8878447730735
 20
352.4236414255951
 30
0.0
 11
74.80462660609132
 21
352.4655647406765
 31
0.0
  0
LINE
  5
122
  8
0
  6
CONTINUOUS
 62
   253
 10
74.80462660609132
 20
352.4655647406765
 30
0.0
 11
74.71507499805855
 21
352.4913157693116
 31
0.0
  0
LINE
  5
123
  8
0
  6
CONTINUOUS
 62
   253
 10
74.71507499805855
 20
352.4913157693116
 30
0.0
 11
74.6223006962684
 21
352.500000000007
 31
0.0
  0
LINE
  5
124
  8
0
  6
CONTINUOUS
 62
     7
 10
108.3018043347814
 20
325.1263474804431
 30
0.0
 11
108.3165408926889
 21
325.1266931384972
 31
0.0
  0
LINE
  5
125
  8
0
  6
CONTINUOUS
 62
     7
 10
108.3165408926889
 20
325.1266931384972
 30
0.0
 11
108.331260624562
 21
325.127726805904
 31
0.0
  0
LINE
  5
126
  8
0
  6
CONTINUOUS
 62
     7
 10
108.331260624562
 20
325.127726805904
 30
0.0
 11
108.3459136592927
 21
325.1294435225306
 31
0.0
  0
LINE
  5
127
  8
0
  6
CONTINUOUS
 62
     7
 10
108.3459136592927
 20
325.1294435225306
 30
0.0
 11
108.3604501257728
 21
325.1318383282438
 31
0.0
  0
LINE
  5
128
  8
0
  6
CONTINUOUS
 62
     7
 10
108.3604501257728
 20
325.1318383282438
 30
0.0
 11
108.3753954853844
 21
325.1350378205187
 31
0.0
  0
LINE
  5
129
  8
0
  6
CONTINUOUS
 62
     7
 10
108.3753954853844
 20
325.1350378205187
 30
0.0
 11
108.390182091708
 21
325.1389468609943
 31
0.0
  0
LINE
  5
12A
  8
0
  6
CONTINUOUS
 62
     7
 10
108.390182091708
 20
325.1389468609943
 30
0.0
 11
108.4047641628118
 21
325.1435384367503
 31
0.0
  0
LINE
  5
12B
  8
0
  6
CONTINUOUS
 62
     7
 10
108.4047641628118
 20
325.1435384367503
 30
0.0
 11
108.4190959167642
 21
325.1487855348666
 31
0.0
  0
LINE
  5
12C
  8
0
  6
CONTINUOUS
 62
     7
 10
108.4190959167642
 20
325.1487855348666
 30
0.0
 11
108.4372860298838
 21
325.1565408908459
 31
0.0
  0
LINE
  5
12D
  8
0
  6
CONTINUOUS
 62
     7
 10
108.4372860298838
 20
325.1565408908459
 30
0.0
 11
108.4550390954003
 21
325.1653255909984
 31
0.0
  0
LINE
  5
12E
  8
0
  6
CONTINUOUS
 62
     7
 10
108.4550390954003
 20
325.1653255909984
 30
0.0
 11
108.4723106024415
 21
325.1750597812056
 31
0.0
  0
LINE
  5
12F
  8
0
  6
CONTINUOUS
 62
     7
 10
108.4723106024415
 20
325.1750597812056
 30
0.0
 11
108.4890560401354
 21
325.1856636073492
 31
0.0
  0
LINE
  5
130
  8
0
  6
CONTINUOUS
 62
     7
 10
108.4890560401354
 20
325.1856636073492
 30
0.0
 11
108.5052308976101
 21
325.1970572153106
 31
0.0
  0
LINE
  5
131
  8
0
  6
CONTINUOUS
 62
     7
 10
108.5052308976101
 20
325.1970572153106
 30
0.0
 11
108.5207906639935
 21
325.2091607509715
 31
0.0
  0
LINE
  5
132
  8
0
  6
CONTINUOUS
 62
     7
 10
108.5207906639935
 20
325.2091607509715
 30
0.0
 11
108.5370325422766
 21
325.2230724984396
 31
0.0
  0
LINE
  5
133
  8
0
  6
CONTINUOUS
 62
     7
 10
108.5370325422766
 20
325.2230724984396
 30
0.0
 11
108.5526213186607
 21
325.2377240364054
 31
0.0
  0
LINE
  5
134
  8
0
  6
CONTINUOUS
 62
     7
 10
108.5526213186607
 20
325.2377240364054
 30
0.0
 11
108.567549897425
 21
325.2530375844456
 31
0.0
  0
LINE
  5
135
  8
0
  6
CONTINUOUS
 62
     7
 10
108.567549897425
 20
325.2530375844456
 30
0.0
 11
108.5818111828488
 21
325.2689353621373
 31
0.0
  0
LINE
  5
136
  8
0
  6
CONTINUOUS
 62
     7
 10
108.5818111828488
 20
325.2689353621373
 30
0.0
 11
108.600308824904
 21
325.2915866868352
 31
0.0
  0
LINE
  5
137
  8
0
  6
CONTINUOUS
 62
     7
 10
108.600308824904
 20
325.2915866868352
 30
0.0
 11
108.6176473560739
 21
325.3151497655468
 31
0.0
  0
LINE
  5
138
  8
0
  6
CONTINUOUS
 62
     7
 10
108.6176473560739
 20
325.3151497655468
 30
0.0
 11
108.6338423501192
 21
325.3394887440474
 31
0.0
  0
LINE
  5
139
  8
0
  6
CONTINUOUS
 62
     7
 10
108.6338423501192
 20
325.3394887440474
 30
0.0
 11
108.650349686671
 21
325.366985353923
 31
0.0
  0
LINE
  5
13A
  8
0
  6
CONTINUOUS
 62
     7
 10
108.650349686671
 20
325.366985353923
 30
0.0
 11
108.6655943737618
 21
325.3952390071577
 31
0.0
  0
LINE
  5
13B
  8
0
  6
CONTINUOUS
 62
     7
 10
108.6655943737618
 20
325.3952390071577
 30
0.0
 11
108.6796030856923
 21
325.4241377926542
 31
0.0
  0
LINE
  5
13C
  8
0
  6
CONTINUOUS
 62
     7
 10
108.6796030856923
 20
325.4241377926542
 30
0.0
 11
108.6924024967632
 21
325.4535697993151
 31
0.0
  0
LINE
  5
13D
  8
0
  6
CONTINUOUS
 62
     7
 10
108.6924024967632
 20
325.4535697993151
 30
0.0
 11
108.708058997978
 21
325.494670004256
 31
0.0
  0
LINE
  5
13E
  8
0
  6
CONTINUOUS
 62
     7
 10
108.708058997978
 20
325.494670004256
 30
0.0
 11
108.7216152769992
 21
325.5365678575299
 31
0.0
  0
LINE
  5
13F
  8
0
  6
CONTINUOUS
 62
     7
 10
108.7216152769992
 20
325.5365678575299
 30
0.0
 11
108.7331139993746
 21
325.5790805650428
 31
0.0
  0
LINE
  5
140
  8
0
  6
CONTINUOUS
 62
     7
 10
108.7331139993746
 20
325.5790805650428
 30
0.0
 11
108.7421130320749
 21
325.6195943217041
 31
0.0
  0
LINE
  5
141
  8
0
  6
CONTINUOUS
 62
     7
 10
108.7421130320749
 20
325.6195943217041
 30
0.0
 11
108.7493693774127
 21
325.660523763413
 31
0.0
  0
LINE
  5
142
  8
0
  6
CONTINUOUS
 62
     7
 10
108.7493693774127
 20
325.660523763413
 30
0.0
 11
108.7548916561434
 21
325.7017539773402
 31
0.0
  0
LINE
  5
143
  8
0
  6
CONTINUOUS
 62
     7
 10
108.7548916561434
 20
325.7017539773402
 30
0.0
 11
108.758688489022
 21
325.7431700506565
 31
0.0
  0
LINE
  5
144
  8
0
  6
CONTINUOUS
 62
   253
 10
105.4943500002969
 20
327.7897075652285
 30
0.0
 11
105.5215385035933
 21
327.7152361826803
 31
0.0
  0
LINE
  5
145
  8
0
  6
CONTINUOUS
 62
   253
 10
105.5215385035933
 20
327.7152361826803
 30
0.0
 11
105.566986132116
 21
327.6454168235655
 31
0.0
  0
LINE
  5
146
  8
0
  6
CONTINUOUS
 62
   253
 10
105.566986132116
 20
327.6454168235655
 30
0.0
 11
105.6289019094219
 21
327.5830008927759
 31
0.0
  0
LINE
  5
147
  8
0
  6
CONTINUOUS
 62
   253
 10
105.6289019094219
 20
327.5830008927759
 30
0.0
 11
105.7048458908494
 21
327.530448044761
 31
0.0
  0
LINE
  5
148
  8
0
  6
CONTINUOUS
 62
   253
 10
105.7048458908494
 20
327.530448044761
 30
0.0
 11
105.7918253155847
 21
327.489829254748
 31
0.0
  0
LINE
  5
149
  8
0
  6
CONTINUOUS
 62
   253
 10
105.7918253155847
 20
327.489829254748
 30
0.0
 11
105.8864125438193
 21
327.4627452068302
 31
0.0
  0
LINE
  5
14A
  8
0
  6
CONTINUOUS
 62
   253
 10
105.8864125438193
 20
327.4627452068302
 30
0.0
 11
105.9848801313921
 21
327.4502632150429
 31
0.0
  0
LINE
  5
14B
  8
0
  6
CONTINUOUS
 62
   253
 10
108.5104434976155
 20
332.2102924347853
 30
0.0
 11
108.4832549943192
 21
332.2847638173336
 31
0.0
  0
LINE
  5
14C
  8
0
  6
CONTINUOUS
 62
   253
 10
108.4832549943192
 20
332.2847638173336
 30
0.0
 11
108.4378073657965
 21
332.3545831764485
 31
0.0
  0
LINE
  5
14D
  8
0
  6
CONTINUOUS
 62
   253
 10
108.4378073657965
 20
332.3545831764485
 30
0.0
 11
108.3758915884906
 21
332.416999107238
 31
0.0
  0
LINE
  5
14E
  8
0
  6
CONTINUOUS
 62
   253
 10
108.3758915884906
 20
332.416999107238
 30
0.0
 11
108.2999476070631
 21
332.4695519552529
 31
0.0
  0
LINE
  5
14F
  8
0
  6
CONTINUOUS
 62
   253
 10
108.2999476070631
 20
332.4695519552529
 30
0.0
 11
108.2129681823278
 21
332.510170745266
 31
0.0
  0
LINE
  5
150
  8
0
  6
CONTINUOUS
 62
   253
 10
108.2129681823278
 20
332.510170745266
 30
0.0
 11
108.1183809540932
 21
332.5372547931838
 31
0.0
  0
LINE
  5
151
  8
0
  6
CONTINUOUS
 62
   253
 10
108.1183809540932
 20
332.5372547931838
 30
0.0
 11
108.0199133665203
 21
332.5497367849711
 31
0.0
  0
LINE
  5
152
  8
0
  6
CONTINUOUS
 62
     7
 10
42.72981157141675
 20
323.5756593491944
 30
0.0
 11
41.557566007456
 21
322.2078836992557
 31
0.0
  0
LINE
  5
153
  8
0
  6
CONTINUOUS
 62
     7
 10
41.557566007456
 20
322.2078836992557
 30
0.0
 11
40.3331123024934
 21
320.8866407181222
 31
0.0
  0
LINE
  5
154
  8
0
  6
CONTINUOUS
 62
     7
 10
40.3331123024934
 20
320.8866407181222
 30
0.0
 11
39.05829601376639
 21
319.6139218486198
 31
0.0
  0
LINE
  5
155
  8
0
  6
CONTINUOUS
 62
     7
 10
36.42434065080207
 20
342.7298115714341
 30
0.0
 11
37.79211630074054
 21
341.5575660074737
 31
0.0
  0
LINE
  5
156
  8
0
  6
CONTINUOUS
 62
     7
 10
37.79211630074054
 20
341.5575660074737
 30
0.0
 11
39.11335928187372
 21
340.3331123025114
 31
0.0
  0
LINE
  5
157
  8
0
  6
CONTINUOUS
 62
     7
 10
39.11335928187372
 20
340.3331123025114
 30
0.0
 11
40.38607815137585
 21
339.0582960137847
 31
0.0
  0
LINE
  5
158
  8
0
  6
CONTINUOUS
 62
     7
 10
17.2701884285623
 20
336.4243406508196
 30
0.0
 11
18.4424339933283
 21
337.7921163016618
 31
0.0
  0
LINE
  5
159
  8
0
  6
CONTINUOUS
 62
     7
 10
18.4424339933283
 20
337.7921163016618
 30
0.0
 11
19.66688769916512
 21
339.113359283635
 31
0.0
  0
LINE
  5
15A
  8
0
  6
CONTINUOUS
 62
     7
 10
19.66688769916512
 20
339.113359283635
 30
0.0
 11
20.94170398883146
 21
340.3860781539091
 31
0.0
  0
LINE
  5
15B
  8
0
  6
CONTINUOUS
 62
   253
 10
79.62481954992431
 20
314.5000000000069
 30
0.0
 11
79.32621162991944
 21
314.4699647009671
 31
0.0
  0
LINE
  5
15C
  8
0
  6
CONTINUOUS
 62
   253
 10
79.32621162991944
 20
314.4699647009671
 30
0.0
 11
79.03956208081192
 21
314.3810616294322
 31
0.0
  0
LINE
  5
15D
  8
0
  6
CONTINUOUS
 62
   253
 10
79.03956208081192
 20
314.3810616294322
 30
0.0
 11
78.77635037583782
 21
314.236851092521
 31
0.0
  0
LINE
  5
15E
  8
0
  6
CONTINUOUS
 62
   253
 10
78.77635037583782
 20
314.236851092521
 30
0.0
 11
78.54711737135673
 21
314.0431082990347
 31
0.0
  0
LINE
  5
15F
  8
0
  6
CONTINUOUS
 62
     7
 10
23.57565934917683
 20
317.2701884285798
 30
0.0
 11
22.20788369962526
 21
318.4424339921954
 31
0.0
  0
LINE
  5
160
  8
0
  6
CONTINUOUS
 62
     7
 10
22.20788369962526
 20
318.4424339921954
 30
0.0
 11
20.88664071885161
 21
319.6668876967834
 31
0.0
  0
LINE
  5
161
  8
0
  6
CONTINUOUS
 62
     7
 10
20.88664071885161
 20
319.6668876967834
 30
0.0
 11
19.61392184968
 21
320.9417039851078
 31
0.0
  0
LINE
  5
162
  8
0
  6
CONTINUOUS
 62
   253
 10
105.9848801313921
 20
332.549736784971
 30
0.0
 11
105.8864125438193
 21
332.5372547931838
 31
0.0
  0
LINE
  5
163
  8
0
  6
CONTINUOUS
 62
   253
 10
105.8864125438193
 20
332.5372547931838
 30
0.0
 11
105.7918253155847
 21
332.5101707452659
 31
0.0
  0
LINE
  5
164
  8
0
  6
CONTINUOUS
 62
   253
 10
105.7918253155847
 20
332.5101707452659
 30
0.0
 11
105.7048458908494
 21
332.4695519552529
 31
0.0
  0
LINE
  5
165
  8
0
  6
CONTINUOUS
 62
   253
 10
105.7048458908494
 20
332.4695519552529
 30
0.0
 11
105.6289019094219
 21
332.416999107238
 31
0.0
  0
LINE
  5
166
  8
0
  6
CONTINUOUS
 62
   253
 10
105.6289019094219
 20
332.416999107238
 30
0.0
 11
105.566986132116
 21
332.3545831764484
 31
0.0
  0
LINE
  5
167
  8
0
  6
CONTINUOUS
 62
   253
 10
105.566986132116
 20
332.3545831764484
 30
0.0
 11
105.5215385035933
 21
332.2847638173337
 31
0.0
  0
LINE
  5
168
  8
0
  6
CONTINUOUS
 62
   253
 10
105.5215385035933
 20
332.2847638173337
 30
0.0
 11
105.4943500002969
 21
332.2102924347854
 31
0.0
  0
LINE
  5
169
  8
0
  6
CONTINUOUS
 62
     7
 10
105.7029891631311
 20
334.8736525195708
 30
0.0
 11
105.6882526052235
 21
334.8733068615167
 31
0.0
  0
LINE
  5
16A
  8
0
  6
CONTINUOUS
 62
     7
 10
105.6882526052235
 20
334.8733068615167
 30
0.0
 11
105.6735328733504
 21
334.8722731941098
 31
0.0
  0
LINE
  5
16B
  8
0
  6
CONTINUOUS
 62
     7
 10
105.6735328733504
 20
334.8722731941098
 30
0.0
 11
105.6588798386197
 21
334.8705564774833
 31
0.0
  0
LINE
  5
16C
  8
0
  6
CONTINUOUS
 62
     7
 10
105.6588798386197
 20
334.8705564774833
 30
0.0
 11
105.6443433721397
 21
334.8681616717701
 31
0.0
  0
LINE
  5
16D
  8
0
  6
CONTINUOUS
 62
     7
 10
105.6443433721397
 20
334.8681616717701
 30
0.0
 11
105.6293980125281
 21
334.8649621794952
 31
0.0
  0
LINE
  5
16E
  8
0
  6
CONTINUOUS
 62
     7
 10
105.6293980125281
 20
334.8649621794952
 30
0.0
 11
105.6146114062044
 21
334.8610531390196
 31
0.0
  0
LINE
  5
16F
  8
0
  6
CONTINUOUS
 62
     7
 10
105.6146114062044
 20
334.8610531390196
 30
0.0
 11
105.6000293351006
 21
334.8564615632635
 31
0.0
  0
LINE
  5
170
  8
0
  6
CONTINUOUS
 62
     7
 10
105.6000293351006
 20
334.8564615632635
 30
0.0
 11
105.5856975811483
 21
334.8512144651473
 31
0.0
  0
LINE
  5
171
  8
0
  6
CONTINUOUS
 62
     7
 10
105.5856975811483
 20
334.8512144651473
 30
0.0
 11
105.5675074680286
 21
334.843459109168
 31
0.0
  0
LINE
  5
172
  8
0
  6
CONTINUOUS
 62
     7
 10
105.5675074680286
 20
334.843459109168
 30
0.0
 11
105.5497544025121
 21
334.8346744090155
 31
0.0
  0
LINE
  5
173
  8
0
  6
CONTINUOUS
 62
     7
 10
105.5497544025121
 20
334.8346744090155
 30
0.0
 11
105.5324828954709
 21
334.8249402188082
 31
0.0
  0
LINE
  5
174
  8
0
  6
CONTINUOUS
 62
     7
 10
105.5324828954709
 20
334.8249402188082
 30
0.0
 11
105.515737457777
 21
334.8143363926646
 31
0.0
  0
LINE
  5
175
  8
0
  6
CONTINUOUS
 62
     7
 10
105.515737457777
 20
334.8143363926646
 30
0.0
 11
105.4995626003023
 21
334.8029427847032
 31
0.0
  0
LINE
  5
176
  8
0
  6
CONTINUOUS
 62
     7
 10
105.4995626003023
 20
334.8029427847032
 30
0.0
 11
105.484002833919
 21
334.7908392490423
 31
0.0
  0
LINE
  5
177
  8
0
  6
CONTINUOUS
 62
     7
 10
105.484002833919
 20
334.7908392490423
 30
0.0
 11
105.4677609556358
 21
334.7769275015742
 31
0.0
  0
LINE
  5
178
  8
0
  6
CONTINUOUS
 62
     7
 10
105.4677609556358
 20
334.7769275015742
 30
0.0
 11
105.4521721792517
 21
334.7622759636084
 31
0.0
  0
LINE
  5
179
  8
0
  6
CONTINUOUS
 62
     7
 10
105.4521721792517
 20
334.7622759636084
 30
0.0
 11
105.4372436004874
 21
334.7469624155682
 31
0.0
  0
LINE
  5
17A
  8
0
  6
CONTINUOUS
 62
     7
 10
105.4372436004874
 20
334.7469624155682
 30
0.0
 11
105.4229823150636
 21
334.7310646378766
 31
0.0
  0
LINE
  5
17B
  8
0
  6
CONTINUOUS
 62
     7
 10
105.4229823150636
 20
334.7310646378766
 30
0.0
 11
105.4044846730085
 21
334.7084133131787
 31
0.0
  0
LINE
  5
17C
  8
0
  6
CONTINUOUS
 62
     7
 10
105.4044846730085
 20
334.7084133131787
 30
0.0
 11
105.3871461418385
 21
334.6848502344671
 31
0.0
  0
LINE
  5
17D
  8
0
  6
CONTINUOUS
 62
     7
 10
105.3871461418385
 20
334.6848502344671
 30
0.0
 11
105.3709511477933
 21
334.6605112559664
 31
0.0
  0
LINE
  5
17E
  8
0
  6
CONTINUOUS
 62
     7
 10
105.3709511477933
 20
334.6605112559664
 30
0.0
 11
105.3544438112414
 21
334.6330146460908
 31
0.0
  0
LINE
  5
17F
  8
0
  6
CONTINUOUS
 62
     7
 10
105.3544438112414
 20
334.6330146460908
 30
0.0
 11
105.3391991241506
 21
334.6047609928561
 31
0.0
  0
LINE
  5
180
  8
0
  6
CONTINUOUS
 62
     7
 10
105.3391991241506
 20
334.6047609928561
 30
0.0
 11
105.3251904122201
 21
334.5758622073597
 31
0.0
  0
LINE
  5
181
  8
0
  6
CONTINUOUS
 62
     7
 10
105.3251904122201
 20
334.5758622073597
 30
0.0
 11
105.3123910011492
 21
334.5464302006988
 31
0.0
  0
LINE
  5
182
  8
0
  6
CONTINUOUS
 62
     7
 10
105.3123910011492
 20
334.5464302006988
 30
0.0
 11
105.2967344999344
 21
334.5053299957578
 31
0.0
  0
LINE
  5
183
  8
0
  6
CONTINUOUS
 62
     7
 10
105.2967344999344
 20
334.5053299957578
 30
0.0
 11
105.2831782209132
 21
334.4634321424839
 31
0.0
  0
LINE
  5
184
  8
0
  6
CONTINUOUS
 62
     7
 10
105.2831782209132
 20
334.4634321424839
 30
0.0
 11
105.2716794985379
 21
334.420919434971
 31
0.0
  0
LINE
  5
185
  8
0
  6
CONTINUOUS
 62
     7
 10
105.2716794985379
 20
334.420919434971
 30
0.0
 11
105.2626804658375
 21
334.3804056783097
 31
0.0
  0
LINE
  5
186
  8
0
  6
CONTINUOUS
 62
     7
 10
105.2626804658375
 20
334.3804056783097
 30
0.0
 11
105.2554241204998
 21
334.3394762366009
 31
0.0
  0
LINE
  5
187
  8
0
  6
CONTINUOUS
 62
     7
 10
105.2554241204998
 20
334.3394762366009
 30
0.0
 11
105.2499018417691
 21
334.2982460226737
 31
0.0
  0
LINE
  5
188
  8
0
  6
CONTINUOUS
 62
     7
 10
105.2499018417691
 20
334.2982460226737
 30
0.0
 11
105.2461050088904
 21
334.2568299493573
 31
0.0
  0
POINT
  5
189
  8
0
 62
     1
 10
92.5
 20
330.0
 30
0.0
  0
POINT
  5
18A
  8
0
 62
     1
 10
30.0
 20
330.0
 30
0.0
  0
ARC
  5
18B
  8
0
  6
CONTINUOUS
 62
     7
 10
38.74249911399773
 20
333.4708272511489
 30
0.0
 40
3.608539393113103
 50
1.374633933463269
 51
50.76552440818113
  0
LINE
  5
18C
  8
0
  6
CONTINUOUS
 62
   253
 10
29.99999999998944
 20
342.350000000007
 30
0.0
 11
29.99999999998944
 21
343.0500000000069
 31
0.0
  0
ARC
  5
18D
  8
0
  6
CONTINUOUS
 62
     7
 10
20.77125738081189
 20
333.5497046846654
 30
0.0
 40
4.530012775514207
 50
140.6114789834502
 51
179.9027276755242
  0
ARC
  5
18E
  8
0
  6
CONTINUOUS
 62
     7
 10
32.47206505188931
 20
333.9531121556321
 30
0.0
 40
8.458733190995346
 50
73.85153551549264
 51
96.93271657242377
  0
LINE
  5
18F
  8
0
  6
CONTINUOUS
 62
     7
 10
31.45106469663138
 20
342.350000000007
 30
0.0
 11
29.99999999998946
 21
342.350000000007
 31
0.0
  0
ARC
  5
190
  8
0
  6
CONTINUOUS
 62
     7
 10
33.47082725113061
 20
321.2575008860019
 30
0.0
 40
3.608539393116521
 50
271.3746339334745
 51
320.765524408191
  0
ARC
  5
191
  8
0
  6
CONTINUOUS
 62
     7
 10
39.2290136367188
 20
326.4501980480342
 30
0.0
 40
4.529741594253758
 50
320.6102544906266
 51
359.9039521683474
  0
ARC
  5
192
  8
0
  6
CONTINUOUS
 62
     7
 10
33.54977610327878
 20
320.7710583858987
 30
0.0
 40
4.52981366017813
 50
270.0963732535988
 51
309.3894200874268
  0
LINE
  5
193
  8
0
  6
CONTINUOUS
 62
     7
 10
40.38607815137585
 20
339.0582960137847
 30
0.0
 11
42.72981157141633
 21
336.42434065082
 31
0.0
  0
ARC
  5
194
  8
0
  6
CONTINUOUS
 62
     7
 10
33.95311215562081
 20
327.5279349481067
 30
0.0
 40
8.458733190989253
 50
343.8515355154847
 51
6.93271657243099
  0
LINE
  5
195
  8
0
  6
CONTINUOUS
 62
   253
 10
29.99999999998941
 20
316.2500000000069
 30
0.0
 11
29.99999999998941
 21
317.6500000000069
 31
0.0
  0
LINE
  5
196
  8
0
  6
CONTINUOUS
 62
     7
 10
42.34999999998944
 20
328.548935303365
 30
0.0
 11
42.34999999998944
 21
330.0000000000069
 31
0.0
  0
ARC
  5
197
  8
0
  6
CONTINUOUS
 62
     7
 10
39.22900355787349
 20
333.5497983347151
 30
0.0
 40
4.529751679151043
 50
0.096093371821496
 51
39.38969996920457
  0
LINE
  5
198
  8
0
  6
CONTINUOUS
 62
     7
 10
20.94170398883146
 20
340.3860781539091
 30
0.0
 11
23.57565934917643
 21
342.7298115714339
 31
0.0
  0
LINE
  5
199
  8
0
  6
CONTINUOUS
 62
     7
 10
33.55739538481198
 20
316.2500000000069
 30
0.0
 11
29.99999999998941
 21
316.2500000000069
 31
0.0
  0
LINE
  5
19A
  8
0
  6
CONTINUOUS
 62
     7
 10
26.44260461516687
 20
343.7500000000069
 30
0.0
 11
28.99999999998947
 21
343.7500000000069
 31
0.0
  0
LINE
  5
19B
  8
0
  6
CONTINUOUS
 62
     7
 10
39.05829601376639
 20
319.6139218486198
 30
0.0
 11
36.4243406508025
 21
317.2701884285801
 31
0.0
  0
ARC
  5
19C
  8
0
  6
CONTINUOUS
 62
     7
 10
19.28998331892285
 20
319.2932523941318
 30
0.0
 40
27.57672437764099
 50
37.98600858150788
 51
55.71387356645728
  0
LINE
  5
19D
  8
0
  6
CONTINUOUS
 62
     7
 10
43.74999999998943
 20
333.5573953848295
 30
0.0
 11
43.74999999998941
 21
330.0000000000069
 31
0.0
  0
LINE
  5
19E
  8
0
  6
CONTINUOUS
 62
     7
 10
19.61392184968
 20
320.9417039851078
 30
0.0
 11
17.2701884285626
 21
323.5756593491939
 31
0.0
  0
ARC
  5
19F
  8
0
  6
CONTINUOUS
 62
     7
 10
19.29325239405314
 20
340.7100166811298
 30
0.0
 40
27.57672437772308
 50
307.9860085815419
 51
325.7138735664325
  0
ARC
  5
1A0
  8
0
  6
CONTINUOUS
 62
     7
 10
26.45026930286049
 20
339.228815098168
 30
0.0
 40
4.529940252546274
 50
90.09694486928878
 51
129.3888484717367
  0
ARC
  5
1A1
  8
0
  6
CONTINUOUS
 62
     7
 10
33.54976599843259
 20
339.2289134588126
 30
0.0
 40
4.529841832448714
 50
50.6107071246974
 51
89.90349953427676
  0
LINE
  5
1A2
  8
0
  6
CONTINUOUS
 62
     7
 10
17.64999999998943
 20
330.0000000000069
 30
0.0
 11
17.64999999998942
 21
326.4426046151844
 31
0.0
  0
LINE
  5
1A3
  8
0
  6
CONTINUOUS
 62
     7
 10
108.3018043347814
 20
314.626747315916
 30
0.0
 11
105.7029891631311
 21
314.626747315916
 31
0.0
  0
ARC
  5
1A4
  8
0
  6
CONTINUOUS
 62
     7
 10
17.49999999998903
 20
342.5000000000072
 30
0.0
 40
9.999999999999474
 50
113.4134991930537
 51
156.5865008071112
  0
LINE
  5
1A5
  8
0
  6
CONTINUOUS
 62
     7
 10
108.1809075510203
 20
311.5000000000069
 30
0.0
 11
105.8238859468922
 21
311.5000000000069
 31
0.0
  0
LINE
  5
1A6
  8
0
  6
CONTINUOUS
 62
   253
 10
79.45473200856854
 20
337.4523547885541
 30
0.0
 11
114.0023967489562
 21
337.4523547885541
 31
0.0
  0
LINE
  5
1A7
  8
0
  6
CONTINUOUS
 62
   253
 10
79.6248195499243
 20
326.3530923230317
 30
0.0
 11
78.54711737135662
 21
326.375071649912
 31
0.0
  0
LINE
  5
1A8
  8
0
  6
CONTINUOUS
 62
   253
 10
105.4943500002969
 20
327.7897075652285
 30
0.0
 11
105.2461050088904
 21
325.7431700506565
 31
0.0
  0
LINE
  5
1A9
  8
0
  6
CONTINUOUS
 62
     7
 10
114.0023967489562
 20
314.5000000000069
 30
0.0
 11
108.807392550139
 21
314.5000000000069
 31
0.0
  0
LINE
  5
1AA
  8
0
  6
CONTINUOUS
 62
     7
 10
7.499999999989459
 20
317.5000000000069
 30
0.0
 11
7.499999999989479
 21
342.5000000000069
 31
0.0
  0
LINE
  5
1AB
  8
0
  6
CONTINUOUS
 62
     7
 10
33.55739538481198
 20
316.2412511336544
 30
0.0
 11
26.44260461516693
 21
316.2412511336544
 31
0.0
  0
LINE
  5
1AC
  8
0
  6
CENTER
 62
     1
 10
68.00239674895622
 20
330.0
 30
0.0
 11
117.0023967489562
 21
330.0
 31
0.0
  0
LINE
  5
1AE
  8
0
  6
CONTINUOUS
 62
     7
 10
71.00239674895623
 20
313.5263589247984
 30
0.0
 11
71.00239674895623
 21
308.3233896995998
 31
0.0
  0
LINE
  5
1AF
  8
0
  6
CONTINUOUS
 62
     7
 10
108.1809075510203
 20
348.500000000007
 30
0.0
 11
105.8238859468922
 21
348.500000000007
 31
0.0
  0
LINE
  5
1B0
  8
0
  6
CONTINUOUS
 62
   253
 10
26.44260461464095
 20
310.7955291232091
 30
0.0
 11
33.55739538481202
 21
310.7955291232091
 31
0.0
  0
LINE
  5
1B1
  8
0
  6
CONTINUOUS
 62
   253
 10
114.0023967489562
 20
333.6469076769822
 30
0.0
 11
108.807392550139
 21
333.6469076769822
 31
0.0
  0
LINE
  5
1B2
  8
0
  6
CONTINUOUS
 62
     7
 10
108.3018043347814
 20
334.8736525195708
 30
0.0
 11
105.7029891631311
 21
334.8736525195708
 31
0.0
  0
ARC
  5
1B3
  8
0
  6
CONTINUOUS
 62
     7
 10
42.49999999998992
 20
317.5000000000067
 30
0.0
 40
9.999999999999456
 50
293.4134991927799
 51
336.5865008071226
  0
LINE
  5
1B4
  8
0
  6
CONTINUOUS
 62
     7
 10
105.1974009477734
 20
326.3530923230317
 30
0.0
 11
104.8734158068308
 21
330.0000000000069
 31
0.0
  0
LINE
  5
1B5
  8
0
  6
CONTINUOUS
 62
   253
 10
105.1974009477734
 20
333.6469076769822
 30
0.0
 11
79.6248195499243
 21
333.6469076769822
 31
0.0
  0
LINE
  5
1B6
  8
0
  6
CONTINUOUS
 62
     7
 10
16.24125113363688
 20
326.4426046151844
 30
0.0
 11
16.24125113363688
 21
333.5573953848295
 31
0.0
  0
LINE
  5
1B7
  8
0
  6
CONTINUOUS
 62
   253
 10
75.12808800639985
 20
352.1858742239715
 30
0.0
 11
75.1048959450827
 21
352.1305934207259
 31
0.0
  0
LINE
  5
1B8
  8
0
  6
CONTINUOUS
 62
     7
 10
108.8073925501391
 20
326.3530923230317
 30
0.0
 11
108.7586884890221
 21
325.7431700506565
 31
0.0
  0
ARC
  5
1B9
  8
0
  6
CONTINUOUS
 62
     7
 10
42.49999999998899
 20
342.5000000000066
 30
0.0
 40
10.00000000000059
 50
23.41349919277723
 51
66.58650080730115
  0
LINE
  5
1BA
  8
0
  6
CONTINUOUS
 62
     7
 10
104.8734158068308
 20
330.0000000000069
 30
0.0
 11
105.1974009477734
 21
333.6469076769822
 31
0.0
  0
ARC
  5
1BB
  8
0
  6
CONTINUOUS
 62
     7
 10
17.49999999998845
 20
317.5000000000063
 30
0.0
 40
9.999999999998819
 50
203.4134991931382
 51
246.5865008069868
  0
LINE
  5
1BC
  8
0
  6
CONTINUOUS
 62
     7
 10
114.0023967489562
 20
345.5000000000069
 30
0.0
 11
114.0023967489562
 21
314.5000000000069
 31
0.0
  0
LINE
  5
1BD
  8
0
  6
CONTINUOUS
 62
   253
 10
105.4943500002969
 20
332.2102924347854
 30
0.0
 11
105.2461050088904
 21
334.2568299493573
 31
0.0
  0
LINE
  5
1BE
  8
0
  6
CONTINUOUS
 62
     7
 10
105.1974009477734
 20
333.6469076769822
 30
0.0
 11
105.2461050088904
 21
334.2568299493573
 31
0.0
  0
LINE
  5
1BF
  8
0
  6
CONTINUOUS
 62
     7
 10
71.00239674895623
 20
351.67661030042
 30
0.0
 11
71.00239674895623
 21
346.4736410751992
 31
0.0
  0
LINE
  5
1C0
  8
0
  6
CONTINUOUS
 62
   253
 10
114.0023967489562
 20
322.5476452114598
 30
0.0
 11
79.45473200856854
 21
322.5476452114598
 31
0.0
  0
LINE
  5
1C1
  8
0
  6
CONTINUOUS
 62
     7
 10
109.1313776910816
 20
330.0000000000069
 30
0.0
 11
108.8073925501391
 21
326.3530923230317
 31
0.0
  0
LINE
  5
1C2
  8
0
  6
CONTINUOUS
 62
     7
 10
17.49999999998947
 20
352.500000000007
 30
0.0
 11
42.49999999998948
 21
352.500000000007
 31
0.0
  0
LINE
  5
1C3
  8
0
  6
CONTINUOUS
 62
   253
 10
108.758688489022
 20
325.7431700506565
 30
0.0
 11
108.5104434976155
 21
327.7897075652286
 31
0.0
  0
LINE
  5
1C4
  8
0
  6
CONTINUOUS
 62
     7
 10
105.7029891631311
 20
325.1263474804431
 30
0.0
 11
108.3018043347814
 21
325.1263474804431
 31
0.0
  0
ARC
  5
1C5
  8
0
  6
CONTINUOUS
 62
     7
 10
109.5019547721036
 20
341.7163064706436
 30
0.0
 40
1.694474366361198
 50
242.6360171278954
 51
297.9946278985593
  0
LINE
  5
1C6
  8
0
  6
CONTINUOUS
 62
     7
 10
108.807392550139
 20
333.6469076769822
 30
0.0
 11
109.1313776910816
 21
330.0000000000069
 31
0.0
  0
LINE
  5
1C7
  8
0
  6
CONTINUOUS
 62
   253
 10
108.758688489022
 20
334.2568299493573
 30
0.0
 11
108.5104434976155
 21
332.2102924347853
 31
0.0
  0
LINE
  5
1C8
  8
0
  6
CONTINUOUS
 62
   253
 10
105.7029891631311
 20
334.8736525195708
 30
0.0
 11
105.9848801313921
 21
332.5497367849709
 31
0.0
  0
LINE
  5
1C9
  8
0
  6
CENTER
 62
     1
 10
4.49999999998946
 20
330.0
 30
0.0
 11
55.49999999998946
 21
330.0
 31
0.0
  0
LINE
  5
1CA
  8
0
  6
CONTINUOUS
 62
   253
 10
79.6248195499243
 20
326.3530923230317
 30
0.0
 11
105.1974009477734
 21
326.3530923230317
 31
0.0
  0
LINE
  5
1CB
  8
0
  6
CONTINUOUS
 62
     7
 10
109.1313776910816
 20
345.5000000000069
 30
0.0
 11
108.6753090668747
 21
348.0864936969695
 31
0.0
  0
LINE
  5
1CC
  8
0
  6
CONTINUOUS
 62
     7
 10
105.3294844310377
 20
311.9135063030444
 30
0.0
 11
104.8734158068308
 21
314.5000000000069
 31
0.0
  0
LINE
  5
1CD
  8
0
  6
CONTINUOUS
 62
     7
 10
71.00239674895623
 20
313.8349286290372
 30
0.0
 11
71.00239674895623
 21
346.1650713706378
 31
0.0
  0
LINE
  5
1CE
  8
0
  6
CONTINUOUS
 62
   253
 10
78.54711737135662
 20
333.6249283501018
 30
0.0
 11
79.6248195499243
 21
333.6469076769822
 31
0.0
  0
LINE
  5
1CF
  8
0
  6
CONTINUOUS
 62
     7
 10
108.7586884890221
 20
334.2568299493573
 30
0.0
 11
108.8073925501391
 21
333.6469076769822
 31
0.0
  0
LINE
  5
1D0
  8
0
  6
CONTINUOUS
 62
   253
 10
108.8073925501391
 20
326.3530923230317
 30
0.0
 11
114.0023967489562
 21
326.3530923230317
 31
0.0
  0
LINE
  5
1D1
  8
0
  6
CONTINUOUS
 62
   253
 10
105.7029891631311
 20
325.1263474804431
 30
0.0
 11
105.9848801313921
 21
327.4502632150429
 31
0.0
  0
LINE
  5
1D2
  8
0
  6
CONTINUOUS
 62
     7
 10
43.75874886634206
 20
333.5573953848295
 30
0.0
 11
43.75874886634206
 21
326.4426046151844
 31
0.0
  0
LINE
  5
1D3
  8
0
  6
CONTINUOUS
 62
     7
 10
42.49999999998946
 20
307.5000000000069
 30
0.0
 11
17.49999999998947
 21
307.5000000000069
 31
0.0
  0
LINE
  5
1D4
  8
0
  6
CONTINUOUS
 62
     7
 10
105.8238859468922
 20
330.0000000000069
 30
0.0
 11
104.8734158068308
 21
330.0000000000069
 31
0.0
  0
LINE
  5
1D5
  8
0
  6
CONTINUOUS
 62
     7
 10
109.1313776910816
 20
330.0000000000069
 30
0.0
 11
108.1809075510203
 21
330.0000000000069
 31
0.0
  0
LINE
  5
1D6
  8
0
  6
CONTINUOUS
 62
     7
 10
52.49999999998947
 20
317.5000000000069
 30
0.0
 11
52.49999999998947
 21
342.5000000000069
 31
0.0
  0
LINE
  5
1D7
  8
0
  6
CONTINUOUS
 62
     7
 10
105.2461050088904
 20
325.7431700506565
 30
0.0
 11
105.1974009477734
 21
326.3530923230317
 31
0.0
  0
LINE
  5
1D8
  8
0
  6
CONTINUOUS
 62
   253
 10
108.0199133665203
 20
327.4502632150429
 30
0.0
 11
108.3018043347814
 21
325.1263474804431
 31
0.0
  0
LINE
  5
1D9
  8
0
  6
CENTER
 62
     1
 10
30.0
 20
304.5000000000069
 30
0.0
 11
30.0
 21
355.500000000007
 31
0.0
  0
LINE
  5
1DA
  8
0
  6
CONTINUOUS
 62
     7
 10
79.6248195499243
 20
345.5000000000069
 30
0.0
 11
105.1974009477734
 21
345.5000000000069
 31
0.0
  0
LINE
  5
1DB
  8
0
  6
CONTINUOUS
 62
     7
 10
71.00239674895623
 20
352.500000000007
 30
0.0
 11
74.66392125525799
 21
352.500000000007
 31
0.0
  0
LINE
  5
1DC
  8
0
  6
CONTINUOUS
 62
   253
 10
78.58372502418834
 20
322.4000026603233
 30
0.0
 11
78.58321929969344
 21
322.4385140771162
 31
0.0
  0
ARC
  5
1DD
  8
0
  6
CONTINUOUS
 62
   253
 10
25.81319792948667
 20
319.0104674836301
 30
0.0
 40
52.87927267433511
 50
356.3248492768763
 51
3.67515072312358
  0
LINE
  5
1DE
  8
0
  6
CONTINUOUS
 62
     7
 10
71.00239674895624
 20
351.8041523982213
 30
0.0
 11
71.00239674895624
 21
352.500000000007
 31
0.0
  0
LINE
  5
1DF
  8
0
  6
CONTINUOUS
 62
   253
 10
78.54747703279904
 20
333.7153743844186
 30
0.0
 11
78.5835772025841
 21
337.5999987134103
 31
0.0
  0
LINE
  5
1E0
  8
0
  6
CONTINUOUS
 62
   253
 10
108.5104434976155
 20
327.7897075652285
 30
0.0
 11
108.5129774560946
 21
328.1727297867881
 31
0.0
  0
LINE
  5
1E1
  8
0
  6
CONTINUOUS
 62
     7
 10
105.1974009477734
 20
314.5000000000069
 30
0.0
 11
105.2461050088904
 21
314.5310809335711
 31
0.0
  0
LINE
  5
1E2
  8
0
  6
CONTINUOUS
 62
     7
 10
71.00239674895623
 20
307.5000000000069
 30
0.0
 11
71.00239674895623
 21
308.1958476018496
 31
0.0
  0
LINE
  5
1E3
  8
0
  6
CONTINUOUS
 62
   253
 10
33.55739538481201
 20
313.3010106238925
 30
0.0
 11
26.44260461588529
 21
313.3010106238926
 31
0.0
  0
LINE
  5
1E4
  8
0
  6
CONTINUOUS
 62
   253
 10
108.5129774560946
 20
328.1727297867881
 30
0.0
 11
108.0224473249994
 21
328.216307658162
 31
0.0
  0
LINE
  5
1E5
  8
0
  6
CONTINUOUS
 62
     7
 10
105.2461050088904
 20
345.4689190664428
 30
0.0
 11
105.1974009477734
 21
345.5000000000069
 31
0.0
  0
ARC
  5
1E6
  8
0
  6
CONTINUOUS
 62
     7
 10
79.62924701325426
 20
313.0000000000069
 30
0.0
 40
1.50000000000002
 50
90.0
 51
136.0887188465065
  0
LINE
  5
1E7
  8
0
  6
CONTINUOUS
 62
   253
 10
75.1048959450827
 20
307.869406579288
 30
0.0
 11
75.12808800639985
 21
307.8141257760424
 31
0.0
  0
LINE
  5
1E8
  8
0
  6
CONTINUOUS
 62
   253
 10
108.0224473249994
 20
328.2163076581621
 30
0.0
 11
108.0199133665203
 21
327.4502632150429
 31
0.0
  0
LINE
  5
1E9
  8
0
  6
CONTINUOUS
 62
   253
 10
29.99999999998948
 20
316.1534126957293
 30
0.0
 11
29.99999999998948
 21
307.5000000000069
 31
0.0
  0
LINE
  5
1EA
  8
0
  6
CONTINUOUS
 62
   253
 10
78.54711737135659
 20
345.9568917009793
 30
0.0
 11
78.54862515591468
 21
345.9596844702565
 31
0.0
  0
LINE
  5
1EB
  8
0
  6
CONTINUOUS
 62
     7
 10
109.1313776910816
 20
314.5000000000069
 30
0.0
 11
108.6753090668747
 21
311.9135063030444
 31
0.0
  0
ARC
  5
1EC
  8
0
  6
CONTINUOUS
 62
     7
 10
79.62924701325427
 20
347.0000000000069
 30
0.0
 40
1.500000000000001
 50
223.9112811534933
 51
270.0
  0
LINE
  5
1ED
  8
0
  6
CONTINUOUS
 62
     7
 10
105.7029891631311
 20
345.373252684098
 30
0.0
 11
108.3018043347814
 21
345.373252684098
 31
0.0
  0
LINE
  5
1EE
  8
0
  6
CONTINUOUS
 62
   253
 10
75.1048959450827
 20
352.1305934207259
 30
0.0
 11
75.1048959450827
 21
307.869406579288
 31
0.0
  0
LINE
  5
1EF
  8
0
  6
CONTINUOUS
 62
   253
 10
78.54747703279573
 20
345.9544074313864
 30
0.0
 11
78.54711737135659
 21
345.9568917009793
 31
0.0
  0
LINE
  5
1F0
  8
0
  6
CONTINUOUS
 62
   253
 10
108.5129774560946
 20
331.8272702132257
 30
0.0
 11
108.0224473249994
 21
331.783692341852
 31
0.0
  0
LINE
  5
1F1
  8
0
  6
CONTINUOUS
 62
     7
 10
75.40560169222617
 20
351.4960184537132
 30
0.0
 11
75.1295356607853
 21
352.182259178303
 31
0.0
  0
LINE
  5
1F2
  8
0
  6
CONTINUOUS
 62
     7
 10
105.7029891631311
 20
314.626747315916
 30
0.0
 11
105.2461050088904
 21
314.5310809335712
 31
0.0
  0
LINE
  5
1F3
  8
0
  6
CONTINUOUS
 62
   253
 10
105.9823461729131
 20
331.7836923418521
 30
0.0
 11
105.8238859468922
 21
330.0000000000069
 31
0.0
  0
LINE
  5
1F4
  8
0
  6
CONTINUOUS
 62
   253
 10
78.54862515591469
 20
314.0403155297574
 30
0.0
 11
78.54711737135662
 21
314.0431082990346
 31
0.0
  0
LINE
  5
1F5
  8
0
  6
CONTINUOUS
 62
     7
 10
105.2461050088904
 20
345.4689190664427
 30
0.0
 11
105.7029891631311
 21
345.373252684098
 31
0.0
  0
LINE
  5
1F6
  8
0
  6
CONTINUOUS
 62
     7
 10
74.6223006962684
 20
307.5000000000069
 30
0.0
 11
71.00239674895623
 21
307.5000000000069
 31
0.0
  0
LINE
  5
1F7
  8
0
  6
CONTINUOUS
 62
   253
 10
78.5837250241883
 20
344.3790676930773
 30
0.0
 11
78.58321929969341
 21
344.4131254356627
 31
0.0
  0
LINE
  5
1F8
  8
0
  6
CONTINUOUS
 62
   253
 10
105.9823461729131
 20
328.2163076581618
 30
0.0
 11
105.4918160418179
 21
328.172729786788
 31
0.0
  0
LINE
  5
1F9
  8
0
  6
CONTINUOUS
 62
   253
 10
108.1809075510203
 20
330.0000000000069
 30
0.0
 11
108.0224473249994
 21
328.2163076581621
 31
0.0
  0
LINE
  5
1FA
  8
0
  6
CONTINUOUS
 62
     7
 10
108.758688489022
 20
314.5310809335712
 30
0.0
 11
108.3018043347814
 21
314.626747315916
 31
0.0
  0
ARC
  5
1FB
  8
0
  6
CONTINUOUS
 62
     7
 10
88.73838335729133
 20
355.4049962733118
 30
0.0
 40
13.89399778762079
 50
196.3403703453745
 51
222.8437646191632
  0
LINE
  5
1FC
  8
0
  6
CONTINUOUS
 62
     7
 10
78.36248579153514
 20
313.8436164230426
 30
0.0
 11
78.55138717239709
 21
314.043183911574
 31
0.0
  0
LINE
  5
1FD
  8
0
  6
CONTINUOUS
 62
   253
 10
108.5129774560946
 20
331.8272702132257
 30
0.0
 11
108.6753090668747
 21
330.0000000000069
 31
0.0
  0
LINE
  5
1FE
  8
0
  6
CONTINUOUS
 62
   253
 10
108.1809075510203
 20
330.0000000000069
 30
0.0
 11
108.0224473249994
 21
331.7836923418519
 31
0.0
  0
LINE
  5
1FF
  8
0
  6
CONTINUOUS
 62
   253
 10
78.58321929969341
 20
344.4131254356627
 30
0.0
 11
78.54747703279573
 21
345.9544074313864
 31
0.0
  0
LINE
  5
200
  8
0
  6
CONTINUOUS
 62
   253
 10
105.9848801313921
 20
332.5497367849709
 30
0.0
 11
108.0199133665203
 21
332.549736784971
 31
0.0
  0
LINE
  5
201
  8
0
  6
CONTINUOUS
 62
   253
 10
105.3294844310377
 20
330.0000000000069
 30
0.0
 11
105.4918160418179
 21
328.172729786788
 31
0.0
  0
LINE
  5
202
  8
0
  6
CONTINUOUS
 62
   253
 10
108.0224473249994
 20
328.2163076581621
 30
0.0
 11
105.9823461729131
 21
328.2163076581618
 31
0.0
  0
LINE
  5
203
  8
0
  6
CONTINUOUS
 62
   253
 10
105.9848801313921
 20
327.4502632150429
 30
0.0
 11
108.0199133665203
 21
327.4502632150429
 31
0.0
  0
LINE
  5
204
  8
0
  6
CONTINUOUS
 62
   253
 10
105.3294844310377
 20
330.0000000000069
 30
0.0
 11
105.4918160418179
 21
331.8272702132259
 31
0.0
  0
LINE
  5
205
  8
0
  6
CONTINUOUS
 62
     7
 10
108.807392550139
 20
345.5000000000069
 30
0.0
 11
108.7586884890221
 21
345.4689190664428
 31
0.0
  0
LINE
  5
206
  8
0
  6
CONTINUOUS
 62
     7
 10
108.3018043347814
 20
345.373252684098
 30
0.0
 11
108.758688489022
 21
345.4689190664427
 31
0.0
  0
LINE
  5
207
  8
0
  6
CONTINUOUS
 62
   253
 10
78.54711737135662
 20
326.3750716499121
 30
0.0
 11
78.54711737135662
 21
333.7153743844186
 31
0.0
  0
LINE
  5
208
  8
0
  6
CONTINUOUS
 62
     7
 10
108.7586884890221
 20
314.5310809335711
 30
0.0
 11
108.807392550139
 21
314.5000000000069
 31
0.0
  0
LINE
  5
209
  8
0
  6
CONTINUOUS
 62
     7
 10
105.3294844310377
 20
348.0864936969695
 30
0.0
 11
104.8734158068308
 21
345.5000000000069
 31
0.0
  0
LINE
  5
20A
  8
0
  6
CONTINUOUS
 62
   253
 10
108.5104434976155
 20
332.2102924347854
 30
0.0
 11
108.5129774560946
 21
331.8272702132257
 31
0.0
  0
LINE
  5
20B
  8
0
  6
CONTINUOUS
 62
   253
 10
108.0224473249994
 20
331.7836923418519
 30
0.0
 11
108.0199133665203
 21
332.549736784971
 31
0.0
  0
ARC
  5
20C
  8
0
  6
CONTINUOUS
 62
     7
 10
74.66392125525802
 20
308.0000000000069
 30
0.0
 40
0.5000000000000004
 50
270.0
 51
338.1765109267316
  0
LINE
  5
20D
  8
0
  6
CONTINUOUS
 62
   253
 10
78.54711737135662
 20
314.0431082990346
 30
0.0
 11
78.54747703279904
 21
314.0455925686293
 31
0.0
  0
LINE
  5
20E
  8
0
  6
CONTINUOUS
 62
   253
 10
105.9848801313921
 20
332.549736784971
 30
0.0
 11
105.9823461729131
 21
331.7836923418521
 31
0.0
  0
LINE
  5
20F
  8
0
  6
CONTINUOUS
 62
   253
 10
105.9823461729131
 20
331.783692341852
 30
0.0
 11
105.4918160418179
 21
331.8272702132259
 31
0.0
  0
LINE
  5
210
  8
0
  6
CONTINUOUS
 62
     7
 10
108.807392550139
 20
345.5000000000069
 30
0.0
 11
114.0023967489562
 21
345.5000000000069
 31
0.0
  0
LINE
  5
211
  8
0
  6
CONTINUOUS
 62
   253
 10
105.4943500002969
 20
332.2102924347854
 30
0.0
 11
105.4918160418179
 21
331.8272702132259
 31
0.0
  0
LINE
  5
212
  8
0
  6
CONTINUOUS
 62
   253
 10
78.54747703279904
 20
314.0455925686293
 30
0.0
 11
78.5840089446759
 21
315.6209257228321
 31
0.0
  0
ARC
  5
213
  8
0
  6
CONTINUOUS
 62
   253
 10
25.47095491411511
 20
340.9895325163837
 30
0.0
 40
53.22081639245614
 50
356.3484665840661
 51
3.651533415934352
  0
LINE
  5
214
  8
0
  6
CONTINUOUS
 62
     7
 10
105.1974009477734
 20
314.5000000000069
 30
0.0
 11
79.6248195499243
 21
314.5000000000069
 31
0.0
  0
LINE
  5
215
  8
0
  6
CONTINUOUS
 62
   253
 10
78.58321929969344
 20
322.4385140771162
 30
0.0
 11
78.54663655104018
 21
326.3750671816048
 31
0.0
  0
ARC
  5
216
  8
0
  6
CONTINUOUS
 62
     7
 10
109.5023967489562
 20
340.4298250225085
 30
0.0
 40
1.499999999999971
 50
44.56881133144991
 51
135.4299391806146
  0
ARC
  5
217
  8
0
  6
CONTINUOUS
 62
     7
 10
89.86625594706572
 20
303.7925879062637
 30
0.0
 40
15.27612195671329
 50
138.8557667329445
 51
164.7092096569376
  0
LINE
  5
218
  8
0
  6
CONTINUOUS
 62
   253
 10
105.4943500002969
 20
327.7897075652285
 30
0.0
 11
105.4918160418179
 21
328.172729786788
 31
0.0
  0
ARC
  5
219
  8
0
  6
CONTINUOUS
 62
     7
 10
74.663921255258
 20
352.000000000007
 30
0.0
 40
0.4999999999999968
 50
21.82348907326873
 51
90.0
  0
LINE
  5
21A
  8
0
  6
CONTINUOUS
 62
     7
 10
7.543921445664236
 20
316.5673078076935
 30
0.0
 11
7.499999999989459
 21
317.5000000000069
 31
0.0
  0
LINE
  5
21B
  8
0
  6
CONTINUOUS
 62
   253
 10
49.19197877648305
 20
325.9815947282479
 30
0.0
 11
49.20447087678735
 21
326.4426046146585
 31
0.0
  0
LINE
  5
21C
  8
0
  6
CONTINUOUS
 62
   253
 10
108.5129774560946
 20
328.1727297867881
 30
0.0
 11
108.6753090668747
 21
330.0000000000069
 31
0.0
  0
ARC
  5
21D
  8
0
  6
CONTINUOUS
 62
     7
 10
42.49158206271974
 20
317.540332089038
 30
0.0
 40
10.04061322960959
 50
275.3782477905577
 51
291.4607054828768
  0
ARC
  5
21E
  8
0
  6
CONTINUOUS
 62
   253
 10
38.61281907769142
 20
333.7847207416639
 30
0.0
 40
10.58173816202544
 50
1.265405192050576
 51
35.43782204735603
  0
ARC
  5
21F
  8
0
  6
CONTINUOUS
 62
   253
 10
33.78472074164665
 20
321.3871809223042
 30
0.0
 40
10.58173816202469
 50
271.2654051920494
 51
305.4378220473573
  0
ARC
  5
220
  8
0
  6
CONTINUOUS
 62
     7
 10
42.491494664092
 20
342.4593016020869
 30
0.0
 40
10.04098611789412
 50
68.53959511851065
 51
84.62144727849136
  0
ARC
  5
221
  8
0
  6
CONTINUOUS
 62
     7
 10
42.49999999998947
 20
342.5000000000069
 30
0.0
 40
10.0
 50
359.9999999999998
 51
21.50036396334627
  0
LINE
  5
222
  8
0
  6
CONTINUOUS
 62
   253
 10
10.79552912319162
 20
326.4426046140231
 30
0.0
 11
10.80802337588309
 21
325.9815954163798
 31
0.0
  0
LINE
  5
223
  8
0
  6
CONTINUOUS
 62
   253
 10
31.49134928752026
 20
319.5000000000069
 30
0.0
 11
31.49134928752026
 21
329.5000000000069
 31
0.0
  0
ARC
  5
224
  8
0
  6
CONTINUOUS
 62
     7
 10
28.99999999998947
 20
319.5000000000069
 30
0.0
 40
0.4913492875308069
 50
180.0000000000002
 51
270.0
  0
ARC
  5
225
  8
0
  6
CONTINUOUS
 62
     7
 10
28.99999999998948
 20
329.5000000000069
 30
0.0
 40
0.4520022271508051
 50
89.99999999999852
 51
180.0000000000001
  0
ARC
  5
226
  8
0
  6
CONTINUOUS
 62
     7
 10
17.49999999998947
 20
342.5000000000069
 30
0.0
 40
10.00000000000001
 50
89.99999999999999
 51
111.5003639631024
  0
ARC
  5
227
  8
0
  6
CONTINUOUS
 62
     7
 10
17.49999999998947
 20
317.5000000000069
 30
0.0
 40
10.0
 50
180.0
 51
201.5003639629183
  0
ARC
  5
228
  8
0
  6
CONTINUOUS
 62
     7
 10
17.49999999998947
 20
342.5000000000069
 30
0.0
 40
10.0
 50
158.499636034342
 51
180.0
  0
LINE
  5
229
  8
0
  6
CONTINUOUS
 62
   253
 10
10.80802122349486
 20
334.0184052717664
 30
0.0
 11
10.79552912319159
 21
333.5573953853554
 31
0.0
  0
ARC
  5
22A
  8
0
  6
CONTINUOUS
 62
     7
 10
42.49999999998946
 20
317.5000000000069
 30
0.0
 40
10.00000000000001
 50
270.0
 51
291.5003639633831
  0
ARC
  5
22B
  8
0
  6
CONTINUOUS
 62
     7
 10
30.99999999998947
 20
329.5000000000069
 30
0.0
 40
0.4520022271508259
 50
0.0000000000003986
 51
90.0
  0
ARC
  5
22C
  8
0
  6
CONTINUOUS
 62
     7
 10
28.99999999998948
 20
329.5000000000069
 30
0.0
 40
0.4913492875308069
 50
89.99999999999862
 51
180.0000000000001
  0
ARC
  5
22D
  8
0
  6
CONTINUOUS
 62
     7
 10
30.99999999998947
 20
329.5000000000069
 30
0.0
 40
0.4913492875308069
 50
0.0000000000003666
 51
90.0
  0
ARC
  5
22E
  8
0
  6
CONTINUOUS
 62
     7
 10
17.49999999998947
 20
317.5000000000069
 30
0.0
 40
9.99999999999998
 50
248.4996360375455
 51
270.0
  0
LINE
  5
22F
  8
0
  6
CONTINUOUS
 62
   253
 10
108.0199133665203
 20
332.549736784971
 30
0.0
 11
108.3018043347814
 21
334.8736525195708
 31
0.0
  0
LINE
  5
230
  8
0
  6
CONTINUOUS
 62
   253
 10
108.0224473249994
 20
331.7836923418519
 30
0.0
 11
105.9823461729131
 21
331.7836923418521
 31
0.0
  0
ARC
  5
231
  8
0
  6
CONTINUOUS
 62
   253
 10
45.89596084656373
 20
314.1040391201261
 30
0.0
 40
42.0040915068253
 50
127.9266368589085
 51
142.0733628821809
  0
LINE
  5
232
  8
0
  6
CONTINUOUS
 62
     7
 10
17.49999999998947
 20
307.5000000000069
 30
0.0
 11
16.56730705200658
 21
307.5439215168436
 31
0.0
  0
ARC
  5
233
  8
0
  6
CONTINUOUS
 62
   253
 10
14.10403915341414
 20
345.8959608798888
 30
0.0
 40
42.0040915068268
 50
307.9266368589086
 51
322.0733628821806
  0
ARC
  5
234
  8
0
  6
CONTINUOUS
 62
   253
 10
14.10403912011124
 20
314.1040391534353
 30
0.0
 40
42.00409150682165
 50
37.92663685890783
 51
52.07336288218148
  0
ARC
  5
235
  8
0
  6
CONTINUOUS
 62
     7
 10
42.45966791095998
 20
342.4915820627375
 30
0.0
 40
10.04061322960799
 50
5.378247790557509
 51
21.46070548284217
  0
ARC
  5
236
  8
0
  6
CONTINUOUS
 62
   253
 10
26.21527925833434
 20
338.612819077704
 30
0.0
 40
10.5817381620304
 50
91.26540519206024
 51
125.4378220473489
  0
ARC
  5
237
  8
0
  6
CONTINUOUS
 62
     7
 10
42.49999999998947
 20
342.5000000000069
 30
0.0
 40
9.999999999999975
 50
68.49963603750646
 51
89.99999999999999
  0
ARC
  5
238
  8
0
  6
CONTINUOUS
 62
   253
 10
38.54603524377668
 20
326.2374259544235
 30
0.0
 40
10.64901701181191
 50
324.673437014792
 51
358.6233978349617
  0
ARC
  5
239
  8
0
  6
CONTINUOUS
 62
     7
 10
17.50841793725912
 20
342.4596679109763
 30
0.0
 40
10.04061322960911
 50
95.37824779055865
 51
111.4607054825979
  0
LINE
  5
23A
  8
0
  6
CONTINUOUS
 62
   253
 10
25.9815947282305
 20
310.8080212235134
 30
0.0
 11
26.44260461464095
 21
310.7955291232091
 31
0.0
  0
ARC
  5
23B
  8
0
  6
CONTINUOUS
 62
     7
 10
17.50850533588774
 20
317.5406983979299
 30
0.0
 40
10.04098611789711
 50
248.5395951185513
 51
264.6214472784895
  0
ARC
  5
23C
  8
0
  6
CONTINUOUS
 62
     7
 10
30.99999999998947
 20
319.5000000000069
 30
0.0
 40
0.4520022271508051
 50
270.0000000000002
 51
0.0
  0
LINE
  5
23D
  8
0
  6
CONTINUOUS
 62
   253
 10
33.55739538533799
 20
349.2044708768048
 30
0.0
 11
26.44260461516693
 21
349.2044708768048
 31
0.0
  0
LINE
  5
23E
  8
0
  6
CONTINUOUS
 62
   253
 10
30.99999999998947
 20
329.9913492875377
 30
0.0
 11
28.99999999998949
 21
329.9913492875377
 31
0.0
  0
ARC
  5
23F
  8
0
  6
CONTINUOUS
 62
     7
 10
42.45930160208627
 20
317.5085053359015
 30
0.0
 40
10.04098611787711
 50
338.5395951155634
 51
354.6214472784984
  0
ARC
  5
240
  8
0
  6
CONTINUOUS
 62
     7
 10
17.54069839789252
 20
342.4914946641125
 30
0.0
 40
10.04098611787695
 50
158.5395951153396
 51
174.6214472784999
  0
ARC
  5
241
  8
0
  6
CONTINUOUS
 62
     7
 10
17.54033208902049
 20
317.5084179372766
 30
0.0
 40
10.04061322960954
 50
185.3782477905592
 51
201.4607054824139
  0
ARC
  5
242
  8
0
  6
CONTINUOUS
 62
     7
 10
28.99999999998947
 20
319.5000000000069
 30
0.0
 40
0.4520022271508259
 50
180.0000000000002
 51
270.0
  0
LINE
  5
243
  8
0
  6
CONTINUOUS
 62
     7
 10
30.99999999998947
 20
329.9520022271578
 30
0.0
 11
28.99999999998949
 21
329.9520022271578
 31
0.0
  0
LINE
  5
244
  8
0
  6
CONTINUOUS
 62
     7
 10
28.99999999998947
 20
319.0479977728561
 30
0.0
 11
30.99999999998947
 21
319.0479977728561
 31
0.0
  0
LINE
  5
245
  8
0
  6
CONTINUOUS
 62
     7
 10
43.43269219230262
 20
307.5439214456817
 30
0.0
 11
42.49999999998946
 21
307.5000000000069
 31
0.0
  0
LINE
  5
246
  8
0
  6
CONTINUOUS
 62
   253
 10
10.79552912319159
 20
333.5573953853554
 30
0.0
 11
10.79552912319162
 21
326.4426046140231
 31
0.0
  0
LINE
  5
247
  8
0
  6
CONTINUOUS
 62
   253
 10
28.99999999998947
 20
319.0086507124761
 30
0.0
 11
30.99999999998947
 21
319.0086507124761
 31
0.0
  0
LINE
  5
248
  8
0
  6
CONTINUOUS
 62
     7
 10
42.49999999998947
 20
352.500000000007
 30
0.0
 11
43.43269294797255
 21
352.4560784831703
 31
0.0
  0
ARC
  5
249
  8
0
  6
CONTINUOUS
 62
   253
 10
26.23742595440497
 20
321.4539647562164
 30
0.0
 40
10.64901701180853
 50
234.673437014787
 51
268.6233978349676
  0
ARC
  5
24A
  8
0
  6
CONTINUOUS
 62
     7
 10
42.49999999998946
 20
317.5000000000069
 30
0.0
 40
10.0
 50
338.4996360345666
 51
0.0
  0
LINE
  5
24B
  8
0
  6
CONTINUOUS
 62
     7
 10
28.54799777283865
 20
329.5000000000069
 30
0.0
 11
28.54799777283864
 21
319.5000000000069
 31
0.0
  0
ARC
  5
24C
  8
0
  6
CONTINUOUS
 62
     7
 10
30.99999999998947
 20
319.5000000000069
 30
0.0
 40
0.4913492875308069
 50
270.0000000000002
 51
0.0
  0
LINE
  5
24D
  8
0
  6
CONTINUOUS
 62
   253
 10
49.20447087678733
 20
333.5573953848295
 30
0.0
 11
49.19197662409687
 21
334.0184045836344
 31
0.0
  0
ARC
  5
24E
  8
0
  6
CONTINUOUS
 62
   253
 10
45.89596087986817
 20
345.895960846579
 30
0.0
 40
42.00409150682228
 50
217.9266368589079
 51
232.0733628821815
  0
LINE
  5
24F
  8
0
  6
CONTINUOUS
 62
   253
 10
28.50865071245867
 20
329.5000000000069
 30
0.0
 11
28.50865071245866
 21
319.5000000000069
 31
0.0
  0
LINE
  5
250
  8
0
  6
CONTINUOUS
 62
     7
 10
31.45200222714029
 20
319.5000000000069
 30
0.0
 11
31.45200222714029
 21
329.5000000000069
 31
0.0
  0
LINE
  5
251
  8
0
  6
CONTINUOUS
 62
     7
 10
16.56730780767611
 20
352.4560785543322
 30
0.0
 11
17.49999999998947
 21
352.500000000007
 31
0.0
  0
LINE
  5
252
  8
0
  6
CONTINUOUS
 62
   253
 10
105.9823461729131
 20
328.2163076581618
 30
0.0
 11
105.8238859468922
 21
330.0000000000069
 31
0.0
  0
ARC
  5
253
  8
0
  6
CONTINUOUS
 62
   253
 10
21.38718092228708
 20
326.2152792583483
 30
0.0
 40
10.58173816202394
 50
181.2654051920399
 51
215.43782204735
  0
LINE
  5
254
  8
0
  6
CONTINUOUS
 62
     7
 10
52.49999999998947
 20
317.5000000000069
 30
0.0
 11
52.45607848315281
 21
316.5673070520238
 31
0.0
  0
ARC
  5
255
  8
0
  6
CONTINUOUS
 62
   253
 10
33.76257404557158
 20
338.5460352437898
 30
0.0
 40
10.64901701181631
 50
54.67343701480017
 51
88.62339783495543
  0
ARC
  5
256
  8
0
  6
CONTINUOUS
 62
   253
 10
21.4539647562201
 20
333.7625740455829
 30
0.0
 40
10.64901701183093
 50
144.6734370148151
 51
178.6233978349222
  0
LINE
  5
257
  8
0
  6
CONTINUOUS
 62
   253
 10
105.9848801313921
 20
327.4502632150429
 30
0.0
 11
105.9823461729131
 21
328.2163076581618
 31
0.0
  0
LINE
  5
258
  8
0
  6
CONTINUOUS
 62
   253
 10
49.20447087678735
 20
326.4426046146585
 30
0.0
 11
49.20447087678733
 21
333.5573953848295
 31
0.0
  0
LINE
  5
259
  8
0
  6
CONTINUOUS
 62
   253
 10
33.55739538481202
 20
310.7955291232091
 30
0.0
 11
34.01840458361696
 21
310.8080233758995
 31
0.0
  0
ARC
  5
25A
  8
0
  6
CONTINUOUS
 62
     7
 10
40.71001668107179
 20
340.706747605897
 30
0.0
 40
27.57672437766239
 50
217.98600858151
 51
235.713873566447
  0
LINE
  5
25B
  8
0
  6
CONTINUOUS
 62
   253
 10
46.69898937610381
 20
333.5573953848295
 30
0.0
 11
46.6989893761038
 21
326.4426046159028
 31
0.0
  0
LINE
  5
25C
  8
0
  6
CONTINUOUS
 62
   253
 10
26.44260461516692
 20
346.6989893761213
 30
0.0
 11
33.55739538409365
 21
346.6989893761213
 31
0.0
  0
LINE
  5
25D
  8
0
  6
CONTINUOUS
 62
     7
 10
28.54893530334752
 20
317.6500000000069
 30
0.0
 11
29.99999999998943
 21
317.6500000000069
 31
0.0
  0
ARC
  5
25E
  8
0
  6
CONTINUOUS
 62
   253
 10
33.37495642054635
 20
339.4573421947585
 30
0.0
 40
7.243944911079905
 50
48.35804725163131
 51
88.55685153553685
  0
LINE
  5
25F
  8
0
  6
CONTINUOUS
 62
   253
 10
13.30101062387514
 20
326.4426046151844
 30
0.0
 11
13.30101062387514
 21
333.5573953841111
 31
0.0
  0
LINE
  5
260
  8
0
  6
CONTINUOUS
 62
     7
 10
29.99999999998944
 20
342.350000000007
 30
0.0
 11
26.44260461516687
 21
342.350000000007
 31
0.0
  0
LINE
  5
261
  8
0
  6
CONTINUOUS
 62
   253
 10
44.87135388836519
 20
338.1881347272426
 30
0.0
 11
44.8708303312158
 21
338.1883688848707
 31
0.0
  0
ARC
  5
262
  8
0
  6
CONTINUOUS
 62
   253
 10
20.57080565229786
 20
333.3638445341522
 30
0.0
 40
7.272371118610458
 50
138.4399799822944
 51
178.4749188048733
  0
ARC
  5
263
  8
0
  6
CONTINUOUS
 62
   253
 10
26.62629164913615
 20
339.4541654920105
 30
0.0
 40
7.247152132957515
 50
91.45238002405948
 51
131.6326372903169
  0
ARC
  5
264
  8
0
  6
CONTINUOUS
 62
     7
 10
26.52917274884685
 20
338.7424991140137
 30
0.0
 40
3.608539393114656
 50
91.3746339334528
 51
140.7655244082646
  0
LINE
  5
265
  8
0
  6
CONTINUOUS
 62
     7
 10
17.64999999998945
 20
331.4510646966489
 30
0.0
 11
17.64999999998946
 21
330.0000000000069
 31
0.0
  0
ARC
  5
266
  8
0
  6
CONTINUOUS
 62
   253
 10
39.4291943476764
 20
326.6361554658634
 30
0.0
 40
7.272371118615174
 50
318.4399799823087
 51
358.4749188048607
  0
LINE
  5
267
  8
0
  6
CONTINUOUS
 62
   253
 10
15.12917262578937
 20
338.1883664474211
 30
0.0
 11
15.12864089815523
 21
338.1881286625758
 31
0.0
  0
ARC
  5
268
  8
0
  6
CONTINUOUS
 62
   253
 10
39.45407153057349
 20
333.3736712579209
 30
0.0
 40
7.247247004434994
 50
1.452654353474202
 51
41.63236296090304
  0
ARC
  5
269
  8
0
  6
CONTINUOUS
 62
   253
 10
-1.349795821727277
 20
298.6502043559896
 30
0.0
 40
60.82468757474081
 50
40.54393655627472
 51
49.45607074075895
  0
ARC
  5
26A
  8
0
  6
CONTINUOUS
 62
   253
 10
26.62492518949629
 20
320.542357908218
 30
0.0
 40
7.243642128361117
 50
228.3571708497097
 51
268.5577279374611
  0
LINE
  5
26B
  8
0
  6
CONTINUOUS
 62
     7
 10
42.34999999998942
 20
330.0000000000069
 30
0.0
 11
42.34999999998944
 21
333.5573953848295
 31
0.0
  0
LINE
  5
26C
  8
0
  6
CONTINUOUS
 62
     7
 10
52.45607855431472
 20
343.4326921923202
 30
0.0
 11
52.49999999998947
 21
342.5000000000069
 31
0.0
  0
ARC
  5
26D
  8
0
  6
CONTINUOUS
 62
     7
 10
27.52793494808973
 20
326.0468878443849
 30
0.0
 40
8.458733190998469
 50
253.8515355154953
 51
276.9327165724202
  0
ARC
  5
26E
  8
0
  6
CONTINUOUS
 62
     7
 10
20.77124721803589
 20
326.4502916679614
 30
0.0
 40
4.530002606561151
 50
180.0972264103681
 51
219.3885669306586
  0
ARC
  5
26F
  8
0
  6
CONTINUOUS
 62
     7
 10
26.04688784439008
 20
332.4720650519059
 30
0.0
 40
8.45873319102086
 50
163.8515355155541
 51
186.9327165723966
  0
ARC
  5
270
  8
0
  6
CONTINUOUS
 62
     7
 10
40.70674760599076
 20
319.289983318822
 30
0.0
 40
27.57672437781143
 50
127.9860085815775
 51
145.7138735664075
  0
ARC
  5
271
  8
0
  6
CONTINUOUS
 62
   253
 10
20.54592846940487
 20
326.6263287420927
 30
0.0
 40
7.24724700443442
 50
181.4526543534716
 51
221.6323629609041
  0
LINE
  5
272
  8
0
  6
CONTINUOUS
 62
   253
 10
34.0184052717485
 20
349.1919787765005
 30
0.0
 11
33.55739538533799
 21
349.2044708768048
 31
0.0
  0
LINE
  5
273
  8
0
  6
CONTINUOUS
 62
   253
 10
44.87082737418963
 20
321.8116335525928
 30
0.0
 11
44.87135910164316
 21
321.8118713372285
 31
0.0
  0
LINE
  5
274
  8
0
  6
CONTINUOUS
 62
   253
 10
15.1286461116004
 20
321.8118652727868
 30
0.0
 11
15.12916966876308
 21
321.8116311151431
 31
0.0
  0
LINE
  5
275
  8
0
  6
CONTINUOUS
 62
     7
 10
7.49999999998947
 20
342.5000000000069
 30
0.0
 11
7.543921516826108
 21
343.4326929479899
 31
0.0
  0
LINE
  5
276
  8
0
  6
CONTINUOUS
 62
   253
 10
38.18813472713467
 20
315.1286461115533
 30
0.0
 11
38.18836888485322
 21
315.1291696687806
 31
0.0
  0
ARC
  5
277
  8
0
  6
CONTINUOUS
 62
   253
 10
33.37367125790328
 20
320.5459284694232
 30
0.0
 40
7.247247004435283
 50
271.4526543534753
 51
311.6323629609025
  0
LINE
  5
278
  8
0
  6
CONTINUOUS
 62
   253
 10
21.81163355257523
 20
315.1291726258067
 30
0.0
 11
21.81187133719679
 21
315.1286408983655
 31
0.0
  0
ARC
  5
279
  8
0
  6
CONTINUOUS
 62
   253
 10
-1.349795644159046
 20
361.3497958218574
 30
0.0
 40
60.82468757492808
 50
310.5439365561745
 51
319.4560707409404
  0
ARC
  5
27A
  8
0
  6
CONTINUOUS
 62
   253
 10
61.34979582178759
 20
361.3497956441006
 30
0.0
 40
60.8246875748523
 50
220.5439365562604
 51
229.4560707409265
  0
ARC
  5
27B
  8
0
  6
CONTINUOUS
 62
   253
 10
61.34979564417055
 20
298.6502041781095
 30
0.0
 40
60.82468757498434
 50
130.5439365563336
 51
139.4560707411872
  0
ARC
  5
27C
  8
0
  6
CONTINUOUS
 62
     7
 10
21.25750088597682
 20
326.5291727488635
 30
0.0
 40
3.608539393108739
 50
181.3746339334411
 51
230.7655244082032
  0
ENDSEC
  0
EOF
