  0
SECTION
  2
HEADER
  9
$ACADVER
  1
AC1006
  9
$DWGCODEPAGE
  3
ansi_932
  9
$INSBASE
 10
0.0
 20
0.0
 30
0.0
  9
$EXTMIN
 10
0.0
 20
0.0
  9
$EXTMAX
 10
1841.938446637296
 20
334.550822596904
  9
$LIMMIN
 10
0.0
 20
0.0
  9
$LIMMAX
 10
12.0
 20
9.0
  9
$ORTHOMODE
 70
     0
  9
$REGENMODE
 70
     1
  9
$FILLMODE
 70
     1
  9
$QTEXTMODE
 70
     0
  9
$MIRRTEXT
 70
     1
  9
$DRAGMODE
 70
     2
  9
$LTSCALE
 40
1.0
  9
$OSMODE
 70
    37
  9
$ATTMODE
 70
     1
  9
$TEXTSIZE
 40
0.2
  9
$TRACEWID
 40
0.05
  9
$TEXTSTYLE
  7
STANDARD
  9
$CLAYER
  8
0
  9
$CELTYPE
  6
BYLAYER
  9
$CECOLOR
 62
   256
  9
$DIMSCALE
 40
1.0
  9
$DIMASZ
 40
0.9
  9
$DIMEXO
 40
0.0625
  9
$DIMDLI
 40
0.38
  9
$DIMRND
 40
0.0
  9
$DIMDLE
 40
0.0
  9
$DIMEXE
 40
0.45
  9
$DIMTP
 40
0.0
  9
$DIMTM
 40
0.0
  9
$DIMTXT
 40
3.0
  9
$DIMCEN
 40
0.09
  9
$DIMTSZ
 40
0.0
  9
$DIMTOL
 70
     0
  9
$DIMLIM
 70
     0
  9
$DIMTIH
 70
     1
  9
$DIMTOH
 70
     1
  9
$DIMSE1
 70
     0
  9
$DIMSE2
 70
     0
  9
$DIMTAD
 70
     1
  9
$DIMZIN
 70
     0
  9
$DIMBLK
  1

  9
$DIMASO
 70
     1
  9
$DIMSHO
 70
     1
  9
$DIMPOST
  1

  9
$DIMAPOST
  1

  9
$DIMALT
 70
     0
  9
$DIMALTD
 70
     2
  9
$DIMALTF
 40
25.4
  9
$DIMLFAC
 40
1.0
  9
$DIMTOFL
 70
     0
  9
$DIMTVP
 40
0.0
  9
$DIMTIX
 70
     0
  9
$DIMSOXD
 70
     0
  9
$DIMSAH
 70
     0
  9
$DIMBLK1
  1

  9
$DIMBLK2
  1

  9
$LUNITS
 70
     2
  9
$LUPREC
 70
     4
  9
$SKETCHINC
 40
0.1
  9
$FILLETRAD
 40
0.5
  9
$AUNITS
 70
     0
  9
$AUPREC
 70
     0
  9
$MENU
  1
.
  9
$ELEVATION
 40
0.0
  9
$THICKNESS
 40
0.0
  9
$LIMCHECK
 70
     0
  9
$CHAMFERA
 40
0.0
  9
$CHAMFERB
 40
0.0
  9
$SKPOLY
 70
     0
  9
$TDCREATE
 40
2460350.729866805
  9
$TDUPDATE
 40
2460350.72986713
  9
$TDINDWG
 40
0.0000000116
  9
$TDUSRTIMER
 40
0.0000000116
  9
$USRTIMER
 70
     1
  9
$ANGBASE
 50
0.0
  9
$ANGDIR
 70
     0
  9
$PDMODE
 70
     0
  9
$PDSIZE
 40
0.0
  9
$PLINEWID
 40
0.0
  9
$COORDS
 70
     1
  9
$SPLFRAME
 70
     0
  9
$SPLINETYPE
 70
     6
  9
$SPLINESEGS
 70
     8
  9
$ATTDIA
 70
     0
  9
$ATTREQ
 70
     1
  9
$HANDLING
 70
     1
  9
$HANDSEED
  5
102
  9
$SURFTAB1
 70
     6
  9
$SURFTAB2
 70
     6
  9
$SURFTYPE
 70
     6
  9
$SURFU
 70
     6
  9
$SURFV
 70
     6
  9
$UCSNAME
  2

  9
$UCSORG
 10
0.0
 20
0.0
 30
0.0
  9
$UCSXDIR
 10
1.0
 20
0.0
 30
0.0
  9
$UCSYDIR
 10
0.0
 20
1.0
 30
0.0
  9
$USERI1
 70
     0
  9
$USERI2
 70
     0
  9
$USERI3
 70
     0
  9
$USERI4
 70
     0
  9
$USERI5
 70
     0
  9
$USERR1
 40
0.0
  9
$USERR2
 40
0.0
  9
$USERR3
 40
0.0
  9
$USERR4
 40
0.0
  9
$USERR5
 40
0.0
  9
$WORLDVIEW
 70
     1
  0
ENDSEC
  0
SECTION
  2
TABLES
  0
TABLE
  2
VPORT
 70
     1
  0
VPORT
  2
*ACTIVE
 70
     0
 10
0.0
 20
0.0
 11
1.0
 21
1.0
 12
920.969223318648
 22
167.275411298452
 13
0.0
 23
0.0
 14
0.5
 24
0.5
 15
0.5
 25
0.5
 16
0.0
 26
0.0
 36
1.0
 17
0.0
 27
0.0
 37
0.0
 40
334.550822596904
 41
1.6
 42
50.0
 43
0.0
 44
0.0
 50
0.0
 51
0.0
 71
     0
 72
   100
 73
     1
 74
     3
 75
     0
 76
     0
 77
     0
 78
     0
  0
ENDTAB
  0
TABLE
  2
LTYPE
 70
     2
  0
LTYPE
  2
CONTINUOUS
 70
     0
  3
Solid line
 72
    65
 73
     0
 40
0.0
  0
LTYPE
  2
CENTER
 70
     0
  3

 72
    65
 73
     0
 40
0.0
  0
ENDTAB
  0
TABLE
  2
LAYER
 70
     2
  0
LAYER
  2
0
 70
     0
 62
     7
  6
CONTINUOUS
  0
LAYER
  2
1
 70
     0
 62
     7
  6
CONTINUOUS
  0
ENDTAB
  0
TABLE
  2
STYLE
 70
     2
  0
STYLE
  2
STANDARD
 70
     0
 40
0.0
 41
1.0
 50
0.0
 71
     0
 42
0.2
  3
txt
  4

  0
STYLE
  2
ＭＳ_ゴシック
 70
     0
 40
0.0
 41
1.0
 50
0.0
 71
     0
 42
0.2
  3
ＭＳ ゴシック.shx
  4

  0
ENDTAB
  0
TABLE
  2
VIEW
 70
     0
  0
ENDTAB
  0
TABLE
  2
UCS
 70
     0
  0
ENDTAB
  0
ENDSEC
  0
SECTION
  2
BLOCKS
  0
ENDSEC
  0
SECTION
  2
ENTITIES
  0
LINE
  5
70
  8
1
  6
CONTINUOUS
 62
     7
 10
1696.5235142582
 20
317.1297231788
 30
0.0
 11
1696.5235142582
 21
261.2101391788
 31
0.0
  0
LINE
  5
71
  8
1
  6
CONTINUOUS
 62
     7
 10
1676.5235142582
 20
317.1699311788
 30
0.0
 11
1676.5235142582
 21
261.1699311788
 31
0.0
  0
LINE
  5
72
  8
1
  6
CONTINUOUS
 62
     7
 10
1825.869447781286
 20
264.5979705325676
 30
0.0
 11
1838.236827408625
 21
276.9653501599068
 31
0.0
  0
LINE
  5
73
  8
1
  6
CONTINUOUS
 62
     7
 10
1838.236827408625
 20
301.3745121976934
 30
0.0
 11
1825.692671085989
 21
313.9186685203293
 31
0.0
  0
LINE
  5
74
  8
1
  6
CONTINUOUS
 62
     7
 10
1823.571350742429
 20
316.0399888638889
 30
0.0
 11
1811.027194419793
 21
328.5841451865249
 31
0.0
  0
LINE
  5
75
  8
1
  6
CONTINUOUS
 62
     7
 10
1811.027194419793
 20
249.7557171710751
 30
0.0
 11
1823.394574047132
 21
262.1230967984145
 31
0.0
  0
ARC
  5
76
  8
1
  6
CONTINUOUS
 62
     7
 10
1809.61298085742
 20
251.1699307334483
 30
0.0
 40
2.000000000000071
 50
270.0
 51
315.0
  0
LINE
  5
77
  8
1
  6
CONTINUOUS
 62
     7
 10
1561.0235142582
 20
249.1699311788
 30
0.0
 11
1565.0235142582
 21
249.1699311788
 31
0.0
  0
LINE
  5
78
  8
1
  6
CONTINUOUS
 62
     7
 10
1838.822613050936
 20
278.3795623080663
 30
0.0
 11
1838.822613050936
 21
299.9603000495335
 31
0.0
  0
LINE
  5
79
  8
1
  6
CONTINUOUS
 62
     7
 10
1788.032244530166
 20
249.1699315287641
 30
0.0
 11
1809.612982271633
 21
249.1699315287641
 31
0.0
  0
LINE
  5
7A
  8
1
  6
CONTINUOUS
 62
     7
 10
1584.5235142582
 20
255.6699311788
 30
0.0
 11
1584.5235142582
 21
322.6699311788
 31
0.0
  0
LINE
  5
7B
  8
1
  6
CONTINUOUS
 62
     7
 10
1691.3248742582
 20
261.2101391788
 30
0.0
 11
1693.9461642582
 21
256.6699311788
 31
0.0
  0
ARC
  5
7C
  8
1
  6
CONTINUOUS
 62
     7
 10
1809.61298085742
 20
327.1699316241516
 30
0.0
 40
2.000000000000071
 50
45.0
 51
90.0
  0
LINE
  5
7D
  8
1
  6
CONTINUOUS
 62
     7
 10
1576.5235142582
 20
322.6699311788
 30
0.0
 11
1576.5235142582
 21
255.6699311788
 31
0.0
  0
LINE
  5
7E
  8
1
  6
CONTINUOUS
 62
     7
 10
1695.6782142582
 20
255.6699311788
 30
0.0
 11
1704.5235142582
 21
255.6699311788
 31
0.0
  0
LINE
  5
7F
  8
1
  6
CONTINUOUS
 62
     7
 10
1561.0235142582
 20
290.9199311788
 30
0.0
 11
1565.0235142582
 21
290.9199311788
 31
0.0
  0
LINE
  5
80
  8
1
  6
CONTINUOUS
 62
     7
 10
1634.5235142582
 20
317.1699311788
 30
0.0
 11
1634.5235142582
 21
261.1699311788
 31
0.0
  0
LINE
  5
81
  8
1
  6
CONTINUOUS
 62
     7
 10
1686.5235142582
 20
317.1699311788
 30
0.0
 11
1686.5235142582
 21
261.1699311788
 31
0.0
  0
ARC
  5
82
  8
1
  6
CONTINUOUS
 62
     7
 10
1836.822613846251
 20
278.3795637222799
 30
0.0
 40
2.000000000000071
 50
315.0
 51
0.0
  0
ARC
  5
83
  8
1
  6
CONTINUOUS
 62
     7
 10
1788.03224594438
 20
251.1699307334485
 30
0.0
 40
1.999999999999758
 50
225.0
 51
270.0
  0
LINE
  5
84
  8
1
  6
CONTINUOUS
 62
     7
 10
1774.250652754667
 20
262.1230967984145
 30
0.0
 11
1786.618032382007
 21
249.7557171710752
 31
0.0
  0
LINE
  5
85
  8
1
  6
CONTINUOUS
 62
     7
 10
1604.5235142582
 20
255.6699311788
 30
0.0
 11
1604.5235142582
 21
322.6699311788
 31
0.0
  0
LINE
  5
86
  8
1
  6
CONTINUOUS
 62
     7
 10
1684.5235142582
 20
317.1699311788
 30
0.0
 11
1684.5235142582
 21
261.1699311788
 31
0.0
  0
LINE
  5
87
  8
1
  6
CONTINUOUS
 62
     7
 10
1704.5235142582
 20
329.1699311788
 30
0.0
 11
1709.5235142582
 21
329.1699311788
 31
0.0
  0
ARC
  5
88
  8
1
  6
CONTINUOUS
 62
     7
 10
1773.013215887591
 20
263.3605336654909
 30
0.0
 40
1.749999999999984
 50
315.0
 51
135.0
  0
LINE
  5
89
  8
1
  6
CONTINUOUS
 62
     7
 10
1606.5235142582
 20
322.6699311788
 30
0.0
 11
1606.5235142582
 21
255.6699311788
 31
0.0
  0
LINE
  5
8A
  8
1
  6
CONTINUOUS
 62
     7
 10
1704.5235142582
 20
290.9199311788
 30
0.0
 11
1709.5235142582
 21
290.9199311788
 31
0.0
  0
LINE
  5
8B
  8
1
  6
CONTINUOUS
 62
     7
 10
1694.5235142582
 20
317.1297231788
 30
0.0
 11
1694.5235142582
 21
261.2101391788
 31
0.0
  0
LINE
  5
8C
  8
1
  6
CONTINUOUS
 62
     7
 10
1666.5235142582
 20
317.1699311788
 30
0.0
 11
1666.5235142582
 21
261.1699311788
 31
0.0
  0
LINE
  5
8D
  8
1
  6
CONTINUOUS
 62
     7
 10
1759.408399393175
 20
276.965350159907
 30
0.0
 11
1771.775779020514
 21
264.5979705325676
 31
0.0
  0
ARC
  5
8E
  8
1
  6
CONTINUOUS
 62
     7
 10
1760.822612955548
 20
278.3795637222801
 30
0.0
 40
1.999999999999758
 50
179.999999999991
 51
224.999999999991
  0
LINE
  5
8F
  8
1
  6
CONTINUOUS
 62
     7
 10
1656.5235142582
 20
317.1699311788
 30
0.0
 11
1656.5235142582
 21
261.1699311788
 31
0.0
  0
LINE
  5
90
  8
1
  6
CONTINUOUS
 62
     7
 10
1704.5235142582
 20
249.1699311788
 30
0.0
 11
1709.5235142582
 21
249.1699311788
 31
0.0
  0
ARC
  5
91
  8
1
  6
CONTINUOUS
 62
     7
 10
1695.6782142582
 20
320.6699311788
 30
0.0
 40
2.0
 50
90.0
 51
150.0
  0
LINE
  5
92
  8
1
  6
CONTINUOUS
 62
     7
 10
1586.5235142582
 20
322.6699311788
 30
0.0
 11
1586.5235142582
 21
255.6699311788
 31
0.0
  0
LINE
  5
93
  8
1
  6
CONTINUOUS
 62
     7
 10
1561.0235142582
 20
279.1699311788
 30
0.0
 11
1565.0235142582
 21
279.1699311788
 31
0.0
  0
LINE
  5
94
  8
1
  6
CONTINUOUS
 62
     7
 10
1691.3248742582
 20
317.1297231788
 30
0.0
 11
1693.9461642582
 21
321.6699311788
 31
0.0
  0
LINE
  5
95
  8
1
  6
CONTINUOUS
 62
     7
 10
1702.5235142582
 20
317.1297231788
 30
0.0
 11
1696.5235142582
 21
317.1297231788
 31
0.0
  0
LINE
  5
96
  8
1
  6
CONTINUOUS
 62
     7
 10
1696.5235142582
 20
261.2101391788
 30
0.0
 11
1702.5235142582
 21
261.2101391788
 31
0.0
  0
LINE
  5
97
  8
1
  6
CONTINUOUS
 62
     7
 10
1694.5235142582
 20
317.1297231788
 30
0.0
 11
1691.3248742582
 21
317.1297231788
 31
0.0
  0
LINE
  5
98
  8
1
  6
CONTINUOUS
 62
     7
 10
1704.5235142582
 20
287.4199311788
 30
0.0
 11
1709.5235142582
 21
287.4199311788
 31
0.0
  0
LINE
  5
99
  8
1
  6
CONTINUOUS
 62
     7
 10
1644.5235142582
 20
317.1699311788
 30
0.0
 11
1644.5235142582
 21
261.1699311788
 31
0.0
  0
ARC
  5
9A
  8
1
  6
CONTINUOUS
 62
     7
 10
1773.013215887591
 20
314.9793286921092
 30
0.0
 40
1.499999999999897
 50
45.0
 51
225.0
  0
LINE
  5
9B
  8
1
  6
CONTINUOUS
 62
     7
 10
1614.5235142582
 20
255.6699311788
 30
0.0
 11
1614.5235142582
 21
322.6699311788
 31
0.0
  0
LINE
  5
9C
  8
1
  6
CONTINUOUS
 62
     7
 10
1786.618032382007
 20
328.5841451865248
 30
0.0
 11
1774.073876059371
 21
316.0399888638889
 31
0.0
  0
ARC
  5
9D
  8
1
  6
CONTINUOUS
 62
     7
 10
1788.03224594438
 20
327.1699316241516
 30
0.0
 40
2.000000000000071
 50
90.0
 51
135.0
  0
LINE
  5
9E
  8
1
  6
CONTINUOUS
 62
     7
 10
1809.612982271634
 20
329.1699308288358
 30
0.0
 11
1788.032244530166
 21
329.1699308288358
 31
0.0
  0
ARC
  5
9F
  8
1
  6
CONTINUOUS
 62
     7
 10
1836.822613846251
 20
299.9602986353203
 30
0.0
 40
2.000000000000071
 50
0.0
 51
45.0
  0
LINE
  5
A0
  8
1
  6
CONTINUOUS
 62
     7
 10
1636.5235142582
 20
317.1699311788
 30
0.0
 11
1636.5235142582
 21
261.1699311788
 31
0.0
  0
LINE
  5
A1
  8
1
  6
CONTINUOUS
 62
     7
 10
1695.6782142582
 20
322.6699311788
 30
0.0
 11
1704.5235142582
 21
322.6699311788
 31
0.0
  0
LINE
  5
A2
  8
1
  6
CONTINUOUS
 62
     7
 10
1646.5235142582
 20
317.1699311788
 30
0.0
 11
1646.5235142582
 21
261.1699311788
 31
0.0
  0
LINE
  5
A3
  8
1
  6
CONTINUOUS
 62
     7
 10
1691.3248742582
 20
261.2101391788
 30
0.0
 11
1694.5235142582
 21
261.2101391788
 31
0.0
  0
LINE
  5
A4
  8
1
  6
CONTINUOUS
 62
     7
 10
1561.0235142582
 20
287.4199311788
 30
0.0
 11
1565.0235142582
 21
287.4199311788
 31
0.0
  0
LINE
  5
A5
  8
1
  6
CONTINUOUS
 62
     7
 10
1628.5235142582
 20
320.6699311788
 30
0.0
 11
1628.5235142582
 21
257.6699311788
 31
0.0
  0
LINE
  5
A6
  8
1
  6
CONTINUOUS
 62
     7
 10
1616.5235142582
 20
322.6699311788
 30
0.0
 11
1616.5235142582
 21
255.6699311788
 31
0.0
  0
LINE
  5
A7
  8
1
  6
CONTINUOUS
 62
     7
 10
1561.0235142582
 20
299.1699311788
 30
0.0
 11
1565.0235142582
 21
299.1699311788
 31
0.0
  0
LINE
  5
A8
  8
1
  6
CONTINUOUS
 62
     7
 10
1674.5235142582
 20
317.1699311788
 30
0.0
 11
1674.5235142582
 21
261.1699311788
 31
0.0
  0
LINE
  5
A9
  8
1
  6
CONTINUOUS
 62
     7
 10
1664.5235142582
 20
317.1699311788
 30
0.0
 11
1664.5235142582
 21
261.1699311788
 31
0.0
  0
LINE
  5
AA
  8
1
  6
CONTINUOUS
 62
     7
 10
1654.5235142582
 20
317.1699311788
 30
0.0
 11
1654.5235142582
 21
261.1699311788
 31
0.0
  0
LINE
  5
AB
  8
1
  6
CONTINUOUS
 62
     7
 10
1561.0235142582
 20
329.1699311788
 30
0.0
 11
1565.0235142582
 21
329.1699311788
 31
0.0
  0
ARC
  5
AC
  8
1
  6
CONTINUOUS
 62
     7
 10
1695.6782142582
 20
257.6699311788
 30
0.0
 40
2.0
 50
210.0
 51
270.0
  0
ARC
  5
AD
  8
1
  6
CONTINUOUS
 62
     7
 10
1824.632010914209
 20
263.3605336654912
 30
0.0
 40
1.749999999999984
 50
45.0
 51
225.0
  0
LINE
  5
AE
  8
1
  6
CONTINUOUS
 62
     7
 10
1574.5235142582
 20
255.6699311788
 30
0.0
 11
1574.5235142582
 21
322.6699311788
 31
0.0
  0
ARC
  5
AF
  8
1
  6
CONTINUOUS
 62
     7
 10
1595.5235142582
 20
322.6699311788
 30
0.0
 40
1.0
 50
0.0
 51
180.0
  0
LINE
  5
B0
  8
1
  6
CENTER
 62
     5
 10
1755.398965892896
 20
289.3238383146042
 30
0.0
 11
1841.938446637296
 21
289.3238383146042
 31
0.0
  0
LINE
  5
B2
  8
1
  6
CENTER
 62
     5
 10
1553.048630747
 20
289.1699311788
 30
0.0
 11
1719.2625978451
 21
289.1699311788
 31
0.0
  0
ARC
  5
B3
  8
1
  6
CONTINUOUS
 62
     7
 10
1824.632010914209
 20
314.9793286921092
 30
0.0
 40
1.50000000000021
 50
314.999999999988
 51
134.999999999988
  0
ARC
  5
B4
  8
1
  6
CONTINUOUS
 62
     7
 10
1760.822612955548
 20
299.96029863532
 30
0.0
 40
2.000000000000071
 50
135.0
 51
180.0
  0
CIRCLE
  5
B5
  8
1
  6
CONTINUOUS
 62
     7
 10
1798.8226134009
 20
289.1699311788001
 30
0.0
 40
24.99999999999995
  0
LINE
  5
B6
  8
1
  6
CENTER
 62
     5
 10
1798.886363823896
 20
247.070695322704
 30
0.0
 11
1798.886363823896
 21
334.550822596904
 31
0.0
  0
ARC
  5
B7
  8
1
  6
CONTINUOUS
 62
     7
 10
1695.5235142582
 20
317.1297231788
 30
0.0
 40
1.0
 50
0.0
 51
180.0
  0
ARC
  5
B8
  8
1
  6
CONTINUOUS
 62
     7
 10
1695.5235142582
 20
261.2101391788
 30
0.0
 40
1.0
 50
180.0
 51
0.0
  0
LINE
  5
B9
  8
1
  6
CONTINUOUS
 62
     7
 10
1771.952555715811
 20
313.9186685203292
 30
0.0
 11
1759.408399393175
 21
301.3745121976932
 31
0.0
  0
LINE
  5
BA
  8
1
  6
CONTINUOUS
 62
     7
 10
1758.822613750864
 20
299.9603000495337
 30
0.0
 11
1758.822613750864
 21
278.3795623080664
 31
0.0
  0
ARC
  5
BB
  8
1
  6
CONTINUOUS
 62
     7
 10
1702.5235142582
 20
259.2101391788
 30
0.0
 40
2.0
 50
0.0
 51
90.0
  0
ARC
  5
BC
  8
1
  6
CONTINUOUS
 62
     7
 10
1702.5235142582
 20
319.1297231788
 30
0.0
 40
2.0
 50
270.0
 51
0.0
  0
LINE
  5
BD
  8
1
  6
CONTINUOUS
 62
     7
 10
1606.5235142582
 20
255.6699311788
 30
0.0
 11
1614.5235142582
 21
255.6699311788
 31
0.0
  0
ARC
  5
BE
  8
1
  6
CONTINUOUS
 62
     7
 10
1615.5235142582
 20
322.6699311788
 30
0.0
 40
1.0
 50
0.0
 51
180.0
  0
ARC
  5
BF
  8
1
  6
CONTINUOUS
 62
     7
 10
1655.5235142582
 20
261.1699311788
 30
0.0
 40
1.0
 50
180.0
 51
0.0
  0
ARC
  5
C0
  8
1
  6
CONTINUOUS
 62
     7
 10
1595.5235142582
 20
255.6699311788
 30
0.0
 40
1.0
 50
180.0
 51
0.0
  0
ARC
  5
C1
  8
1
  6
CONTINUOUS
 62
     7
 10
1635.5235142582
 20
261.1699311788
 30
0.0
 40
1.0
 50
180.0
 51
0.0
  0
ARC
  5
C2
  8
1
  6
CONTINUOUS
 62
     7
 10
1645.5235142582
 20
317.1699311788
 30
0.0
 40
1.0
 50
0.0
 51
180.0
  0
ARC
  5
C3
  8
1
  6
CONTINUOUS
 62
     7
 10
1575.5235142582
 20
255.6699311788
 30
0.0
 40
1.0
 50
180.0
 51
0.0
  0
ARC
  5
C4
  8
1
  6
CONTINUOUS
 62
     7
 10
1626.5235142582
 20
257.6699311788
 30
0.0
 40
2.0
 50
270.0
 51
0.0
  0
LINE
  5
C5
  8
1
  6
CONTINUOUS
 62
     7
 10
1614.5235142582
 20
322.6699311788
 30
0.0
 11
1606.5235142582
 21
322.6699311788
 31
0.0
  0
ARC
  5
C6
  8
1
  6
CONTINUOUS
 62
     7
 10
1645.5235142582
 20
261.1699311788
 30
0.0
 40
1.0
 50
180.0
 51
0.0
  0
LINE
  5
C7
  8
1
  6
CONTINUOUS
 62
     7
 10
1644.5235142582
 20
317.1699311788
 30
0.0
 11
1636.5235142582
 21
317.1699311788
 31
0.0
  0
ARC
  5
C8
  8
1
  6
CONTINUOUS
 62
     7
 10
1629.5235142582
 20
260.1699311788
 30
0.0
 40
1.0
 50
90.0
 51
180.0
  0
LINE
  5
C9
  8
1
  6
CONTINUOUS
 62
     7
 10
1596.5235142582
 20
322.6699311788
 30
0.0
 11
1596.5235142582
 21
255.6699311788
 31
0.0
  0
ARC
  5
CA
  8
1
  6
CONTINUOUS
 62
     7
 10
1585.5235142582
 20
255.6699311788
 30
0.0
 40
1.0
 50
180.0
 51
0.0
  0
LINE
  5
CB
  8
1
  6
CONTINUOUS
 62
     7
 10
1594.5235142582
 20
322.6699311788
 30
0.0
 11
1586.5235142582
 21
322.6699311788
 31
0.0
  0
LINE
  5
CC
  8
1
  6
CONTINUOUS
 62
     7
 10
1636.5235142582
 20
261.1699311788
 30
0.0
 11
1644.5235142582
 21
261.1699311788
 31
0.0
  0
LINE
  5
CD
  8
1
  6
CONTINUOUS
 62
     7
 10
1646.5235142582
 20
261.1699311788
 30
0.0
 11
1654.5235142582
 21
261.1699311788
 31
0.0
  0
LINE
  5
CE
  8
1
  6
CONTINUOUS
 62
     7
 10
1574.5235142582
 20
322.6699311788
 30
0.0
 11
1565.5235142582
 21
322.6699311788
 31
0.0
  0
ARC
  5
CF
  8
1
  6
CONTINUOUS
 62
     7
 10
1565.5235142582
 20
255.1699311788
 30
0.0
 40
0.5
 50
90.0
 51
180.0
  0
LINE
  5
D0
  8
1
  6
CONTINUOUS
 62
     7
 10
1604.5235142582
 20
322.6699311788
 30
0.0
 11
1596.5235142582
 21
322.6699311788
 31
0.0
  0
ARC
  5
D1
  8
1
  6
CONTINUOUS
 62
     7
 10
1635.5235142582
 20
317.1699311788
 30
0.0
 40
1.0
 50
0.0
 51
180.0
  0
LINE
  5
D2
  8
1
  6
CONTINUOUS
 62
     7
 10
1576.5235142582
 20
255.6699311788
 30
0.0
 11
1584.5235142582
 21
255.6699311788
 31
0.0
  0
ARC
  5
D3
  8
1
  6
CONTINUOUS
 62
     7
 10
1665.5235142582
 20
261.1699311788
 30
0.0
 40
1.0
 50
180.0
 51
0.0
  0
ARC
  5
D4
  8
1
  6
CONTINUOUS
 62
     7
 10
1655.5235142582
 20
317.1699311788
 30
0.0
 40
1.0
 50
0.0
 51
180.0
  0
LINE
  5
D5
  8
1
  6
CONTINUOUS
 62
     7
 10
1629.5235142582
 20
261.1699311788
 30
0.0
 11
1634.5235142582
 21
261.1699311788
 31
0.0
  0
LINE
  5
D6
  8
1
  6
CONTINUOUS
 62
     7
 10
1654.5235142582
 20
317.1699311788
 30
0.0
 11
1646.5235142582
 21
317.1699311788
 31
0.0
  0
LINE
  5
D7
  8
1
  6
CONTINUOUS
 62
     7
 10
1664.5235142582
 20
317.1699311788
 30
0.0
 11
1656.5235142582
 21
317.1699311788
 31
0.0
  0
ARC
  5
D8
  8
1
  6
CONTINUOUS
 62
     7
 10
1665.5235142582
 20
317.1699311788
 30
0.0
 40
1.0
 50
0.0
 51
180.0
  0
LINE
  5
D9
  8
1
  6
CONTINUOUS
 62
     7
 10
1634.5235142582
 20
317.1699311788
 30
0.0
 11
1629.5235142582
 21
317.1699311788
 31
0.0
  0
LINE
  5
DA
  8
1
  6
CONTINUOUS
 62
     7
 10
1656.5235142582
 20
261.1699311788
 30
0.0
 11
1664.5235142582
 21
261.1699311788
 31
0.0
  0
ARC
  5
DB
  8
1
  6
CONTINUOUS
 62
     7
 10
1675.5235142582
 20
317.1699311788
 30
0.0
 40
1.0
 50
0.0
 51
180.0
  0
LINE
  5
DC
  8
1
  6
CONTINUOUS
 62
     7
 10
1691.3480882582
 20
317.1699311788
 30
0.0
 11
1686.5235142582
 21
317.1699311788
 31
0.0
  0
LINE
  5
DD
  8
1
  6
CONTINUOUS
 62
     7
 10
1565.5235142582
 20
255.6699311788
 30
0.0
 11
1574.5235142582
 21
255.6699311788
 31
0.0
  0
LINE
  5
DE
  8
1
  6
CONTINUOUS
 62
     7
 10
1586.5235142582
 20
255.6699311788
 30
0.0
 11
1594.5235142582
 21
255.6699311788
 31
0.0
  0
LINE
  5
DF
  8
1
  6
CONTINUOUS
 62
     7
 10
1674.5235142582
 20
317.1699311788
 30
0.0
 11
1666.5235142582
 21
317.1699311788
 31
0.0
  0
LINE
  5
E0
  8
1
  6
CONTINUOUS
 62
     7
 10
1666.5235142582
 20
261.1699311788
 30
0.0
 11
1674.5235142582
 21
261.1699311788
 31
0.0
  0
ARC
  5
E1
  8
1
  6
CONTINUOUS
 62
     7
 10
1605.5235142582
 20
255.6699311788
 30
0.0
 40
1.0
 50
180.0
 51
0.0
  0
ARC
  5
E2
  8
1
  6
CONTINUOUS
 62
     7
 10
1565.5235142582
 20
323.1699311788
 30
0.0
 40
0.5
 50
180.0
 51
270.0
  0
ARC
  5
E3
  8
1
  6
CONTINUOUS
 62
     7
 10
1626.5235142582
 20
320.6699311788
 30
0.0
 40
2.0
 50
0.0
 51
90.0
  0
LINE
  5
E4
  8
1
  6
CONTINUOUS
 62
     7
 10
1596.5235142582
 20
255.6699311788
 30
0.0
 11
1604.5235142582
 21
255.6699311788
 31
0.0
  0
ARC
  5
E5
  8
1
  6
CONTINUOUS
 62
     7
 10
1685.5235142582
 20
317.1699311788
 30
0.0
 40
1.0
 50
0.0
 51
180.0
  0
LINE
  5
E6
  8
1
  6
CONTINUOUS
 62
     7
 10
1686.5235142582
 20
261.1699311788
 30
0.0
 11
1691.3480882582
 21
261.1699311788
 31
0.0
  0
ARC
  5
E7
  8
1
  6
CONTINUOUS
 62
     7
 10
1615.5235142582
 20
255.6699311788
 30
0.0
 40
1.0
 50
180.0
 51
0.0
  0
LINE
  5
E8
  8
1
  6
CONTINUOUS
 62
     7
 10
1594.5235142582
 20
255.6699311788
 30
0.0
 11
1594.5235142582
 21
322.6699311788
 31
0.0
  0
ARC
  5
E9
  8
1
  6
CONTINUOUS
 62
     7
 10
1585.5235142582
 20
322.6699311788
 30
0.0
 40
1.0
 50
0.0
 51
180.0
  0
ARC
  5
EA
  8
1
  6
CONTINUOUS
 62
     7
 10
1605.5235142582
 20
322.6699311788
 30
0.0
 40
1.0
 50
0.0
 51
180.0
  0
LINE
  5
EB
  8
1
  6
CONTINUOUS
 62
     7
 10
1584.5235142582
 20
322.6699311788
 30
0.0
 11
1576.5235142582
 21
322.6699311788
 31
0.0
  0
LINE
  5
EC
  8
1
  6
CONTINUOUS
 62
     7
 10
1616.5235142582
 20
255.6699311788
 30
0.0
 11
1626.5235142582
 21
255.6699311788
 31
0.0
  0
LINE
  5
ED
  8
1
  6
CONTINUOUS
 62
     7
 10
1626.5235142582
 20
322.6699311788
 30
0.0
 11
1616.5235142582
 21
322.6699311788
 31
0.0
  0
ARC
  5
EE
  8
1
  6
CONTINUOUS
 62
     7
 10
1685.5235142582
 20
261.1699311788
 30
0.0
 40
1.0
 50
180.0
 51
0.0
  0
ARC
  5
EF
  8
1
  6
CONTINUOUS
 62
     7
 10
1575.5235142582
 20
322.6699311788
 30
0.0
 40
1.0
 50
0.0
 51
180.0
  0
ARC
  5
F0
  8
1
  6
CONTINUOUS
 62
     7
 10
1629.5235142582
 20
318.1699311788
 30
0.0
 40
1.0
 50
180.0
 51
270.0
  0
ARC
  5
F1
  8
1
  6
CONTINUOUS
 62
     7
 10
1675.5235142582
 20
261.1699311788
 30
0.0
 40
1.0
 50
180.0
 51
0.0
  0
LINE
  5
F2
  8
1
  6
CONTINUOUS
 62
     7
 10
1704.5235142582
 20
309.8242591788
 30
0.0
 11
1709.5235142582
 21
309.8242591788
 31
0.0
  0
LINE
  5
F3
  8
1
  6
CONTINUOUS
 62
     7
 10
1684.5235142582
 20
317.1699311788
 30
0.0
 11
1676.5235142582
 21
317.1699311788
 31
0.0
  0
LINE
  5
F4
  8
1
  6
CONTINUOUS
 62
     7
 10
1676.5235142582
 20
261.1699311788
 30
0.0
 11
1684.5235142582
 21
261.1699311788
 31
0.0
  0
LINE
  5
F5
  8
1
  6
CONTINUOUS
 62
     7
 10
1704.5235142582
 20
268.5156031788
 30
0.0
 11
1709.5235142582
 21
268.5156031788
 31
0.0
  0
LINE
  5
F6
  8
1
  6
CONTINUOUS
 62
     7
 10
1561.0235142582
 20
329.1699311788
 30
0.0
 11
1561.0235142582
 21
249.1699311788
 31
0.0
  0
LINE
  5
F7
  8
1
  6
CONTINUOUS
 62
     7
 10
1704.5235142582
 20
249.1699311788
 30
0.0
 11
1704.5235142582
 21
329.1699311788
 31
0.0
  0
LINE
  5
F8
  8
1
  6
CONTINUOUS
 62
     7
 10
1565.0235142582
 20
329.1699311788
 30
0.0
 11
1565.0235142582
 21
249.1699311788
 31
0.0
  0
LINE
  5
F9
  8
1
  6
CONTINUOUS
 62
     7
 10
1709.5235142582
 20
329.1699311788
 30
0.0
 11
1709.5235142582
 21
249.1699311788
 31
0.0
  0
TEXT
  5
FA
  8
1
  6
CONTINUOUS
 62
     7
 10
1709.554603637691
 20
225.231579
 30
0.0
 40
10.0
  1
KFEB-50DK
 41
0.768926
 51
15.0
  0
ENDSEC
  0
EOF
