  0
SECTION
  2
HEADER
  9
$ACADVER
  1
AC1006
  9
$DWGCODEPAGE
  3
ansi_932
  9
$INSBASE
 10
0.0
 20
0.0
 30
0.0
  9
$EXTMIN
 10
0.0
 20
0.0
  9
$EXTMAX
 10
2226.7030780346
 20
334.6145730198002
  9
$LIMMIN
 10
0.0
 20
0.0
  9
$LIMMAX
 10
12.0
 20
9.0
  9
$ORTHOMODE
 70
     0
  9
$REGENMODE
 70
     1
  9
$FILLMODE
 70
     1
  9
$QTEXTMODE
 70
     0
  9
$MIRRTEXT
 70
     1
  9
$DRAGMODE
 70
     2
  9
$LTSCALE
 40
1.0
  9
$OSMODE
 70
    37
  9
$ATTMODE
 70
     1
  9
$TEXTSIZE
 40
0.2
  9
$TRACEWID
 40
0.05
  9
$TEXTSTYLE
  7
STANDARD
  9
$CLAYER
  8
0
  9
$CELTYPE
  6
BYLAYER
  9
$CECOLOR
 62
   256
  9
$DIMSCALE
 40
1.0
  9
$DIMASZ
 40
0.9
  9
$DIMEXO
 40
0.0625
  9
$DIMDLI
 40
0.38
  9
$DIMRND
 40
0.0
  9
$DIMDLE
 40
0.0
  9
$DIMEXE
 40
0.45
  9
$DIMTP
 40
0.0
  9
$DIMTM
 40
0.0
  9
$DIMTXT
 40
3.0
  9
$DIMCEN
 40
0.09
  9
$DIMTSZ
 40
0.0
  9
$DIMTOL
 70
     0
  9
$DIMLIM
 70
     0
  9
$DIMTIH
 70
     1
  9
$DIMTOH
 70
     1
  9
$DIMSE1
 70
     0
  9
$DIMSE2
 70
     0
  9
$DIMTAD
 70
     1
  9
$DIMZIN
 70
     0
  9
$DIMBLK
  1

  9
$DIMASO
 70
     1
  9
$DIMSHO
 70
     1
  9
$DIMPOST
  1

  9
$DIMAPOST
  1

  9
$DIMALT
 70
     0
  9
$DIMALTD
 70
     2
  9
$DIMALTF
 40
25.4
  9
$DIMLFAC
 40
1.0
  9
$DIMTOFL
 70
     0
  9
$DIMTVP
 40
0.0
  9
$DIMTIX
 70
     0
  9
$DIMSOXD
 70
     0
  9
$DIMSAH
 70
     0
  9
$DIMBLK1
  1

  9
$DIMBLK2
  1

  9
$LUNITS
 70
     2
  9
$LUPREC
 70
     4
  9
$SKETCHINC
 40
0.1
  9
$FILLETRAD
 40
0.5
  9
$AUNITS
 70
     0
  9
$AUPREC
 70
     0
  9
$MENU
  1
.
  9
$ELEVATION
 40
0.0
  9
$THICKNESS
 40
0.0
  9
$LIMCHECK
 70
     0
  9
$CHAMFERA
 40
0.0
  9
$CHAMFERB
 40
0.0
  9
$SKPOLY
 70
     0
  9
$TDCREATE
 40
2460350.731224062
  9
$TDUPDATE
 40
2460350.731224329
  9
$TDINDWG
 40
0.0000000116
  9
$TDUSRTIMER
 40
0.0000000116
  9
$USRTIMER
 70
     1
  9
$ANGBASE
 50
0.0
  9
$ANGDIR
 70
     0
  9
$PDMODE
 70
     0
  9
$PDSIZE
 40
0.0
  9
$PLINEWID
 40
0.0
  9
$COORDS
 70
     1
  9
$SPLFRAME
 70
     0
  9
$SPLINETYPE
 70
     6
  9
$SPLINESEGS
 70
     8
  9
$ATTDIA
 70
     0
  9
$ATTREQ
 70
     1
  9
$HANDLING
 70
     1
  9
$HANDSEED
  5
106
  9
$SURFTAB1
 70
     6
  9
$SURFTAB2
 70
     6
  9
$SURFTYPE
 70
     6
  9
$SURFU
 70
     6
  9
$SURFV
 70
     6
  9
$UCSNAME
  2

  9
$UCSORG
 10
0.0
 20
0.0
 30
0.0
  9
$UCSXDIR
 10
1.0
 20
0.0
 30
0.0
  9
$UCSYDIR
 10
0.0
 20
1.0
 30
0.0
  9
$USERI1
 70
     0
  9
$USERI2
 70
     0
  9
$USERI3
 70
     0
  9
$USERI4
 70
     0
  9
$USERI5
 70
     0
  9
$USERR1
 40
0.0
  9
$USERR2
 40
0.0
  9
$USERR3
 40
0.0
  9
$USERR4
 40
0.0
  9
$USERR5
 40
0.0
  9
$WORLDVIEW
 70
     1
  0
ENDSEC
  0
SECTION
  2
TABLES
  0
TABLE
  2
VPORT
 70
     1
  0
VPORT
  2
*ACTIVE
 70
     0
 10
0.0
 20
0.0
 11
1.0
 21
1.0
 12
1113.3515390173
 22
167.3072865099001
 13
0.0
 23
0.0
 14
0.5
 24
0.5
 15
0.5
 25
0.5
 16
0.0
 26
0.0
 36
1.0
 17
0.0
 27
0.0
 37
0.0
 40
334.6145730198002
 41
1.6
 42
50.0
 43
0.0
 44
0.0
 50
0.0
 51
0.0
 71
     0
 72
   100
 73
     1
 74
     3
 75
     0
 76
     0
 77
     0
 78
     0
  0
ENDTAB
  0
TABLE
  2
LTYPE
 70
     3
  0
LTYPE
  2
CONTINUOUS
 70
     0
  3
Solid line
 72
    65
 73
     0
 40
0.0
  0
LTYPE
  2
DASHED
 70
     0
  3

 72
    65
 73
     0
 40
0.0
  0
LTYPE
  2
CENTER
 70
     0
  3

 72
    65
 73
     0
 40
0.0
  0
ENDTAB
  0
TABLE
  2
LAYER
 70
     2
  0
LAYER
  2
0
 70
     0
 62
     7
  6
CONTINUOUS
  0
LAYER
  2
1
 70
     0
 62
     7
  6
CONTINUOUS
  0
ENDTAB
  0
TABLE
  2
STYLE
 70
     2
  0
STYLE
  2
STANDARD
 70
     0
 40
0.0
 41
1.0
 50
0.0
 71
     0
 42
0.2
  3
txt
  4

  0
STYLE
  2
ＭＳ_ゴシック
 70
     0
 40
0.0
 41
1.0
 50
0.0
 71
     0
 42
0.2
  3
ＭＳ ゴシック.shx
  4

  0
ENDTAB
  0
TABLE
  2
VIEW
 70
     0
  0
ENDTAB
  0
TABLE
  2
UCS
 70
     0
  0
ENDTAB
  0
ENDSEC
  0
SECTION
  2
BLOCKS
  0
ENDSEC
  0
SECTION
  2
ENTITIES
  0
ARC
  5
70
  8
1
  6
CONTINUOUS
 62
     7
 10
2070.1342385197
 20
261.1699311788
 30
0.0
 40
1.0
 50
180.0
 51
0.0
  0
LINE
  5
71
  8
1
  6
CONTINUOUS
 62
     7
 10
2039.1342385197
 20
317.1699311788
 30
0.0
 11
2031.1342385197
 21
317.1699311788
 31
0.0
  0
LINE
  5
72
  8
1
  6
CONTINUOUS
 62
     7
 10
2014.1342385197
 20
261.1699311788
 30
0.0
 11
2019.1342385197
 21
261.1699311788
 31
0.0
  0
LINE
  5
73
  8
1
  6
CONTINUOUS
 62
     7
 10
2049.1342385197
 20
317.1699311788
 30
0.0
 11
2041.1342385197
 21
317.1699311788
 31
0.0
  0
LINE
  5
74
  8
1
  6
CONTINUOUS
 62
     7
 10
2075.9588125197
 20
317.1699311788
 30
0.0
 11
2071.1342385197
 21
317.1699311788
 31
0.0
  0
LINE
  5
75
  8
1
  6
CONTINUOUS
 62
     7
 10
1959.1342385197
 20
322.6699311788
 30
0.0
 11
1950.1342385197
 21
322.6699311788
 31
0.0
  0
ARC
  5
76
  8
1
  6
CONTINUOUS
 62
     7
 10
1990.1342385197
 20
322.6699311788
 30
0.0
 40
1.0
 50
0.0
 51
180.0
  0
LINE
  5
77
  8
1
  6
CONTINUOUS
 62
     7
 10
1950.1342385197
 20
255.6699311788
 30
0.0
 11
1959.1342385197
 21
255.6699311788
 31
0.0
  0
LINE
  5
78
  8
1
  6
CONTINUOUS
 62
     7
 10
1979.1342385197
 20
255.6699311788
 30
0.0
 11
1979.1342385197
 21
322.6699311788
 31
0.0
  0
ARC
  5
79
  8
1
  6
CONTINUOUS
 62
     7
 10
2040.1342385197
 20
261.1699311788
 30
0.0
 40
1.0
 50
180.0
 51
0.0
  0
LINE
  5
7A
  8
1
  6
CONTINUOUS
 62
     7
 10
2061.1342385197
 20
261.1699311788
 30
0.0
 11
2069.1342385197
 21
261.1699311788
 31
0.0
  0
ARC
  5
7B
  8
1
  6
CONTINUOUS
 62
     7
 10
1980.1342385197
 20
255.6699311788
 30
0.0
 40
1.0
 50
180.0
 51
0.0
  0
ARC
  5
7C
  8
1
  6
CONTINUOUS
 62
     7
 10
1960.1342385197
 20
255.6699311788
 30
0.0
 40
1.0
 50
180.0
 51
0.0
  0
ARC
  5
7D
  8
1
  6
CONTINUOUS
 62
     7
 10
1950.1342385197
 20
255.1699311788
 30
0.0
 40
0.5
 50
90.0
 51
180.0
  0
ARC
  5
7E
  8
1
  6
CONTINUOUS
 62
     7
 10
2014.1342385197
 20
260.1699311788
 30
0.0
 40
1.0
 50
90.0
 51
180.0
  0
ARC
  5
7F
  8
1
  6
CONTINUOUS
 62
     7
 10
2011.1342385197
 20
257.6699311788
 30
0.0
 40
2.0
 50
270.0
 51
0.0
  0
LINE
  5
80
  8
1
  6
CONTINUOUS
 62
     7
 10
1979.1342385197
 20
322.6699311788
 30
0.0
 11
1971.1342385197
 21
322.6699311788
 31
0.0
  0
LINE
  5
81
  8
1
  6
CONTINUOUS
 62
     7
 10
1961.1342385197
 20
255.6699311788
 30
0.0
 11
1969.1342385197
 21
255.6699311788
 31
0.0
  0
ARC
  5
82
  8
1
  6
CONTINUOUS
 62
     7
 10
2014.1342385197
 20
318.1699311788
 30
0.0
 40
1.0
 50
180.0
 51
270.0
  0
ARC
  5
83
  8
1
  6
CONTINUOUS
 62
     7
 10
2050.1342385197
 20
317.1699311788
 30
0.0
 40
1.0
 50
0.0
 51
180.0
  0
ARC
  5
84
  8
1
  6
CONTINUOUS
 62
     7
 10
2060.1342385197
 20
317.1699311788
 30
0.0
 40
1.0
 50
0.0
 51
180.0
  0
ARC
  5
85
  8
1
  6
CONTINUOUS
 62
     7
 10
2030.1342385197
 20
261.1699311788
 30
0.0
 40
1.0
 50
180.0
 51
0.0
  0
LINE
  5
86
  8
1
  6
CONTINUOUS
 62
     7
 10
2029.1342385197
 20
317.1699311788
 30
0.0
 11
2021.1342385197
 21
317.1699311788
 31
0.0
  0
LINE
  5
87
  8
1
  6
CONTINUOUS
 62
     7
 10
1971.1342385197
 20
255.6699311788
 30
0.0
 11
1979.1342385197
 21
255.6699311788
 31
0.0
  0
ARC
  5
88
  8
1
  6
CONTINUOUS
 62
     7
 10
2020.1342385197
 20
261.1699311788
 30
0.0
 40
1.0
 50
180.0
 51
0.0
  0
LINE
  5
89
  8
1
  6
CONTINUOUS
 62
     7
 10
2059.1342385197
 20
317.1699311788
 30
0.0
 11
2051.1342385197
 21
317.1699311788
 31
0.0
  0
LINE
  5
8A
  8
1
  6
CONTINUOUS
 62
     7
 10
2089.1342385197
 20
268.5156031788
 30
0.0
 11
2094.1342385197
 21
268.5156031788
 31
0.0
  0
ARC
  5
8B
  8
1
  6
CONTINUOUS
 62
     7
 10
1970.1342385197
 20
322.6699311788
 30
0.0
 40
1.0
 50
0.0
 51
180.0
  0
LINE
  5
8C
  8
1
  6
CONTINUOUS
 62
     7
 10
1969.1342385197
 20
322.6699311788
 30
0.0
 11
1961.1342385197
 21
322.6699311788
 31
0.0
  0
LINE
  5
8D
  8
1
  6
CONTINUOUS
 62
     7
 10
2021.1342385197
 20
261.1699311788
 30
0.0
 11
2029.1342385197
 21
261.1699311788
 31
0.0
  0
LINE
  5
8E
  8
1
  6
CONTINUOUS
 62
     7
 10
1981.1342385197
 20
322.6699311788
 30
0.0
 11
1981.1342385197
 21
255.6699311788
 31
0.0
  0
LINE
  5
8F
  8
1
  6
CONTINUOUS
 62
     7
 10
2069.1342385197
 20
317.1699311788
 30
0.0
 11
2061.1342385197
 21
317.1699311788
 31
0.0
  0
ARC
  5
90
  8
1
  6
CONTINUOUS
 62
     7
 10
2060.1342385197
 20
261.1699311788
 30
0.0
 40
1.0
 50
180.0
 51
0.0
  0
ARC
  5
91
  8
1
  6
CONTINUOUS
 62
     7
 10
2050.1342385197
 20
261.1699311788
 30
0.0
 40
1.0
 50
180.0
 51
0.0
  0
LINE
  5
92
  8
1
  6
CONTINUOUS
 62
     7
 10
2031.1342385197
 20
261.1699311788
 30
0.0
 11
2039.1342385197
 21
261.1699311788
 31
0.0
  0
LINE
  5
93
  8
1
  6
CONTINUOUS
 62
     7
 10
2041.1342385197
 20
261.1699311788
 30
0.0
 11
2049.1342385197
 21
261.1699311788
 31
0.0
  0
ARC
  5
94
  8
1
  6
CONTINUOUS
 62
     7
 10
2000.1342385197
 20
255.6699311788
 30
0.0
 40
1.0
 50
180.0
 51
0.0
  0
ARC
  5
95
  8
1
  6
CONTINUOUS
 62
     7
 10
2011.1342385197
 20
320.6699311788
 30
0.0
 40
2.0
 50
0.0
 51
90.0
  0
LINE
  5
96
  8
1
  6
CONTINUOUS
 62
     7
 10
1981.1342385197
 20
255.6699311788
 30
0.0
 11
1989.1342385197
 21
255.6699311788
 31
0.0
  0
LINE
  5
97
  8
1
  6
CONTINUOUS
 62
     7
 10
2071.1342385197
 20
261.1699311788
 30
0.0
 11
2075.9588125197
 21
261.1699311788
 31
0.0
  0
LINE
  5
98
  8
1
  6
CONTINUOUS
 62
     7
 10
2051.1342385197
 20
261.1699311788
 30
0.0
 11
2059.1342385197
 21
261.1699311788
 31
0.0
  0
LINE
  5
99
  8
1
  6
CONTINUOUS
 62
     7
 10
2001.1342385197
 20
255.6699311788
 30
0.0
 11
2011.1342385197
 21
255.6699311788
 31
0.0
  0
ARC
  5
9A
  8
1
  6
CONTINUOUS
 62
     7
 10
1990.1342385197
 20
255.6699311788
 30
0.0
 40
1.0
 50
180.0
 51
0.0
  0
ARC
  5
9B
  8
1
  6
CONTINUOUS
 62
     7
 10
2000.1342385197
 20
322.6699311788
 30
0.0
 40
1.0
 50
0.0
 51
180.0
  0
LINE
  5
9C
  8
1
  6
CONTINUOUS
 62
     7
 10
2011.1342385197
 20
322.6699311788
 30
0.0
 11
2001.1342385197
 21
322.6699311788
 31
0.0
  0
LINE
  5
9D
  8
1
  6
CONTINUOUS
 62
     7
 10
1989.1342385197
 20
322.6699311788
 30
0.0
 11
1981.1342385197
 21
322.6699311788
 31
0.0
  0
ARC
  5
9E
  8
1
  6
CONTINUOUS
 62
     7
 10
1950.1342385197
 20
323.1699311788
 30
0.0
 40
0.5
 50
180.0
 51
270.0
  0
ARC
  5
9F
  8
1
  6
CONTINUOUS
 62
     7
 10
2020.1342385197
 20
317.1699311788
 30
0.0
 40
1.0
 50
0.0
 51
180.0
  0
ARC
  5
A0
  8
1
  6
CONTINUOUS
 62
     7
 10
1960.1342385197
 20
322.6699311788
 30
0.0
 40
1.0
 50
0.0
 51
180.0
  0
ARC
  5
A1
  8
1
  6
CONTINUOUS
 62
     7
 10
1970.1342385197
 20
255.6699311788
 30
0.0
 40
1.0
 50
180.0
 51
0.0
  0
LINE
  5
A2
  8
1
  6
CONTINUOUS
 62
     7
 10
1999.1342385197
 20
322.6699311788
 30
0.0
 11
1991.1342385197
 21
322.6699311788
 31
0.0
  0
ARC
  5
A3
  8
1
  6
CONTINUOUS
 62
     7
 10
2070.1342385197
 20
317.1699311788
 30
0.0
 40
1.0
 50
0.0
 51
180.0
  0
ARC
  5
A4
  8
1
  6
CONTINUOUS
 62
     7
 10
2040.1342385197
 20
317.1699311788
 30
0.0
 40
1.0
 50
0.0
 51
180.0
  0
LINE
  5
A5
  8
1
  6
CONTINUOUS
 62
     7
 10
1991.1342385197
 20
255.6699311788
 30
0.0
 11
1999.1342385197
 21
255.6699311788
 31
0.0
  0
ARC
  5
A6
  8
1
  6
CONTINUOUS
 62
     7
 10
2030.1342385197
 20
317.1699311788
 30
0.0
 40
1.0
 50
0.0
 51
180.0
  0
LINE
  5
A7
  8
1
  6
CONTINUOUS
 62
     7
 10
2019.1342385197
 20
317.1699311788
 30
0.0
 11
2014.1342385197
 21
317.1699311788
 31
0.0
  0
LINE
  5
A8
  8
1
  6
CONTINUOUS
 62
     7
 10
2080.2889385197
 20
255.6699311788
 30
0.0
 11
2089.1342385197
 21
255.6699311788
 31
0.0
  0
ARC
  5
A9
  8
1
  6
CONTINUOUS
 62
     7
 10
2080.2889385197
 20
320.6699311788
 30
0.0
 40
2.0
 50
90.0
 51
150.0
  0
LINE
  5
AA
  8
1
  6
CONTINUOUS
 62
     7
 10
2029.1342385197
 20
317.1699311788
 30
0.0
 11
2029.1342385197
 21
261.1699311788
 31
0.0
  0
LINE
  5
AB
  8
1
  6
CONTINUOUS
 62
     7
 10
2031.1342385197
 20
317.1699311788
 30
0.0
 11
2031.1342385197
 21
261.1699311788
 31
0.0
  0
LINE
  5
AC
  8
1
  6
CONTINUOUS
 62
     7
 10
2089.1342385197
 20
309.8242591788
 30
0.0
 11
2094.1342385197
 21
309.8242591788
 31
0.0
  0
LINE
  5
AD
  8
1
  6
CONTINUOUS
 62
     7
 10
1945.6342385197
 20
299.1699311788
 30
0.0
 11
1949.6342385197
 21
299.1699311788
 31
0.0
  0
LINE
  5
AE
  8
1
  6
CONTINUOUS
 62
     7
 10
2079.1342385197
 20
317.1297231788
 30
0.0
 11
2079.1342385197
 21
261.2101391788
 31
0.0
  0
LINE
  5
AF
  8
1
  6
CONTINUOUS
 62
     7
 10
2080.2889385197
 20
322.6699311788
 30
0.0
 11
2089.1342385197
 21
322.6699311788
 31
0.0
  0
LINE
  5
B0
  8
1
  6
CONTINUOUS
 62
     7
 10
2171.382663779311
 20
328.6478956095211
 30
0.0
 11
2158.838507456675
 21
316.1037392868851
 31
0.0
  0
ARC
  5
B1
  8
1
  6
CONTINUOUS
 62
     7
 10
2172.796877341684
 20
327.233682047148
 30
0.0
 40
1.999999999999915
 50
89.99999999999551
 51
134.9999999999955
  0
ARC
  5
B2
  8
1
  6
CONTINUOUS
 62
     7
 10
2194.377612254724
 20
327.233682047148
 30
0.0
 40
1.999999999999758
 50
45.000000000009
 51
90.00000000000901
  0
LINE
  5
B3
  8
1
  6
CONTINUOUS
 62
     7
 10
2049.1342385197
 20
317.1699311788
 30
0.0
 11
2049.1342385197
 21
261.1699311788
 31
0.0
  0
LINE
  5
B4
  8
1
  6
CONTINUOUS
 62
     7
 10
1991.1342385197
 20
322.6699311788
 30
0.0
 11
1991.1342385197
 21
255.6699311788
 31
0.0
  0
LINE
  5
B5
  8
1
  6
CONTINUOUS
 62
     7
 10
1945.6342385197
 20
329.1699311788
 30
0.0
 11
1949.6342385197
 21
329.1699311788
 31
0.0
  0
LINE
  5
B6
  8
1
  6
CONTINUOUS
 62
     7
 10
1945.6342385197
 20
249.1699311788
 30
0.0
 11
1949.6342385197
 21
249.1699311788
 31
0.0
  0
LINE
  5
B7
  8
1
  6
CONTINUOUS
 62
     7
 10
2089.1342385197
 20
329.1699311788
 30
0.0
 11
2094.1342385197
 21
329.1699311788
 31
0.0
  0
LINE
  5
B8
  8
1
  6
CONTINUOUS
 62
     7
 10
2194.377613668937
 20
329.2336812518319
 30
0.0
 11
2172.79687592747
 21
329.2336812518323
 31
0.0
  0
LINE
  5
B9
  8
1
  6
CONTINUOUS
 62
     7
 10
2208.335982139733
 20
316.1037392868851
 30
0.0
 11
2195.791825817097
 21
328.6478956095211
 31
0.0
  0
LINE
  5
BA
  8
1
  6
CONTINUOUS
 62
     7
 10
2223.001458805928
 20
301.4382626206895
 30
0.0
 11
2210.457302483293
 21
313.9824189433255
 31
0.0
  0
LINE
  5
BB
  8
1
  6
CONTINUOUS
 62
     7
 10
2081.1342385197
 20
261.2101391788
 30
0.0
 11
2087.1342385197
 21
261.2101391788
 31
0.0
  0
LINE
  5
BC
  8
1
  6
CONTINUOUS
 62
     7
 10
1945.6342385197
 20
287.4199311788
 30
0.0
 11
1949.6342385197
 21
287.4199311788
 31
0.0
  0
LINE
  5
BD
  8
1
  6
CONTINUOUS
 62
     7
 10
2069.1342385197
 20
317.1699311788
 30
0.0
 11
2069.1342385197
 21
261.1699311788
 31
0.0
  0
LINE
  5
BE
  8
1
  6
CONTINUOUS
 62
     7
 10
2039.1342385197
 20
317.1699311788
 30
0.0
 11
2039.1342385197
 21
261.1699311788
 31
0.0
  0
LINE
  5
BF
  8
1
  6
CONTINUOUS
 62
     7
 10
2019.1342385197
 20
317.1699311788
 30
0.0
 11
2019.1342385197
 21
261.1699311788
 31
0.0
  0
LINE
  5
C0
  8
1
  6
CONTINUOUS
 62
     7
 10
1989.1342385197
 20
255.6699311788
 30
0.0
 11
1989.1342385197
 21
322.6699311788
 31
0.0
  0
LINE
  5
C1
  8
1
  6
CONTINUOUS
 62
     7
 10
2001.1342385197
 20
322.6699311788
 30
0.0
 11
2001.1342385197
 21
255.6699311788
 31
0.0
  0
ARC
  5
C2
  8
1
  6
CONTINUOUS
 62
     7
 10
2157.777847284895
 20
315.0430791151051
 30
0.0
 40
1.500000000000054
 50
45.000000000006
 51
225.000000000006
  0
ARC
  5
C3
  8
1
  6
CONTINUOUS
 62
     7
 10
2221.587245243556
 20
300.0240490583166
 30
0.0
 40
1.9999999999996
 50
0.0000000000044906
 51
45.00000000000448
  0
ARC
  5
C4
  8
1
  6
CONTINUOUS
 62
     7
 10
2221.587245243556
 20
278.4433141452762
 30
0.0
 40
1.9999999999996
 50
315.0000000000045
 51
0.0000000000044906
  0
LINE
  5
C5
  8
1
  6
CONTINUOUS
 62
     7
 10
2210.63407917859
 20
264.6617209555637
 30
0.0
 11
2223.001458805929
 21
277.0291005829029
 31
0.0
  0
LINE
  5
C6
  8
1
  6
CONTINUOUS
 62
     7
 10
2089.1342385197
 20
287.4199311788
 30
0.0
 11
2094.1342385197
 21
287.4199311788
 31
0.0
  0
LINE
  5
C7
  8
1
  6
CONTINUOUS
 62
     7
 10
2061.1342385197
 20
317.1699311788
 30
0.0
 11
2061.1342385197
 21
261.1699311788
 31
0.0
  0
LINE
  5
C8
  8
1
  6
CONTINUOUS
 62
     7
 10
2041.1342385197
 20
317.1699311788
 30
0.0
 11
2041.1342385197
 21
261.1699311788
 31
0.0
  0
LINE
  5
C9
  8
1
  6
CONTINUOUS
 62
     7
 10
2051.1342385197
 20
317.1699311788
 30
0.0
 11
2051.1342385197
 21
261.1699311788
 31
0.0
  0
LINE
  5
CA
  8
1
  6
CONTINUOUS
 62
     7
 10
2223.58724444824
 20
278.4433127310626
 30
0.0
 11
2223.58724444824
 21
300.0240504725296
 31
0.0
  0
LINE
  5
CB
  8
1
  6
CONTINUOUS
 62
     7
 10
2087.1342385197
 20
317.1297231788
 30
0.0
 11
2081.1342385197
 21
317.1297231788
 31
0.0
  0
ARC
  5
CC
  8
1
  6
CONTINUOUS
 62
     7
 10
2209.396642311513
 20
263.4242840884871
 30
0.0
 40
1.749999999999984
 50
45.0
 51
225.0
  0
LINE
  5
CD
  8
1
  6
CONTINUOUS
 62
     7
 10
2075.9355985197
 20
261.2101391788
 30
0.0
 11
2079.1342385197
 21
261.2101391788
 31
0.0
  0
LINE
  5
CE
  8
1
  6
CONTINUOUS
 62
     7
 10
2195.791825817097
 20
249.8194675940715
 30
0.0
 11
2208.159205444436
 21
262.1868472214107
 31
0.0
  0
ARC
  5
CF
  8
1
  6
CONTINUOUS
 62
     7
 10
2194.377612254724
 20
251.2336811564446
 30
0.0
 40
1.999999999999915
 50
269.9999999999955
 51
314.9999999999955
  0
LINE
  5
D0
  8
1
  6
CONTINUOUS
 62
     7
 10
2089.1342385197
 20
290.9199311788
 30
0.0
 11
2094.1342385197
 21
290.9199311788
 31
0.0
  0
LINE
  5
D1
  8
1
  6
CONTINUOUS
 62
     7
 10
1945.6342385197
 20
279.1699311788
 30
0.0
 11
1949.6342385197
 21
279.1699311788
 31
0.0
  0
LINE
  5
D2
  8
1
  6
CONTINUOUS
 62
     7
 10
1969.1342385197
 20
255.6699311788
 30
0.0
 11
1969.1342385197
 21
322.6699311788
 31
0.0
  0
LINE
  5
D3
  8
1
  6
CONTINUOUS
 62
     7
 10
2059.1342385197
 20
317.1699311788
 30
0.0
 11
2059.1342385197
 21
261.1699311788
 31
0.0
  0
LINE
  5
D4
  8
1
  6
CONTINUOUS
 62
     7
 10
1999.1342385197
 20
255.6699311788
 30
0.0
 11
1999.1342385197
 21
322.6699311788
 31
0.0
  0
LINE
  5
D5
  8
1
  6
CONTINUOUS
 62
     7
 10
2089.1342385197
 20
249.1699311788
 30
0.0
 11
2094.1342385197
 21
249.1699311788
 31
0.0
  0
ARC
  5
D6
  8
1
  6
CONTINUOUS
 62
     7
 10
2080.2889385197
 20
257.6699311788
 30
0.0
 40
2.0
 50
210.0
 51
270.0
  0
LINE
  5
D7
  8
1
  6
CONTINUOUS
 62
     7
 10
2081.1342385197
 20
317.1297231788
 30
0.0
 11
2081.1342385197
 21
261.2101391788
 31
0.0
  0
LINE
  5
D8
  8
1
  6
CONTINUOUS
 62
     7
 10
1971.1342385197
 20
322.6699311788
 30
0.0
 11
1971.1342385197
 21
255.6699311788
 31
0.0
  0
LINE
  5
D9
  8
1
  6
CONTINUOUS
 62
     7
 10
1961.1342385197
 20
322.6699311788
 30
0.0
 11
1961.1342385197
 21
255.6699311788
 31
0.0
  0
LINE
  5
DA
  8
1
  6
CONTINUOUS
 62
     7
 10
2071.1342385197
 20
317.1699311788
 30
0.0
 11
2071.1342385197
 21
261.1699311788
 31
0.0
  0
LINE
  5
DB
  8
1
  6
CONTINUOUS
 62
     7
 10
2021.1342385197
 20
317.1699311788
 30
0.0
 11
2021.1342385197
 21
261.1699311788
 31
0.0
  0
LINE
  5
DC
  8
1
  6
CONTINUOUS
 62
     7
 10
2079.1342385197
 20
317.1297231788
 30
0.0
 11
2075.9355985197
 21
317.1297231788
 31
0.0
  0
LINE
  5
DD
  8
1
  6
CONTINUOUS
 62
     7
 10
2075.9355985197
 20
261.2101391788
 30
0.0
 11
2078.5568885197
 21
256.6699311788
 31
0.0
  0
LINE
  5
DE
  8
1
  6
CONTINUOUS
 62
     7
 10
2013.1342385197
 20
320.6699311788
 30
0.0
 11
2013.1342385197
 21
257.6699311788
 31
0.0
  0
LINE
  5
DF
  8
1
  6
CONTINUOUS
 62
     7
 10
1945.6342385197
 20
290.9199311788
 30
0.0
 11
1949.6342385197
 21
290.9199311788
 31
0.0
  0
LINE
  5
E0
  8
1
  6
CONTINUOUS
 62
     7
 10
2075.9355985197
 20
317.1297231788
 30
0.0
 11
2078.5568885197
 21
321.6699311788
 31
0.0
  0
LINE
  5
E1
  8
1
  6
DASHED
 62
     7
 10
1934.6342385197
 20
254.1699311788
 30
0.0
 11
1945.6342385197
 21
254.1699311788
 31
0.0
  0
LINE
  5
E3
  8
1
  6
CONTINUOUS
 62
     7
 10
2144.173030790479
 20
277.0291005829033
 30
0.0
 11
2156.540410417818
 21
264.661720955564
 31
0.0
  0
ARC
  5
E4
  8
1
  6
CONTINUOUS
 62
     7
 10
2080.1342385197
 20
261.2101391788
 30
0.0
 40
1.0
 50
180.0
 51
0.0
  0
LINE
  5
E5
  8
1
  6
CENTER
 62
     5
 10
1926.1664691086
 20
289.1699311788
 30
0.0
 11
2103.8733221066
 21
289.1699311788
 31
0.0
  0
LINE
  5
E7
  8
1
  6
DASHED
 62
     7
 10
1934.6342385197
 20
324.1699311788
 30
0.0
 11
1934.6342385197
 21
254.1699311788
 31
0.0
  0
ARC
  5
E8
  8
1
  6
CONTINUOUS
 62
     7
 10
2080.1342385197
 20
317.1297231788
 30
0.0
 40
1.0
 50
0.0
 51
180.0
  0
ARC
  5
E9
  8
1
  6
CONTINUOUS
 62
     7
 10
2145.587244352852
 20
300.0240490583163
 30
0.0
 40
1.9999999999996
 50
135.0000000000045
 51
180.0000000000045
  0
LINE
  5
EA
  8
1
  6
CONTINUOUS
 62
     7
 10
2143.587245148168
 20
300.0240504725298
 30
0.0
 11
2143.587245148168
 21
278.4433127310628
 31
0.0
  0
ARC
  5
EB
  8
1
  6
CONTINUOUS
 62
     7
 10
2172.796877341684
 20
251.2336811564446
 30
0.0
 40
1.9999999999996
 50
225.0000000000045
 51
270.0000000000045
  0
ARC
  5
EC
  8
1
  6
CONTINUOUS
 62
     7
 10
2087.1342385197
 20
259.2101391788
 30
0.0
 40
2.0
 50
0.0
 51
90.0
  0
LINE
  5
ED
  8
1
  6
CENTER
 62
     5
 10
2140.1635972902
 20
289.3875887376001
 30
0.0
 11
2226.7030780346
 21
289.3875887376001
 31
0.0
  0
LINE
  5
EE
  8
1
  6
CONTINUOUS
 62
     7
 10
2159.015284151971
 20
262.1868472214108
 30
0.0
 11
2171.38266377931
 21
249.8194675940715
 31
0.0
  0
ARC
  5
EF
  8
1
  6
CONTINUOUS
 62
     7
 10
1980.1342385197
 20
322.6699311788
 30
0.0
 40
1.0
 50
0.0
 51
180.0
  0
ARC
  5
F0
  8
1
  6
CONTINUOUS
 62
     7
 10
2087.1342385197
 20
319.1297231788
 30
0.0
 40
2.0
 50
270.0
 51
0.0
  0
ARC
  5
F1
  8
1
  6
CONTINUOUS
 62
     7
 10
2145.587244352852
 20
278.443314145276
 30
0.0
 40
1.999999999999758
 50
180.000000000009
 51
225.000000000009
  0
CIRCLE
  5
F2
  8
1
  6
CONTINUOUS
 62
     7
 10
2183.587244798204
 20
289.233681601796
 30
0.0
 40
24.99999999999995
  0
ARC
  5
F3
  8
1
  6
CONTINUOUS
 62
     7
 10
2157.777847284895
 20
263.4242840884873
 30
0.0
 40
1.749999999999984
 50
315.0
 51
135.0
  0
LINE
  5
F4
  8
1
  6
CENTER
 62
     5
 10
2183.6509952212
 20
247.1344457457003
 30
0.0
 11
2183.6509952212
 21
334.6145730198002
 31
0.0
  0
LINE
  5
F5
  8
1
  6
CONTINUOUS
 62
     7
 10
1959.1342385197
 20
255.6699311788
 30
0.0
 11
1959.1342385197
 21
322.6699311788
 31
0.0
  0
LINE
  5
F6
  8
1
  6
CONTINUOUS
 62
     7
 10
2172.79687592747
 20
249.2336819517604
 30
0.0
 11
2194.377613668937
 21
249.2336819517601
 31
0.0
  0
LINE
  5
F7
  8
1
  6
CONTINUOUS
 62
     7
 10
2156.717187113115
 20
313.9824189433256
 30
0.0
 11
2144.173030790479
 21
301.4382626206895
 31
0.0
  0
LINE
  5
F8
  8
1
  6
DASHED
 62
     7
 10
1945.6342385197
 20
324.1699311788
 30
0.0
 11
1934.6342385197
 21
324.1699311788
 31
0.0
  0
ARC
  5
F9
  8
1
  6
CONTINUOUS
 62
     7
 10
2209.396642311513
 20
315.0430791151051
 30
0.0
 40
1.499999999999897
 50
315.000000000024
 51
135.000000000024
  0
LINE
  5
FA
  8
1
  6
CONTINUOUS
 62
     7
 10
1949.6342385197
 20
329.1699311788
 30
0.0
 11
1949.6342385197
 21
249.1699311788
 31
0.0
  0
LINE
  5
FB
  8
1
  6
CONTINUOUS
 62
     7
 10
2094.1342385197
 20
329.1699311788
 30
0.0
 11
2094.1342385197
 21
249.1699311788
 31
0.0
  0
LINE
  5
FC
  8
1
  6
CONTINUOUS
 62
     7
 10
1945.6342385197
 20
329.1699311788
 30
0.0
 11
1945.6342385197
 21
249.1699311788
 31
0.0
  0
LINE
  5
FD
  8
1
  6
CONTINUOUS
 62
     7
 10
2089.1342385197
 20
249.1699311788
 30
0.0
 11
2089.1342385197
 21
329.1699311788
 31
0.0
  0
TEXT
  5
FE
  8
1
  6
CONTINUOUS
 62
     7
 10
2094.161989983422
 20
225.231579
 30
0.0
 40
10.0
  1
KFEB-50DK2
 41
0.766702
 51
15.0
  0
ENDSEC
  0
EOF
