  0
SECTION
  2
HEADER
  9
$ACADVER
  1
AC1006
  9
$DWGCODEPAGE
  3
ansi_932
  9
$INSBASE
 10
0.0
 20
0.0
 30
0.0
  9
$EXTMIN
 10
0.0
 20
0.0
  9
$EXTMAX
 10
1862.501352
 20
212.552592
  9
$LIMMIN
 10
0.0
 20
0.0
  9
$LIMMAX
 10
12.0
 20
9.0
  9
$ORTHOMODE
 70
     0
  9
$REGENMODE
 70
     1
  9
$FILLMODE
 70
     1
  9
$QTEXTMODE
 70
     0
  9
$MIRRTEXT
 70
     1
  9
$DRAGMODE
 70
     2
  9
$LTSCALE
 40
1.0
  9
$OSMODE
 70
    37
  9
$ATTMODE
 70
     1
  9
$TEXTSIZE
 40
0.2
  9
$TRACEWID
 40
0.05
  9
$TEXTSTYLE
  7
STANDARD
  9
$CLAYER
  8
0
  9
$CELTYPE
  6
BYLAYER
  9
$CECOLOR
 62
   256
  9
$DIMSCALE
 40
1.0
  9
$DIMASZ
 40
1.2
  9
$DIMEXO
 40
0.0625
  9
$DIMDLI
 40
0.38
  9
$DIMRND
 40
0.0
  9
$DIMDLE
 40
0.0
  9
$DIMEXE
 40
0.6
  9
$DIMTP
 40
0.0
  9
$DIMTM
 40
0.0
  9
$DIMTXT
 40
3.0
  9
$DIMCEN
 40
0.09
  9
$DIMTSZ
 40
0.0
  9
$DIMTOL
 70
     0
  9
$DIMLIM
 70
     0
  9
$DIMTIH
 70
     1
  9
$DIMTOH
 70
     1
  9
$DIMSE1
 70
     0
  9
$DIMSE2
 70
     0
  9
$DIMTAD
 70
     1
  9
$DIMZIN
 70
     0
  9
$DIMBLK
  1

  9
$DIMASO
 70
     1
  9
$DIMSHO
 70
     1
  9
$DIMPOST
  1

  9
$DIMAPOST
  1

  9
$DIMALT
 70
     0
  9
$DIMALTD
 70
     2
  9
$DIMALTF
 40
25.4
  9
$DIMLFAC
 40
1.0
  9
$DIMTOFL
 70
     0
  9
$DIMTVP
 40
0.0
  9
$DIMTIX
 70
     0
  9
$DIMSOXD
 70
     0
  9
$DIMSAH
 70
     0
  9
$DIMBLK1
  1

  9
$DIMBLK2
  1

  9
$LUNITS
 70
     2
  9
$LUPREC
 70
     4
  9
$SKETCHINC
 40
0.1
  9
$FILLETRAD
 40
0.5
  9
$AUNITS
 70
     0
  9
$AUPREC
 70
     0
  9
$MENU
  1
.
  9
$ELEVATION
 40
0.0
  9
$THICKNESS
 40
0.0
  9
$LIMCHECK
 70
     0
  9
$CHAMFERA
 40
0.0
  9
$CHAMFERB
 40
0.0
  9
$SKPOLY
 70
     0
  9
$TDCREATE
 40
2460350.732740648
  9
$TDUPDATE
 40
2460350.732740961
  9
$TDINDWG
 40
0.0000000116
  9
$TDUSRTIMER
 40
0.0000000116
  9
$USRTIMER
 70
     1
  9
$ANGBASE
 50
0.0
  9
$ANGDIR
 70
     0
  9
$PDMODE
 70
     0
  9
$PDSIZE
 40
0.0
  9
$PLINEWID
 40
0.0
  9
$COORDS
 70
     1
  9
$SPLFRAME
 70
     0
  9
$SPLINETYPE
 70
     6
  9
$SPLINESEGS
 70
     8
  9
$ATTDIA
 70
     0
  9
$ATTREQ
 70
     1
  9
$HANDLING
 70
     1
  9
$HANDSEED
  5
10D
  9
$SURFTAB1
 70
     6
  9
$SURFTAB2
 70
     6
  9
$SURFTYPE
 70
     6
  9
$SURFU
 70
     6
  9
$SURFV
 70
     6
  9
$UCSNAME
  2

  9
$UCSORG
 10
0.0
 20
0.0
 30
0.0
  9
$UCSXDIR
 10
1.0
 20
0.0
 30
0.0
  9
$UCSYDIR
 10
0.0
 20
1.0
 30
0.0
  9
$USERI1
 70
     0
  9
$USERI2
 70
     0
  9
$USERI3
 70
     0
  9
$USERI4
 70
     0
  9
$USERI5
 70
     0
  9
$USERR1
 40
0.0
  9
$USERR2
 40
0.0
  9
$USERR3
 40
0.0
  9
$USERR4
 40
0.0
  9
$USERR5
 40
0.0
  9
$WORLDVIEW
 70
     1
  0
ENDSEC
  0
SECTION
  2
TABLES
  0
TABLE
  2
VPORT
 70
     1
  0
VPORT
  2
*ACTIVE
 70
     0
 10
0.0
 20
0.0
 11
1.0
 21
1.0
 12
931.2506759999999
 22
106.276296
 13
0.0
 23
0.0
 14
0.5
 24
0.5
 15
0.5
 25
0.5
 16
0.0
 26
0.0
 36
1.0
 17
0.0
 27
0.0
 37
0.0
 40
212.552592
 41
1.6
 42
50.0
 43
0.0
 44
0.0
 50
0.0
 51
0.0
 71
     0
 72
   100
 73
     1
 74
     3
 75
     0
 76
     0
 77
     0
 78
     0
  0
ENDTAB
  0
TABLE
  2
LTYPE
 70
     1
  0
LTYPE
  2
CONTINUOUS
 70
     0
  3
Solid line
 72
    65
 73
     0
 40
0.0
  0
ENDTAB
  0
TABLE
  2
LAYER
 70
     1
  0
LAYER
  2
0
 70
     0
 62
     7
  6
CONTINUOUS
  0
ENDTAB
  0
TABLE
  2
STYLE
 70
     2
  0
STYLE
  2
STANDARD
 70
     0
 40
0.0
 41
1.0
 50
0.0
 71
     0
 42
0.2
  3
txt
  4

  0
STYLE
  2
ＭＳ_ゴシック
 70
     0
 40
0.0
 41
1.0
 50
0.0
 71
     0
 42
0.2
  3
ＭＳ ゴシック.shx
  4

  0
ENDTAB
  0
TABLE
  2
VIEW
 70
     0
  0
ENDTAB
  0
TABLE
  2
UCS
 70
     0
  0
ENDTAB
  0
ENDSEC
  0
SECTION
  2
BLOCKS
  0
ENDSEC
  0
SECTION
  2
ENTITIES
  0
LINE
  5
6F
  8
0
  6
CONTINUOUS
 62
     7
 10
1614.523514
 20
196.542353
 30
0.0
 11
1606.523514
 21
196.542353
 31
0.0
  0
ARC
  5
70
  8
0
  6
CONTINUOUS
 62
     7
 10
1675.523514
 20
191.042353
 30
0.0
 40
1.0
 50
0.0
 51
180.0
  0
LINE
  5
71
  8
0
  6
CONTINUOUS
 62
     7
 10
1584.523514
 20
196.542353
 30
0.0
 11
1576.523514
 21
196.542353
 31
0.0
  0
ARC
  5
72
  8
0
  6
CONTINUOUS
 62
     7
 10
1685.523514
 20
105.042353
 30
0.0
 40
1.0
 50
180.0
 51
0.0
  0
ARC
  5
73
  8
0
  6
CONTINUOUS
 62
     7
 10
1665.523514
 20
105.042353
 30
0.0
 40
1.0
 50
180.0
 51
0.0
  0
ARC
  5
74
  8
0
  6
CONTINUOUS
 62
     7
 10
1615.523514
 20
99.542353
 30
0.0
 40
1.0
 50
180.0
 51
0.0
  0
LINE
  5
75
  8
0
  6
CONTINUOUS
 62
     7
 10
1686.523514
 20
105.042353
 30
0.0
 11
1691.348088
 21
105.042353
 31
0.0
  0
LINE
  5
76
  8
0
  6
CONTINUOUS
 62
     7
 10
1676.523514
 20
105.042353
 30
0.0
 11
1684.523514
 21
105.042353
 31
0.0
  0
LINE
  5
77
  8
0
  6
CONTINUOUS
 62
     7
 10
1596.523514
 20
99.542353
 30
0.0
 11
1604.523514
 21
99.542353
 31
0.0
  0
ARC
  5
78
  8
0
  6
CONTINUOUS
 62
     7
 10
1625.523514
 20
196.542353
 30
0.0
 40
1.0
 50
0.0
 51
180.0
  0
ARC
  5
79
  8
0
  6
CONTINUOUS
 62
     7
 10
1585.523514
 20
99.542353
 30
0.0
 40
1.0
 50
180.0
 51
0.0
  0
ARC
  5
7A
  8
0
  6
CONTINUOUS
 62
     7
 10
1595.523514
 20
99.542353
 30
0.0
 40
1.0
 50
180.0
 51
0.0
  0
ARC
  5
7B
  8
0
  6
CONTINUOUS
 62
     7
 10
1685.523514
 20
191.042353
 30
0.0
 40
1.0
 50
0.0
 51
180.0
  0
ARC
  5
7C
  8
0
  6
CONTINUOUS
 62
     7
 10
1585.523514
 20
196.542353
 30
0.0
 40
1.0
 50
0.0
 51
180.0
  0
LINE
  5
7D
  8
0
  6
CONTINUOUS
 62
     7
 10
1596.523514
 20
196.542353
 30
0.0
 11
1596.523514
 21
99.542353
 31
0.0
  0
ARC
  5
7E
  8
0
  6
CONTINUOUS
 62
     7
 10
1575.523514
 20
99.542353
 30
0.0
 40
1.0
 50
180.0
 51
0.0
  0
LINE
  5
7F
  8
0
  6
CONTINUOUS
 62
     7
 10
1624.523514
 20
196.542353
 30
0.0
 11
1616.523514
 21
196.542353
 31
0.0
  0
LINE
  5
80
  8
0
  6
CONTINUOUS
 62
     7
 10
1606.523514
 20
99.542353
 30
0.0
 11
1614.523514
 21
99.542353
 31
0.0
  0
ARC
  5
81
  8
0
  6
CONTINUOUS
 62
     7
 10
1636.023514
 20
194.542353
 30
0.0
 40
2.0
 50
0.0
 51
90.0
  0
LINE
  5
82
  8
0
  6
CONTINUOUS
 62
     7
 10
1574.523514
 20
196.542353
 30
0.0
 11
1566.023514
 21
196.542353
 31
0.0
  0
ARC
  5
83
  8
0
  6
CONTINUOUS
 62
     7
 10
1605.523514
 20
99.542353
 30
0.0
 40
1.0
 50
180.0
 51
0.0
  0
ARC
  5
84
  8
0
  6
CONTINUOUS
 62
     7
 10
1640.023514
 20
193.042353
 30
0.0
 40
2.0
 50
180.0
 51
270.0
  0
ARC
  5
85
  8
0
  6
CONTINUOUS
 62
     7
 10
1675.523514
 20
105.042353
 30
0.0
 40
1.0
 50
180.0
 51
0.0
  0
LINE
  5
86
  8
0
  6
CONTINUOUS
 62
     7
 10
1566.023514
 20
99.542353
 30
0.0
 11
1574.523514
 21
99.542353
 31
0.0
  0
ARC
  5
87
  8
0
  6
CONTINUOUS
 62
     7
 10
1665.523514
 20
191.042353
 30
0.0
 40
1.0
 50
0.0
 51
180.0
  0
LINE
  5
88
  8
0
  6
CONTINUOUS
 62
     7
 10
1644.523514
 20
191.042353
 30
0.0
 11
1640.023514
 21
191.042353
 31
0.0
  0
ARC
  5
89
  8
0
  6
CONTINUOUS
 62
     7
 10
1636.023514
 20
101.542353
 30
0.0
 40
2.0
 50
270.0
 51
0.0
  0
ARC
  5
8A
  8
0
  6
CONTINUOUS
 62
     7
 10
1575.523514
 20
196.542353
 30
0.0
 40
1.0
 50
0.0
 51
180.0
  0
LINE
  5
8B
  8
0
  6
CONTINUOUS
 62
     7
 10
1704.523514
 20
116.189539
 30
0.0
 11
1709.523514
 21
116.189539
 31
0.0
  0
LINE
  5
8C
  8
0
  6
CONTINUOUS
 62
     7
 10
1594.523514
 20
196.542353
 30
0.0
 11
1586.523514
 21
196.542353
 31
0.0
  0
LINE
  5
8D
  8
0
  6
CONTINUOUS
 62
     7
 10
1576.523514
 20
99.542353
 30
0.0
 11
1584.523514
 21
99.542353
 31
0.0
  0
ARC
  5
8E
  8
0
  6
CONTINUOUS
 62
     7
 10
1640.023514
 20
103.042353
 30
0.0
 40
2.0
 50
90.0
 51
180.0
  0
ARC
  5
8F
  8
0
  6
CONTINUOUS
 62
     7
 10
1645.523514
 20
191.042353
 30
0.0
 40
1.0
 50
0.0
 51
180.0
  0
ARC
  5
90
  8
0
  6
CONTINUOUS
 62
     7
 10
1625.523514
 20
99.542353
 30
0.0
 40
1.0
 50
180.0
 51
0.0
  0
ARC
  5
91
  8
0
  6
CONTINUOUS
 62
     7
 10
1566.023514
 20
197.542353
 30
0.0
 40
1.0
 50
180.0
 51
270.0
  0
LINE
  5
92
  8
0
  6
CONTINUOUS
 62
     7
 10
1604.523514
 20
196.542353
 30
0.0
 11
1596.523514
 21
196.542353
 31
0.0
  0
LINE
  5
93
  8
0
  6
CONTINUOUS
 62
     7
 10
1636.023514
 20
196.542353
 30
0.0
 11
1626.523514
 21
196.542353
 31
0.0
  0
ARC
  5
94
  8
0
  6
CONTINUOUS
 62
     7
 10
1655.523514
 20
105.042353
 30
0.0
 40
1.0
 50
180.0
 51
0.0
  0
LINE
  5
95
  8
0
  6
CONTINUOUS
 62
     7
 10
1666.523514
 20
105.042353
 30
0.0
 11
1674.523514
 21
105.042353
 31
0.0
  0
LINE
  5
96
  8
0
  6
CONTINUOUS
 62
     7
 10
1594.523514
 20
99.542353
 30
0.0
 11
1594.523514
 21
196.542353
 31
0.0
  0
LINE
  5
97
  8
0
  6
CONTINUOUS
 62
     7
 10
1654.523514
 20
191.042353
 30
0.0
 11
1646.523514
 21
191.042353
 31
0.0
  0
ARC
  5
98
  8
0
  6
CONTINUOUS
 62
     7
 10
1645.523514
 20
105.042353
 30
0.0
 40
1.0
 50
180.0
 51
0.0
  0
LINE
  5
99
  8
0
  6
CONTINUOUS
 62
     7
 10
1656.523514
 20
105.042353
 30
0.0
 11
1664.523514
 21
105.042353
 31
0.0
  0
LINE
  5
9A
  8
0
  6
CONTINUOUS
 62
     7
 10
1640.023514
 20
105.042353
 30
0.0
 11
1644.523514
 21
105.042353
 31
0.0
  0
ARC
  5
9B
  8
0
  6
CONTINUOUS
 62
     7
 10
1615.523514
 20
196.542353
 30
0.0
 40
1.0
 50
0.0
 51
180.0
  0
LINE
  5
9C
  8
0
  6
CONTINUOUS
 62
     7
 10
1646.523514
 20
105.042353
 30
0.0
 11
1654.523514
 21
105.042353
 31
0.0
  0
LINE
  5
9D
  8
0
  6
CONTINUOUS
 62
     7
 10
1586.523514
 20
99.542353
 30
0.0
 11
1594.523514
 21
99.542353
 31
0.0
  0
LINE
  5
9E
  8
0
  6
CONTINUOUS
 62
     7
 10
1674.523514
 20
191.042353
 30
0.0
 11
1666.523514
 21
191.042353
 31
0.0
  0
LINE
  5
9F
  8
0
  6
CONTINUOUS
 62
     7
 10
1664.523514
 20
191.042353
 30
0.0
 11
1656.523514
 21
191.042353
 31
0.0
  0
LINE
  5
A0
  8
0
  6
CONTINUOUS
 62
     7
 10
1616.523514
 20
99.542353
 30
0.0
 11
1624.523514
 21
99.542353
 31
0.0
  0
ARC
  5
A1
  8
0
  6
CONTINUOUS
 62
     7
 10
1655.523514
 20
191.042353
 30
0.0
 40
1.0
 50
0.0
 51
180.0
  0
LINE
  5
A2
  8
0
  6
CONTINUOUS
 62
     7
 10
1691.348088
 20
191.042353
 30
0.0
 11
1686.523514
 21
191.042353
 31
0.0
  0
LINE
  5
A3
  8
0
  6
CONTINUOUS
 62
     7
 10
1684.523514
 20
191.042353
 30
0.0
 11
1676.523514
 21
191.042353
 31
0.0
  0
LINE
  5
A4
  8
0
  6
CONTINUOUS
 62
     7
 10
1626.523514
 20
99.542353
 30
0.0
 11
1636.023514
 21
99.542353
 31
0.0
  0
ARC
  5
A5
  8
0
  6
CONTINUOUS
 62
     7
 10
1605.523514
 20
196.542353
 30
0.0
 40
1.0
 50
0.0
 51
180.0
  0
LINE
  5
A6
  8
0
  6
CONTINUOUS
 62
     7
 10
1696.523514
 20
146.042353
 30
0.0
 11
1696.523514
 21
105.088889
 31
0.0
  0
LINE
  5
A7
  8
0
  6
CONTINUOUS
 62
     7
 10
1666.523514
 20
191.042353
 30
0.0
 11
1666.523514
 21
105.042353
 31
0.0
  0
LINE
  5
A8
  8
0
  6
CONTINUOUS
 62
     7
 10
1561.023514
 20
209.042353
 30
0.0
 11
1565.023514
 21
209.042353
 31
0.0
  0
LINE
  5
A9
  8
0
  6
CONTINUOUS
 62
     7
 10
1702.523514
 20
190.995817
 30
0.0
 11
1696.523514
 21
190.995817
 31
0.0
  0
LINE
  5
AA
  8
0
  6
CONTINUOUS
 62
     7
 10
1676.523514
 20
191.042353
 30
0.0
 11
1676.523514
 21
105.042353
 31
0.0
  0
LINE
  5
AB
  8
0
  6
CONTINUOUS
 62
     7
 10
1704.523514
 20
179.895167
 30
0.0
 11
1709.523514
 21
179.895167
 31
0.0
  0
LINE
  5
AC
  8
0
  6
CONTINUOUS
 62
     7
 10
1614.523514
 20
99.542353
 30
0.0
 11
1614.523514
 21
196.542353
 31
0.0
  0
LINE
  5
AD
  8
0
  6
CONTINUOUS
 62
     7
 10
1694.523514
 20
190.995817
 30
0.0
 11
1694.523514
 21
150.042353
 31
0.0
  0
ARC
  5
AE
  8
0
  6
CONTINUOUS
 62
     7
 10
1759.93174003474
 20
186.9332259652601
 30
0.0
 40
1.499999999999897
 50
45.0
 51
225.0
  0
LINE
  5
AF
  8
0
  6
CONTINUOUS
 62
     7
 10
1691.2712260502
 20
146.0436963878
 30
0.0
 11
1691.3711899498
 21
146.0410096122
 31
0.0
  0
LINE
  5
B0
  8
0
  6
CONTINUOUS
 62
     7
 10
1704.523514
 20
149.792353
 30
0.0
 11
1709.523514
 21
149.792353
 31
0.0
  0
LINE
  5
B1
  8
0
  6
CONTINUOUS
 62
     7
 10
1584.523514
 20
99.542353
 30
0.0
 11
1584.523514
 21
196.542353
 31
0.0
  0
LINE
  5
B2
  8
0
  6
CONTINUOUS
 62
     7
 10
1604.523514
 20
99.542353
 30
0.0
 11
1604.523514
 21
196.542353
 31
0.0
  0
LINE
  5
B3
  8
0
  6
CONTINUOUS
 62
     7
 10
1606.523514
 20
196.542353
 30
0.0
 11
1606.523514
 21
99.542353
 31
0.0
  0
LINE
  5
B4
  8
0
  6
CONTINUOUS
 62
     7
 10
1686.523514
 20
191.042353
 30
0.0
 11
1686.523514
 21
105.042353
 31
0.0
  0
LINE
  5
B5
  8
0
  6
CONTINUOUS
 62
     7
 10
1626.523514
 20
196.542353
 30
0.0
 11
1626.523514
 21
99.542353
 31
0.0
  0
LINE
  5
B6
  8
0
  6
CONTINUOUS
 62
     7
 10
1694.523514
 20
190.995817
 30
0.0
 11
1691.32122
 21
190.995817
 31
0.0
  0
LINE
  5
B7
  8
0
  6
CONTINUOUS
 62
     7
 10
1704.523514
 20
146.292353
 30
0.0
 11
1709.523514
 21
146.292353
 31
0.0
  0
ARC
  5
B8
  8
0
  6
CONTINUOUS
 62
     7
 10
1616.9221658099
 20
148.0420102051
 30
0.0
 40
74.4759101909
 50
358.4604056978
 51
0.0002638959999786
  0
ARC
  5
B9
  8
0
  6
CONTINUOUS
 62
     7
 10
1684.1910267961
 20
148.9463856734
 30
0.0
 40
7.2639190723
 50
352.8008896576
 51
8.7384407486
  0
ARC
  5
BA
  8
0
  6
CONTINUOUS
 62
     7
 10
1684.1910267961
 20
148.9463856734
 30
0.0
 40
7.1639190723
 50
352.8008896576
 51
8.7384407486
  0
LINE
  5
BB
  8
0
  6
CONTINUOUS
 62
     7
 10
1624.523514
 20
99.542353
 30
0.0
 11
1624.523514
 21
196.542353
 31
0.0
  0
LINE
  5
BC
  8
0
  6
CONTINUOUS
 62
     7
 10
1704.523514
 20
209.042353
 30
0.0
 11
1709.523514
 21
209.042353
 31
0.0
  0
LINE
  5
BD
  8
0
  6
CONTINUOUS
 62
     7
 10
1684.523514
 20
191.042353
 30
0.0
 11
1684.523514
 21
105.042353
 31
0.0
  0
LINE
  5
BE
  8
0
  6
CONTINUOUS
 62
     7
 10
1656.523514
 20
191.042353
 30
0.0
 11
1656.523514
 21
105.042353
 31
0.0
  0
ARC
  5
BF
  8
0
  6
CONTINUOUS
 62
     7
 10
1695.678214
 20
194.542353
 30
0.0
 40
2.0
 50
90.0
 51
150.0
  0
LINE
  5
C0
  8
0
  6
CONTINUOUS
 62
     7
 10
1694.523514
 20
146.042353
 30
0.0
 11
1694.523514
 21
105.088889
 31
0.0
  0
ARC
  5
C1
  8
0
  6
CONTINUOUS
 62
     7
 10
1783.283507319862
 20
206.0423525632629
 30
0.0
 40
3.000000000000107
 50
89.99999999999399
 51
134.999999999994
  0
LINE
  5
C2
  8
0
  6
CONTINUOUS
 62
     7
 10
1674.523514
 20
191.042353
 30
0.0
 11
1674.523514
 21
105.042353
 31
0.0
  0
ARC
  5
C3
  8
0
  6
CONTINUOUS
 62
     7
 10
1814.775931933062
 20
207.0423528727119
 30
0.0
 40
2.000000000000071
 50
45.0
 51
90.0
  0
LINE
  5
C4
  8
0
  6
CONTINUOUS
 62
     7
 10
1691.32122
 20
146.042353
 30
0.0
 11
1704.523514
 21
146.042353
 31
0.0
  0
LINE
  5
C5
  8
0
  6
CONTINUOUS
 62
     7
 10
1576.523514
 20
196.542353
 30
0.0
 11
1576.523514
 21
99.542353
 31
0.0
  0
ARC
  5
C6
  8
0
  6
CONTINUOUS
 62
     7
 10
1616.9221658099
 20
148.0420102051
 30
0.0
 40
74.3759101909
 50
358.4604056978
 51
0.0002638959999786
  0
LINE
  5
C7
  8
0
  6
CONTINUOUS
 62
     7
 10
1836.65282579348
 20
187.9938861370401
 30
0.0
 11
1816.190145495435
 21
208.4565664350851
 31
0.0
  0
ARC
  5
C8
  8
0
  6
CONTINUOUS
 62
     7
 10
1837.71348596526
 20
186.9332259652601
 30
0.0
 40
1.499999999999897
 50
315.0
 51
135.0
  0
LINE
  5
C9
  8
0
  6
CONTINUOUS
 62
     7
 10
1781.162186976302
 20
208.1636729068224
 30
0.0
 11
1760.99240020652
 21
187.9938861370398
 31
0.0
  0
LINE
  5
CA
  8
0
  6
CONTINUOUS
 62
     7
 10
1691.32122
 20
150.042353
 30
0.0
 11
1704.523514
 21
150.042353
 31
0.0
  0
LINE
  5
CB
  8
0
  6
CONTINUOUS
 62
     7
 10
1646.523514
 20
191.042353
 30
0.0
 11
1646.523514
 21
105.042353
 31
0.0
  0
LINE
  5
CC
  8
0
  6
CONTINUOUS
 62
     7
 10
1616.523514
 20
196.542353
 30
0.0
 11
1616.523514
 21
99.542353
 31
0.0
  0
LINE
  5
CD
  8
0
  6
CONTINUOUS
 62
     7
 10
1691.398076
 20
148.0423532303
 30
0.0
 11
1691.298076
 21
148.0423527697
 31
0.0
  0
LINE
  5
CE
  8
0
  6
CONTINUOUS
 62
     7
 10
1695.678214
 20
196.542353
 30
0.0
 11
1704.523514
 21
196.542353
 31
0.0
  0
LINE
  5
CF
  8
0
  6
CONTINUOUS
 62
     7
 10
1814.775931933062
 20
209.0423534916097
 30
0.0
 11
1783.283507319862
 21
209.0423520773963
 31
0.0
  0
LINE
  5
D0
  8
0
  6
CONTINUOUS
 62
     7
 10
1691.370627609
 20
150.0499491992
 30
0.0
 11
1691.271788391
 21
150.0347568008
 31
0.0
  0
LINE
  5
D1
  8
0
  6
CONTINUOUS
 62
     7
 10
1691.32122
 20
190.995817
 30
0.0
 11
1693.946164
 21
195.542353
 31
0.0
  0
LINE
  5
D2
  8
0
  6
CONTINUOUS
 62
     7
 10
1574.523514
 20
99.542353
 30
0.0
 11
1574.523514
 21
196.542353
 31
0.0
  0
LINE
  5
D3
  8
0
  6
CONTINUOUS
 62
     7
 10
1654.523514
 20
191.042353
 30
0.0
 11
1654.523514
 21
105.042353
 31
0.0
  0
LINE
  5
D4
  8
0
  6
CONTINUOUS
 62
     7
 10
1644.523514
 20
191.042353
 30
0.0
 11
1644.523514
 21
105.042353
 31
0.0
  0
LINE
  5
D5
  8
0
  6
CONTINUOUS
 62
     7
 10
1586.523514
 20
196.542353
 30
0.0
 11
1586.523514
 21
99.542353
 31
0.0
  0
LINE
  5
D6
  8
0
  6
CONTINUOUS
 62
     7
 10
1664.523514
 20
191.042353
 30
0.0
 11
1664.523514
 21
105.042353
 31
0.0
  0
LINE
  5
D7
  8
0
  6
CONTINUOUS
 62
     7
 10
1696.523514
 20
190.995817
 30
0.0
 11
1696.523514
 21
150.042353
 31
0.0
  0
LINE
  5
D8
  8
0
  6
CONTINUOUS
 62
     7
 10
1561.023514
 20
87.042353
 30
0.0
 11
1565.023514
 21
87.042353
 31
0.0
  0
LINE
  5
D9
  8
0
  6
CONTINUOUS
 62
     7
 10
1691.2984701676
 20
148.0486188914
 30
0.0
 11
1691.3976818324
 21
148.0360871086
 31
0.0
  0
LINE
  5
DA
  8
0
  6
CONTINUOUS
 62
     7
 10
1638.023514
 20
194.542353
 30
0.0
 11
1638.023514
 21
101.542353
 31
0.0
  0
LINE
  5
DB
  8
0
  6
CONTINUOUS
 62
     7
 10
1782.869294066938
 20
87.0423525083901
 30
0.0
 11
1814.775931933062
 21
87.04235250839015
 31
0.0
  0
LINE
  5
DC
  8
0
  6
CONTINUOUS
 62
     7
 10
1738.408399564915
 20
130.6748205045647
 30
0.0
 11
1758.694303167663
 21
110.3889169018163
 31
0.0
  0
ARC
  5
DD
  8
0
  6
CONTINUOUS
 62
     7
 10
1739.822613127288
 20
132.0890340669378
 30
0.0
 40
2.000000000000071
 50
180.0
 51
225.0
  0
ARC
  5
DE
  8
0
  6
CONTINUOUS
 62
     7
 10
1837.71348596526
 20
109.1514800347399
 30
0.0
 40
1.74999999999967
 50
45.0
 51
225.0
  0
LINE
  5
DF
  8
0
  6
CONTINUOUS
 62
     7
 10
1737.82261250839
 20
163.995671933062
 30
0.0
 11
1737.82261250839
 21
132.0890340669376
 31
0.0
  0
ARC
  5
E0
  8
0
  6
CONTINUOUS
 62
     7
 10
1782.869294066938
 20
89.04235312728814
 30
0.0
 40
2.000000000000071
 50
225.0
 51
270.0
  0
LINE
  5
E1
  8
0
  6
CONTINUOUS
 62
     7
 10
1691.32122
 20
105.088889
 30
0.0
 11
1693.946164
 21
100.542353
 31
0.0
  0
ARC
  5
E2
  8
0
  6
CONTINUOUS
 62
     7
 10
1857.822612872712
 20
163.9956719330622
 30
0.0
 40
2.000000000000071
 50
0.0
 51
45.0
  0
ARC
  5
E3
  8
0
  6
CONTINUOUS
 62
     7
 10
1702.523514
 20
103.088889
 30
0.0
 40
2.0
 50
0.0
 51
90.0
  0
LINE
  5
E4
  8
0
  6
CONTINUOUS
 62
     5
 10
1718.647537
 20
148.042353
 30
0.0
 11
1552.43357
 21
148.042353
 31
0.0
  0
LINE
  5
E5
  8
0
  6
CONTINUOUS
 62
     7
 10
1561.023514
 20
146.292353
 30
0.0
 11
1565.023514
 21
146.292353
 31
0.0
  0
LINE
  5
E6
  8
0
  6
CONTINUOUS
 62
     5
 10
1730.322613
 20
148.0423529999999
 30
0.0
 11
1862.501352
 21
148.0423529999999
 31
0.0
  0
LINE
  5
E7
  8
0
  6
CONTINUOUS
 62
     7
 10
1695.678214
 20
99.542353
 30
0.0
 11
1704.523514
 21
99.542353
 31
0.0
  0
LINE
  5
E8
  8
0
  6
CONTINUOUS
 62
     7
 10
1859.236826435085
 20
165.4098854954353
 30
0.0
 11
1838.77414613704
 21
185.8725657934804
 31
0.0
  0
ARC
  5
E9
  8
0
  6
CONTINUOUS
 62
     7
 10
1566.023514
 20
98.542353
 30
0.0
 40
1.0
 50
90.0
 51
180.0
  0
LINE
  5
EA
  8
0
  6
CONTINUOUS
 62
     7
 10
1816.190145495435
 20
87.62813956491522
 30
0.0
 11
1836.476049098183
 21
107.9140431676636
 31
0.0
  0
ARC
  5
EB
  8
0
  6
CONTINUOUS
 62
     7
 10
1595.523514
 20
196.542353
 30
0.0
 40
1.0
 50
0.0
 51
180.0
  0
LINE
  5
EC
  8
0
  6
CONTINUOUS
 62
     7
 10
1694.523514
 20
105.088889
 30
0.0
 11
1691.32122
 21
105.088889
 31
0.0
  0
LINE
  5
ED
  8
0
  6
CONTINUOUS
 62
     7
 10
1561.023514
 20
149.792353
 30
0.0
 11
1565.023514
 21
149.792353
 31
0.0
  0
LINE
  5
EE
  8
0
  6
CONTINUOUS
 62
     7
 10
1704.523514
 20
87.042353
 30
0.0
 11
1709.523514
 21
87.042353
 31
0.0
  0
ARC
  5
EF
  8
0
  6
CONTINUOUS
 62
     7
 10
1695.678214
 20
101.542353
 30
0.0
 40
2.0
 50
210.0
 51
270.0
  0
LINE
  5
F0
  8
0
  6
CONTINUOUS
 62
     5
 10
1798.822613
 20
86.03563299999983
 30
0.0
 11
1798.822613
 21
212.552592
 31
0.0
  0
ARC
  5
F1
  8
0
  6
CONTINUOUS
 62
     7
 10
1857.822612872712
 20
132.0890340669376
 30
0.0
 40
2.000000000000071
 50
315.0
 51
0.0
  0
ARC
  5
F2
  8
0
  6
CONTINUOUS
 62
     7
 10
1814.775931933062
 20
89.04235312728814
 30
0.0
 40
1.999999999999758
 50
270.000000000009
 51
315.000000000009
  0
LINE
  5
F3
  8
0
  6
CONTINUOUS
 62
     7
 10
1702.523514
 20
105.088889
 30
0.0
 11
1696.523514
 21
105.088889
 31
0.0
  0
ARC
  5
F4
  8
0
  6
CONTINUOUS
 62
     7
 10
1695.523514
 20
190.995817
 30
0.0
 40
1.0
 50
0.0
 51
180.0
  0
LINE
  5
F5
  8
0
  6
CONTINUOUS
 62
     7
 10
1561.023514
 20
179.895167
 30
0.0
 11
1565.023514
 21
179.895167
 31
0.0
  0
LINE
  5
F6
  8
0
  6
CONTINUOUS
 62
     7
 10
1561.023514
 20
116.189539
 30
0.0
 11
1565.023514
 21
116.189539
 31
0.0
  0
LINE
  5
F7
  8
0
  6
CONTINUOUS
 62
     7
 10
1761.169176901816
 20
107.9140431676633
 30
0.0
 11
1781.455080504565
 21
87.62813956491492
 31
0.0
  0
LINE
  5
F8
  8
0
  6
CONTINUOUS
 62
     7
 10
1758.87107986296
 20
185.8725657934803
 30
0.0
 11
1738.408399564915
 21
165.4098854954353
 31
0.0
  0
LINE
  5
F9
  8
0
  6
CONTINUOUS
 62
     7
 10
1859.822613491609
 20
132.0890340669376
 30
0.0
 11
1859.822613491609
 21
163.995671933062
 31
0.0
  0
ARC
  5
FA
  8
0
  6
CONTINUOUS
 62
     7
 10
1739.822613127288
 20
163.9956719330622
 30
0.0
 40
1.999999999999758
 50
135.000000000009
 51
180.000000000009
  0
LINE
  5
FB
  8
0
  6
CONTINUOUS
 62
     7
 10
1838.950922832336
 20
110.3889169018164
 30
0.0
 11
1859.236826435085
 21
130.6748205045647
 31
0.0
  0
ARC
  5
FC
  8
0
  6
CONTINUOUS
 62
     7
 10
1695.523514
 20
105.088889
 30
0.0
 40
1.0
 50
180.0
 51
0.0
  0
ARC
  5
FD
  8
0
  6
CONTINUOUS
 62
     7
 10
1759.93174003474
 20
109.1514800347397
 30
0.0
 40
1.749999999999984
 50
315.0
 51
135.0
  0
ARC
  5
FE
  8
0
  6
CONTINUOUS
 62
     7
 10
1702.523514
 20
192.995817
 30
0.0
 40
2.0
 50
270.0
 51
0.0
  0
CIRCLE
  5
FF
  8
0
  6
CONTINUOUS
 62
     7
 10
1798.822613
 20
148.0423529999999
 30
0.0
 40
39.99999999999985
  0
TEXT
  5
100
  8
0
  6
CONTINUOUS
 62
     7
 10
1710.028635738402
 20
54.58031761910716
 30
0.0
 40
4.0
  1
KFEB-81DK
  0
LINE
  5
101
  8
0
  6
CONTINUOUS
 62
     7
 10
1709.523514
 20
209.042353
 30
0.0
 11
1709.523514
 21
87.04235299999999
 31
0.0
  0
LINE
  5
102
  8
0
  6
CONTINUOUS
 62
     7
 10
1565.023514
 20
87.042353
 30
0.0
 11
1565.023514
 21
209.042353
 31
0.0
  0
LINE
  5
103
  8
0
  6
CONTINUOUS
 62
     7
 10
1704.523514
 20
87.042353
 30
0.0
 11
1704.523514
 21
209.042353
 31
0.0
  0
LINE
  5
104
  8
0
  6
CONTINUOUS
 62
     7
 10
1561.023514
 20
209.042353
 30
0.0
 11
1561.023514
 21
87.04235299999999
 31
0.0
  0
TEXT
  5
105
  8
0
  6
CONTINUOUS
 62
     7
 10
1713.498405257794
 20
66.04098659322244
 30
0.0
 40
10.0
  1
ＫＦＥＢ－８１ＤＫ
 41
0.850394
  0
ENDSEC
  0
EOF
