  0
SECTION
  2
HEADER
  9
$ACADVER
  1
AC1014
  9
$ACADMAINTVER
 70
     9
  9
$DWGCODEPAGE
  3
ANSI_932
  9
$INSBASE
 10
0.0
 20
0.0
 30
0.0
  9
$EXTMIN
 10
-1132.25
 20
7.195454545454551
 30
0.0
  9
$EXTMAX
 10
-136.4999999999999
 20
312.25
 30
0.0
  9
$LIMMIN
 10
0.0
 20
0.0
  9
$LIMMAX
 10
12.0
 20
9.0
  9
$ORTHOMODE
 70
     0
  9
$REGENMODE
 70
     1
  9
$FILLMODE
 70
     1
  9
$QTEXTMODE
 70
     0
  9
$MIRRTEXT
 70
     1
  9
$DRAGMODE
 70
     2
  9
$LTSCALE
 40
1.0
  9
$OSMODE
 70
    37
  9
$ATTMODE
 70
     1
  9
$TEXTSIZE
 40
0.2
  9
$TRACEWID
 40
0.05
  9
$TEXTSTYLE
  7
STANDARD
  9
$CLAYER
  8
0
  9
$CELTYPE
  6
BYLAYER
  9
$CECOLOR
 62
   256
  9
$CELTSCALE
 40
1.0
  9
$DELOBJ
 70
     1
  9
$DISPSILH
 70
     0
  9
$DIMSCALE
 40
1.0
  9
$DIMASZ
 40
3.0
  9
$DIMEXO
 40
0.0625
  9
$DIMDLI
 40
0.38
  9
$DIMRND
 40
0.0
  9
$DIMDLE
 40
0.0
  9
$DIMEXE
 40
1.5
  9
$DIMTP
 40
0.0
  9
$DIMTM
 40
0.0
  9
$DIMTXT
 40
3.0
  9
$DIMCEN
 40
0.09
  9
$DIMTSZ
 40
0.0
  9
$DIMTOL
 70
     0
  9
$DIMLIM
 70
     0
  9
$DIMTIH
 70
     1
  9
$DIMTOH
 70
     1
  9
$DIMSE1
 70
     0
  9
$DIMSE2
 70
     0
  9
$DIMTAD
 70
     1
  9
$DIMZIN
 70
     0
  9
$DIMBLK
  1

  9
$DIMASO
 70
     1
  9
$DIMSHO
 70
     1
  9
$DIMPOST
  1

  9
$DIMAPOST
  1

  9
$DIMALT
 70
     0
  9
$DIMALTD
 70
     2
  9
$DIMALTF
 40
25.4
  9
$DIMLFAC
 40
1.0
  9
$DIMTOFL
 70
     0
  9
$DIMTVP
 40
0.0
  9
$DIMTIX
 70
     0
  9
$DIMSOXD
 70
     0
  9
$DIMSAH
 70
     0
  9
$DIMBLK1
  1

  9
$DIMBLK2
  1

  9
$DIMSTYLE
  2
STANDARD
  9
$DIMCLRD
 70
     0
  9
$DIMCLRE
 70
     0
  9
$DIMCLRT
 70
     0
  9
$DIMTFAC
 40
1.0
  9
$DIMGAP
 40
1.5
  9
$DIMJUST
 70
     0
  9
$DIMSD1
 70
     0
  9
$DIMSD2
 70
     0
  9
$DIMTOLJ
 70
     1
  9
$DIMTZIN
 70
     0
  9
$DIMALTZ
 70
     0
  9
$DIMALTTZ
 70
     0
  9
$DIMFIT
 70
     3
  9
$DIMUPT
 70
     0
  9
$DIMUNIT
 70
     2
  9
$DIMDEC
 70
     2
  9
$DIMTDEC
 70
     4
  9
$DIMALTU
 70
     2
  9
$DIMALTTD
 70
     2
  9
$DIMTXSTY
  7
ＭＳ_ゴシック
  9
$DIMAUNIT
 70
     0
  9
$LUNITS
 70
     2
  9
$LUPREC
 70
     4
  9
$SKETCHINC
 40
0.1
  9
$FILLETRAD
 40
0.5
  9
$AUNITS
 70
     0
  9
$AUPREC
 70
     0
  9
$MENU
  1
.
  9
$ELEVATION
 40
0.0
  9
$PELEVATION
 40
0.0
  9
$THICKNESS
 40
0.0
  9
$LIMCHECK
 70
     0
  9
$CHAMFERA
 40
0.0
  9
$CHAMFERB
 40
0.0
  9
$CHAMFERC
 40
0.0
  9
$CHAMFERD
 40
0.0
  9
$SKPOLY
 70
     0
  9
$TDCREATE
 40
2458992.658965937
  9
$TDUPDATE
 40
2458992.658966655
  9
$TDINDWG
 40
0.0000000116
  9
$TDUSRTIMER
 40
0.0000000116
  9
$USRTIMER
 70
     1
  9
$ANGBASE
 50
0.0
  9
$ANGDIR
 70
     0
  9
$PDMODE
 70
     0
  9
$PDSIZE
 40
0.0
  9
$PLINEWID
 40
0.0
  9
$COORDS
 70
     1
  9
$SPLFRAME
 70
     0
  9
$SPLINETYPE
 70
     6
  9
$SPLINESEGS
 70
     8
  9
$ATTDIA
 70
     0
  9
$ATTREQ
 70
     1
  9
$HANDLING
 70
     1
  9
$HANDSEED
  5
4E8
  9
$SURFTAB1
 70
     6
  9
$SURFTAB2
 70
     6
  9
$SURFTYPE
 70
     6
  9
$SURFU
 70
     6
  9
$SURFV
 70
     6
  9
$UCSNAME
  2

  9
$UCSORG
 10
0.0
 20
0.0
 30
0.0
  9
$UCSXDIR
 10
1.0
 20
0.0
 30
0.0
  9
$UCSYDIR
 10
0.0
 20
1.0
 30
0.0
  9
$PUCSNAME
  2

  9
$PUCSORG
 10
0.0
 20
0.0
 30
0.0
  9
$PUCSXDIR
 10
1.0
 20
0.0
 30
0.0
  9
$PUCSYDIR
 10
0.0
 20
1.0
 30
0.0
  9
$USERI1
 70
     0
  9
$USERI2
 70
     0
  9
$USERI3
 70
     0
  9
$USERI4
 70
     0
  9
$USERI5
 70
     0
  9
$USERR1
 40
0.0
  9
$USERR2
 40
0.0
  9
$USERR3
 40
0.0
  9
$USERR4
 40
0.0
  9
$USERR5
 40
0.0
  9
$WORLDVIEW
 70
     1
  9
$SHADEDGE
 70
     3
  9
$SHADEDIF
 70
    70
  9
$TILEMODE
 70
     1
  9
$MAXACTVP
 70
    64
  9
$PINSBASE
 10
0.0
 20
0.0
 30
0.0
  9
$PLIMCHECK
 70
     0
  9
$PEXTMIN
 10
1.000000000000000E+20
 20
1.000000000000000E+20
 30
1.000000000000000E+20
  9
$PEXTMAX
 10
-1.000000000000000E+20
 20
-1.000000000000000E+20
 30
-1.000000000000000E+20
  9
$PLIMMIN
 10
0.0
 20
0.0
  9
$PLIMMAX
 10
12.0
 20
9.0
  9
$UNITMODE
 70
     0
  9
$VISRETAIN
 70
     1
  9
$PLINEGEN
 70
     0
  9
$PSLTSCALE
 70
     1
  9
$TREEDEPTH
 70
  3020
  9
$PICKSTYLE
 70
     1
  9
$CMLSTYLE
  2
STANDARD
  9
$CMLJUST
 70
     0
  9
$CMLSCALE
 40
1.0
  9
$PROXYGRAPHICS
 70
     1
  9
$MEASUREMENT
 70
     1
  0
ENDSEC
  0
SECTION
  2
CLASSES
  0
CLASS
  1
ACDBDICTIONARYWDFLT
  2
AcDbDictionaryWithDefault
  3
ObjectDBX Classes
 90
        0
280
     0
281
     0
  0
CLASS
  1
VISUALSTYLE
  2
AcDbVisualStyle
  3
ObjectDBX Classes
 90
     4095
280
     0
281
     0
  0
CLASS
  1
MATERIAL
  2
AcDbMaterial
  3
ObjectDBX Classes
 90
     1153
280
     0
281
     0
  0
CLASS
  1
SCALE
  2
AcDbScale
  3
ObjectDBX Classes
 90
     1153
280
     0
281
     0
  0
CLASS
  1
TABLESTYLE
  2
AcDbTableStyle
  3
ObjectDBX Classes
 90
     4095
280
     0
281
     0
  0
CLASS
  1
MLEADERSTYLE
  2
AcDbMLeaderStyle
  3
ACDB_MLEADERSTYLE_CLASS
 90
     4095
280
     0
281
     0
  0
CLASS
  1
SUN
  2
AcDbSun
  3
SCENEOE
 90
     1153
280
     0
281
     0
  0
CLASS
  1
DICTIONARYVAR
  2
AcDbDictionaryVar
  3
ObjectDBX Classes
 90
        0
280
     0
281
     0
  0
CLASS
  1
XRECORD
  2
AcDbXrecord
  3
ObjectDBX Classes
 90
        0
280
     0
281
     0
  0
CLASS
  1
LWPOLYLINE
  2
AcDbPolyline
  3
ObjectDBX Classes
 90
        0
280
     0
281
     1
  0
CLASS
  1
HATCH
  2
AcDbHatch
  3
ObjectDBX Classes
 90
        0
280
     0
281
     1
  0
CLASS
  1
ACDBPLACEHOLDER
  2
AcDbPlaceHolder
  3
ObjectDBX Classes
 90
        0
280
     0
281
     0
  0
CLASS
  1
LAYOUT
  2
AcDbLayout
  3
ObjectDBX Classes
 90
        0
280
     0
281
     0
  0
ENDSEC
  0
SECTION
  2
TABLES
  0
TABLE
  2
VPORT
  5
8
102
{ACAD_XDICTIONARY
360
4DD
102
}
330
0
100
AcDbSymbolTable
 70
     1
  0
VPORT
  5
29
330
8
100
AcDbSymbolTableRecord
100
AcDbViewportTableRecord
  2
*ACTIVE
 70
     0
 10
0.0
 20
0.0
 11
1.0
 21
1.0
 12
-634.375
 22
159.7227272727273
 13
0.0
 23
0.0
 14
0.5
 24
0.5
 15
0.5
 25
0.5
 16
0.0
 26
0.0
 36
1.0
 17
0.0
 27
0.0
 37
0.0
 40
305.0545454545455
 41
1.6
 42
50.0
 43
0.0
 44
0.0
 50
0.0
 51
0.0
 71
     0
 72
   100
 73
     1
 74
     3
 75
     0
 76
     0
 77
     0
 78
     0
  0
ENDTAB
  0
TABLE
  2
LTYPE
  5
5
330
0
100
AcDbSymbolTable
 70
     2
  0
LTYPE
  5
14
330
5
100
AcDbSymbolTableRecord
100
AcDbLinetypeTableRecord
  2
BYBLOCK
 70
     0
  3

 72
    65
 73
     0
 40
0.0
  0
LTYPE
  5
15
330
5
100
AcDbSymbolTableRecord
100
AcDbLinetypeTableRecord
  2
BYLAYER
 70
     0
  3

 72
    65
 73
     0
 40
0.0
  0
LTYPE
  5
16
330
5
100
AcDbSymbolTableRecord
100
AcDbLinetypeTableRecord
  2
CONTINUOUS
 70
     0
  3
Solid line
 72
    65
 73
     0
 40
0.0
  0
LTYPE
  5
398
330
5
100
AcDbSymbolTableRecord
100
AcDbLinetypeTableRecord
  2
CENTER
 70
     0
  3

 72
    65
 73
     0
 40
0.0
  0
ENDTAB
  0
TABLE
  2
LAYER
  5
2
330
0
100
AcDbSymbolTable
 70
     1
  0
LAYER
  5
10
330
2
100
AcDbSymbolTableRecord
100
AcDbLayerTableRecord
  2
0
 70
     0
 62
     7
  6
CONTINUOUS
  0
ENDTAB
  0
TABLE
  2
STYLE
  5
3
330
0
100
AcDbSymbolTable
 70
     2
  0
STYLE
  5
11
330
3
100
AcDbSymbolTableRecord
100
AcDbTextStyleTableRecord
  2
STANDARD
 70
     0
 40
0.0
 41
1.0
 50
0.0
 71
     0
 42
0.2
  3
txt
  4

  0
STYLE
  5
6E
330
3
100
AcDbSymbolTableRecord
100
AcDbTextStyleTableRecord
  2
ＭＳ_ゴシック
 70
     0
 40
0.0
 41
1.0
 50
0.0
 71
     0
 42
0.2
  3
ＭＳ ゴシック.shx
  4

  0
ENDTAB
  0
TABLE
  2
VIEW
  5
6
330
0
100
AcDbSymbolTable
 70
     0
  0
ENDTAB
  0
TABLE
  2
UCS
  5
7
330
0
100
AcDbSymbolTable
 70
     0
  0
ENDTAB
  0
TABLE
  2
APPID
  5
9
330
0
100
AcDbSymbolTable
 70
     2
  0
APPID
  5
12
330
9
100
AcDbSymbolTableRecord
100
AcDbRegAppTableRecord
  2
ACAD
 70
     0
  0
APPID
  5
4E7
330
9
100
AcDbSymbolTableRecord
100
AcDbRegAppTableRecord
  2
ACAD_MLEADERVER
 70
     0
  0
ENDTAB
  0
TABLE
  2
DIMSTYLE
  5
A
330
0
100
AcDbSymbolTable
 70
     1
  0
DIMSTYLE
105
27
330
A
100
AcDbSymbolTableRecord
100
AcDbDimStyleTableRecord
  2
STANDARD
 70
     0
  3

  4

  5

  6

  7

 40
1.0
 41
0.18
 42
0.0625
 43
0.38
 44
0.18
 45
0.0
 46
0.0
 47
0.0
 48
0.0
140
0.18
141
0.09
142
0.0
143
25.4
144
1.0
145
0.0
146
1.0
147
0.09
 71
     0
 72
     0
 73
     1
 74
     1
 75
     0
 76
     0
 77
     0
 78
     0
170
     0
171
     2
172
     0
173
     0
174
     0
175
     0
176
     0
177
     0
178
     0
270
     2
271
     4
272
     4
273
     2
274
     2
340
11
275
     0
280
     0
281
     0
282
     0
283
     1
284
     0
285
     0
286
     0
287
     3
288
     0
  0
ENDTAB
  0
TABLE
  2
BLOCK_RECORD
  5
1
330
0
100
AcDbSymbolTable
 70
     0
  0
BLOCK_RECORD
  5
1F
330
1
100
AcDbSymbolTableRecord
100
AcDbBlockTableRecord
  2
*MODEL_SPACE
  0
BLOCK_RECORD
  5
1B
330
1
100
AcDbSymbolTableRecord
100
AcDbBlockTableRecord
  2
*PAPER_SPACE
  0
ENDTAB
  0
ENDSEC
  0
SECTION
  2
BLOCKS
  0
BLOCK
  5
20
330
1F
100
AcDbEntity
  8
0
100
AcDbBlockBegin
  2
*MODEL_SPACE
 70
     0
 10
0.0
 20
0.0
 30
0.0
  3
*MODEL_SPACE
  1

  0
ENDBLK
  5
21
330
1F
100
AcDbEntity
  8
0
100
AcDbBlockEnd
  0
BLOCK
  5
1C
330
1B
100
AcDbEntity
 67
     1
  8
0
100
AcDbBlockBegin
  2
*PAPER_SPACE
 70
     0
 10
0.0
 20
0.0
 30
0.0
  3
*PAPER_SPACE
  1

  0
ENDBLK
  5
1D
330
1B
100
AcDbEntity
 67
     1
  8
0
100
AcDbBlockEnd
  0
ENDSEC
  0
SECTION
  2
ENTITIES
  0
ARC
  5
6F
330
1F
100
AcDbEntity
  8
0
  6
CONTINUOUS
 62
     7
100
AcDbCircle
 10
290.6584500849352
 20
305.7043112963726
 30
0.0
 40
0.0455366311411547
210
0.0
220
0.0
230
-1.0
100
AcDbArc
 50
3.750536163103654
 51
169.5406319745154
  0
LINE
  5
70
330
1F
100
AcDbEntity
  8
0
  6
CONTINUOUS
 62
     7
100
AcDbLine
 10
-300.1843151188922
 20
303.7500000000084
 30
0.0
 11
-299.829325568018
 21
303.749999999995
 31
0.0
  0
ARC
  5
71
330
1F
100
AcDbEntity
  8
0
  6
CONTINUOUS
 62
     7
100
AcDbCircle
 10
-262.4999999999999
 20
186.2499999999988
 30
0.0
 40
102.5000000000507
100
AcDbArc
 50
169.0
 51
169.2195350240914
  0
ARC
  5
72
330
1F
100
AcDbEntity
  8
0
  6
CONTINUOUS
 62
     7
100
AcDbCircle
 10
-262.4999999999999
 20
186.2499999999986
 30
0.0
 40
102.5
100
AcDbArc
 50
161.2195350240912
 51
162.7804649759088
  0
ARC
  5
73
330
1F
100
AcDbEntity
  8
0
  6
CONTINUOUS
 62
     7
100
AcDbCircle
 10
-262.4999999999999
 20
186.2499999999986
 30
0.0
 40
102.5
100
AcDbArc
 50
169.2195350240912
 51
170.7804649759089
  0
LINE
  5
74
330
1F
100
AcDbEntity
  8
0
  6
CONTINUOUS
 62
     7
100
AcDbLine
 10
-370.2335833833791
 20
207.1912872425742
 30
0.0
 11
-363.1167863033837
 21
205.8079220260943
 31
0.0
  0
LINE
  5
75
330
1F
100
AcDbEntity
  8
0
  6
CONTINUOUS
 62
     7
100
AcDbLine
 10
-371.431940142633
 20
199.6251604387135
 30
0.0
 11
-364.2359805432336
 21
198.7416076990262
 31
0.0
  0
LINE
  5
76
330
1F
100
AcDbEntity
  8
0
  6
CONTINUOUS
 62
     7
100
AcDbLine
 10
-296.9654225526874
 20
307.7499999998877
 30
0.0
 11
-296.9654225530247
 21
298.7499999998877
 31
0.0
  0
ARC
  5
77
330
1F
100
AcDbEntity
  8
0
  6
CONTINUOUS
 62
     7
100
AcDbCircle
 10
-280.3206820713
 20
300.7952274596398
 30
0.0
 40
0.0447035534788018
100
AcDbArc
 50
192.9464445384443
 51
354.2753414917272
  0
ARC
  5
78
330
1F
100
AcDbEntity
  8
0
  6
CONTINUOUS
 62
     7
100
AcDbCircle
 10
-262.4999999999999
 20
186.2499999999986
 30
0.0
 40
102.5
100
AcDbArc
 50
173.2195350240913
 51
174.7804649759089
  0
LINE
  5
79
330
1F
100
AcDbEntity
  8
0
  6
CONTINUOUS
 62
     7
100
AcDbLine
 10
-298.4269210211542
 20
302.749999999876
 30
0.0
 11
-297.965422553039
 21
302.7499999998581
 31
0.0
  0
LINE
  5
7A
330
1F
100
AcDbEntity
  8
0
  6
CONTINUOUS
 62
     7
100
AcDbLine
 10
-297.9654225530015
 20
303.749999999858
 30
0.0
 11
-298.4269210211167
 21
303.749999999876
 31
0.0
  0
LINE
  5
7B
330
1F
100
AcDbEntity
  8
0
  6
CONTINUOUS
 62
     7
100
AcDbLine
 10
-299.8293255680554
 20
302.7499999999466
 30
0.0
 11
-298.4269210211542
 21
302.749999999876
 31
0.0
  0
LINE
  5
7C
330
1F
100
AcDbEntity
  8
0
  6
CONTINUOUS
 62
     7
100
AcDbLine
 10
-368.5103594352232
 20
214.6553901999999
 30
0.0
 11
-361.5073971946276
 21
212.7789521230067
 31
0.0
  0
ARC
  5
7D
330
1F
100
AcDbEntity
  8
0
  6
CONTINUOUS
 62
     7
100
AcDbCircle
 10
279.5298712673406
 20
305.7033551044495
 30
0.0
 40
0.0458016152927439
210
0.0
220
0.0
230
-1.0
100
AcDbArc
 50
0.2035469410190985
 51
161.2838249156482
  0
LINE
  5
7E
330
1F
100
AcDbEntity
  8
0
  6
CONTINUOUS
 62
     7
100
AcDbLine
 10
-285.9279025825639
 20
305.7170840497198
 30
0.0
 11
-285.8492117904318
 21
305.7219202337445
 31
0.0
  0
ARC
  5
7F
330
1F
100
AcDbEntity
  8
0
  6
CONTINUOUS
 62
     7
100
AcDbCircle
 10
-262.4999999999999
 20
186.2499999999988
 30
0.0
 40
102.5000000000497
100
AcDbArc
 50
161.0000000000001
 51
161.2195350240914
  0
ARC
  5
80
330
1F
100
AcDbEntity
  8
0
  6
CONTINUOUS
 62
     7
100
AcDbCircle
 10
-282.9999999999996
 20
74.10834850511664
 30
0.0
 40
0.5000000000000004
100
AcDbArc
 50
0.0000000000000035
 51
79.64045882659599
  0
LINE
  5
81
330
1F
100
AcDbEntity
  8
0
  6
CONTINUOUS
 62
     7
100
AcDbLine
 10
-277.4999999999996
 20
299.1913564643139
 30
0.0
 11
-277.4999999999996
 21
299.0440890939788
 31
0.0
  0
LINE
  5
82
330
1F
100
AcDbEntity
  8
0
  6
CONTINUOUS
 62
     7
100
AcDbLine
 10
-366.2706636720231
 20
221.9811049516711
 30
0.0
 11
-359.4156539989282
 21
219.6207358318568
 31
0.0
  0
LINE
  5
83
330
1F
100
AcDbEntity
  8
0
  6
CONTINUOUS
 62
     7
100
AcDbLine
 10
-372.0995914393123
 20
180.5061288023358
 30
0.0
 11
-364.8595273123419
 21
180.8855644850971
 31
0.0
  0
ARC
  5
84
330
1F
100
AcDbEntity
  8
0
  6
CONTINUOUS
 62
     7
100
AcDbCircle
 10
-262.4999999999999
 20
186.2499999999988
 30
0.0
 40
102.5000000000512
100
AcDbArc
 50
177.0000000000002
 51
177.2195350240914
  0
SPLINE
  5
85
330
1F
100
AcDbEntity
  8
0
  6
CONTINUOUS
 62
     7
100
AcDbSpline
210
0.0
220
0.0
230
1.0
 70
     8
 71
     3
 72
     9
 73
     5
 74
     0
 42
0.000000001
 43
0.0001
 40
0.2374805090693563
 40
0.2374805090693563
 40
0.2374805090693563
 40
0.2374805090693563
 40
0.2375772266883808
 40
0.2382016373567392
 40
0.2382016373567392
 40
0.2382016373567392
 40
0.2382016373567392
 10
-296.2677190940377
 20
300.7899903147352
 30
0.0
 10
-296.2634626944764
 20
300.7824706923653
 30
0.0
 10
-296.2317269036555
 20
300.7342773807061
 30
0.0
 10
-296.1999911128321
 20
300.7459353879154
 30
0.0
 10
-296.1725117215691
 20
300.7989472461505
 30
0.0
  0
ARC
  5
86
330
1F
100
AcDbEntity
  8
0
  6
CONTINUOUS
 62
     7
100
AcDbCircle
 10
-288.2654225528748
 20
303.249999999554
 30
0.0
 40
11.98957880828181
100
AcDbArc
 50
186.2246754926533
 51
191.4219971741598
  0
SPLINE
  5
87
330
1F
100
AcDbEntity
  8
0
  6
CONTINUOUS
 62
     7
100
AcDbSpline
210
0.0
220
0.0
230
1.0
 70
     8
 71
     3
 72
     9
 73
     5
 74
     0
 42
0.000000001
 43
0.0001
 40
0.1411771623465533
 40
0.1411771623465533
 40
0.1411771623465533
 40
0.1411771623465533
 40
0.1417802125111214
 40
0.1418517313649067
 40
0.1418517313649067
 40
0.1418517313649067
 40
0.1418517313649067
 10
-283.5470679364447
 20
300.7899482649161
 30
0.0
 10
-283.5205285894077
 20
300.7437024893911
 30
0.0
 10
-283.490841803247
 20
300.7368890050823
 30
0.0
 10
-283.4611550170847
 20
300.7823905448794
 30
0.0
 10
-283.4580075779626
 20
300.787794215667
 30
0.0
  0
ARC
  5
88
330
1F
100
AcDbEntity
  8
0
  6
CONTINUOUS
 62
     7
100
AcDbCircle
 10
-277.9999999999997
 20
299.1913564643139
 30
0.0
 40
0.499999999999964
100
AcDbArc
 50
277.8144197813919
 51
359.9999999999985
  0
LINE
  5
89
330
1F
100
AcDbEntity
  8
0
  6
CONTINUOUS
 62
     7
100
AcDbLine
 10
-298.4269210211167
 20
303.749999999876
 30
0.0
 11
-299.829325568018
 21
303.7499999999466
 31
0.0
  0
LINE
  5
8A
330
1F
100
AcDbEntity
  8
0
  6
CONTINUOUS
 62
     7
100
AcDbLine
 10
-281.1544427352695
 20
305.7221926609015
 30
0.0
 11
-281.067452931019
 21
305.7022754793293
 31
0.0
  0
LINE
  5
8B
330
1F
100
AcDbEntity
  8
0
  6
CONTINUOUS
 62
     7
100
AcDbLine
 10
-300.0175503564635
 20
300.8756596516517
 30
0.0
 11
-300.0175503564654
 21
300.8235845183156
 31
0.0
  0
LINE
  5
8C
330
1F
100
AcDbEntity
  8
0
  6
CONTINUOUS
 62
     7
100
AcDbLine
 10
-278.7820559124203
 20
300.7991117768736
 30
0.0
 11
-278.6945478276701
 21
300.7773713149647
 31
0.0
  0
LINE
  5
8D
330
1F
100
AcDbEntity
  8
0
  6
CONTINUOUS
 62
     7
100
AcDbLine
 10
-293.0819725106474
 20
300.7807791059439
 30
0.0
 11
-293.0045919027008
 21
300.7782293395206
 31
0.0
  0
ARC
  5
8E
330
1F
100
AcDbEntity
  8
0
  6
CONTINUOUS
 62
     7
100
AcDbCircle
 10
-262.4999999999999
 20
186.2499999999988
 30
0.0
 40
102.500000000051
100
AcDbArc
 50
173.0
 51
173.2195350240913
  0
ARC
  5
8F
330
1F
100
AcDbEntity
  8
0
  6
CONTINUOUS
 62
     7
100
AcDbCircle
 10
-262.4999999999999
 20
186.2499999999988
 30
0.0
 40
102.5000000000503
100
AcDbArc
 50
165.0
 51
165.2195350240914
  0
ARC
  5
90
330
1F
100
AcDbEntity
  8
0
  6
CONTINUOUS
 62
     7
100
AcDbCircle
 10
262.4999999999999
 20
186.2499999999988
 30
0.0
 40
102.4999999999981
210
0.0
220
0.0
230
-1.0
100
AcDbArc
 50
357.0000000000001
 51
357.2195350240912
  0
ARC
  5
91
330
1F
100
AcDbEntity
  8
0
  6
CONTINUOUS
 62
     7
100
AcDbCircle
 10
262.4999999999999
 20
186.2499999999986
 30
0.0
 40
102.5
210
0.0
220
0.0
230
-1.0
100
AcDbArc
 50
349.2195350240912
 51
350.7804649759087
  0
SPLINE
  5
92
330
1F
100
AcDbEntity
  8
0
  6
CONTINUOUS
 62
     7
100
AcDbSpline
210
0.0
220
0.0
230
1.0
 70
     8
 71
     3
 72
     9
 73
     5
 74
     0
 42
0.000000001
 43
0.0001
 40
0.2254544868490685
 40
0.2254544868490685
 40
0.2254544868490685
 40
0.2254544868490685
 40
0.2256495920817935
 40
0.2261929951532678
 40
0.2261929951532678
 40
0.2261929951532678
 40
0.2261929951532678
 10
-294.6822712747162
 20
300.7986180445168
 30
0.0
 10
-294.6736849815946
 20
300.7819053283972
 30
0.0
 10
-294.6411843219039
 20
300.7346996098714
 30
0.0
 10
-294.6086836622105
 20
300.7504993716806
 30
0.0
 10
-294.5847692956386
 20
300.7946334057697
 30
0.0
  0
SPLINE
  5
93
330
1F
100
AcDbEntity
  8
0
  6
CONTINUOUS
 62
     7
100
AcDbSpline
210
0.0
220
0.0
230
1.0
 70
     8
 71
     3
 72
     9
 73
     5
 74
     0
 42
0.000000001
 43
0.0001
 40
0.2314535737168595
 40
0.2314535737168595
 40
0.2314535737168595
 40
0.2314535737168595
 40
0.2316181061445894
 40
0.2322159372568586
 40
0.2322159372568586
 40
0.2322159372568586
 40
0.2322159372568586
 10
-295.4774536325216
 20
305.7011205552668
 30
0.0
 10
-295.470212803396
 20
305.7152542415648
 30
0.0
 10
-295.4366623100327
 20
305.7667299795602
 30
0.0
 10
-295.4031118166722
 20
305.7511797976931
 30
0.0
 10
-295.3768021524377
 20
305.6996952471313
 30
0.0
  0
LINE
  5
94
330
1F
100
AcDbEntity
  8
0
  6
CONTINUOUS
 62
     7
100
AcDbLine
 10
-286.7195178798436
 20
300.7777072606595
 30
0.0
 11
-286.6413135353162
 21
300.782627223757
 31
0.0
  0
LINE
  5
95
330
1F
100
AcDbEntity
  8
0
  6
CONTINUOUS
 62
     7
100
AcDbLine
 10
-300.1843151188324
 20
304.5500000000006
 30
0.0
 11
-300.1843151188923
 21
303.7499999999884
 31
0.0
  0
ARC
  5
96
330
1F
100
AcDbEntity
  8
0
  6
CONTINUOUS
 62
     7
100
AcDbCircle
 10
-262.4999999999999
 20
186.2499999999986
 30
0.0
 40
102.5
100
AcDbArc
 50
165.2195350240912
 51
166.7804649759088
  0
LINE
  5
97
330
1F
100
AcDbEntity
  8
0
  6
CONTINUOUS
 62
     7
100
AcDbLine
 10
-285.1401012930591
 20
300.7953622172384
 30
0.0
 11
-285.0545465445563
 21
300.7775147173294
 31
0.0
  0
LINE
  5
98
330
1F
100
AcDbEntity
  8
0
  6
CONTINUOUS
 62
     7
100
AcDbLine
 10
-299.8293255680554
 20
302.749999999995
 30
0.0
 11
-300.1843151189296
 21
302.7500000000084
 31
0.0
  0
LINE
  5
99
330
1F
100
AcDbEntity
  8
0
  6
CONTINUOUS
 62
     7
100
AcDbLine
 10
-277.982182223031
 20
305.7098631592256
 30
0.0
 11
-277.8994503022867
 21
305.7224705258785
 31
0.0
  0
LINE
  5
9A
330
1F
100
AcDbEntity
  8
0
  6
CONTINUOUS
 62
     7
100
AcDbLine
 10
-300.0175503562836
 20
305.6764154816886
 30
0.0
 11
-300.0175503562855
 21
305.6243403483371
 31
0.0
  0
LINE
  5
9B
330
1F
100
AcDbEntity
  8
0
  6
CONTINUOUS
 62
     7
100
AcDbLine
 10
-297.9654225528748
 20
302.7499999998581
 30
0.0
 11
-297.9654225528373
 21
303.749999999858
 31
0.0
  0
SPLINE
  5
9C
330
1F
100
AcDbEntity
  8
0
  6
CONTINUOUS
 62
     7
100
AcDbSpline
210
0.0
220
0.0
230
1.0
 70
     8
 71
     3
 72
     9
 73
     5
 74
     0
 42
0.000000001
 43
0.0001
 40
0.1290835814575366
 40
0.1290835814575366
 40
0.1290835814575366
 40
0.1290835814575366
 40
0.1297003607715103
 40
0.1297584306971403
 40
0.1297584306971403
 40
0.1297584306971403
 40
0.1297584306971403
 10
-281.9504430352042
 20
300.7792716445853
 30
0.0
 10
-281.9232994885795
 20
300.7388704382664
 30
0.0
 10
-281.8936003702952
 20
300.7408425767703
 30
0.0
 10
-281.8639012520093
 20
300.7949056366997
 30
0.0
 10
-281.8613456803513
 20
300.799938478033
 30
0.0
  0
SPLINE
  5
9D
330
1F
100
AcDbEntity
  8
0
  6
CONTINUOUS
 62
     7
100
AcDbSpline
210
0.0
220
0.0
230
1.0
 70
     8
 71
     3
 72
     9
 73
     5
 74
     0
 42
0.000000001
 43
0.0001
 40
0.135143644057754
 40
0.135143644057754
 40
0.135143644057754
 40
0.135143644057754
 40
0.1357649806525559
 40
0.1358165028865544
 40
0.1358165028865544
 40
0.1358165028865544
 40
0.1358165028865544
 10
-282.7502634625835
 20
305.713118432522
 30
0.0
 10
-282.7229193567774
 20
305.7588664906713
 30
0.0
 10
-282.6933078335549
 20
305.762164543776
 30
0.0
 10
-282.6636963103339
 20
305.7135383629154
 30
0.0
 10
-282.6614288929157
 20
305.7095138170662
 30
0.0
  0
ARC
  5
9E
330
1F
100
AcDbEntity
  8
0
  6
CONTINUOUS
 62
     7
100
AcDbCircle
 10
-288.2654225528748
 20
303.249999999554
 30
0.0
 40
11.98957880828179
100
AcDbArc
 50
168.5780028215454
 51
173.7753245030518
  0
LINE
  5
9F
330
1F
100
AcDbEntity
  8
0
  6
CONTINUOUS
 62
     7
100
AcDbLine
 10
-287.5164790701953
 20
305.7194185571755
 30
0.0
 11
-287.430708546271
 21
305.7077162596752
 31
0.0
  0
ARC
  5
A0
330
1F
100
AcDbEntity
  8
0
  6
CONTINUOUS
 62
     7
100
AcDbCircle
 10
-288.2696113454255
 20
300.7989265911689
 30
0.0
 40
0.0476862459282751
100
AcDbArc
 50
193.4652900408222
 51
0.7004498019921357
  0
LINE
  5
A1
330
1F
100
AcDbEntity
  8
0
  6
CONTINUOUS
 62
     7
100
AcDbLine
 10
-292.2849737725925
 20
305.722162695579
 30
0.0
 11
-292.2097588877778
 21
305.7220819143094
 31
0.0
  0
LINE
  5
A2
330
1F
100
AcDbEntity
  8
0
  6
CONTINUOUS
 62
     7
100
AcDbLine
 10
-366.2706636720231
 20
150.5188950483265
 30
0.0
 11
-359.4156539989282
 21
152.8792641681408
 31
0.0
  0
ARC
  5
A3
330
1F
100
AcDbEntity
  8
0
  6
CONTINUOUS
 62
     7
100
AcDbCircle
 10
262.4999999999999
 20
186.2499999999988
 30
0.0
 40
102.4999999999985
210
0.0
220
0.0
230
-1.0
100
AcDbArc
 50
349.0000000000001
 51
349.2195350240912
  0
LINE
  5
A4
330
1F
100
AcDbEntity
  8
0
  6
CONTINUOUS
 62
     7
100
AcDbLine
 10
-367.4544469669412
 20
218.3377945933186
 30
0.0
 11
-360.5212374862093
 21
216.2180997340787
 31
0.0
  0
ARC
  5
A5
330
1F
100
AcDbEntity
  8
0
  6
CONTINUOUS
 62
     7
100
AcDbCircle
 10
190.2187550874567
 20
247.8975598372942
 30
0.0
 40
0.9999999999999959
210
0.0
220
0.0
230
-1.0
100
AcDbArc
 50
319.5396493908629
 51
48.3333333333315
  0
LINE
  5
A6
330
1F
100
AcDbEntity
  8
0
  6
CONTINUOUS
 62
     7
100
AcDbLine
 10
-372.0995914393123
 20
191.9938711976617
 30
0.0
 11
-364.8595273123419
 21
191.6144355149004
 31
0.0
  0
LINE
  5
A7
330
1F
100
AcDbEntity
  8
0
  6
CONTINUOUS
 62
     7
100
AcDbLine
 10
-371.431940142633
 20
172.8748395612841
 30
0.0
 11
-364.2359805432336
 21
173.7583923009714
 31
0.0
  0
ARC
  5
A8
330
1F
100
AcDbEntity
  8
0
  6
CONTINUOUS
 62
     7
100
AcDbCircle
 10
-262.4999999999999
 20
186.2500000000013
 30
0.0
 40
94.00000000000001
100
AcDbArc
 50
302.8729827241962
 51
308.7936839424705
  0
LINE
  5
A9
330
1F
100
AcDbEntity
  8
0
  6
CONTINUOUS
 62
     7
100
AcDbLine
 10
-371.8323681155671
 20
195.8153427665541
 30
0.0
 11
-364.609956554402
 21
195.1834636316336
 31
0.0
  0
LINE
  5
AA
330
1F
100
AcDbEntity
  8
0
  6
CONTINUOUS
 62
     7
100
AcDbLine
 10
-232.8477678583514
 20
285.3225269949921
 30
0.0
 11
-232.8344641655042
 21
285.3721770526261
 31
0.0
  0
ARC
  5
AB
330
1F
100
AcDbEntity
  8
0
  6
CONTINUOUS
 62
     7
100
AcDbCircle
 10
262.4999999999999
 20
186.2499999999986
 30
0.0
 40
102.5
210
0.0
220
0.0
230
-1.0
100
AcDbArc
 50
353.2195350240913
 51
354.7804649759088
  0
ARC
  5
AC
330
1F
100
AcDbEntity
  8
0
  6
CONTINUOUS
 62
     7
100
AcDbCircle
 10
-223.0443294580512
 20
99.83096238626203
 30
0.0
 40
0.9999999999999963
100
AcDbArc
 50
114.5396493908627
 51
203.3333333333345
  0
ARC
  5
AD
330
1F
100
AcDbEntity
  8
0
  6
CONTINUOUS
 62
     7
100
AcDbCircle
 10
262.4999999999999
 20
186.2499999999988
 30
0.0
 40
102.4999999999994
210
0.0
220
0.0
230
-1.0
100
AcDbArc
 50
340.9999999999999
 51
341.219535024091
  0
ARC
  5
AE
330
1F
100
AcDbEntity
  8
0
  6
CONTINUOUS
 62
     7
100
AcDbCircle
 10
184.2452670383721
 20
240.1127586473635
 30
0.0
 40
0.9999999999999984
210
0.0
220
0.0
230
-1.0
100
AcDbArc
 50
236.6666666666668
 51
325.4603506091368
  0
ARC
  5
AF
330
1F
100
AcDbEntity
  8
0
  6
CONTINUOUS
 62
     7
100
AcDbCircle
 10
192.8779385499124
 20
250.8856601222581
 30
0.0
 40
1.000000000000022
210
0.0
220
0.0
230
-1.0
100
AcDbArc
 50
228.3333333333335
 51
317.1270172758036
  0
LINE
  5
B0
330
1F
100
AcDbEntity
  8
0
  6
CONTINUOUS
 62
     7
100
AcDbLine
 10
-370.8987953803143
 20
203.4186825381638
 30
0.0
 11
-363.7380549109997
 21
202.2845326666222
 31
0.0
  0
LINE
  5
B1
330
1F
100
AcDbEntity
  8
0
  6
CONTINUOUS
 62
     7
100
AcDbLine
 10
-369.4371146101776
 20
210.9383782142375
 30
0.0
 11
-362.3729316404848
 21
209.3074830702446
 31
0.0
  0
ARC
  5
B2
330
1F
100
AcDbEntity
  8
0
  6
CONTINUOUS
 62
     7
100
AcDbCircle
 10
262.4999999999999
 20
186.2499999999988
 30
0.0
 40
102.4999999999982
210
0.0
220
0.0
230
-1.0
100
AcDbArc
 50
352.9999999999999
 51
353.219535024091
  0
ARC
  5
B3
330
1F
100
AcDbEntity
  8
0
  6
CONTINUOUS
 62
     7
100
AcDbCircle
 10
262.4999999999999
 20
186.2499999999986
 30
0.0
 40
102.5
210
0.0
220
0.0
230
-1.0
100
AcDbArc
 50
345.2195350240912
 51
346.7804649759088
  0
ARC
  5
B4
330
1F
100
AcDbEntity
  8
0
  6
CONTINUOUS
 62
     7
100
AcDbCircle
 10
262.4999999999999
 20
186.2499999999988
 30
0.0
 40
102.4999999999984
210
0.0
220
0.0
230
-1.0
100
AcDbArc
 50
8.999999999999984
 51
9.219535024091067
  0
LINE
  5
B5
330
1F
100
AcDbEntity
  8
0
  6
CONTINUOUS
 62
     7
100
AcDbLine
 10
-372.2332845434119
 20
188.1654016064906
 30
0.0
 11
-364.9843887535282
 21
188.0388716598203
 31
0.0
  0
ARC
  5
B6
330
1F
100
AcDbEntity
  8
0
  6
CONTINUOUS
 62
     7
100
AcDbCircle
 10
262.4999999999999
 20
186.2499999999988
 30
0.0
 40
102.4999999999981
210
0.0
220
0.0
230
-1.0
100
AcDbArc
 50
4.999999999999992
 51
5.219535024091064
  0
ARC
  5
B7
330
1F
100
AcDbEntity
  8
0
  6
CONTINUOUS
 62
     7
100
AcDbCircle
 10
262.4999999999999
 20
186.2499999999986
 30
0.0
 40
102.5
210
0.0
220
0.0
230
-1.0
100
AcDbArc
 50
357.2195350240913
 51
358.7804649759088
  0
ARC
  5
B8
330
1F
100
AcDbEntity
  8
0
  6
CONTINUOUS
 62
     7
100
AcDbCircle
 10
262.4999999999999
 20
186.2499999999986
 30
0.0
 40
102.5
210
0.0
220
0.0
230
-1.0
100
AcDbArc
 50
341.2195350240912
 51
342.7804649759088
  0
ARC
  5
B9
330
1F
100
AcDbEntity
  8
0
  6
CONTINUOUS
 62
     7
100
AcDbCircle
 10
262.4999999999999
 20
186.2499999999988
 30
0.0
 40
102.499999999998
210
0.0
220
0.0
230
-1.0
100
AcDbArc
 50
0.9999999999999863
 51
1.219535024091056
  0
LINE
  5
BA
330
1F
100
AcDbEntity
  8
0
  6
CONTINUOUS
 62
     7
100
AcDbLine
 10
-370.2335833833791
 20
165.3087127574233
 30
0.0
 11
-363.1167863033837
 21
166.6920779739033
 31
0.0
  0
ARC
  5
BB
330
1F
100
AcDbEntity
  8
0
  6
CONTINUOUS
 62
     7
100
AcDbCircle
 10
-262.4999999999999
 20
186.2500000000013
 30
0.0
 40
94.00000000000001
100
AcDbArc
 50
319.5396493908629
 51
325.4603506091372
  0
ARC
  5
BC
330
1F
100
AcDbEntity
  8
0
  6
CONTINUOUS
 62
     7
100
AcDbCircle
 10
182.0472311260889
 20
135.7291925982907
 30
0.0
 40
0.9999999999999984
210
0.0
220
0.0
230
-1.0
100
AcDbArc
 50
303.333333333333
 51
32.12701727580389
  0
ARC
  5
BD
330
1F
100
AcDbEntity
  8
0
  6
CONTINUOUS
 62
     7
100
AcDbCircle
 10
-262.4999999999999
 20
186.2499999999986
 30
0.0
 40
102.5
100
AcDbArc
 50
177.2195350240912
 51
178.7804649759089
  0
ARC
  5
BE
330
1F
100
AcDbEntity
  8
0
  6
CONTINUOUS
 62
     7
100
AcDbCircle
 10
262.4999999999999
 20
186.2499999999988
 30
0.0
 40
102.4999999999992
210
0.0
220
0.0
230
-1.0
100
AcDbArc
 50
16.99999999999997
 51
17.21953502409104
  0
ARC
  5
BF
330
1F
100
AcDbEntity
  8
0
  6
CONTINUOUS
 62
     7
100
AcDbCircle
 10
262.4999999999999
 20
186.2499999999988
 30
0.0
 40
102.4999999999989
210
0.0
220
0.0
230
-1.0
100
AcDbArc
 50
345.0
 51
345.2195350240911
  0
ARC
  5
C0
330
1F
100
AcDbEntity
  8
0
  6
CONTINUOUS
 62
     7
100
AcDbCircle
 10
262.4999999999999
 20
186.2499999999988
 30
0.0
 40
102.4999999999987
210
0.0
220
0.0
230
-1.0
100
AcDbArc
 50
12.99999999999997
 51
13.21953502409105
  0
LINE
  5
C1
330
1F
100
AcDbEntity
  8
0
  6
CONTINUOUS
 62
     7
100
AcDbLine
 10
-368.5103594352232
 20
157.8446097999976
 30
0.0
 11
-361.5073971946276
 21
159.7210478769909
 31
0.0
  0
ARC
  5
C2
330
1F
100
AcDbEntity
  8
0
  6
CONTINUOUS
 62
     7
100
AcDbCircle
 10
202.980799836512
 20
112.2063317231098
 30
0.0
 40
1.000000000000002
210
0.0
220
0.0
230
-1.0
100
AcDbArc
 50
51.20631605753016
 51
139.9999999999997
  0
ARC
  5
C3
330
1F
100
AcDbEntity
  8
0
  6
CONTINUOUS
 62
     7
100
AcDbCircle
 10
190.2187550874567
 20
124.6024401627084
 30
0.0
 40
0.9999999999999905
210
0.0
220
0.0
230
-1.0
100
AcDbArc
 50
311.6666666666672
 51
40.46035060913675
  0
ARC
  5
C4
330
1F
100
AcDbEntity
  8
0
  6
CONTINUOUS
 62
     7
100
AcDbCircle
 10
199.9166220640361
 20
257.7225178381465
 30
0.0
 40
1.000000000000006
210
0.0
220
0.0
230
-1.0
100
AcDbArc
 50
311.2063160575295
 51
40.00000000000171
  0
ARC
  5
C5
330
1F
100
AcDbEntity
  8
0
  6
CONTINUOUS
 62
     7
100
AcDbCircle
 10
182.0472311260889
 20
236.7708074017118
 30
0.0
 40
0.9999999999999848
210
0.0
220
0.0
230
-1.0
100
AcDbArc
 50
327.8729827241964
 51
56.66666666666799
  0
ARC
  5
C6
330
1F
100
AcDbEntity
  8
0
  6
CONTINUOUS
 62
     7
100
AcDbCircle
 10
-262.4999999999999
 20
186.2500000000013
 30
0.0
 40
94.00000000000003
100
AcDbArc
 50
311.2063160575295
 51
317.1270172758038
  0
ARC
  5
C7
330
1F
100
AcDbEntity
  8
0
  6
CONTINUOUS
 62
     7
100
AcDbCircle
 10
262.4999999999999
 20
186.2500000000013
 30
0.0
 40
93.99999999999997
210
0.0
220
0.0
230
-1.0
100
AcDbArc
 50
131.2063160575295
 51
137.1270172758037
  0
ARC
  5
C8
330
1F
100
AcDbEntity
  8
0
  6
CONTINUOUS
 62
     7
100
AcDbCircle
 10
262.4999999999999
 20
186.2500000000013
 30
0.0
 40
94.00000000000001
210
0.0
220
0.0
230
-1.0
100
AcDbArc
 50
139.5396493908629
 51
145.4603506091372
  0
ARC
  5
C9
330
1F
100
AcDbEntity
  8
0
  6
CONTINUOUS
 62
     7
100
AcDbCircle
 10
184.2452670383721
 20
132.3872413526391
 30
0.0
 40
1.000000000000002
210
0.0
220
0.0
230
-1.0
100
AcDbArc
 50
34.539649390863
 51
123.3333333333314
  0
ARC
  5
CA
330
1F
100
AcDbEntity
  8
0
  6
CONTINUOUS
 62
     7
100
AcDbCircle
 10
-223.0443294580512
 20
272.6690376137405
 30
0.0
 40
1.000000000000013
100
AcDbArc
 50
156.6666666666664
 51
245.4603506091374
  0
ARC
  5
CB
330
1F
100
AcDbEntity
  8
0
  6
CONTINUOUS
 62
     7
100
AcDbCircle
 10
-214.3405115765101
 20
104.3618831893954
 30
0.0
 40
0.9999999999999802
100
AcDbArc
 50
31.6666666666661
 51
120.4603506091377
  0
ARC
  5
CC
330
1F
100
AcDbEntity
  8
0
  6
CONTINUOUS
 62
     7
100
AcDbCircle
 10
-262.4999999999999
 20
186.2500000000013
 30
0.0
 40
94.00000000000003
100
AcDbArc
 50
327.8729827241962
 51
332.5868327353976
  0
ARC
  5
CD
330
1F
100
AcDbEntity
  8
0
  6
CONTINUOUS
 62
     7
100
AcDbCircle
 10
262.4999999999999
 20
186.2500000000013
 30
0.0
 40
93.99999999999997
210
0.0
220
0.0
230
-1.0
100
AcDbArc
 50
107.4131672646024
 51
112.1270172758038
  0
ARC
  5
CE
330
1F
100
AcDbEntity
  8
0
  6
CONTINUOUS
 62
     7
100
AcDbCircle
 10
-210.9360448867622
 20
266.0382104892689
 30
0.0
 40
1.000000000000011
100
AcDbArc
 50
148.3333333333348
 51
237.127017275804
  0
ARC
  5
CF
330
1F
100
AcDbEntity
  8
0
  6
CONTINUOUS
 62
     7
100
AcDbCircle
 10
262.4999999999999
 20
186.25
 30
0.0
 40
105.0
210
0.0
220
0.0
230
-1.0
100
AcDbArc
 50
253.3627549222221
 51
267.5000806313894
  0
ARC
  5
D0
330
1F
100
AcDbEntity
  8
0
  6
CONTINUOUS
 62
     7
100
AcDbCircle
 10
234.0702923666471
 20
95.60369988862465
 30
0.0
 40
1.000000000000001
210
0.0
220
0.0
230
-1.0
100
AcDbArc
 50
345.0000000000002
 51
72.58683273539667
  0
ARC
  5
D1
330
1F
100
AcDbEntity
  8
0
  6
CONTINUOUS
 62
     7
100
AcDbCircle
 10
-226.7171938855722
 20
98.24664332210541
 30
0.0
 40
0.999999999999987
100
AcDbArc
 50
23.33333333333374
 51
112.1270172758039
  0
ARC
  5
D2
330
1F
100
AcDbEntity
  8
0
  6
CONTINUOUS
 62
     7
100
AcDbCircle
 10
262.4999999999999
 20
186.25
 30
0.0
 40
105.0
210
0.0
220
0.0
230
-1.0
100
AcDbArc
 50
272.4998731015276
 51
286.6378329808678
  0
ARC
  5
D3
330
1F
100
AcDbEntity
  8
0
  6
CONTINUOUS
 62
     7
100
AcDbCircle
 10
178.1675877905802
 20
229.9883613197876
 30
0.0
 40
0.9999999999999966
210
0.0
220
0.0
230
-1.0
100
AcDbArc
 50
245.0000000000005
 51
332.5868327353976
  0
ARC
  5
D4
330
1F
100
AcDbEntity
  8
0
  6
CONTINUOUS
 62
     7
100
AcDbCircle
 10
-262.4999999999999
 20
186.2500000000013
 30
0.0
 40
94.00000000000001
100
AcDbArc
 50
287.4131672646025
 51
292.1270172758038
  0
ARC
  5
D5
330
1F
100
AcDbEntity
  8
0
  6
CONTINUOUS
 62
     7
100
AcDbCircle
 10
199.9166220640361
 20
114.7774821618559
 30
0.0
 40
0.9999999999999929
210
0.0
220
0.0
230
-1.0
100
AcDbArc
 50
319.9999999999995
 51
48.79368394247149
  0
ARC
  5
D6
330
1F
100
AcDbEntity
  8
0
  6
CONTINUOUS
 62
     7
100
AcDbCircle
 10
-262.4999999999999
 20
186.2500000000013
 30
0.0
 40
94.00000000000001
100
AcDbArc
 50
294.5396493908629
 51
300.4603506091372
  0
ARC
  5
D7
330
1F
100
AcDbEntity
  8
0
  6
CONTINUOUS
 62
     7
100
AcDbCircle
 10
262.4999999999999
 20
186.2500000000013
 30
0.0
 40
94.00000000000003
210
0.0
220
0.0
230
-1.0
100
AcDbArc
 50
147.8729827241962
 51
152.5868327353976
  0
ARC
  5
D8
330
1F
100
AcDbEntity
  8
0
  6
CONTINUOUS
 62
     7
100
AcDbCircle
 10
192.8779385499124
 20
121.6143398777444
 30
0.0
 40
1.000000000000003
210
0.0
220
0.0
230
-1.0
100
AcDbArc
 50
42.8729827241964
 51
131.6666666666665
  0
ARC
  5
D9
330
1F
100
AcDbEntity
  8
0
  6
CONTINUOUS
 62
     7
100
AcDbCircle
 10
-210.9360448867622
 20
106.4617895107336
 30
0.0
 40
0.9999999999999959
100
AcDbArc
 50
122.8729827241958
 51
211.6666666666663
  0
ARC
  5
DA
330
1F
100
AcDbEntity
  8
0
  6
CONTINUOUS
 62
     7
100
AcDbCircle
 10
178.1675877905802
 20
142.5116386802149
 30
0.0
 40
1.000000000000003
210
0.0
220
0.0
230
-1.0
100
AcDbArc
 50
27.41316726460212
 51
114.9999999999992
  0
ARC
  5
DB
330
1F
100
AcDbEntity
  8
0
  6
CONTINUOUS
 62
     7
100
AcDbCircle
 10
234.0702923666471
 20
276.8963001113779
 30
0.0
 40
1.000000000000016
210
0.0
220
0.0
230
-1.0
100
AcDbArc
 50
287.4131672646025
 51
14.99999999999983
  0
ARC
  5
DC
330
1F
100
AcDbEntity
  8
0
  6
CONTINUOUS
 62
     7
100
AcDbCircle
 10
262.4999999999999
 20
186.25
 30
0.0
 40
109.5
210
0.0
220
0.0
230
-1.0
100
AcDbArc
 50
174.9999999999994
 51
176.9999999999994
  0
ARC
  5
DD
330
1F
100
AcDbEntity
  8
0
  6
CONTINUOUS
 62
     7
100
AcDbCircle
 10
262.4999999999999
 20
186.25
 30
0.0
 40
97.99641020406274
210
0.0
220
0.0
230
-1.0
100
AcDbArc
 50
253.2451816028198
 51
286.7548183971795
  0
ARC
  5
DE
330
1F
100
AcDbEntity
  8
0
  6
CONTINUOUS
 62
     7
100
AcDbCircle
 10
262.4999999999999
 20
186.25
 30
0.0
 40
109.5
210
0.0
220
0.0
230
-1.0
100
AcDbArc
 50
333.430056171738
 51
340.9999999999994
  0
ARC
  5
DF
330
1F
100
AcDbEntity
  8
0
  6
CONTINUOUS
 62
     7
100
AcDbCircle
 10
262.4999999999999
 20
186.25
 30
0.0
 40
105.0
210
0.0
220
0.0
230
-1.0
100
AcDbArc
 50
2.999999999999436
 51
3.275828959798504
  0
ARC
  5
E0
330
1F
100
AcDbEntity
  8
0
  6
CONTINUOUS
 62
     7
100
AcDbCircle
 10
202.980799836512
 20
260.2936682768927
 30
0.0
 40
1.000000000000012
210
0.0
220
0.0
230
-1.0
100
AcDbArc
 50
220.0
 51
308.7936839424696
  0
LINE
  5
E1
330
1F
100
AcDbEntity
  8
0
  6
CONTINUOUS
 62
     7
100
AcDbLine
 10
-371.8354928648515
 20
180.25
 30
0.0
 11
-367.3284312579368
 21
180.25
 31
0.0
  0
ARC
  5
E2
330
1F
100
AcDbEntity
  8
0
  6
CONTINUOUS
 62
     7
100
AcDbCircle
 10
-262.4999999999999
 20
186.25
 30
0.0
 40
109.5
100
AcDbArc
 50
179.0000000000007
 51
181.0000000000006
  0
ARC
  5
E3
330
1F
100
AcDbEntity
  8
0
  6
CONTINUOUS
 62
     7
100
AcDbCircle
 10
262.4999999999999
 20
186.25
 30
0.0
 40
109.5
210
0.0
220
0.0
230
-1.0
100
AcDbArc
 50
346.9999999999994
 51
348.9999999999994
  0
ARC
  5
E4
330
1F
100
AcDbEntity
  8
0
  6
CONTINUOUS
 62
     7
100
AcDbCircle
 10
262.4999999999999
 20
186.25
 30
0.0
 40
109.5
210
0.0
220
0.0
230
-1.0
100
AcDbArc
 50
194.9999999999995
 51
196.9999999999995
  0
ARC
  5
E5
330
1F
100
AcDbEntity
  8
0
  6
CONTINUOUS
 62
     7
100
AcDbCircle
 10
262.4999999999999
 20
186.25
 30
0.0
 40
109.5
210
0.0
220
0.0
230
-1.0
100
AcDbArc
 50
14.99999999999938
 51
16.9999999999994
  0
ARC
  5
E6
330
1F
100
AcDbEntity
  8
0
  6
CONTINUOUS
 62
     7
100
AcDbCircle
 10
262.4999999999999
 20
186.25
 30
0.0
 40
105.0
210
0.0
220
0.0
230
-1.0
100
AcDbArc
 50
356.7241710402017
 51
356.9999999999993
  0
ARC
  5
E7
330
1F
100
AcDbEntity
  8
0
  6
CONTINUOUS
 62
     7
100
AcDbCircle
 10
262.4999999999999
 20
186.25
 30
0.0
 40
109.5
210
0.0
220
0.0
230
-1.0
100
AcDbArc
 50
153.430056171738
 51
160.9999999999993
  0
ARC
  5
E8
330
1F
100
AcDbEntity
  8
0
  6
CONTINUOUS
 62
     7
100
AcDbCircle
 10
-226.7171938855722
 20
274.253356677897
 30
0.0
 40
0.9999999999999786
100
AcDbArc
 50
247.8729827241961
 51
336.6666666666671
  0
ARC
  5
E9
330
1F
100
AcDbEntity
  8
0
  6
CONTINUOUS
 62
     7
100
AcDbCircle
 10
262.4999999999999
 20
186.2500000000013
 30
0.0
 40
93.99999999999996
210
0.0
220
0.0
230
-1.0
100
AcDbArc
 50
122.8729827241962
 51
128.7936839424704
  0
ARC
  5
EA
330
1F
100
AcDbEntity
  8
0
  6
CONTINUOUS
 62
     7
100
AcDbCircle
 10
262.4999999999999
 20
186.25
 30
0.0
 40
95.0
210
0.0
220
0.0
230
-1.0
100
AcDbArc
 50
73.18983259490838
 51
106.810167405091
  0
ARC
  5
EB
330
1F
100
AcDbEntity
  8
0
  6
CONTINUOUS
 62
     7
100
AcDbCircle
 10
262.4999999999999
 20
186.25
 30
0.0
 40
109.5
210
0.0
220
0.0
230
-1.0
100
AcDbArc
 50
190.9999999999994
 51
192.9999999999993
  0
ARC
  5
EC
330
1F
100
AcDbEntity
  8
0
  6
CONTINUOUS
 62
     7
100
AcDbCircle
 10
262.4999999999999
 20
186.25
 30
0.0
 40
95.0
210
0.0
220
0.0
230
-1.0
100
AcDbArc
 50
137.7298702026623
 51
138.9330685262926
  0
ARC
  5
ED
330
1F
100
AcDbEntity
  8
0
  6
CONTINUOUS
 62
     7
100
AcDbCircle
 10
-262.4999999999999
 20
186.25
 30
0.0
 40
109.5
100
AcDbArc
 50
176.8589320819111
 51
177.0000000000007
  0
LINE
  5
EE
330
1F
100
AcDbEntity
  8
0
  6
CONTINUOUS
 62
     7
100
AcDbLine
 10
-229.9843073515362
 20
67.41274624728017
 30
0.0
 11
-229.6231864172958
 21
66.80028238781321
 31
0.0
  0
ARC
  5
EF
330
1F
100
AcDbEntity
  8
0
  6
CONTINUOUS
 62
     7
100
AcDbCircle
 10
262.4999999999999
 20
186.25
 30
0.0
 40
94.99999999999999
210
0.0
220
0.0
230
-1.0
100
AcDbArc
 50
253.1898325949088
 51
270.0
  0
ARC
  5
F0
330
1F
100
AcDbEntity
  8
0
  6
CONTINUOUS
 62
     7
100
AcDbCircle
 10
-236.7345774471438
 20
69.25000000043795
 30
0.0
 40
11.99999999999998
100
AcDbArc
 50
11.66571408557794
 51
15.49396749837514
  0
ARC
  5
F1
330
1F
100
AcDbEntity
  8
0
  6
CONTINUOUS
 62
     7
100
AcDbCircle
 10
221.3617119661965
 20
227.3882880338035
 30
0.0
 40
70.99999999999999
210
0.0
220
0.0
230
-1.0
100
AcDbArc
 50
90.5
 51
179.5
  0
LINE
  5
F2
330
1F
100
AcDbEntity
  8
0
  6
CONTINUOUS
 62
     7
100
AcDbLine
 10
-231.564267412959
 20
67.39564059298363
 30
0.0
 11
-231.2043134377637
 21
66.78433097880023
 31
0.0
  0
ARC
  5
F3
330
1F
100
AcDbEntity
  8
0
  6
CONTINUOUS
 62
     7
100
AcDbCircle
 10
262.4999999999999
 20
186.25
 30
0.0
 40
94.99999999999999
210
0.0
220
0.0
230
-1.0
100
AcDbArc
 50
301.0634441371363
 51
302.2722836801577
  0
LINE
  5
F4
330
1F
100
AcDbEntity
  8
0
  6
CONTINUOUS
 62
     7
100
AcDbLine
 10
-244.2931932688409
 20
67.40968123407556
 30
0.0
 11
-243.9325385544229
 21
66.79770815507494
 31
0.0
  0
ARC
  5
F5
330
1F
100
AcDbEntity
  8
0
  6
CONTINUOUS
 62
     7
100
AcDbCircle
 10
262.4999999999999
 20
186.25
 30
0.0
 40
109.5
210
0.0
220
0.0
230
-1.0
100
AcDbArc
 50
182.9999999999993
 51
184.9999999999993
  0
ARC
  5
F6
330
1F
100
AcDbEntity
  8
0
  6
CONTINUOUS
 62
     7
100
AcDbCircle
 10
-226.7125281675275
 20
66.47177606472984
 30
0.0
 40
1.599999999999994
100
AcDbArc
 50
274.9999999978528
 51
344.5060324973302
  0
LINE
  5
F7
330
1F
100
AcDbEntity
  8
0
  6
CONTINUOUS
 62
     7
100
AcDbLine
 10
-374.8617402788783
 20
202.0929948105798
 30
0.0
 11
-374.6355845713596
 21
228.007872054188
 31
0.0
  0
ARC
  5
F8
330
1F
100
AcDbEntity
  8
0
  6
CONTINUOUS
 62
     7
100
AcDbCircle
 10
262.4999999999999
 20
186.25
 30
0.0
 40
95.0
210
0.0
220
0.0
230
-1.0
100
AcDbArc
 50
309.3968962100179
 51
310.5982963589282
  0
CIRCLE
  5
F9
330
1F
100
AcDbEntity
  8
0
  6
CONTINUOUS
 62
     7
100
AcDbCircle
 10
-262.4999999999999
 20
186.25
 30
0.0
 40
74.00000000000001
  0
LINE
  5
FA
330
1F
100
AcDbEntity
  8
0
  6
CONTINUOUS
 62
     7
100
AcDbLine
 10
-282.5001027662504
 20
73.92453825264268
 30
0.0
 11
-304.257872054188
 21
74.11441542864034
 31
0.0
  0
ARC
  5
FB
330
1F
100
AcDbEntity
  8
0
  6
CONTINUOUS
 62
     7
100
AcDbCircle
 10
262.4999999999999
 20
186.25
 30
0.0
 40
109.5
210
0.0
220
0.0
230
-1.0
100
AcDbArc
 50
166.9999999999994
 51
168.9999999999994
  0
ARC
  5
FC
330
1F
100
AcDbEntity
  8
0
  6
CONTINUOUS
 62
     7
100
AcDbCircle
 10
262.4999999999999
 20
186.25
 30
0.0
 40
109.5
210
0.0
220
0.0
230
-1.0
100
AcDbArc
 50
342.9999999999994
 51
344.9999999999994
  0
ARC
  5
FD
330
1F
100
AcDbEntity
  8
0
  6
CONTINUOUS
 62
     7
100
AcDbCircle
 10
262.4999999999999
 20
186.25
 30
0.0
 40
95.00000000000001
210
0.0
220
0.0
230
-1.0
100
AcDbArc
 50
292.7347838701588
 51
293.9364478641974
  0
ARC
  5
FE
330
1F
100
AcDbEntity
  8
0
  6
CONTINUOUS
 62
     7
100
AcDbCircle
 10
262.4999999999999
 20
186.25
 30
0.0
 40
95.00000000000003
210
0.0
220
0.0
230
-1.0
100
AcDbArc
 50
112.7347838701587
 51
113.9364478641972
  0
LINE
  5
FF
330
1F
100
AcDbEntity
  8
0
  6
CONTINUOUS
 62
     7
100
AcDbLine
 10
-233.153160272637
 20
67.39386100530962
 30
0.0
 11
-232.7902383795568
 21
66.77791407381197
 31
0.0
  0
ARC
  5
100
330
1F
100
AcDbEntity
  8
0
  6
CONTINUOUS
 62
     7
100
AcDbCircle
 10
221.3617119661964
 20
145.1117119661965
 30
0.0
 40
70.99999999999996
210
0.0
220
0.0
230
-1.0
100
AcDbArc
 50
180.5
 51
269.5000000000001
  0
LINE
  5
101
330
1F
100
AcDbEntity
  8
0
  6
CONTINUOUS
 62
     7
100
AcDbLine
 10
-236.3458689803678
 20
67.41538817472679
 30
0.0
 11
-235.9835180823775
 21
66.8004773286919
 31
0.0
  0
ARC
  5
102
330
1F
100
AcDbEntity
  8
0
  6
CONTINUOUS
 62
     7
100
AcDbCircle
 10
262.4999999999999
 20
186.25
 30
0.0
 40
109.5
210
0.0
220
0.0
230
-1.0
100
AcDbArc
 50
178.9999999999992
 51
180.9999999999993
  0
ARC
  5
103
330
1F
100
AcDbEntity
  8
0
  6
CONTINUOUS
 62
     7
100
AcDbCircle
 10
262.4999999999999
 20
186.25
 30
0.0
 40
95.0
210
0.0
220
0.0
230
-1.0
100
AcDbArc
 50
270.0
 51
286.8101674050911
  0
ARC
  5
104
330
1F
100
AcDbEntity
  8
0
  6
CONTINUOUS
 62
     7
100
AcDbCircle
 10
262.4999999999999
 20
186.25
 30
0.0
 40
109.5
210
0.0
220
0.0
230
-1.0
100
AcDbArc
 50
162.9999999999994
 51
164.9999999999993
  0
ARC
  5
105
330
1F
100
AcDbEntity
  8
0
  6
CONTINUOUS
 62
     7
100
AcDbCircle
 10
262.4999999999999
 20
186.25
 30
0.0
 40
109.5
210
0.0
220
0.0
230
-1.0
100
AcDbArc
 50
170.9999999999994
 51
172.9999999999994
  0
ARC
  5
106
330
1F
100
AcDbEntity
  8
0
  6
CONTINUOUS
 62
     7
100
AcDbCircle
 10
262.4999999999999
 20
186.25
 30
0.0
 40
109.5
210
0.0
220
0.0
230
-1.0
100
AcDbArc
 50
354.9999999999994
 51
356.8589320819111
  0
ARC
  5
107
330
1F
100
AcDbEntity
  8
0
  6
CONTINUOUS
 62
     7
100
AcDbCircle
 10
262.4999999999999
 20
186.25
 30
0.0
 40
109.5
210
0.0
220
0.0
230
-1.0
100
AcDbArc
 50
10.99999999999933
 51
12.99999999999934
  0
ARC
  5
108
330
1F
100
AcDbEntity
  8
0
  6
CONTINUOUS
 62
     7
100
AcDbCircle
 10
262.4999999999999
 20
186.25
 30
0.0
 40
109.5
210
0.0
220
0.0
230
-1.0
100
AcDbArc
 50
350.9999999999994
 51
352.9999999999994
  0
ARC
  5
109
330
1F
100
AcDbEntity
  8
0
  6
CONTINUOUS
 62
     7
100
AcDbCircle
 10
-262.4999999999999
 20
186.25
 30
0.0
 40
109.5
100
AcDbArc
 50
183.0000000000005
 51
183.1410679180888
  0
ARC
  5
10A
330
1F
100
AcDbEntity
  8
0
  6
CONTINUOUS
 62
     7
100
AcDbCircle
 10
262.4999999999999
 20
186.25
 30
0.0
 40
109.5
210
0.0
220
0.0
230
-1.0
100
AcDbArc
 50
18.99999999999939
 51
26.56994382826059
  0
ARC
  5
10B
330
1F
100
AcDbEntity
  8
0
  6
CONTINUOUS
 62
     7
100
AcDbCircle
 10
262.4999999999999
 20
186.25
 30
0.0
 40
109.5
210
0.0
220
0.0
230
-1.0
100
AcDbArc
 50
6.999999999999398
 51
8.999999999999398
  0
LINE
  5
10C
330
1F
100
AcDbEntity
  8
0
  6
CONTINUOUS
 62
     7
100
AcDbLine
 10
-245.8739544240963
 20
67.3941147650977
 30
0.0
 11
-245.5134987491638
 21
66.78193306812354
 31
0.0
  0
ARC
  5
10D
330
1F
100
AcDbEntity
  8
0
  6
CONTINUOUS
 62
     7
100
AcDbCircle
 10
262.4999999999999
 20
186.25
 30
0.0
 40
109.5
210
0.0
220
0.0
230
-1.0
100
AcDbArc
 50
186.9999999999994
 51
188.9999999999994
  0
ARC
  5
10E
330
1F
100
AcDbEntity
  8
0
  6
CONTINUOUS
 62
     7
100
AcDbCircle
 10
303.6382880338035
 20
227.3882880338035
 30
0.0
 40
70.99999999999994
210
0.0
220
0.0
230
-1.0
100
AcDbArc
 50
0.4999999999999429
 51
89.50000000000004
  0
LINE
  5
10F
330
1F
100
AcDbEntity
  8
0
  6
CONTINUOUS
 62
     7
100
AcDbLine
 10
-367.3284312579368
 20
192.25
 30
0.0
 11
-371.8354928648515
 21
192.25
 31
0.0
  0
LINE
  5
110
330
1F
100
AcDbEntity
  8
0
  6
CONTINUOUS
 62
     7
100
AcDbLine
 10
-220.7421279458119
 20
74.11441542864034
 30
0.0
 11
-246.5428394971694
 21
73.88925603002414
 31
0.0
  0
LINE
  5
111
330
1F
100
AcDbEntity
  8
0
  6
CONTINUOUS
 62
     7
100
AcDbLine
 10
-246.3054478314202
 20
71.72263494148321
 30
0.0
 11
-246.6427537679503
 21
71.14990521951782
 31
0.0
  0
LINE
  5
112
330
1F
100
AcDbEntity
  8
0
  6
CONTINUOUS
 62
     7
100
AcDbLine
 10
-244.7237880238355
 20
71.70925024199394
 30
0.0
 11
-245.0530666018442
 21
71.14995278905575
 31
0.0
  0
ARC
  5
113
330
1F
100
AcDbEntity
  8
0
  6
CONTINUOUS
 62
     7
100
AcDbCircle
 10
262.4999999999999
 20
186.25
 30
0.0
 40
109.5
210
0.0
220
0.0
230
-1.0
100
AcDbArc
 50
3.141067918088869
 51
4.999999999999289
  0
ARC
  5
114
330
1F
100
AcDbEntity
  8
0
  6
CONTINUOUS
 62
     7
100
AcDbCircle
 10
262.4999999999999
 20
186.25
 30
0.0
 40
95.00000000000001
210
0.0
220
0.0
230
-1.0
100
AcDbArc
 50
121.0634441371361
 51
122.2722836801577
  0
LINE
  5
115
330
1F
100
AcDbEntity
  8
0
  6
CONTINUOUS
 62
     7
100
AcDbLine
 10
-150.1382597211216
 20
170.4070051894201
 30
0.0
 11
-150.3644154286403
 21
144.492127945812
 31
0.0
  0
ARC
  5
116
330
1F
100
AcDbEntity
  8
0
  6
CONTINUOUS
 62
     7
100
AcDbCircle
 10
262.4999999999999
 20
186.25
 30
0.0
 40
95.0
210
0.0
220
0.0
230
-1.0
100
AcDbArc
 50
229.4017036410707
 51
230.6031037899814
  0
ARC
  5
117
330
1F
100
AcDbEntity
  8
0
  6
CONTINUOUS
 62
     7
100
AcDbCircle
 10
262.4999999999999
 20
186.25
 30
0.0
 40
95.00000000000001
210
0.0
220
0.0
230
-1.0
100
AcDbArc
 50
41.06693147370556
 51
42.26995101894258
  0
ARC
  5
118
330
1F
100
AcDbEntity
  8
0
  6
CONTINUOUS
 62
     7
100
AcDbCircle
 10
262.4999999999999
 20
186.25
 30
0.0
 40
109.5
210
0.0
220
0.0
230
-1.0
100
AcDbArc
 50
198.9999999999993
 51
206.5699438282605
  0
LINE
  5
119
330
1F
100
AcDbEntity
  8
0
  6
CONTINUOUS
 62
     7
100
AcDbLine
 10
-247.4638496651497
 20
67.39392444319556
 30
0.0
 11
-247.1005391427522
 21
66.77751423596423
 31
0.0
  0
ARC
  5
11A
330
1F
100
AcDbEntity
  8
0
  6
CONTINUOUS
 62
     7
100
AcDbCircle
 10
262.4999999999999
 20
186.25
 30
0.0
 40
95.0
210
0.0
220
0.0
230
-1.0
100
AcDbArc
 50
246.0635521358025
 51
247.2652161298416
  0
LINE
  5
11B
330
1F
100
AcDbEntity
  8
0
  6
CONTINUOUS
 62
     7
100
AcDbLine
 10
-241.106816123119
 20
67.39898829135403
 30
0.0
 11
-240.7427560157631
 21
66.78092960408084
 31
0.0
  0
LINE
  5
11C
330
1F
100
AcDbEntity
  8
0
  6
CONTINUOUS
 62
     7
100
AcDbLine
 10
-230.7139643755531
 20
71.15000000021229
 30
0.0
 11
-231.5828015635448
 21
71.15000000024486
 31
0.0
  0
LINE
  5
11D
330
1F
100
AcDbEntity
  8
0
  6
CONTINUOUS
 62
     7
100
AcDbLine
 10
-228.0345774470726
 20
71.15000000011187
 30
0.0
 11
-228.4025934727349
 21
71.15000000012567
 31
0.0
  0
LINE
  5
11E
330
1F
100
AcDbEntity
  8
0
  6
CONTINUOUS
 62
     7
100
AcDbLine
 10
-229.123873934944
 20
71.1500000001527
 30
0.0
 11
-229.9930889620778
 21
71.15000000018529
 31
0.0
  0
LINE
  5
11F
330
1F
100
AcDbEntity
  8
0
  6
CONTINUOUS
 62
     7
100
AcDbLine
 10
-296.9654225526874
 20
307.7499999998877
 30
0.0
 11
-298.4269210208089
 21
307.6221354522218
 31
0.0
  0
LINE
  5
120
330
1F
100
AcDbEntity
  8
0
  6
CONTINUOUS
 62
     7
100
AcDbLine
 10
-241.5419815560037
 20
71.71222443734504
 30
0.0
 11
-241.8729631443318
 21
71.14984341672267
 31
0.0
  0
LINE
  5
121
330
1F
100
AcDbEntity
  8
0
  6
CONTINUOUS
 62
     7
100
AcDbLine
 10
-233.5874386110634
 20
71.71883420071937
 30
0.0
 11
-233.9225123574
 21
71.14986906460764
 31
0.0
  0
LINE
  5
122
330
1F
100
AcDbEntity
  8
0
  6
CONTINUOUS
 62
     7
100
AcDbLine
 10
-243.4342296438739
 20
71.15000000068905
 30
0.0
 11
-244.3032071304914
 21
71.15000000072162
 31
0.0
  0
LINE
  5
123
330
1F
100
AcDbEntity
  8
0
  6
CONTINUOUS
 62
     7
100
AcDbLine
 10
-241.086523147063
 20
71.08780507260104
 30
0.0
 11
-241.4529480096253
 21
71.7100795168573
 31
0.0
  0
LINE
  5
124
330
1F
100
AcDbEntity
  8
0
  6
CONTINUOUS
 62
     7
100
AcDbLine
 10
-242.6860306575228
 20
71.10393408137921
 30
0.0
 11
-243.0495652286473
 21
71.72074065425589
 31
0.0
  0
LINE
  5
125
330
1F
100
AcDbEntity
  8
0
  6
CONTINUOUS
 62
     7
100
AcDbLine
 10
-242.4998972337494
 20
298.5754617473574
 30
0.0
 11
-220.7421279458119
 21
298.3855845713597
 31
0.0
  0
LINE
  5
126
330
1F
100
AcDbEntity
  8
0
  6
CONTINUOUS
 62
     7
100
AcDbLine
 10
-229.9548801387233
 20
71.08535409157784
 30
0.0
 11
-230.31773735449
 21
71.70139875029875
 31
0.0
  0
LINE
  5
127
330
1F
100
AcDbEntity
  8
0
  6
CONTINUOUS
 62
     7
100
AcDbLine
 10
-196.7499490169074
 20
266.1635832992148
 30
0.0
 11
-196.793921541399
 21
266.1111788851765
 31
0.0
  0
LINE
  5
128
330
1F
100
AcDbEntity
  8
0
  6
CONTINUOUS
 62
     7
100
AcDbLine
 10
-185.8621376070486
 20
255.7905496659241
 30
0.0
 11
-185.9132409228966
 21
255.7450715763621
 31
0.0
  0
ARC
  5
129
330
1F
100
AcDbEntity
  8
0
  6
CONTINUOUS
 62
     7
100
AcDbCircle
 10
-236.7345774471438
 20
69.25000000043795
 30
0.0
 40
11.99999999999998
100
AcDbArc
 50
344.5060324973302
 51
348.3342859101275
  0
LINE
  5
12A
330
1F
100
AcDbEntity
  8
0
  6
CONTINUOUS
 62
     7
100
AcDbLine
 10
-237.0742059036967
 20
71.15000000045067
 30
0.0
 11
-237.9433889002103
 21
71.15000000048326
 31
0.0
  0
LINE
  5
12B
330
1F
100
AcDbEntity
  8
0
  6
CONTINUOUS
 62
     7
100
AcDbLine
 10
-242.2497426755695
 20
66.7868712987574
 30
0.0
 11
-241.9180637602997
 21
67.35015458059316
 31
0.0
  0
LINE
  5
12C
330
1F
100
AcDbEntity
  8
0
  6
CONTINUOUS
 62
     7
100
AcDbLine
 10
-298.4269210211366
 20
298.8778645476632
 30
0.0
 11
-296.9654225530247
 21
298.7499999998877
 31
0.0
  0
LINE
  5
12D
330
1F
100
AcDbEntity
  8
0
  6
CONTINUOUS
 62
     7
100
AcDbLine
 10
-230.8163054150403
 20
67.35000000021614
 30
0.0
 11
-229.9471885138568
 21
67.35000000018357
 31
0.0
  0
ARC
  5
12E
330
1F
100
AcDbEntity
  8
0
  6
CONTINUOUS
 62
     7
100
AcDbCircle
 10
262.4999999999999
 20
186.25
 30
0.0
 40
95.00000000000001
210
0.0
220
0.0
230
-1.0
100
AcDbArc
 50
333.190282442562
 51
32.73004898105631
  0
LINE
  5
12F
330
1F
100
AcDbEntity
  8
0
  6
CONTINUOUS
 62
     7
100
AcDbLine
 10
-228.3934671185616
 20
67.41122625611776
 30
0.0
 11
-228.0275399221456
 21
66.78988350915766
 31
0.0
  0
LINE
  5
130
330
1F
100
AcDbEntity
  8
0
  6
CONTINUOUS
 62
     7
100
AcDbLine
 10
-209.5435781104525
 20
274.0102836176828
 30
0.0
 11
-209.5662343348674
 21
273.9735522832646
 31
0.0
  0
LINE
  5
131
330
1F
100
AcDbEntity
  8
0
  6
CONTINUOUS
 62
     7
100
AcDbLine
 10
-222.4316147517299
 20
281.6637018650681
 30
0.0
 11
-222.4587102136684
 21
281.6008875238456
 31
0.0
  0
ARC
  5
132
330
1F
100
AcDbEntity
  8
0
  6
CONTINUOUS
 62
     7
100
AcDbCircle
 10
262.4999999999999
 20
186.25
 30
0.0
 40
94.99999999999999
210
0.0
220
0.0
230
-1.0
100
AcDbArc
 50
49.40170364107034
 51
50.60310378998113
  0
LINE
  5
133
330
1F
100
AcDbEntity
  8
0
  6
CONTINUOUS
 62
     7
100
AcDbLine
 10
-239.5124964893393
 20
67.39234964994185
 30
0.0
 11
-239.1507766306393
 21
66.77806258960283
 31
0.0
  0
LINE
  5
134
330
1F
100
AcDbEntity
  8
0
  6
CONTINUOUS
 62
     7
100
AcDbLine
 10
-304.2578720541881
 20
298.3855845713597
 30
0.0
 11
-278.4571605028304
 21
298.6107439699759
 31
0.0
  0
LINE
  5
135
330
1F
100
AcDbEntity
  8
0
  6
CONTINUOUS
 62
     7
100
AcDbLine
 10
-226.5730789788632
 20
73.62213545233638
 30
0.0
 11
-228.0345774469752
 21
73.75000000011188
 31
0.0
  0
ARC
  5
136
330
1F
100
AcDbEntity
  8
0
  6
CONTINUOUS
 62
     7
100
AcDbCircle
 10
-226.7125281673192
 20
72.02822393539482
 30
0.0
 40
1.600000000000015
100
AcDbArc
 50
15.49396749837503
 51
84.99999999785251
  0
LINE
  5
137
330
1F
100
AcDbEntity
  8
0
  6
CONTINUOUS
 62
     7
100
AcDbLine
 10
-234.7493402672428
 20
67.4037543933418
 30
0.0
 11
-234.3863193104721
 21
66.78740403884154
 31
0.0
  0
ARC
  5
138
330
1F
100
AcDbEntity
  8
0
  6
CONTINUOUS
 62
     7
100
AcDbCircle
 10
262.4999999999999
 20
186.25
 30
0.0
 40
95.00000000000001
210
0.0
220
0.0
230
-1.0
100
AcDbArc
 50
146.0669314737058
 51
147.2699510189423
  0
LINE
  5
139
330
1F
100
AcDbEntity
  8
0
  6
CONTINUOUS
 62
     7
100
AcDbLine
 10
-242.7052174957561
 20
67.4135637227945
 30
0.0
 11
-242.338551868408
 21
66.79045204252839
 31
0.0
  0
ARC
  5
13A
330
1F
100
AcDbEntity
  8
0
  6
CONTINUOUS
 62
     7
100
AcDbCircle
 10
303.6382880338034
 20
145.1117119661966
 30
0.0
 40
71.00000000000009
210
0.0
220
0.0
230
-1.0
100
AcDbArc
 50
270.5000000000001
 51
359.4999999999999
  0
ARC
  5
13B
330
1F
100
AcDbEntity
  8
0
  6
CONTINUOUS
 62
     7
100
AcDbCircle
 10
262.4999999999999
 20
186.25
 30
0.0
 40
95.0
210
0.0
220
0.0
230
-1.0
100
AcDbArc
 50
153.1902824425617
 51
212.7300489810564
  0
LINE
  5
13C
330
1F
100
AcDbEntity
  8
0
  6
CONTINUOUS
 62
     7
100
AcDbLine
 10
-184.5709553029332
 20
254.2623180356608
 30
0.0
 11
-184.5325458758206
 21
254.2964995234422
 31
0.0
  0
LINE
  5
13D
330
1F
100
AcDbEntity
  8
0
  6
CONTINUOUS
 62
     7
100
AcDbLine
 10
-207.350945152247
 20
273.7553893276344
 30
0.0
 11
-207.3239526850937
 21
273.7991507823069
 31
0.0
  0
LINE
  5
13E
330
1F
100
AcDbEntity
  8
0
  6
CONTINUOUS
 62
     7
100
AcDbLine
 10
-220.6155475799072
 20
280.8243308591203
 30
0.0
 11
-220.5951825379693
 21
280.8715423329899
 31
0.0
  0
LINE
  5
13F
330
1F
100
AcDbEntity
  8
0
  6
CONTINUOUS
 62
     7
100
AcDbLine
 10
-229.5225521427642
 20
66.79886817234465
 30
0.0
 11
-229.1978856630828
 21
67.3501866248067
 31
0.0
  0
LINE
  5
140
330
1F
100
AcDbEntity
  8
0
  6
CONTINUOUS
 62
     7
100
AcDbLine
 10
-150.3644154286403
 20
228.0078720541881
 30
0.0
 11
-150.1388093150806
 21
202.1559720404682
 31
0.0
  0
LINE
  5
141
330
1F
100
AcDbEntity
  8
0
  6
CONTINUOUS
 62
     7
100
AcDbLine
 10
-374.6355845713596
 20
144.4921279458119
 30
0.0
 11
-374.8611906849192
 21
170.3440279595319
 31
0.0
  0
LINE
  5
142
330
1F
100
AcDbEntity
  8
0
  6
CONTINUOUS
 62
     7
100
AcDbLine
 10
-232.7150356172375
 20
66.777823441854
 30
0.0
 11
-232.3780758307508
 21
67.35010447465503
 31
0.0
  0
LINE
  5
143
330
1F
100
AcDbEntity
  8
0
  6
CONTINUOUS
 62
     7
100
AcDbLine
 10
-228.0345774473125
 20
64.75000000011187
 30
0.0
 11
-226.573078979191
 21
64.87786454777782
 31
0.0
  0
LINE
  5
144
330
1F
100
AcDbEntity
  8
0
  6
CONTINUOUS
 62
     7
100
AcDbLine
 10
-235.4841736339481
 20
71.15000000039107
 30
0.0
 11
-236.3529740478077
 21
71.15000000042365
 31
0.0
  0
LINE
  5
145
330
1F
100
AcDbEntity
  8
0
  6
CONTINUOUS
 62
     7
100
AcDbLine
 10
-241.9467158522116
 20
67.35000000063329
 30
0.0
 11
-241.0778930984543
 21
67.35000000060073
 31
0.0
  0
LINE
  5
146
330
1F
100
AcDbEntity
  8
0
  6
CONTINUOUS
 62
     7
100
AcDbLine
 10
-228.8274767908123
 20
71.70107491268429
 30
0.0
 11
-229.1521198525143
 21
71.14979363653318
 31
0.0
  0
LINE
  5
147
330
1F
100
AcDbEntity
  8
0
  6
CONTINUOUS
 62
     7
100
AcDbLine
 10
-235.8840092088689
 20
66.79677425690166
 30
0.0
 11
-235.5582510558507
 21
67.35020556762028
 31
0.0
  0
LINE
  5
148
330
1F
100
AcDbEntity
  8
0
  6
CONTINUOUS
 62
     7
100
AcDbLine
 10
-243.8455623576807
 20
66.77779995761951
 30
0.0
 11
-243.5085011871716
 21
67.35009618800143
 31
0.0
  0
LINE
  5
149
330
1F
100
AcDbEntity
  8
0
  6
CONTINUOUS
 62
     7
100
AcDbLine
 10
-233.8941224474814
 20
71.15000000033149
 30
0.0
 11
-234.7632548487916
 21
71.15000000036406
 31
0.0
  0
LINE
  5
14A
330
1F
100
AcDbEntity
  8
0
  6
CONTINUOUS
 62
     7
100
AcDbLine
 10
-195.2509100305905
 20
264.838620742876
 30
0.0
 11
-195.2178601306693
 21
264.8780080798419
 31
0.0
  0
LINE
  5
14B
330
1F
100
AcDbEntity
  8
0
  6
CONTINUOUS
 62
     7
100
AcDbLine
 10
-243.5368005810156
 20
67.3500000006929
 30
0.0
 11
-242.6676265713623
 21
67.35000000066032
 31
0.0
  0
LINE
  5
14C
330
1F
100
AcDbEntity
  8
0
  6
CONTINUOUS
 62
     7
100
AcDbLine
 10
-232.3040519392977
 20
71.1500000002719
 30
0.0
 11
-233.1730902516871
 21
71.15000000030447
 31
0.0
  0
LINE
  5
14D
330
1F
100
AcDbEntity
  8
0
  6
CONTINUOUS
 62
     7
100
AcDbLine
 10
-238.76653526037
 20
67.35000000051411
 30
0.0
 11
-237.8977369520966
 21
67.35000000048154
 31
0.0
  0
LINE
  5
14E
330
1F
100
AcDbEntity
  8
0
  6
CONTINUOUS
 62
     7
100
AcDbLine
 10
-237.9287530478405
 20
67.40250932001445
 30
0.0
 11
-237.5692805427469
 21
66.79226394072639
 31
0.0
  0
LINE
  5
14F
330
1F
100
AcDbEntity
  8
0
  6
CONTINUOUS
 62
     7
100
AcDbLine
 10
-237.9182942661995
 20
71.10749127438275
 30
0.0
 11
-238.2804923896561
 21
71.7223077212794
 31
0.0
  0
LINE
  5
150
330
1F
100
AcDbEntity
  8
0
  6
CONTINUOUS
 62
     7
100
AcDbLine
 10
-237.176451618488
 20
67.3500000004545
 30
0.0
 11
-236.3072022149805
 21
67.35000000042193
 31
0.0
  0
LINE
  5
151
330
1F
100
AcDbEntity
  8
0
  6
CONTINUOUS
 62
     7
100
AcDbLine
 10
-246.716936917186
 20
67.35000000081207
 30
0.0
 11
-245.8479213723092
 21
67.3500000007795
 31
0.0
  0
LINE
  5
152
330
1F
100
AcDbEntity
  8
0
  6
CONTINUOUS
 62
     7
100
AcDbLine
 10
-246.6142768793324
 20
71.15000000080823
 30
0.0
 11
-247.4830781467398
 21
71.15000000084079
 31
0.0
  0
LINE
  5
153
330
1F
100
AcDbEntity
  8
0
  6
CONTINUOUS
 62
     7
100
AcDbLine
 10
-235.1827625582024
 20
71.71018094123926
 30
0.0
 11
-235.512340690301
 21
71.14991858417073
 31
0.0
  0
LINE
  5
154
330
1F
100
AcDbEntity
  8
0
  6
CONTINUOUS
 62
     7
100
AcDbLine
 10
-236.7780603416725
 20
71.70051199303278
 30
0.0
 11
-237.1024365649593
 21
71.1498133482498
 31
0.0
  0
LINE
  5
155
330
1F
100
AcDbEntity
  8
0
  6
CONTINUOUS
 62
     7
100
AcDbLine
 10
-234.7257506720608
 20
71.0865891567428
 30
0.0
 11
-235.0871119767555
 21
71.69962974121579
 31
0.0
  0
LINE
  5
156
330
1F
100
AcDbEntity
  8
0
  6
CONTINUOUS
 62
     7
100
AcDbLine
 10
-247.0178231604705
 20
66.79012743730583
 30
0.0
 11
-246.6883279931698
 21
67.35007845332841
 31
0.0
  0
LINE
  5
157
330
1F
100
AcDbEntity
  8
0
  6
CONTINUOUS
 62
     7
100
AcDbLine
 10
-240.6525087062665
 20
66.79993972321375
 30
0.0
 11
-240.3283755191413
 21
67.35019897752369
 31
0.0
  0
LINE
  5
158
330
1F
100
AcDbEntity
  8
0
  6
CONTINUOUS
 62
     7
100
AcDbLine
 10
-231.5541196273526
 20
71.10142069844922
 30
0.0
 11
-231.9180296603157
 21
71.71922426431865
 31
0.0
  0
LINE
  5
159
330
1F
100
AcDbEntity
  8
0
  6
CONTINUOUS
 62
     7
100
AcDbLine
 10
-232.4063125240681
 20
67.35000000027573
 30
0.0
 11
-231.5373293309172
 21
67.35000000024316
 31
0.0
  0
LINE
  5
15A
330
1F
100
AcDbEntity
  8
0
  6
CONTINUOUS
 62
     7
100
AcDbLine
 10
-239.9454487242935
 20
71.72249222690897
 30
0.0
 11
-240.2826463689121
 21
71.14989329948177
 31
0.0
  0
LINE
  5
15B
330
1F
100
AcDbEntity
  8
0
  6
CONTINUOUS
 62
     7
100
AcDbLine
 10
-240.3566256012489
 20
67.3500000005737
 30
0.0
 11
-239.4875064862705
 21
67.35000000054113
 31
0.0
  0
LINE
  5
15C
330
1F
100
AcDbEntity
  8
0
  6
CONTINUOUS
 62
     7
100
AcDbLine
 10
-241.8442208384914
 20
71.15000000062946
 30
0.0
 11
-242.7132397216359
 21
71.15000000066203
 31
0.0
  0
LINE
  5
15D
330
1F
100
AcDbEntity
  8
0
  6
CONTINUOUS
 62
     7
100
AcDbLine
 10
-235.5863854365642
 20
67.35000000039491
 30
0.0
 11
-234.7175916196218
 21
67.35000000036236
 31
0.0
  0
LINE
  5
15E
330
1F
100
AcDbEntity
  8
0
  6
CONTINUOUS
 62
     7
100
AcDbLine
 10
-231.1184864693711
 20
66.78813639282343
 30
0.0
 11
-230.7877193443765
 21
67.35015751869332
 31
0.0
  0
LINE
  5
15F
330
1F
100
AcDbEntity
  8
0
  6
CONTINUOUS
 62
     7
100
AcDbLine
 10
-233.9963380601775
 20
67.35000000033533
 30
0.0
 11
-233.1272623545499
 21
67.35000000030276
 31
0.0
  0
LINE
  5
160
330
1F
100
AcDbEntity
  8
0
  6
CONTINUOUS
 62
     7
100
AcDbLine
 10
-243.1386406706077
 20
71.70008839822505
 30
0.0
 11
-243.4626240888732
 21
71.14979312910606
 31
0.0
  0
LINE
  5
161
330
1F
100
AcDbEntity
  8
0
  6
CONTINUOUS
 62
     7
100
AcDbLine
 10
-245.0242478850908
 20
71.15000000074865
 30
0.0
 11
-245.8933894080813
 21
71.1500000007812
 31
0.0
  0
LINE
  5
162
330
1F
100
AcDbEntity
  8
0
  6
CONTINUOUS
 62
     7
100
AcDbLine
 10
-231.995396305857
 20
71.72178803672882
 30
0.0
 11
-232.3321056740999
 21
71.14990268253106
 31
0.0
  0
LINE
  5
163
330
1F
100
AcDbEntity
  8
0
  6
CONTINUOUS
 62
     7
100
AcDbLine
 10
-279.1441510623013
 20
301.413484429592
 30
0.0
 11
-278.7820491253221
 21
300.7990986592144
 31
0.0
  0
LINE
  5
164
330
1F
100
AcDbEntity
  8
0
  6
CONTINUOUS
 62
     7
100
AcDbLine
 10
-287.0817057338003
 20
301.3925087256168
 30
0.0
 11
-286.7195076103437
 21
300.7776922787202
 31
0.0
  0
LINE
  5
165
330
1F
100
AcDbEntity
  8
0
  6
CONTINUOUS
 62
     7
100
AcDbLine
 10
-288.6789111875058
 20
301.4039827542124
 30
0.0
 11
-288.3159736614379
 21
300.7878002035439
 31
0.0
  0
LINE
  5
166
330
1F
100
AcDbEntity
  8
0
  6
CONTINUOUS
 62
     7
100
AcDbLine
 10
-240.254218986075
 20
71.15000000056986
 30
0.0
 11
-241.1233254371703
 21
71.15000000060243
 31
0.0
  0
LINE
  5
167
330
1F
100
AcDbEntity
  8
0
  6
CONTINUOUS
 62
     7
100
AcDbLine
 10
-245.1268742450791
 20
67.35000000075249
 30
0.0
 11
-244.257911402065
 21
67.35000000071992
 31
0.0
  0
LINE
  5
168
330
1F
100
AcDbEntity
  8
0
  6
CONTINUOUS
 62
     7
100
AcDbLine
 10
-290.2742493279391
 20
301.4134108432568
 30
0.0
 11
-289.9128880232444
 21
300.8003702587838
 31
0.0
  0
LINE
  5
169
330
1F
100
AcDbEntity
  8
0
  6
CONTINUOUS
 62
     7
100
AcDbLine
 10
-247.4518606389103
 20
71.09714493680008
 30
0.0
 11
-247.5000000000002
 21
71.1784511473909
 31
0.0
  0
LINE
  5
16A
330
1F
100
AcDbEntity
  8
0
  6
CONTINUOUS
 62
     7
100
AcDbLine
 10
-236.3210888124941
 20
71.09601724578717
 30
0.0
 11
-236.684026338562
 21
71.71219979645569
 31
0.0
  0
ARC
  5
16B
330
1F
100
AcDbEntity
  8
0
  6
CONTINUOUS
 62
     7
100
AcDbCircle
 10
-298.2874718326807
 20
300.4717760646047
 30
0.0
 40
1.600000000000004
100
AcDbArc
 50
195.493967498375
 51
264.9999999978525
  0
LINE
  5
16C
330
1F
100
AcDbEntity
  8
0
  6
CONTINUOUS
 62
     7
100
AcDbLine
 10
-245.4243386296682
 20
66.79646109849661
 30
0.0
 11
-245.0981444180515
 21
67.35016064378753
 31
0.0
  0
LINE
  5
16D
330
1F
100
AcDbEntity
  8
0
  6
CONTINUOUS
 62
     7
100
AcDbLine
 10
-229.2263033855481
 20
67.35000000015654
 30
0.0
 11
-228.3572337314278
 21
67.35000000012397
 31
0.0
  0
LINE
  5
16E
330
1F
100
AcDbEntity
  8
0
  6
CONTINUOUS
 62
     7
100
AcDbLine
 10
-238.3586802520683
 20
71.71738270407255
 30
0.0
 11
-238.6926022740296
 21
71.14989312564633
 31
0.0
  0
LINE
  5
16F
330
1F
100
AcDbEntity
  8
0
  6
CONTINUOUS
 62
     7
100
AcDbLine
 10
-245.8558489376985
 20
71.08651557040757
 30
0.0
 11
-246.2179508746777
 21
71.70090134078518
 31
0.0
  0
LINE
  5
170
330
1F
100
AcDbEntity
  8
0
  6
CONTINUOUS
 62
     7
100
AcDbLine
 10
-228.3729188259214
 20
71.09975480130959
 30
0.0
 11
-228.7322844190589
 21
71.7100158914814
 31
0.0
  0
LINE
  5
171
330
1F
100
AcDbEntity
  8
0
  6
CONTINUOUS
 62
     7
100
AcDbLine
 10
-230.4152222829759
 20
71.70538213457762
 30
0.0
 11
-230.7424594597406
 21
71.14985301293083
 31
0.0
  0
LINE
  5
172
330
1F
100
AcDbEntity
  8
0
  6
CONTINUOUS
 62
     7
100
AcDbLine
 10
-239.0721090542162
 20
66.78289748300396
 30
0.0
 11
-238.7382506923124
 21
67.35010668412608
 31
0.0
  0
LINE
  5
173
330
1F
100
AcDbEntity
  8
0
  6
CONTINUOUS
 62
     7
100
AcDbLine
 10
-237.4835346989906
 20
66.78056031388215
 30
0.0
 11
-237.1480803704647
 21
67.35012552718662
 31
0.0
  0
LINE
  5
174
330
1F
100
AcDbEntity
  8
0
  6
CONTINUOUS
 62
     7
100
AcDbLine
 10
-233.1473427649768
 20
71.10636148792833
 30
0.0
 11
-233.5079740677288
 21
71.71896400257607
 31
0.0
  0
LINE
  5
175
330
1F
100
AcDbEntity
  8
0
  6
CONTINUOUS
 62
     7
100
AcDbLine
 10
-239.5000632452482
 20
71.09413997089723
 30
0.0
 11
-239.8599085249938
 21
71.70465603819565
 31
0.0
  0
LINE
  5
176
330
1F
100
AcDbEntity
  8
0
  6
CONTINUOUS
 62
     7
100
AcDbLine
 10
-247.5000000000002
 20
67.35000000084143
 30
0.0
 11
-247.4379088701333
 21
67.3500000008391
 31
0.0
  0
LINE
  5
177
330
1F
100
AcDbEntity
  8
0
  6
CONTINUOUS
 62
     7
100
AcDbLine
 10
-238.6642161918981
 20
71.15000000051026
 30
0.0
 11
-239.5330832894636
 21
71.15000000054283
 31
0.0
  0
LINE
  5
178
330
1F
100
AcDbEntity
  8
0
  6
CONTINUOUS
 62
     7
100
AcDbLine
 10
-244.2758254718886
 20
71.10361502432242
 30
0.0
 11
-244.6357579691688
 21
71.71479972988497
 31
0.0
  0
LINE
  5
179
330
1F
100
AcDbEntity
  8
0
  6
CONTINUOUS
 62
     7
100
AcDbLine
 10
-234.2961194799792
 20
66.79269426557117
 30
0.0
 11
-233.9678866304799
 21
67.35013936866228
 31
0.0
  0
LINE
  5
17A
330
1F
100
AcDbEntity
  8
0
  6
CONTINUOUS
 62
     7
100
AcDbLine
 10
-291.4920340496183
 20
300.7810486339358
 30
0.0
 11
-291.4125511831689
 21
300.7811816481963
 31
0.0
  0
SPLINE
  5
17B
330
1F
100
AcDbEntity
  8
0
  6
CONTINUOUS
 62
     7
100
AcDbSpline
210
0.0
220
0.0
230
1.0
 70
     8
 71
     3
 72
     9
 73
     5
 74
     0
 42
0.000000001
 43
0.0001
 40
0.147230723339946
 40
0.147230723339946
 40
0.147230723339946
 40
0.147230723339946
 40
0.1478429668943346
 40
0.1479144396633132
 40
0.1479144396633132
 40
0.1479144396633132
 40
0.1479144396633132
 10
-284.3475004487472
 20
305.7000424307971
 30
0.0
 10
-284.3205565142187
 20
305.7525692659457
 30
0.0
 10
-284.2904671686968
 20
305.76518597107
 30
0.0
 10
-284.2603778231766
 20
305.7239440362657
 30
0.0
 10
-284.2572324121815
 20
305.7190524020779
 30
0.0
  0
LINE
  5
17C
330
1F
100
AcDbEntity
  8
0
  6
CONTINUOUS
 62
     7
100
AcDbLine
 10
-293.8815169400729
 20
305.7118577209647
 30
0.0
 11
-293.795684561487
 21
305.7156657762079
 31
0.0
  0
LINE
  5
17D
330
1F
100
AcDbEntity
  8
0
  6
CONTINUOUS
 62
     7
100
AcDbLine
 10
-300.1843151189297
 20
302.7499999999884
 30
0.0
 11
-300.1843151189297
 21
301.9500000000007
 31
0.0
  0
ARC
  5
17E
330
1F
100
AcDbEntity
  8
0
  6
CONTINUOUS
 62
     7
100
AcDbCircle
 10
289.0662929822662
 20
305.6998276705856
 30
0.0
 40
0.0498248350130238
210
0.0
220
0.0
230
-1.0
100
AcDbArc
 50
3.882943540399832
 51
180.379545909265
  0
ARC
  5
17F
330
1F
100
AcDbEntity
  8
0
  6
CONTINUOUS
 62
     7
100
AcDbCircle
 10
-289.8647296283654
 20
300.7981156874141
 30
0.0
 40
0.0482240381670675
100
AcDbArc
 50
177.2926274708159
 51
350.1324529798457
  0
MTEXT
  5
180
330
1F
100
AcDbEntity
  8
0
 62
     7
100
AcDbMText
 10
-694.3410341378017
 20
14.35909090909091
 30
0.0
 40
8.0
 41
0.0
 71
     1
 72
     1
  1
{\fＭＳ ゴシック;ＫＦＥＦＥ－１５０}
  0
LINE
  5
181
330
1F
100
AcDbEntity
  8
0
  6
CONTINUOUS
 62
     7
100
AcDbLine
 10
-1032.53205591242
 20
71.70088822312614
 30
0.0
 11
-1032.44454782767
 21
71.72262868503515
 31
0.0
  0
LINE
  5
182
330
1F
100
AcDbEntity
  8
0
  6
CONTINUOUS
 62
     7
100
AcDbLine
 10
-755.7487870647212
 20
249.4016126864206
 30
0.0
 11
-755.7487870647212
 21
294.889499413589
 31
0.0
  0
ARC
  5
183
330
1F
100
AcDbEntity
  8
0
  6
CONTINUOUS
 62
     7
100
AcDbCircle
 10
-1042.816292982266
 20
66.80017232941417
 30
0.0
 40
0.0498248350130238
100
AcDbArc
 50
183.8829435403998
 51
0.3795459092971215
  0
LINE
  5
184
330
1F
100
AcDbEntity
  8
0
  6
CONTINUOUS
 62
     7
100
AcDbLine
 10
-1053.767550356285
 20
66.87565965164738
 30
0.0
 11
-1053.767550356284
 21
66.8235845183112
 31
0.0
  0
ARC
  5
185
330
1F
100
AcDbEntity
  8
0
  6
CONTINUOUS
 62
     7
100
AcDbCircle
 10
-1033.279871267341
 20
66.79664489555033
 30
0.0
 40
0.045801615292744
100
AcDbArc
 50
180.2035469410365
 51
341.2838249156762
  0
LINE
  5
186
330
1F
100
AcDbEntity
  8
0
  6
CONTINUOUS
 62
     7
100
AcDbLine
 10
-1040.469517879844
 20
71.72229273934022
 30
0.0
 11
-1040.391313535316
 21
71.71737277624258
 31
0.0
  0
LINE
  5
187
330
1F
100
AcDbEntity
  8
0
  6
CONTINUOUS
 62
     7
100
AcDbLine
 10
-755.7487870647212
 20
77.61050058641102
 30
0.0
 11
-755.7487870647212
 21
123.0983873135794
 31
0.0
  0
LWPOLYLINE
  5
188
330
1F
100
AcDbEntity
  8
0
  6
CONTINUOUS
 62
     7
100
AcDbPolyline
 90
        7
 70
     0
 43
0.0
 10
-743.9723299294136
 20
83.88066410717293
 42
0.1255976374030891
 10
-742.1131979531057
 20
84.48640138387509
 10
-741.9737550147565
 20
84.61076342399348
 10
-741.865518336838
 20
84.74443207516772
 10
-741.7909440432824
 20
84.88739529804701
 10
-741.7534860312945
 20
85.03425350379729
 10
-741.7487870647212
 20
85.10843540188469
  0
ARC
  5
189
330
1F
100
AcDbEntity
  8
0
  6
CONTINUOUS
 62
     7
100
AcDbCircle
 10
-650.3727216468054
 20
295.7499489058085
 30
0.0
 40
3.000051094516485
100
AcDbArc
 50
12.60981687310833
 51
89.9991566764114
  0
LWPOLYLINE
  5
18A
330
1F
100
AcDbEntity
  8
0
  6
CONTINUOUS
 62
     7
100
AcDbPolyline
 90
        7
 70
     0
 43
0.0
 10
-741.7487870647212
 20
287.3915645981153
 10
-741.7646816108075
 20
287.527627282304
 10
-741.8121538857192
 20
287.661581379749
 10
-741.8908868444345
 20
287.7916687385301
 10
-742.0009168820395
 20
287.9165092646669
 10
-742.1428354145129
 20
288.0359149684675
 42
0.1197580190878635
 10
-743.9723299294136
 20
288.6193358928271
  0
LINE
  5
18B
330
1F
100
AcDbEntity
  8
0
  6
CONTINUOUS
 62
     7
100
AcDbLine
 10
-524.7487870647223
 20
288.25
 30
0.0
 11
-525.2487870647212
 21
288.25
 31
0.0
  0
ELLIPSE
  5
18C
330
1F
100
AcDbEntity
  8
0
  6
CONTINUOUS
 62
     7
100
AcDbEllipse
 10
-835.4717814592185
 20
227.3882880338035
 30
0.0
 11
264.9756073373903
 21
0.0
 31
0.0
210
0.0
220
0.0
230
1.0
 40
0.2679491924311229
 41
1.218224329781422
 42
1.262700652038242
  0
LINE
  5
18D
330
1F
100
AcDbEntity
  8
0
  6
CONTINUOUS
 62
     7
100
AcDbLine
 10
-634.918660045799
 20
83.75000000000001
 30
0.0
 11
-634.2487870647212
 21
81.25000000000003
 31
0.0
  0
LINE
  5
18E
330
1F
100
AcDbEntity
  8
0
  6
CONTINUOUS
 62
     7
100
AcDbLine
 10
-743.9723299294135
 20
120.5945078208946
 30
0.0
 11
-755.1193775421698
 21
123.5813502267239
 31
0.0
  0
SPLINE
  5
18F
330
1F
100
AcDbEntity
  8
0
  6
CONTINUOUS
 62
     7
100
AcDbSpline
210
0.0
220
0.0
230
1.0
 70
     8
 71
     3
 72
     9
 73
     5
 74
     0
 42
0.000000001
 43
0.0001
 40
0.2314535737168577
 40
0.2314535737168577
 40
0.2314535737168577
 40
0.2314535737168577
 40
0.2316181061445876
 40
0.2322159372568586
 40
0.2322159372568586
 40
0.2322159372568586
 40
0.2322159372568586
 10
-1049.227453632522
 20
66.79887944473302
 30
0.0
 10
-1049.220212803396
 20
66.78474575843504
 30
0.0
 10
-1049.186662310033
 20
66.73327002043949
 30
0.0
 10
-1049.153111816672
 20
66.74882020230679
 30
0.0
 10
-1049.126802152438
 20
66.80030475286901
 30
0.0
  0
LINE
  5
190
330
1F
100
AcDbEntity
  8
0
  6
CONTINUOUS
 62
     7
100
AcDbLine
 10
-634.2487870647215
 20
81.25000000000003
 30
0.0
 11
-525.7487870647215
 21
81.25000000000001
 31
0.0
  0
LINE
  5
191
330
1F
100
AcDbEntity
  8
0
  6
CONTINUOUS
 62
     7
100
AcDbLine
 10
-743.7487870647212
 20
298.75
 30
0.0
 11
-727.2487870647212
 21
298.75
 31
0.0
  0
LINE
  5
192
330
1F
100
AcDbEntity
  8
0
  6
CONTINUOUS
 62
     7
100
AcDbLine
 10
-755.7487870647212
 20
298.75
 30
0.0
 11
-743.7487870647212
 21
298.75
 31
0.0
  0
LINE
  5
193
330
1F
100
AcDbEntity
  8
0
  6
CONTINUOUS
 62
     7
100
AcDbLine
 10
-1053.579325567781
 20
68.75000000000476
 30
0.0
 11
-1053.934315118795
 21
68.74999999999146
 31
0.0
  0
SPLINE
  5
194
330
1F
100
AcDbEntity
  8
0
  6
CONTINUOUS
 62
     7
100
AcDbSpline
210
0.0
220
0.0
230
1.0
 70
     8
 71
     3
 72
     9
 73
     5
 74
     0
 42
0.000000001
 43
0.0001
 40
0.147230723339946
 40
0.147230723339946
 40
0.147230723339946
 40
0.147230723339946
 40
0.1478429668943342
 40
0.1479144396633128
 40
0.1479144396633128
 40
0.1479144396633128
 40
0.1479144396633128
 10
-1038.097500448747
 20
66.79995756920263
 30
0.0
 10
-1038.070556514219
 20
66.74743073405402
 30
0.0
 10
-1038.040467168697
 20
66.73481402892982
 30
0.0
 10
-1038.010377823177
 20
66.77605596373408
 30
0.0
 10
-1038.007232412181
 20
66.78094759792188
 30
0.0
  0
LINE
  5
195
330
1F
100
AcDbEntity
  8
0
  6
CONTINUOUS
 62
     7
100
AcDbLine
 10
-1034.904442735269
 20
66.77780733909829
 30
0.0
 11
-1034.817452931019
 21
66.7977245206704
 31
0.0
  0
ARC
  5
196
330
1F
100
AcDbEntity
  8
0
  6
CONTINUOUS
 62
     7
100
AcDbCircle
 10
-650.3727216467985
 20
76.75005109417202
 30
0.0
 40
3.000051094496962
100
AcDbArc
 50
270.0008433234582
 51
347.3901723130828
  0
LINE
  5
197
330
1F
100
AcDbEntity
  8
0
  6
CONTINUOUS
 62
     7
100
AcDbLine
 10
-1045.242034049618
 20
71.71895136606398
 30
0.0
 11
-1045.162551183169
 21
71.71881835180346
 31
0.0
  0
SPLINE
  5
198
330
1F
100
AcDbEntity
  8
0
  6
CONTINUOUS
 62
     7
100
AcDbSpline
210
0.0
220
0.0
230
1.0
 70
     8
 71
     3
 72
     9
 73
     5
 74
     0
 42
0.000000001
 43
0.0001
 40
0.135143644057754
 40
0.135143644057754
 40
0.135143644057754
 40
0.135143644057754
 40
0.1357649806525559
 40
0.1358165028865544
 40
0.1358165028865544
 40
0.1358165028865544
 40
0.1358165028865544
 10
-1036.500263462583
 20
66.78688156747782
 30
0.0
 10
-1036.472919356777
 20
66.74113350932844
 30
0.0
 10
-1036.443307833555
 20
66.73783545622378
 30
0.0
 10
-1036.413696310334
 20
66.78646163708441
 30
0.0
 10
-1036.411428892916
 20
66.79048618293356
 30
0.0
  0
LWPOLYLINE
  5
199
330
1F
100
AcDbEntity
  8
0
  6
CONTINUOUS
 62
     7
100
AcDbPolyline
 90
        4
 70
     0
 43
0.0
 10
-755.7487870647212
 20
77.610500586411
 10
-755.6740240460528
 20
77.52532848922385
 10
-755.5761870908577
 20
77.48845374681741
 42
0.0833088717410289
 10
-755.1193775421699
 20
77.4549050405999
  0
LINE
  5
19A
330
1F
100
AcDbEntity
  8
0
  6
CONTINUOUS
 62
     7
100
AcDbLine
 10
-525.2487870647212
 20
84.25
 30
0.0
 11
-524.7487870647204
 21
84.25
 31
0.0
  0
LWPOLYLINE
  5
19B
330
1F
100
AcDbEntity
  8
0
  6
CONTINUOUS
 62
     7
100
AcDbPolyline
 90
        7
 70
     0
 43
0.0
 10
-741.7487870647212
 20
292.8819425550353
 10
-741.7644123102607
 20
293.0083048723232
 10
-741.8110558057222
 20
293.1325803990977
 10
-741.8883691893705
 20
293.2531354772511
 10
-741.9963336065234
 20
293.3686741682572
 10
-742.1354497070156
 20
293.4790212924993
 42
0.117466968336307
 10
-743.9723299294136
 20
294.020912932554
  0
SPLINE
  5
19C
330
1F
100
AcDbEntity
  8
0
  6
CONTINUOUS
 62
     7
100
AcDbSpline
210
0.0
220
0.0
230
1.0
 70
     8
 71
     3
 72
     9
 73
     5
 74
     0
 42
0.000000001
 43
0.0001
 40
0.1411771623465533
 40
0.1411771623465533
 40
0.1411771623465533
 40
0.1411771623465533
 40
0.1417802125111214
 40
0.1418517313649067
 40
0.1418517313649067
 40
0.1418517313649067
 40
0.1418517313649067
 10
-1037.297067936445
 20
71.7100517350837
 30
0.0
 10
-1037.270528589408
 20
71.75629751060875
 30
0.0
 10
-1037.240841803247
 20
71.76311099491745
 30
0.0
 10
-1037.211155017085
 20
71.71760945512044
 30
0.0
 10
-1037.208007577963
 20
71.71220578433278
 30
0.0
  0
LINE
  5
19D
330
1F
100
AcDbEntity
  8
0
  6
CONTINUOUS
 62
     7
100
AcDbLine
 10
-674.7487870647212
 20
298.75
 30
0.0
 11
-654.7487870647211
 21
298.75
 31
0.0
  0
LINE
  5
19E
330
1F
100
AcDbEntity
  8
0
  6
CONTINUOUS
 62
     7
100
AcDbLine
 10
-786.7487870647212
 20
74.11441542864034
 30
0.0
 11
-786.7487870647212
 21
144.4921279458119
 31
0.0
  0
LINE
  5
19F
330
1F
100
AcDbEntity
  8
0
  6
CONTINUOUS
 62
     7
100
AcDbLine
 10
-1046.831972510647
 20
71.71922089405591
 30
0.0
 11
-1046.754591902701
 21
71.72177066047925
 31
0.0
  0
LINE
  5
1A0
330
1F
100
AcDbEntity
  8
0
  6
CONTINUOUS
 62
     7
100
AcDbLine
 10
-646.7487870647212
 20
83.75000000000001
 30
0.0
 11
-634.918660045799
 21
83.75000000000001
 31
0.0
  0
LINE
  5
1A1
330
1F
100
AcDbEntity
  8
0
  6
CONTINUOUS
 62
     7
100
AcDbLine
 10
-646.7487870647212
 20
288.7500000000001
 30
0.0
 11
-647.3840731334764
 21
296.0113529930858
 31
0.0
  0
ARC
  5
1A2
330
1F
100
AcDbEntity
  8
0
  6
CONTINUOUS
 62
     7
100
AcDbCircle
 10
-744.7490244279186
 20
254.8034517931598
 30
0.0
 40
3.000237368725728
100
AcDbArc
 50
285.0034782506374
 51
359.9965217493646
  0
LINE
  5
1A3
330
1F
100
AcDbEntity
  8
0
  6
CONTINUOUS
 62
     7
100
AcDbLine
 10
-1039.677902582564
 20
66.78291595027989
 30
0.0
 11
-1039.599211790432
 21
66.77807976625527
 31
0.0
  0
LINE
  5
1A4
330
1F
100
AcDbEntity
  8
0
  6
CONTINUOUS
 62
     7
100
AcDbLine
 10
-727.2487870647212
 20
298.75
 30
0.0
 11
-682.2487870647213
 21
298.75
 31
0.0
  0
SPLINE
  5
1A5
330
1F
100
AcDbEntity
  8
0
  6
CONTINUOUS
 62
     7
100
AcDbSpline
210
0.0
220
0.0
230
1.0
 70
     8
 71
     3
 72
     9
 73
     5
 74
     0
 42
0.000000001
 43
0.0001
 40
0.2254544868490685
 40
0.2254544868490685
 40
0.2254544868490685
 40
0.2254544868490685
 40
0.2256495920817935
 40
0.2261929951532678
 40
0.2261929951532678
 40
0.2261929951532678
 40
0.2261929951532678
 10
-1048.432271274716
 20
71.70138195548296
 30
0.0
 10
-1048.423684981595
 20
71.71809467160261
 30
0.0
 10
-1048.391184321904
 20
71.76530039012842
 30
0.0
 10
-1048.358683662211
 20
71.74950062831915
 30
0.0
 10
-1048.334769295639
 20
71.70536659423011
 30
0.0
  0
ARC
  5
1A6
330
1F
100
AcDbEntity
  8
0
  6
CONTINUOUS
 62
     7
100
AcDbCircle
 10
525.2487870647212
 20
288.75
 30
0.0
 40
0.5000000000000004
210
0.0
220
0.0
230
-1.0
100
AcDbArc
 50
270.0
 51
0.0
  0
LWPOLYLINE
  5
1A7
330
1F
100
AcDbEntity
  8
0
  6
CONTINUOUS
 62
     7
100
AcDbPolyline
 90
        5
 70
     0
 43
0.0
 10
-755.1193775421699
 20
289.7808784372377
 42
0.0848388418707444
 10
-755.5699426796336
 20
289.7509934346045
 10
-755.6749016414525
 20
289.7109974149842
 10
-755.7480492548215
 20
289.6321685769469
 10
-755.7487870647212
 20
289.6229432987977
  0
ELLIPSE
  5
1A8
330
1F
100
AcDbEntity
  8
0
  6
CONTINUOUS
 62
     7
100
AcDbEllipse
 10
-835.4717814592186
 20
145.1117119661965
 30
0.0
 11
264.9756073373903
 21
0.0
 31
0.0
210
0.0
220
0.0
230
1.0
 40
0.2679491924311229
 41
5.020484655141344
 42
5.064960977398163
  0
LWPOLYLINE
  5
1A9
330
1F
100
AcDbEntity
  8
0
  6
CONTINUOUS
 62
     7
100
AcDbPolyline
 90
        5
 70
     0
 43
0.0
 10
-755.7487870647212
 20
82.87705670120233
 10
-755.686512077392
 20
82.79566172377605
 10
-755.5938744344005
 20
82.75600272341504
 10
-755.4924926284265
 20
82.73177757462514
 42
0.0651724100578155
 10
-755.1193775421699
 20
82.71912156276233
  0
LWPOLYLINE
  5
1AA
330
1F
100
AcDbEntity
  8
0
  6
CONTINUOUS
 62
     7
100
AcDbPolyline
 90
        7
 70
     0
 43
0.0
 10
-743.9723299294136
 20
78.47908706744593
 42
0.1212477463664389
 10
-742.0784100897833
 20
79.06262013799412
 10
-741.9631451007252
 20
79.16301181310622
 10
-741.8642961091061
 20
79.27912502177331
 10
-741.790521382292
 20
79.41211021652946
 10
-741.7534409957393
 20
79.54890050527565
 10
-741.7487870647212
 20
79.61805744496465
  0
LINE
  5
1AB
330
1F
100
AcDbEntity
  8
0
  6
CONTINUOUS
 62
     7
100
AcDbLine
 10
-1038.890101293059
 20
71.70463778276128
 30
0.0
 11
-1038.804546544556
 21
71.72248528267039
 31
0.0
  0
LINE
  5
1AC
330
1F
100
AcDbEntity
  8
0
  6
CONTINUOUS
 62
     7
100
AcDbLine
 10
-786.7487870647212
 20
73.75000000000004
 30
0.0
 11
-650.3726774897334
 21
73.75000000000003
 31
0.0
  0
LINE
  5
1AD
330
1F
100
AcDbEntity
  8
0
  6
CONTINUOUS
 62
     7
100
AcDbLine
 10
-647.3837663249054
 20
296.0063348254578
 30
0.0
 11
-647.4416825279744
 21
296.3896108182639
 31
0.0
  0
LINE
  5
1AE
330
1F
100
AcDbEntity
  8
0
  6
CONTINUOUS
 62
     7
100
AcDbLine
 10
-1050.715422553025
 20
73.7500000001121
 30
0.0
 11
-1050.715422552856
 21
69.25000000004317
 31
0.0
  0
LINE
  5
1AF
330
1F
100
AcDbEntity
  8
0
  6
CONTINUOUS
 62
     7
100
AcDbLine
 10
-682.2487870647212
 20
298.75
 30
0.0
 11
-674.7487870647212
 21
298.75
 31
0.0
  0
LINE
  5
1B0
330
1F
100
AcDbEntity
  8
0
  6
CONTINUOUS
 62
     7
100
AcDbLine
 10
-1053.934315118795
 20
68.74999999997154
 30
0.0
 11
-1053.934315118795
 21
67.9499999999838
 31
0.0
  0
ARC
  5
1B1
330
1F
100
AcDbEntity
  8
0
  6
CONTINUOUS
 62
     7
100
AcDbCircle
 10
-1042.015422552837
 20
69.2500000004305
 30
0.0
 40
11.9895788082818
100
AcDbArc
 50
186.2246754969482
 51
191.4219971784547
  0
LWPOLYLINE
  5
1B2
330
1F
100
AcDbEntity
  8
0
  6
CONTINUOUS
 62
     7
100
AcDbPolyline
 90
        5
 70
     0
 43
0.0
 10
-755.1193775421699
 20
295.0450949594001
 42
0.0816019046361047
 10
-755.5714937014742
 20
295.0128560060598
 10
-755.6764177248416
 20
294.9734464882339
 10
-755.7480964766662
 20
294.8980392076476
 10
-755.7487870647212
 20
294.889499413589
  0
LINE
  5
1B3
330
1F
100
AcDbEntity
  8
0
  6
CONTINUOUS
 62
     7
100
AcDbLine
 10
-1041.266479070195
 20
66.78058144282431
 30
0.0
 11
-1041.180708546271
 21
66.79228374032479
 31
0.0
  0
ARC
  5
1B4
330
1F
100
AcDbEntity
  8
0
  6
CONTINUOUS
 62
     7
100
AcDbCircle
 10
1042.019611345425
 20
71.70107340883094
 30
0.0
 40
0.0476862459282988
210
0.0
220
0.0
230
-1.0
100
AcDbArc
 50
13.46529004079822
 51
180.70044980206
  0
LINE
  5
1B5
330
1F
100
AcDbEntity
  8
0
  6
CONTINUOUS
 62
     7
100
AcDbLine
 10
-1053.934315118832
 20
69.74999999999146
 30
0.0
 11
-1053.579325567818
 21
69.75000000000475
 31
0.0
  0
LINE
  5
1B6
330
1F
100
AcDbEntity
  8
0
  6
CONTINUOUS
 62
     7
100
AcDbLine
 10
-786.7487870647212
 20
298.7500000000001
 30
0.0
 11
-786.7487870647212
 21
298.3855845713597
 31
0.0
  0
LINE
  5
1B7
330
1F
100
AcDbEntity
  8
0
  6
CONTINUOUS
 62
     7
100
AcDbLine
 10
-786.7487870647212
 20
298.7500000000001
 30
0.0
 11
-755.7487870647212
 21
298.75
 31
0.0
  0
LINE
  5
1B8
330
1F
100
AcDbEntity
  8
0
  6
CONTINUOUS
 62
     7
100
AcDbLine
 10
-978.5656848811076
 20
301.9500000000162
 30
0.0
 11
-978.5656848811675
 21
302.7500000000285
 31
0.0
  0
ARC
  5
1B9
330
1F
100
AcDbEntity
  8
0
  6
CONTINUOUS
 62
     7
100
AcDbCircle
 10
998.4293179286997
 20
300.79522745964
 30
0.0
 40
0.0447035534787872
210
0.0
220
0.0
230
-1.0
100
AcDbArc
 50
192.9464445385216
 51
354.2753414916601
  0
LINE
  5
1BA
330
1F
100
AcDbEntity
  8
0
  6
CONTINUOUS
 62
     7
100
AcDbLine
 10
-980.7845774472893
 20
302.7499999999925
 30
0.0
 11
-980.323078979171
 21
302.7500000000092
 31
0.0
  0
LINE
  5
1BB
330
1F
100
AcDbEntity
  8
0
  6
CONTINUOUS
 62
     7
100
AcDbLine
 10
-978.7324496437144
 20
305.6243403483526
 30
0.0
 11
-978.7324496437163
 21
305.6764154816888
 31
0.0
  0
LINE
  5
1BC
330
1F
100
AcDbEntity
  8
0
  6
CONTINUOUS
 62
     7
100
AcDbLine
 10
-978.565684881205
 20
303.7500000000285
 30
0.0
 11
-978.565684881205
 21
304.5500000000162
 31
0.0
  0
SPLINE
  5
1BD
330
1F
100
AcDbEntity
  8
0
  6
CONTINUOUS
 62
     7
100
AcDbSpline
210
0.0
220
0.0
230
1.0
 70
     8
 71
     3
 72
     9
 73
     5
 74
     0
 42
0.000000001
 43
0.0001
 40
0.2374805090693563
 40
0.2374805090693563
 40
0.2374805090693563
 40
0.2374805090693563
 40
0.2375772266883808
 40
0.2382016373567392
 40
0.2382016373567392
 40
0.2382016373567392
 40
0.2382016373567392
 10
-982.4822809059622
 20
300.7899903147355
 30
0.0
 10
-982.4865373055235
 20
300.7824706923656
 30
0.0
 10
-982.5182730963444
 20
300.7342773807063
 30
0.0
 10
-982.5500088871678
 20
300.7459353879156
 30
0.0
 10
-982.5774882784308
 20
300.7989472461507
 30
0.0
  0
ARC
  5
1BE
330
1F
100
AcDbEntity
  8
0
  6
CONTINUOUS
 62
     7
100
AcDbCircle
 10
-999.2201287326593
 20
305.7033551044497
 30
0.0
 40
0.0458016152927441
100
AcDbArc
 50
0.20354694108854
 51
161.283824915627
  0
LINE
  5
1BF
330
1F
100
AcDbEntity
  8
0
  6
CONTINUOUS
 62
     7
100
AcDbLine
 10
-980.7845774471626
 20
303.7499999999925
 30
0.0
 11
-980.7845774471251
 21
302.7499999999925
 31
0.0
  0
LINE
  5
1C0
330
1F
100
AcDbEntity
  8
0
  6
CONTINUOUS
 62
     7
100
AcDbLine
 10
-992.8220974174359
 20
305.7170840497201
 30
0.0
 11
-992.9007882095682
 21
305.7219202337448
 31
0.0
  0
SPLINE
  5
1C1
330
1F
100
AcDbEntity
  8
0
  6
CONTINUOUS
 62
     7
100
AcDbSpline
210
0.0
220
0.0
230
1.0
 70
     8
 71
     3
 72
     9
 73
     5
 74
     0
 42
0.000000001
 43
0.0001
 40
0.1411771623465533
 40
0.1411771623465533
 40
0.1411771623465533
 40
0.1411771623465533
 40
0.1417802125111214
 40
0.1418517313649067
 40
0.1418517313649067
 40
0.1418517313649067
 40
0.1418517313649067
 10
-995.2029320635552
 20
300.7899482649163
 30
0.0
 10
-995.2294714105923
 20
300.7437024893913
 30
0.0
 10
-995.2591581967529
 20
300.7368890050826
 30
0.0
 10
-995.2888449829152
 20
300.7823905448796
 30
0.0
 10
-995.2919924220373
 20
300.7877942156672
 30
0.0
  0
SPLINE
  5
1C2
330
1F
100
AcDbEntity
  8
0
  6
CONTINUOUS
 62
     7
100
AcDbSpline
210
0.0
220
0.0
230
1.0
 70
     8
 71
     3
 72
     9
 73
     5
 74
     0
 42
0.000000001
 43
0.0001
 40
0.1290835814575366
 40
0.1290835814575366
 40
0.1290835814575366
 40
0.1290835814575366
 40
0.1297003607715103
 40
0.1297584306971403
 40
0.1297584306971403
 40
0.1297584306971403
 40
0.1297584306971403
 10
-1035.700443035204
 20
71.72072835541444
 30
0.0
 10
-1035.673299488579
 20
71.76112956173345
 30
0.0
 10
-1035.643600370295
 20
71.75915742322957
 30
0.0
 10
-1035.613901252009
 20
71.7050943633001
 30
0.0
 10
-1035.611345680351
 20
71.70006152196686
 30
0.0
  0
LINE
  5
1C3
330
1F
100
AcDbEntity
  8
0
  6
CONTINUOUS
 62
     7
100
AcDbLine
 10
-1000.767817776969
 20
305.7098631592258
 30
0.0
 11
-1000.850549697713
 21
305.7224705258788
 31
0.0
  0
LINE
  5
1C4
330
1F
100
AcDbEntity
  8
0
  6
CONTINUOUS
 62
     7
100
AcDbLine
 10
-997.5955572647305
 20
305.7221926609017
 30
0.0
 11
-997.6825470689809
 21
305.7022754793296
 31
0.0
  0
LINE
  5
1C5
330
1F
100
AcDbEntity
  8
0
  6
CONTINUOUS
 62
     7
100
AcDbLine
 10
-985.6680274893525
 20
300.7807791059441
 30
0.0
 11
-985.7454080972991
 21
300.7782293395207
 31
0.0
  0
ARC
  5
1C6
330
1F
100
AcDbEntity
  8
0
  6
CONTINUOUS
 62
     7
100
AcDbCircle
 10
-990.4845774471626
 20
303.2499999995695
 30
0.0
 40
11.9895788082818
100
AcDbArc
 50
6.224675496948224
 51
11.42199717845468
  0
ARC
  5
1C7
330
1F
100
AcDbEntity
  8
0
  6
CONTINUOUS
 62
     7
100
AcDbCircle
 10
-989.6837070177337
 20
305.6998276705859
 30
0.0
 40
0.0498248350130201
100
AcDbArc
 50
3.88294354033605
 51
180.3795459093289
  0
LINE
  5
1C8
330
1F
100
AcDbEntity
  8
0
  6
CONTINUOUS
 62
     7
100
AcDbLine
 10
-1047.631516940073
 20
66.78814227903511
 30
0.0
 11
-1047.545684561487
 21
66.78433422379129
 31
0.0
  0
LINE
  5
1C9
330
1F
100
AcDbEntity
  8
0
  6
CONTINUOUS
 62
     7
100
AcDbLine
 10
-980.323078979171
 20
302.7500000000092
 30
0.0
 11
-978.9206744321816
 21
302.7500000000438
 31
0.0
  0
LINE
  5
1CA
330
1F
100
AcDbEntity
  8
0
  6
CONTINUOUS
 62
     7
100
AcDbLine
 10
-981.7845774471439
 20
303.2499999999568
 30
0.0
 11
-981.7845774473125
 21
307.749999999888
 31
0.0
  0
ARC
  5
1CB
330
1F
100
AcDbEntity
  8
0
  6
CONTINUOUS
 62
     7
100
AcDbCircle
 10
-988.0915499150647
 20
305.7043112963729
 30
0.0
 40
0.0455366311411547
100
AcDbArc
 50
3.750536163103654
 51
169.5406319745218
  0
SPLINE
  5
1CC
330
1F
100
AcDbEntity
  8
0
  6
CONTINUOUS
 62
     7
100
AcDbSpline
210
0.0
220
0.0
230
1.0
 70
     8
 71
     3
 72
     9
 73
     5
 74
     0
 42
0.000000001
 43
0.0001
 40
0.2374805090693563
 40
0.2374805090693563
 40
0.2374805090693563
 40
0.2374805090693563
 40
0.2375772266883808
 40
0.2382016373567392
 40
0.2382016373567392
 40
0.2382016373567392
 40
0.2382016373567392
 10
-1050.017719094038
 20
71.71000968526454
 30
0.0
 10
-1050.013462694476
 20
71.71752930763446
 30
0.0
 10
-1049.981726903655
 20
71.76572261929371
 30
0.0
 10
-1049.949991112832
 20
71.75406461208443
 30
0.0
 10
-1049.922511721569
 20
71.70105275384934
 30
0.0
  0
LINE
  5
1CD
330
1F
100
AcDbEntity
  8
0
  6
CONTINUOUS
 62
     7
100
AcDbLine
 10
-992.0304821201562
 20
300.7777072606597
 30
0.0
 11
-992.1086864646836
 21
300.7826272237573
 31
0.0
  0
LINE
  5
1CE
330
1F
100
AcDbEntity
  8
0
  6
CONTINUOUS
 62
     7
100
AcDbLine
 10
-1046.034973772592
 20
66.77783730442081
 30
0.0
 11
-1045.959758887778
 21
66.77791808569043
 31
0.0
  0
SPLINE
  5
1CF
330
1F
100
AcDbEntity
  8
0
  6
CONTINUOUS
 62
     7
100
AcDbSpline
210
0.0
220
0.0
230
1.0
 70
     8
 71
     3
 72
     9
 73
     5
 74
     0
 42
0.000000001
 43
0.0001
 40
0.135143644057754
 40
0.135143644057754
 40
0.135143644057754
 40
0.135143644057754
 40
0.1357649806525559
 40
0.1358165028865544
 40
0.1358165028865544
 40
0.1358165028865544
 40
0.1358165028865544
 10
-995.9997365374164
 20
305.7131184325222
 30
0.0
 10
-996.0270806432226
 20
305.7588664906716
 30
0.0
 10
-996.056692166445
 20
305.7621645437762
 30
0.0
 10
-996.086303689666
 20
305.7135383629156
 30
0.0
 10
-996.0885711070842
 20
305.7095138170665
 30
0.0
  0
LINE
  5
1D0
330
1F
100
AcDbEntity
  8
0
  6
CONTINUOUS
 62
     7
100
AcDbLine
 10
-978.920674432219
 20
303.7499999999952
 30
0.0
 11
-978.565684881205
 21
303.7500000000086
 31
0.0
  0
LINE
  5
1D1
330
1F
100
AcDbEntity
  8
0
  6
CONTINUOUS
 62
     7
100
AcDbLine
 10
-981.7845774469752
 20
298.7499999998879
 30
0.0
 11
-981.7845774471439
 21
303.2499999999568
 31
0.0
  0
ARC
  5
1D2
330
1F
100
AcDbEntity
  8
0
  6
CONTINUOUS
 62
     7
100
AcDbCircle
 10
1034.0706820713
 20
71.70477254036003
 30
0.0
 40
0.0447035534787655
210
0.0
220
0.0
230
-1.0
100
AcDbArc
 50
12.94644453840025
 51
174.2753414918193
  0
ARC
  5
1D3
330
1F
100
AcDbEntity
  8
0
  6
CONTINUOUS
 62
     7
100
AcDbCircle
 10
990.4803886545745
 20
300.798926591169
 30
0.0
 40
0.0476862459282892
210
0.0
220
0.0
230
-1.0
100
AcDbArc
 50
193.4652900407496
 51
0.7004498020600068
  0
LINE
  5
1D4
330
1F
100
AcDbEntity
  8
0
  6
CONTINUOUS
 62
     7
100
AcDbLine
 10
-986.4650262274074
 20
305.7221626955792
 30
0.0
 11
-986.5402411122221
 21
305.7220819143096
 31
0.0
  0
SPLINE
  5
1D5
330
1F
100
AcDbEntity
  8
0
  6
CONTINUOUS
 62
     7
100
AcDbSpline
210
0.0
220
0.0
230
1.0
 70
     8
 71
     3
 72
     9
 73
     5
 74
     0
 42
0.000000001
 43
0.0001
 40
0.2254544868490685
 40
0.2254544868490685
 40
0.2254544868490685
 40
0.2254544868490685
 40
0.2256495920817935
 40
0.2261929951532678
 40
0.2261929951532678
 40
0.2261929951532678
 40
0.2261929951532678
 10
-984.0677287252837
 20
300.7986180445171
 30
0.0
 10
-984.0763150184052
 20
300.7819053283974
 30
0.0
 10
-984.108815678096
 20
300.7346996098716
 30
0.0
 10
-984.1413163377894
 20
300.7504993716809
 30
0.0
 10
-984.1652307043613
 20
300.7946334057699
 30
0.0
  0
LINE
  5
1D6
330
1F
100
AcDbEntity
  8
0
  6
CONTINUOUS
 62
     7
100
AcDbLine
 10
-999.9679440875796
 20
300.7991117768739
 30
0.0
 11
-1000.05545217233
 21
300.7773713149649
 31
0.0
  0
LINE
  5
1D7
330
1F
100
AcDbEntity
  8
0
  6
CONTINUOUS
 62
     7
100
AcDbLine
 10
-978.5656848811675
 20
302.7500000000086
 30
0.0
 11
-978.9206744321815
 21
302.7499999999953
 31
0.0
  0
SPLINE
  5
1D8
330
1F
100
AcDbEntity
  8
0
  6
CONTINUOUS
 62
     7
100
AcDbSpline
210
0.0
220
0.0
230
1.0
 70
     8
 71
     3
 72
     9
 73
     5
 74
     0
 42
0.000000001
 43
0.0001
 40
0.1290835814575366
 40
0.1290835814575366
 40
0.1290835814575366
 40
0.1290835814575366
 40
0.1297003607715103
 40
0.1297584306971403
 40
0.1297584306971403
 40
0.1297584306971403
 40
0.1297584306971403
 10
-996.7995569647957
 20
300.7792716445855
 30
0.0
 10
-996.8267005114204
 20
300.7388704382666
 30
0.0
 10
-996.8563996297047
 20
300.7408425767705
 30
0.0
 10
-996.8860987479906
 20
300.7949056366999
 30
0.0
 10
-996.8886543196486
 20
300.7999384780331
 30
0.0
  0
LINE
  5
1D9
330
1F
100
AcDbEntity
  8
0
  6
CONTINUOUS
 62
     7
100
AcDbLine
 10
-987.2579659503816
 20
300.7810486339361
 30
0.0
 11
-987.337448816831
 21
300.7811816481965
 31
0.0
  0
LINE
  5
1DA
330
1F
100
AcDbEntity
  8
0
  6
CONTINUOUS
 62
     7
100
AcDbLine
 10
-978.920674432219
 20
303.7500000000438
 30
0.0
 11
-980.3230789792086
 21
303.7500000000092
 31
0.0
  0
ARC
  5
1DB
330
1F
100
AcDbEntity
  8
0
  6
CONTINUOUS
 62
     7
100
AcDbCircle
 10
-1044.408450084935
 20
66.79568870362719
 30
0.0
 40
0.0455366311411565
100
AcDbArc
 50
183.7505361631384
 51
349.540631974453
  0
LINE
  5
1DC
330
1F
100
AcDbEntity
  8
0
  6
CONTINUOUS
 62
     7
100
AcDbLine
 10
-991.2335209298044
 20
305.7194185571756
 30
0.0
 11
-991.319291453729
 21
305.7077162596752
 31
0.0
  0
LINE
  5
1DD
330
1F
100
AcDbEntity
  8
0
  6
CONTINUOUS
 62
     7
100
AcDbLine
 10
-1053.934315118892
 20
70.5499999999838
 30
0.0
 11
-1053.934315118832
 21
69.74999999997154
 31
0.0
  0
ARC
  5
1DE
330
1F
100
AcDbEntity
  8
0
  6
CONTINUOUS
 62
     7
100
AcDbCircle
 10
-1042.015422552837
 20
69.2500000004305
 30
0.0
 40
11.9895788082818
100
AcDbArc
 50
168.5780028258401
 51
173.7753245073467
  0
LINE
  5
1DF
330
1F
100
AcDbEntity
  8
0
  6
CONTINUOUS
 62
     7
100
AcDbLine
 10
-978.7324496435344
 20
300.8235845183158
 30
0.0
 11
-978.7324496435365
 21
300.8756596516673
 31
0.0
  0
ARC
  5
1E0
330
1F
100
AcDbEntity
  8
0
  6
CONTINUOUS
 62
     7
100
AcDbCircle
 10
988.8852703716345
 20
300.7981156874144
 30
0.0
 40
0.0482240381670372
210
0.0
220
0.0
230
-1.0
100
AcDbArc
 50
177.2926274708804
 51
350.132452979781
  0
SPLINE
  5
1E1
330
1F
100
AcDbEntity
  8
0
  6
CONTINUOUS
 62
     7
100
AcDbSpline
210
0.0
220
0.0
230
1.0
 70
     8
 71
     3
 72
     9
 73
     5
 74
     0
 42
0.000000001
 43
0.0001
 40
0.2314535737168577
 40
0.2314535737168577
 40
0.2314535737168577
 40
0.2314535737168577
 40
0.2316181061445876
 40
0.2322159372568586
 40
0.2322159372568586
 40
0.2322159372568586
 40
0.2322159372568586
 10
-983.2725463674783
 20
305.701120555267
 30
0.0
 10
-983.2797871966039
 20
305.715254241565
 30
0.0
 10
-983.3133376899673
 20
305.7667299795605
 30
0.0
 10
-983.3468881833279
 20
305.7511797976932
 30
0.0
 10
-983.3731978475624
 20
305.699695247131
 30
0.0
  0
SPLINE
  5
1E2
330
1F
100
AcDbEntity
  8
0
  6
CONTINUOUS
 62
     7
100
AcDbSpline
210
0.0
220
0.0
230
1.0
 70
     8
 71
     3
 72
     9
 73
     5
 74
     0
 42
0.000000001
 43
0.0001
 40
0.147230723339946
 40
0.147230723339946
 40
0.147230723339946
 40
0.147230723339946
 40
0.1478429668943342
 40
0.1479144396633128
 40
0.1479144396633128
 40
0.1479144396633128
 40
0.1479144396633128
 10
-994.4024995512527
 20
305.7000424307974
 30
0.0
 10
-994.4294434857812
 20
305.752569265946
 30
0.0
 10
-994.4595328313031
 20
305.7651859710702
 30
0.0
 10
-994.4896221768233
 20
305.7239440362659
 30
0.0
 10
-994.4927675878184
 20
305.7190524020781
 30
0.0
  0
LINE
  5
1E3
330
1F
100
AcDbEntity
  8
0
  6
CONTINUOUS
 62
     7
100
AcDbLine
 10
-1031.732182223031
 20
66.79013684077422
 30
0.0
 11
-1031.649450302287
 21
66.77752947412121
 31
0.0
  0
LINE
  5
1E4
330
1F
100
AcDbEntity
  8
0
  6
CONTINUOUS
 62
     7
100
AcDbLine
 10
-980.3230789792086
 20
303.7500000000092
 30
0.0
 11
-980.7845774473268
 21
303.7499999999925
 31
0.0
  0
LINE
  5
1E5
330
1F
100
AcDbEntity
  8
0
  6
CONTINUOUS
 62
     7
100
AcDbLine
 10
-993.6098987069406
 20
300.7953622172387
 30
0.0
 11
-993.6954534554436
 21
300.7775147173296
 31
0.0
  0
LINE
  5
1E6
330
1F
100
AcDbEntity
  8
0
  6
CONTINUOUS
 62
     7
100
AcDbLine
 10
-984.868483059927
 20
305.7118577209649
 30
0.0
 11
-984.9543154385124
 21
305.7156657762087
 31
0.0
  0
ARC
  5
1E7
330
1F
100
AcDbEntity
  8
0
  6
CONTINUOUS
 62
     7
100
AcDbCircle
 10
1043.614729628365
 20
71.70188431258569
 30
0.0
 40
0.0482240381670385
210
0.0
220
0.0
230
-1.0
100
AcDbArc
 50
357.2926274708473
 51
170.1324529798133
  0
LINE
  5
1E8
330
1F
100
AcDbEntity
  8
0
  6
CONTINUOUS
 62
     7
100
AcDbLine
 10
-996.2500000000002
 20
73.9245157701909
 30
0.0
 11
-996.2500000000002
 21
67.57864377047461
 31
0.0
  0
LINE
  5
1E9
330
1F
100
AcDbEntity
  8
0
  6
CONTINUOUS
 62
     7
100
AcDbLine
 10
-1016.25
 20
63.25000000000336
 30
0.0
 11
-1029.25
 21
63.25000000000338
 31
0.0
  0
ARC
  5
1EA
330
1F
100
AcDbEntity
  8
0
  6
CONTINUOUS
 62
     7
100
AcDbCircle
 10
-990.4845774471626
 20
303.2499999995695
 30
0.0
 40
11.9895788082818
100
AcDbArc
 50
348.5780028258401
 51
353.7753245073467
  0
ARC
  5
1EB
330
1F
100
AcDbEntity
  8
0
  6
CONTINUOUS
 62
     7
100
AcDbCircle
 10
-1034.25
 20
307.2499999999991
 30
0.0
 40
2.000000000000002
100
AcDbArc
 50
90.00000000002308
 51
180.0
  0
ARC
  5
1EC
330
1F
100
AcDbEntity
  8
0
  6
CONTINUOUS
 62
     7
100
AcDbCircle
 10
1016.25
 20
186.2499999999989
 30
0.0
 40
113.5000000000001
210
0.0
220
0.0
230
-1.0
100
AcDbArc
 50
97.81441978139192
 51
98.1276129724912
  0
LINE
  5
1ED
330
1F
100
AcDbEntity
  8
0
  6
CONTINUOUS
 62
     7
100
AcDbLine
 10
-1036.25
 20
298.5754842298091
 30
0.0
 11
-1036.25
 21
304.9213562295254
 31
0.0
  0
ARC
  5
1EE
330
1F
100
AcDbEntity
  8
0
  6
CONTINUOUS
 62
     7
100
AcDbCircle
 10
1058.721132713468
 20
228.7211327134683
 30
0.0
 40
67.02886728793044
210
0.0
220
0.0
230
-1.0
100
AcDbArc
 50
359.9996298648291
 51
90.0003701351709
  0
LINE
  5
1EF
330
1F
100
AcDbEntity
  8
0
  6
CONTINUOUS
 62
     7
100
AcDbLine
 10
-998.2499999999995
 20
63.25000000000099
 30
0.0
 11
-1016.25
 21
63.250000000001
 31
0.0
  0
LINE
  5
1F0
330
1F
100
AcDbEntity
  8
0
  6
CONTINUOUS
 62
     7
100
AcDbLine
 10
-262.4999999999999
 20
288.7499999999968
 30
0.0
 11
-262.4999999999999
 21
292.7499999999966
 31
0.0
  0
ARC
  5
1F1
330
1F
100
AcDbEntity
  8
0
  6
CONTINUOUS
 62
     7
100
AcDbCircle
 10
-1003.25
 20
307.2499999999967
 30
0.0
 40
2.000000000000002
100
AcDbArc
 50
0.0
 51
90.00000000000006
  0
LINE
  5
1F2
330
1F
100
AcDbEntity
  8
0
  6
CONTINUOUS
 62
     7
100
AcDbLine
 10
-996.2500000000002
 20
67.57864377047461
 30
0.0
 11
-996.2500000000002
 21
65.25000000000095
 31
0.0
  0
LINE
  5
1F3
330
1F
100
AcDbEntity
  8
0
  6
CONTINUOUS
 62
     7
100
AcDbLine
 10
-1031.25
 20
73.30864353568575
 30
0.0
 11
-1031.250694514384
 21
73.33498802342028
 31
0.0
  0
ARC
  5
1F4
330
1F
100
AcDbEntity
  8
0
  6
CONTINUOUS
 62
     7
100
AcDbCircle
 10
1016.25
 20
186.2499999999989
 30
0.0
 40
113.5
210
0.0
220
0.0
230
-1.0
100
AcDbArc
 50
171.8723870275048
 51
188.1276129724954
  0
LINE
  5
1F5
330
1F
100
AcDbEntity
  8
0
  6
CONTINUOUS
 62
     7
100
AcDbLine
 10
-262.4999999999999
 20
83.75000000000031
 30
0.0
 11
-262.4999999999999
 21
79.75000000000041
 31
0.0
  0
LINE
  5
1F6
330
1F
100
AcDbEntity
  8
0
  6
CONTINUOUS
 62
     7
100
AcDbLine
 10
-1016.25
 20
309.2499999999967
 30
0.0
 11
-1003.25
 21
309.2499999999966
 31
0.0
  0
ARC
  5
1F7
330
1F
100
AcDbEntity
  8
0
  6
CONTINUOUS
 62
     7
100
AcDbCircle
 10
-266.493219851377
 20
289.1725640723058
 30
0.0
 40
0.5000000000000036
100
AcDbArc
 50
182.4999999999996
 51
272.2218640556135
  0
ARC
  5
1F8
330
1F
100
AcDbEntity
  8
0
  6
CONTINUOUS
 62
     7
100
AcDbCircle
 10
973.7788672865317
 20
143.7788672865318
 30
0.0
 40
67.02886728793032
210
0.0
220
0.0
230
-1.0
100
AcDbArc
 50
179.9996298648292
 51
270.0003701351708
  0
ARC
  5
1F9
330
1F
100
AcDbEntity
  8
0
  6
CONTINUOUS
 62
     7
100
AcDbCircle
 10
-1000.75
 20
299.1913564643143
 30
0.0
 40
0.5000000000000554
100
AcDbArc
 50
183.0202544575601
 51
262.1855802186081
  0
LINE
  5
1FA
330
1F
100
AcDbEntity
  8
0
  6
CONTINUOUS
 62
     7
100
AcDbLine
 10
-1036.25
 20
304.9213562295254
 30
0.0
 11
-1036.25
 21
307.2499999999991
 31
0.0
  0
ARC
  5
1FB
330
1F
100
AcDbEntity
  8
0
  6
CONTINUOUS
 62
     7
100
AcDbCircle
 10
1058.721132713468
 20
143.7788672865318
 30
0.0
 40
67.02886728793037
210
0.0
220
0.0
230
-1.0
100
AcDbArc
 50
269.9996298648293
 51
0.0003701351707832
  0
ARC
  5
1FC
330
1F
100
AcDbEntity
  8
0
  6
CONTINUOUS
 62
     7
100
AcDbCircle
 10
-998.2500000000002
 20
65.25000000000095
 30
0.0
 40
2.000000000000002
100
AcDbArc
 50
270.0000000000231
 51
0.0
  0
ARC
  5
1FD
330
1F
100
AcDbEntity
  8
0
  6
CONTINUOUS
 62
     7
100
AcDbCircle
 10
1016.25
 20
186.2500000000011
 30
0.0
 40
113.5
210
0.0
220
0.0
230
-1.0
100
AcDbArc
 50
351.8723870275048
 51
8.127612972495227
  0
LINE
  5
1FE
330
1F
100
AcDbEntity
  8
0
  6
CONTINUOUS
 62
     7
100
AcDbLine
 10
-1001.25
 20
307.2499999999967
 30
0.0
 11
-1001.25
 21
304.9304217998319
 31
0.0
  0
LINE
  5
1FF
330
1F
100
AcDbEntity
  8
0
  6
CONTINUOUS
 62
     7
100
AcDbLine
 10
-369.4371146101776
 20
161.56162178576
 30
0.0
 11
-362.3729316404848
 21
163.192516929753
 31
0.0
  0
LINE
  5
200
330
1F
100
AcDbEntity
  8
0
  6
CONTINUOUS
 62
     7
100
AcDbLine
 10
-1125.75
 20
143.7793002982031
 30
0.0
 11
-1125.75
 21
228.720699701797
 31
0.0
  0
LINE
  5
201
330
1F
100
AcDbEntity
  8
0
  6
CONTINUOUS
 62
     7
100
AcDbLine
 10
-1001.25
 20
304.9304217998319
 30
0.0
 11
-1001.25
 21
299.1913564643143
 31
0.0
  0
ARC
  5
202
330
1F
100
AcDbEntity
  8
0
  6
CONTINUOUS
 62
     7
100
AcDbCircle
 10
-1031.75
 20
73.30864353568575
 30
0.0
 40
0.5000000000000554
100
AcDbArc
 50
3.020254457560089
 51
82.1855802186081
  0
ARC
  5
203
330
1F
100
AcDbEntity
  8
0
  6
CONTINUOUS
 62
     7
100
AcDbCircle
 10
-1029.25
 20
65.25000000000334
 30
0.0
 40
2.000000000000002
100
AcDbArc
 50
180.0
 51
270.0000000000001
  0
LINE
  5
204
330
1F
100
AcDbEntity
  8
0
  6
CONTINUOUS
 62
     7
100
AcDbLine
 10
-1031.25
 20
67.56957820016811
 30
0.0
 11
-1031.25
 21
73.30864353568575
 31
0.0
  0
LINE
  5
205
330
1F
100
AcDbEntity
  8
0
  6
CONTINUOUS
 62
     7
100
AcDbLine
 10
-1031.25
 20
65.25000000000334
 30
0.0
 11
-1031.25
 21
67.56957820016811
 31
0.0
  0
ARC
  5
206
330
1F
100
AcDbEntity
  8
0
  6
CONTINUOUS
 62
     7
100
AcDbCircle
 10
1016.25
 20
186.2500000000011
 30
0.0
 40
113.5
210
0.0
220
0.0
230
-1.0
100
AcDbArc
 50
277.8144197813919
 51
278.1276129724912
  0
LINE
  5
207
330
1F
100
AcDbEntity
  8
0
  6
CONTINUOUS
 62
     7
100
AcDbLine
 10
-1034.25
 20
309.249999999999
 30
0.0
 11
-1016.25
 21
309.249999999999
 31
0.0
  0
ARC
  5
208
330
1F
100
AcDbEntity
  8
0
  6
CONTINUOUS
 62
     7
100
AcDbCircle
 10
973.7788672865316
 20
228.7211327134684
 30
0.0
 40
67.02886728793021
210
0.0
220
0.0
230
-1.0
100
AcDbArc
 50
89.99962986482916
 51
180.000370135171
  0
LINE
  5
209
330
1F
100
AcDbEntity
  8
0
  6
CONTINUOUS
 62
     7
100
AcDbLine
 10
-1001.25
 20
299.1913564643143
 30
0.0
 11
-1001.249305485616
 21
299.1650119765798
 31
0.0
  0
LINE
  5
20A
330
1F
100
AcDbEntity
  8
0
  6
CONTINUOUS
 62
     7
100
AcDbLine
 10
-266.9927439621679
 20
289.1507543786232
 30
0.0
 11
-267.145413557662
 21
292.6474630001937
 31
0.0
  0
LINE
  5
20B
330
1F
100
AcDbEntity
  8
0
  6
CONTINUOUS
 62
     7
100
AcDbLine
 10
-267.145413557662
 20
79.85253699980342
 30
0.0
 11
-266.9927439621679
 21
83.34924562137398
 31
0.0
  0
ARC
  5
20C
330
1F
100
AcDbEntity
  8
0
  6
CONTINUOUS
 62
     7
100
AcDbCircle
 10
262.4999999999999
 20
186.2499999999986
 30
0.0
 40
102.5
210
0.0
220
0.0
230
-1.0
100
AcDbArc
 50
87.77813594438672
 51
89.99999999999999
  0
LINE
  5
20D
330
1F
100
AcDbEntity
  8
0
  6
CONTINUOUS
 62
     7
100
AcDbLine
 10
-1048.831080645635
 20
67.35000000018272
 30
0.0
 11
-1047.962280655623
 21
67.35000000021529
 31
0.0
  0
LINE
  5
20E
330
1F
100
AcDbEntity
  8
0
  6
CONTINUOUS
 62
     7
100
AcDbLine
 10
-988.136319310472
 20
305.7125959611582
 30
0.0
 11
-988.4675916196218
 21
305.1498446415945
 31
0.0
  0
LINE
  5
20F
330
1F
100
AcDbEntity
  8
0
  6
CONTINUOUS
 62
     7
100
AcDbLine
 10
-984.9543134377634
 20
305.7156690212001
 30
0.0
 11
-985.2873293309173
 21
305.1498902807436
 31
0.0
  0
LINE
  5
210
330
1F
100
AcDbEntity
  8
0
  6
CONTINUOUS
 62
     7
100
AcDbLine
 10
-982.4822844190589
 20
300.7899841085184
 30
0.0
 11
-982.1623673605984
 21
301.3335887043083
 31
0.0
  0
LINE
  5
211
330
1F
100
AcDbEntity
  8
0
  6
CONTINUOUS
 62
     7
100
AcDbLine
 10
-1039.188419793119
 20
71.15000000054413
 30
0.0
 11
-1040.05739772597
 21
71.15000000051155
 31
0.0
  0
LINE
  5
212
330
1F
100
AcDbEntity
  8
0
  6
CONTINUOUS
 62
     7
100
AcDbLine
 10
-371.8323681155671
 20
176.6846572334435
 30
0.0
 11
-364.609956554402
 21
177.316536368364
 31
0.0
  0
LINE
  5
213
330
1F
100
AcDbEntity
  8
0
  6
CONTINUOUS
 62
     7
100
AcDbLine
 10
-988.8371119767555
 20
300.800370258784
 30
0.0
 11
-988.5132548487916
 21
301.350197406876
 31
0.0
  0
LINE
  5
214
330
1F
100
AcDbEntity
  8
0
  6
CONTINUOUS
 62
     7
100
AcDbLine
 10
-370.8987953803143
 20
169.0813174618337
 30
0.0
 11
-363.7380549109997
 21
170.2154673333754
 31
0.0
  0
ARC
  5
215
330
1F
100
AcDbEntity
  8
0
  6
CONTINUOUS
 62
     7
100
AcDbCircle
 10
262.4999999999999
 20
186.2499999999986
 30
0.0
 40
113.5
210
0.0
220
0.0
230
-1.0
100
AcDbArc
 50
280.3595411734038
 51
82.1855802186081
  0
LINE
  5
216
330
1F
100
AcDbEntity
  8
0
  6
CONTINUOUS
 62
     7
100
AcDbLine
 10
-372.2332845434119
 20
184.3345983935069
 30
0.0
 11
-364.9843887535282
 21
184.4611283401773
 31
0.0
  0
LINE
  5
217
330
1F
100
AcDbEntity
  8
0
  6
CONTINUOUS
 62
     7
100
AcDbLine
 10
-1037.598329091941
 20
71.15000000060371
 30
0.0
 11
-1038.467353631088
 21
71.15000000057114
 31
0.0
  0
LINE
  5
218
330
1F
100
AcDbEntity
  8
0
  6
CONTINUOUS
 62
     7
100
AcDbLine
 10
-1034.418161139812
 20
71.15000000072291
 30
0.0
 11
-1035.287375911127
 21
71.15000000069033
 31
0.0
  0
LINE
  5
219
330
1F
100
AcDbEntity
  8
0
  6
CONTINUOUS
 62
     7
100
AcDbLine
 10
-991.3192805427469
 20
305.7077360592733
 30
0.0
 11
-991.6477369520966
 21
305.1498627810631
 31
0.0
  0
LINE
  5
21A
330
1F
100
AcDbEntity
  8
0
  6
CONTINUOUS
 62
     7
100
AcDbLine
 10
-987.7013866548755
 20
301.3988927127116
 30
0.0
 11
-987.3374386110635
 21
300.7811657992804
 31
0.0
  0
LINE
  5
21B
330
1F
100
AcDbEntity
  8
0
  6
CONTINUOUS
 62
     7
100
AcDbLine
 10
-981.7775399221456
 20
305.7101164908421
 30
0.0
 11
-982.1001829710378
 21
305.1618326351339
 31
0.0
  0
ARC
  5
21C
330
1F
100
AcDbEntity
  8
0
  6
CONTINUOUS
 62
     7
100
AcDbCircle
 10
293.1314616607847
 20
87.38664199247643
 30
0.0
 40
1.0
210
0.0
220
0.0
230
-1.0
100
AcDbArc
 50
192.71488124062
 51
194.9999999999989
  0
LINE
  5
21D
330
1F
100
AcDbEntity
  8
0
  6
CONTINUOUS
 62
     7
100
AcDbLine
 10
-983.3731864172961
 20
305.6997176121861
 30
0.0
 11
-983.6971885138568
 21
305.1498086291271
 31
0.0
  0
LINE
  5
21E
330
1F
100
AcDbEntity
  8
0
  6
CONTINUOUS
 62
     7
100
AcDbLine
 10
-999.5867383588726
 20
305.1688142116793
 30
0.0
 11
-999.5979213723092
 21
305.1498966719153
 31
0.0
  0
LINE
  5
21F
330
1F
100
AcDbEntity
  8
0
  6
CONTINUOUS
 62
     7
100
AcDbLine
 10
-990.8889225290217
 20
301.4116968723081
 30
0.0
 11
-990.5280603416726
 21
300.799488006967
 31
0.0
  0
LINE
  5
220
330
1F
100
AcDbEntity
  8
0
  6
CONTINUOUS
 62
     7
100
AcDbLine
 10
-1000.417388819004
 20
301.3917329265941
 30
0.0
 11
-1000.05544783142
 21
300.7773650585165
 31
0.0
  0
LINE
  5
221
330
1F
100
AcDbEntity
  8
0
  6
CONTINUOUS
 62
     7
100
AcDbLine
 10
-986.5402383795569
 20
305.7220859261878
 30
0.0
 11
-986.87726235455
 21
305.1498933788003
 31
0.0
  0
LINE
  5
222
330
1F
100
AcDbEntity
  8
0
  6
CONTINUOUS
 62
     7
100
AcDbLine
 10
-987.2579740677288
 20
300.7810359974237
 30
0.0
 11
-986.9230902516871
 21
301.3501038674285
 31
0.0
  0
ARC
  5
223
330
1F
100
AcDbEntity
  8
0
  6
CONTINUOUS
 62
     7
100
AcDbCircle
 10
-262.4999999999999
 20
186.2499999999988
 30
0.0
 40
102.5000000000501
100
AcDbArc
 50
197.0
 51
197.2195350240913
  0
ARC
  5
224
330
1F
100
AcDbEntity
  8
0
  6
CONTINUOUS
 62
     7
100
AcDbCircle
 10
-980.4625281673193
 20
300.471776064605
 30
0.0
 40
1.599999999999982
100
AcDbArc
 50
275.0000000021475
 51
344.506032501625
  0
ARC
  5
225
330
1F
100
AcDbEntity
  8
0
  6
CONTINUOUS
 62
     7
100
AcDbCircle
 10
-262.4999999999999
 20
186.2499999999988
 30
0.0
 40
102.5000000000509
100
AcDbArc
 50
189.0
 51
189.2195350240913
  0
LINE
  5
226
330
1F
100
AcDbEntity
  8
0
  6
CONTINUOUS
 62
     7
100
AcDbLine
 10
-999.2634987491639
 20
305.7180669318762
 30
0.0
 11
-999.5867383588726
 21
305.1688142116793
 31
0.0
  0
ARC
  5
227
330
1F
100
AcDbEntity
  8
0
  6
CONTINUOUS
 62
     7
100
AcDbCircle
 10
-262.4999999999999
 20
186.2499999999986
 30
0.0
 40
102.5
100
AcDbArc
 50
267.7781359443867
 51
270.0
  0
ARC
  5
228
330
1F
100
AcDbEntity
  8
0
  6
CONTINUOUS
 62
     7
100
AcDbCircle
 10
-262.4999999999999
 20
186.2499999999988
 30
0.0
 40
102.5000000000506
100
AcDbArc
 50
193.0
 51
193.2195350240913
  0
ARC
  5
229
330
1F
100
AcDbEntity
  8
0
  6
CONTINUOUS
 62
     7
100
AcDbCircle
 10
-262.4999999999999
 20
186.2499999999988
 30
0.0
 40
102.5000000000512
100
AcDbArc
 50
181.0
 51
181.2195350240913
  0
LINE
  5
22A
330
1F
100
AcDbEntity
  8
0
  6
CONTINUOUS
 62
     7
100
AcDbLine
 10
-1034.520762614054
 20
67.35000000071906
 30
0.0
 11
-1033.651855581948
 21
67.35000000075162
 31
0.0
  0
LINE
  5
22B
330
1F
100
AcDbEntity
  8
0
  6
CONTINUOUS
 62
     7
100
AcDbLine
 10
-1037.700780210944
 20
67.35000000059988
 30
0.0
 11
-1036.8319362397
 21
67.35000000063245
 31
0.0
  0
LINE
  5
22C
330
1F
100
AcDbEntity
  8
0
  6
CONTINUOUS
 62
     7
100
AcDbLine
 10
-1047.240991287845
 20
67.35000000024232
 30
0.0
 11
-1046.371924169249
 21
67.3500000002749
 31
0.0
  0
LINE
  5
22D
330
1F
100
AcDbEntity
  8
0
  6
CONTINUOUS
 62
     7
100
AcDbLine
 10
-367.4544469669412
 20
154.162205406679
 30
0.0
 11
-360.5212374862093
 21
156.2819002659188
 31
0.0
  0
ARC
  5
22E
330
1F
100
AcDbEntity
  8
0
  6
CONTINUOUS
 62
     7
100
AcDbCircle
 10
-262.4999999999999
 20
186.2499999999988
 30
0.0
 40
102.5000000000512
100
AcDbArc
 50
185.0
 51
185.2195350240913
  0
ARC
  5
22F
330
1F
100
AcDbEntity
  8
0
  6
CONTINUOUS
 62
     7
100
AcDbCircle
 10
-266.493219851377
 20
83.3274359276913
 30
0.0
 40
0.5000000000000019
100
AcDbArc
 50
87.77813594438675
 51
177.4999999999986
  0
LINE
  5
230
330
1F
100
AcDbEntity
  8
0
  6
CONTINUOUS
 62
     7
100
AcDbLine
 10
-984.524886053353
 20
301.4048623171469
 30
0.0
 11
-984.165222282976
 21
300.7946178654221
 31
0.0
  0
LINE
  5
231
330
1F
100
AcDbEntity
  8
0
  6
CONTINUOUS
 62
     7
100
AcDbLine
 10
-1032.828093200814
 20
71.1500000007825
 30
0.0
 11
-1033.69689432937
 21
71.15000000074994
 31
0.0
  0
LINE
  5
232
330
1F
100
AcDbEntity
  8
0
  6
CONTINUOUS
 62
     7
100
AcDbLine
 10
-998.833123134976
 20
301.4008144196354
 30
0.0
 11
-998.4737880238356
 21
300.7907497580059
 31
0.0
  0
LINE
  5
233
330
1F
100
AcDbEntity
  8
0
  6
CONTINUOUS
 62
     7
100
AcDbLine
 10
-1031.25
 20
71.15000000084164
 30
0.0
 11
-1032.10724623205
 21
71.15000000080953
 31
0.0
  0
LINE
  5
234
330
1F
100
AcDbEntity
  8
0
  6
CONTINUOUS
 62
     7
100
AcDbLine
 10
-980.323078979191
 20
307.622135452222
 30
0.0
 11
-981.7845774473125
 21
307.749999999888
 31
0.0
  0
LINE
  5
235
330
1F
100
AcDbEntity
  8
0
  6
CONTINUOUS
 62
     7
100
AcDbLine
 10
-1044.060849680606
 20
67.3500000003615
 30
0.0
 11
-1043.191748944149
 21
67.35000000039408
 31
0.0
  0
LINE
  5
236
330
1F
100
AcDbEntity
  8
0
  6
CONTINUOUS
 62
     7
100
AcDbLine
 10
-224.8156848811675
 20
67.9499999999989
 30
0.0
 11
-224.8156848811076
 21
68.75000000001114
 31
0.0
  0
ARC
  5
237
330
1F
100
AcDbEntity
  8
0
  6
CONTINUOUS
 62
     7
100
AcDbCircle
 10
-236.7345774471251
 20
69.25000000044561
 30
0.0
 40
11.9895788082818
100
AcDbArc
 50
348.5780028215452
 51
353.7753245030518
  0
LINE
  5
238
330
1F
100
AcDbEntity
  8
0
  6
CONTINUOUS
 62
     7
100
AcDbLine
 10
-995.2029480096254
 20
300.7899204831425
 30
0.0
 11
-994.8733254371704
 21
301.3500804505135
 31
0.0
  0
LINE
  5
239
330
1F
100
AcDbEntity
  8
0
  6
CONTINUOUS
 62
     7
100
AcDbLine
 10
-985.2590087121544
 20
305.1499999997577
 30
0.0
 11
-986.1280758307507
 21
305.1499999997251
 31
0.0
  0
LINE
  5
23A
330
1F
100
AcDbEntity
  8
0
  6
CONTINUOUS
 62
     7
100
AcDbLine
 10
-224.9824496435364
 20
71.6243403483478
 30
0.0
 11
-224.9824496435344
 21
71.67641548168399
 31
0.0
  0
LINE
  5
23B
330
1F
100
AcDbEntity
  8
0
  6
CONTINUOUS
 62
     7
100
AcDbLine
 10
-990.8697983109347
 20
305.1021103846542
 30
0.0
 11
-991.2335346989906
 21
305.7194396861177
 31
0.0
  0
LINE
  5
23C
330
1F
100
AcDbEntity
  8
0
  6
CONTINUOUS
 62
     7
100
AcDbLine
 10
-224.8156848810701
 20
69.75000000001116
 30
0.0
 11
-224.8156848810701
 21
70.54999999999889
 31
0.0
  0
LINE
  5
23D
330
1F
100
AcDbEntity
  8
0
  6
CONTINUOUS
 62
     7
100
AcDbLine
 10
-225.1706744319444
 20
69.75000000000455
 30
0.0
 11
-224.8156848810701
 21
69.74999999999123
 31
0.0
  0
LINE
  5
23E
330
1F
100
AcDbEntity
  8
0
  6
CONTINUOUS
 62
     7
100
AcDbLine
 10
-1036.008239900309
 20
71.15000000066333
 30
0.0
 11
-1036.877036855668
 21
71.15000000063075
 31
0.0
  0
ARC
  5
23F
330
1F
100
AcDbEntity
  8
0
  6
CONTINUOUS
 62
     7
100
AcDbCircle
 10
-236.7345774471251
 20
69.25000000044561
 30
0.0
 40
11.98957880828181
100
AcDbArc
 50
6.224675492653336
 51
11.42199717415979
  0
LINE
  5
240
330
1F
100
AcDbEntity
  8
0
  6
CONTINUOUS
 62
     7
100
AcDbLine
 10
-997.6825385544229
 20
305.702291844925
 30
0.0
 11
-998.0079114020649
 21
305.1498253077664
 31
0.0
  0
LINE
  5
241
330
1F
100
AcDbEntity
  8
0
  6
CONTINUOUS
 62
     7
100
AcDbLine
 10
-984.0677373544901
 20
300.7986012497011
 30
0.0
 11
-983.7430889620778
 21
301.3502119904869
 31
0.0
  0
LINE
  5
242
330
1F
100
AcDbEntity
  8
0
  6
CONTINUOUS
 62
     7
100
AcDbLine
 10
-1040.88078687551
 20
67.35000000048069
 30
0.0
 11
-1040.011749307688
 21
67.35000000051326
 31
0.0
  0
ARC
  5
243
330
1F
100
AcDbEntity
  8
0
  6
CONTINUOUS
 62
     7
100
AcDbCircle
 10
-990.4845774471439
 20
303.2499999995619
 30
0.0
 40
12.00000000000006
100
AcDbArc
 50
11.66571408987276
 51
15.49396750267005
  0
LINE
  5
244
330
1F
100
AcDbEntity
  8
0
  6
CONTINUOUS
 62
     7
100
AcDbLine
 10
-1032.930739089644
 20
67.35000000077866
 30
0.0
 11
-1032.06167200683
 21
67.35000000081124
 31
0.0
  0
LINE
  5
245
330
1F
100
AcDbEntity
  8
0
  6
CONTINUOUS
 62
     7
100
AcDbLine
 10
-992.4688943080048
 20
301.3945623256615
 30
0.0
 11
-992.1086802520684
 21
300.7826172959274
 31
0.0
  0
LINE
  5
246
330
1F
100
AcDbEntity
  8
0
  6
CONTINUOUS
 62
     7
100
AcDbLine
 10
-995.6549068785778
 20
301.4040963148792
 30
0.0
 11
-995.2919815560039
 21
300.7877755626548
 31
0.0
  0
ARC
  5
247
330
1F
100
AcDbEntity
  8
0
  6
CONTINUOUS
 62
     7
100
AcDbCircle
 10
-990.4845774471439
 20
303.2499999995619
 30
0.0
 40
12.00000000000006
100
AcDbArc
 50
344.506032501625
 51
348.3342859144222
  0
LINE
  5
248
330
1F
100
AcDbEntity
  8
0
  6
CONTINUOUS
 62
     7
100
AcDbLine
 10
-985.6680296603157
 20
300.7807757356811
 30
0.0
 11
-985.3328015635449
 21
301.3501295772302
 31
0.0
  0
LINE
  5
249
330
1F
100
AcDbEntity
  8
0
  6
CONTINUOUS
 62
     7
100
AcDbLine
 10
-986.9513227156608
 20
301.3499999996943
 30
0.0
 11
-986.0821056740999
 21
301.3499999997268
 31
0.0
  0
LINE
  5
24A
330
1F
100
AcDbEntity
  8
0
  6
CONTINUOUS
 62
     7
100
AcDbLine
 10
-982.1001829710378
 20
305.1618326351339
 30
0.0
 11
-982.1072337314278
 21
305.1499213386702
 31
0.0
  0
LINE
  5
24B
330
1F
100
AcDbEntity
  8
0
  6
CONTINUOUS
 62
     7
100
AcDbLine
 10
-982.1623673605984
 20
301.3335887043083
 30
0.0
 11
-982.1526331024022
 21
301.3500460639023
 31
0.0
  0
LINE
  5
24C
330
1F
100
AcDbEntity
  8
0
  6
CONTINUOUS
 62
     7
100
AcDbLine
 10
-989.7335180823776
 20
305.6995226713079
 30
0.0
 11
-990.0572022149805
 21
305.149786603624
 31
0.0
  0
LINE
  5
24D
330
1F
100
AcDbEntity
  8
0
  6
CONTINUOUS
 62
     7
100
AcDbLine
 10
-998.081838860188
 20
301.3499999992771
 30
0.0
 11
-997.2126240888732
 21
301.3499999993097
 31
0.0
  0
LINE
  5
24E
330
1F
100
AcDbEntity
  8
0
  6
CONTINUOUS
 62
     7
100
AcDbLine
 10
-986.1068526995527
 20
301.3919298403345
 30
0.0
 11
-985.745396305857
 21
300.778211963271
 31
0.0
  0
LINE
  5
24F
330
1F
100
AcDbEntity
  8
0
  6
CONTINUOUS
 62
     7
100
AcDbLine
 10
-1031.340703285319
 20
67.35000000083825
 30
0.0
 11
-1031.25
 21
67.35000000084165
 31
0.0
  0
LINE
  5
250
330
1F
100
AcDbEntity
  8
0
  6
CONTINUOUS
 62
     7
100
AcDbLine
 10
-990.0291923083801
 20
305.1499999995789
 30
0.0
 11
-990.8980803704646
 21
305.1499999995463
 31
0.0
  0
LINE
  5
251
330
1F
100
AcDbEntity
  8
0
  6
CONTINUOUS
 62
     7
100
AcDbLine
 10
-996.3892240164903
 20
305.1499999993405
 30
0.0
 11
-997.2585011871716
 21
305.149999999308
 31
0.0
  0
LINE
  5
252
330
1F
100
AcDbEntity
  8
0
  6
CONTINUOUS
 62
     7
100
AcDbLine
 10
-989.2708100428433
 20
305.0866528367342
 30
0.0
 11
-989.6340092088689
 21
305.7032257430981
 31
0.0
  0
LINE
  5
253
330
1F
100
AcDbEntity
  8
0
  6
CONTINUOUS
 62
     7
100
AcDbLine
 10
-984.5057010926686
 20
305.0957794707163
 30
0.0
 11
-984.8684864693712
 21
305.7118636071764
 31
0.0
  0
LINE
  5
254
330
1F
100
AcDbEntity
  8
0
  6
CONTINUOUS
 62
     7
100
AcDbLine
 10
-1039.290782014311
 20
67.35000000054028
 30
0.0
 11
-1038.421624480859
 21
67.35000000057286
 31
0.0
  0
LINE
  5
255
330
1F
100
AcDbEntity
  8
0
  6
CONTINUOUS
 62
     7
100
AcDbLine
 10
-990.434026338562
 20
300.7878002035441
 30
0.0
 11
-990.1029740478076
 21
301.3501559078426
 31
0.0
  0
LINE
  5
256
330
1F
100
AcDbEntity
  8
0
  6
CONTINUOUS
 62
     7
100
AcDbLine
 10
-996.088551868408
 20
305.7095479574714
 30
0.0
 11
-996.4176265713623
 21
305.1499161659934
 31
0.0
  0
LINE
  5
257
330
1F
100
AcDbEntity
  8
0
  6
CONTINUOUS
 62
     7
100
AcDbLine
 10
-1000.850539142752
 20
305.7224857640356
 30
0.0
 11
-1001.187908870133
 21
305.1498958250534
 31
0.0
  0
LINE
  5
258
330
1F
100
AcDbEntity
  8
0
  6
CONTINUOUS
 62
     7
100
AcDbLine
 10
-992.9007766306394
 20
305.721937410397
 30
0.0
 11
-993.2375064862705
 21
305.1499002328443
 31
0.0
  0
LINE
  5
259
330
1F
100
AcDbEntity
  8
0
  6
CONTINUOUS
 62
     7
100
AcDbLine
 10
-995.6362093618479
 20
305.0960773835865
 30
0.0
 11
-995.9997426755696
 21
305.7131287012424
 31
0.0
  0
LINE
  5
25A
330
1F
100
AcDbEntity
  8
0
  6
CONTINUOUS
 62
     7
100
AcDbLine
 10
-986.8490891820325
 20
305.1499999996981
 30
0.0
 11
-987.7178866304798
 21
305.1499999996655
 31
0.0
  0
ARC
  5
25B
330
1F
100
AcDbEntity
  8
0
  6
CONTINUOUS
 62
     7
100
AcDbCircle
 10
-980.4625281675276
 20
306.02822393527
 30
0.0
 40
1.599999999999973
100
AcDbArc
 50
15.49396750266977
 51
85.0000000021472
  0
LINE
  5
25C
330
1F
100
AcDbEntity
  8
0
  6
CONTINUOUS
 62
     7
100
AcDbLine
 10
-1036.11077598351
 20
67.35000000065948
 30
0.0
 11
-1035.241498812828
 21
67.35000000069205
 31
0.0
  0
LINE
  5
25D
330
1F
100
AcDbEntity
  8
0
  6
CONTINUOUS
 62
     7
100
AcDbLine
 10
-982.181302360278
 20
301.349999999873
 30
0.0
 11
-981.7845774470727
 21
301.3499999998879
 31
0.0
  0
LINE
  5
25E
330
1F
100
AcDbEntity
  8
0
  6
CONTINUOUS
 62
     7
100
AcDbLine
 10
-981.7845774469752
 20
298.7499999998879
 30
0.0
 11
-980.3230789788632
 21
298.8778645476634
 31
0.0
  0
LINE
  5
25F
330
1F
100
AcDbEntity
  8
0
  6
CONTINUOUS
 62
     7
100
AcDbLine
 10
-993.2092179856892
 20
305.1499999994597
 30
0.0
 11
-994.0783755191412
 21
305.1499999994272
 31
0.0
  0
LINE
  5
260
330
1F
100
AcDbEntity
  8
0
  6
CONTINUOUS
 62
     7
100
AcDbLine
 10
-988.4391503193939
 20
305.1499999996385
 30
0.0
 11
-989.3082510558506
 21
305.1499999996059
 31
0.0
  0
LINE
  5
261
330
1F
100
AcDbEntity
  8
0
  6
CONTINUOUS
 62
     7
100
AcDbLine
 10
-989.2990576724326
 20
301.4120640849499
 30
0.0
 11
-988.9327625582025
 21
300.7898190587605
 31
0.0
  0
LINE
  5
262
330
1F
100
AcDbEntity
  8
0
  6
CONTINUOUS
 62
     7
100
AcDbLine
 10
-994.4927560157631
 20
305.7190703959189
 30
0.0
 11
-994.8278930984543
 21
305.1498689645532
 31
0.0
  0
LINE
  5
263
330
1F
100
AcDbEntity
  8
0
  6
CONTINUOUS
 62
     7
100
AcDbLine
 10
-1045.650910817968
 20
67.35000000030192
 30
0.0
 11
-1044.78211336952
 21
67.35000000033448
 31
0.0
  0
LINE
  5
264
330
1F
100
AcDbEntity
  8
0
  6
CONTINUOUS
 62
     7
100
AcDbLine
 10
-982.078828633461
 20
305.1499999998769
 30
0.0
 11
-982.9478856630828
 21
305.1499999998443
 31
0.0
  0
LINE
  5
265
330
1F
100
AcDbEntity
  8
0
  6
CONTINUOUS
 62
     7
100
AcDbLine
 10
-998.8141274371213
 20
305.0924636262874
 30
0.0
 11
-999.1743386296682
 21
305.7035389015031
 31
0.0
  0
LINE
  5
266
330
1F
100
AcDbEntity
  8
0
  6
CONTINUOUS
 62
     7
100
AcDbLine
 10
-982.9401024271001
 20
301.4142305556532
 30
0.0
 11
-982.5774767908123
 21
300.7989250873155
 31
0.0
  0
LINE
  5
267
330
1F
100
AcDbEntity
  8
0
  6
CONTINUOUS
 62
     7
100
AcDbLine
 10
-996.4917600996909
 20
301.3499999993367
 30
0.0
 11
-995.6229631443318
 21
301.3499999993693
 31
0.0
  0
LINE
  5
268
330
1F
100
AcDbEntity
  8
0
  6
CONTINUOUS
 62
     7
100
AcDbLine
 10
-1050.421171366539
 20
67.35000000012313
 30
0.0
 11
-1049.552114336917
 21
67.3500000001557
 31
0.0
  0
LINE
  5
269
330
1F
100
AcDbEntity
  8
0
  6
CONTINUOUS
 62
     7
100
AcDbLine
 10
-1042.47080769162
 20
67.3500000004211
 30
0.0
 11
-1041.601919629535
 21
67.35000000045368
 31
0.0
  0
LINE
  5
26A
330
1F
100
AcDbEntity
  8
0
  6
CONTINUOUS
 62
     7
100
AcDbLine
 10
-997.2507559271595
 20
301.4144966813328
 30
0.0
 11
-996.8886406706077
 21
300.7999116017747
 31
0.0
  0
LINE
  5
26B
330
1F
100
AcDbEntity
  8
0
  6
CONTINUOUS
 62
     7
100
AcDbLine
 10
-999.5692609103554
 20
305.1499999992214
 30
0.0
 11
-1000.43832799317
 21
305.1499999991888
 31
0.0
  0
LINE
  5
26C
330
1F
100
AcDbEntity
  8
0
  6
CONTINUOUS
 62
     7
100
AcDbLine
 10
-992.4618488732576
 20
305.1052648035127
 30
0.0
 11
-992.8221090542162
 21
305.7171025169958
 31
0.0
  0
LINE
  5
26D
330
1F
100
AcDbEntity
  8
0
  6
CONTINUOUS
 62
     7
100
AcDbLine
 10
-226.5730789788832
 20
68.75000000012362
 30
0.0
 11
-225.1706744319819
 21
68.75000000005303
 31
0.0
  0
LINE
  5
26E
330
1F
100
AcDbEntity
  8
0
  6
CONTINUOUS
 62
     7
100
AcDbLine
 10
-226.5730789788457
 20
69.75000000012362
 30
0.0
 11
-227.0345774469609
 21
69.75000000014153
 31
0.0
  0
LINE
  5
26F
330
1F
100
AcDbEntity
  8
0
  6
CONTINUOUS
 62
     7
100
AcDbLine
 10
-224.9824496437163
 20
66.82358451831097
 30
0.0
 11
-224.9824496437143
 21
66.87565965166247
 31
0.0
  0
LINE
  5
270
330
1F
100
AcDbEntity
  8
0
  6
CONTINUOUS
 62
     7
100
AcDbLine
 10
-994.0585564041492
 20
301.3938918718049
 30
0.0
 11
-993.6954487242934
 21
300.7775077730908
 31
0.0
  0
LINE
  5
271
330
1F
100
AcDbEntity
  8
0
  6
CONTINUOUS
 62
     7
100
AcDbLine
 10
-228.0345774473125
 20
64.75000000011187
 30
0.0
 11
-228.0345774469752
 21
73.75000000011188
 31
0.0
  0
LINE
  5
272
330
1F
100
AcDbEntity
  8
0
  6
CONTINUOUS
 62
     7
100
AcDbLine
 10
-227.0345774471251
 20
69.75000000014153
 30
0.0
 11
-227.0345774471625
 21
68.75000000014153
 31
0.0
  0
LINE
  5
273
330
1F
100
AcDbEntity
  8
0
  6
CONTINUOUS
 62
     7
100
AcDbLine
 10
-994.040748969415
 20
305.0863859132226
 30
0.0
 11
-994.4025087062665
 21
305.7000602767861
 31
0.0
  0
LINE
  5
274
330
1F
100
AcDbEntity
  8
0
  6
CONTINUOUS
 62
     7
100
AcDbLine
 10
-227.0345774469984
 20
68.75000000014153
 30
0.0
 11
-226.5730789788832
 21
68.75000000012362
 31
0.0
  0
ARC
  5
275
330
1F
100
AcDbEntity
  8
0
  6
CONTINUOUS
 62
     7
100
AcDbCircle
 10
245.4701287326593
 20
66.79664489555005
 30
0.0
 40
0.0458016152927438
210
0.0
220
0.0
230
-1.0
100
AcDbArc
 50
180.2035469409844
 51
341.2838249156318
  0
LINE
  5
276
330
1F
100
AcDbEntity
  8
0
  6
CONTINUOUS
 62
     7
100
AcDbLine
 10
-999.6719067991855
 20
301.3499999992175
 30
0.0
 11
-998.8031056706296
 21
301.34999999925
 31
0.0
  0
SPLINE
  5
277
330
1F
100
AcDbEntity
  8
0
  6
CONTINUOUS
 62
     7
100
AcDbSpline
210
0.0
220
0.0
230
1.0
 70
     8
 71
     3
 72
     9
 73
     5
 74
     0
 42
0.000000001
 43
0.0001
 40
0.2314535737168595
 40
0.2314535737168595
 40
0.2314535737168595
 40
0.2314535737168595
 40
0.2316181061445894
 40
0.2322159372568586
 40
0.2322159372568586
 40
0.2322159372568586
 40
0.2322159372568586
 10
-229.5225463674783
 20
66.79887944473279
 30
0.0
 10
-229.5297871966039
 20
66.78474575843481
 30
0.0
 10
-229.5633376899672
 20
66.73327002043939
 30
0.0
 10
-229.5968881833277
 20
66.7488202023065
 30
0.0
 10
-229.6231978475622
 20
66.80030475286831
 30
0.0
  0
ARC
  5
278
330
1F
100
AcDbEntity
  8
0
  6
CONTINUOUS
 62
     7
100
AcDbCircle
 10
-235.1352703716345
 20
71.70188431258542
 30
0.0
 40
0.0482240381670926
100
AcDbArc
 50
357.2926274708836
 51
170.1324529797971
  0
SPLINE
  5
279
330
1F
100
AcDbEntity
  8
0
  6
CONTINUOUS
 62
     7
100
AcDbSpline
210
0.0
220
0.0
230
1.0
 70
     8
 71
     3
 72
     9
 73
     5
 74
     0
 42
0.000000001
 43
0.0001
 40
0.135143644057754
 40
0.135143644057754
 40
0.135143644057754
 40
0.135143644057754
 40
0.1357649806525559
 40
0.1358165028865544
 40
0.1358165028865544
 40
0.1358165028865544
 40
0.1358165028865544
 10
-242.2497365374164
 20
66.7868815674776
 30
0.0
 10
-242.2770806432225
 20
66.74113350932821
 30
0.0
 10
-242.3066921664451
 20
66.73783545622355
 30
0.0
 10
-242.336303689666
 20
66.7864616370842
 30
0.0
 10
-242.3385711070842
 20
66.79048618293336
 30
0.0
  0
LINE
  5
27A
330
1F
100
AcDbEntity
  8
0
  6
CONTINUOUS
 62
     7
100
AcDbLine
 10
-231.1184830599269
 20
66.78814227903487
 30
0.0
 11
-231.2043154385128
 21
66.78433422379159
 31
0.0
  0
LINE
  5
27B
330
1F
100
AcDbEntity
  8
0
  6
CONTINUOUS
 62
     7
100
AcDbLine
 10
-246.2179440875796
 20
71.70088822312596
 30
0.0
 11
-246.3054521723298
 21
71.72262868503489
 31
0.0
  0
LINE
  5
27C
330
1F
100
AcDbEntity
  8
0
  6
CONTINUOUS
 62
     7
100
AcDbLine
 10
-983.7713040142854
 20
301.3499999998135
 30
0.0
 11
-982.9021198525143
 21
301.349999999846
 31
0.0
  0
SPLINE
  5
27D
330
1F
100
AcDbEntity
  8
0
  6
CONTINUOUS
 62
     7
100
AcDbSpline
210
0.0
220
0.0
230
1.0
 70
     8
 71
     3
 72
     9
 73
     5
 74
     0
 42
0.000000001
 43
0.0001
 40
0.2254544868490685
 40
0.2254544868490685
 40
0.2254544868490685
 40
0.2254544868490685
 40
0.2256495920817935
 40
0.2261929951532678
 40
0.2261929951532678
 40
0.2261929951532678
 40
0.2261929951532678
 10
-230.3177287252837
 20
71.70138195548274
 30
0.0
 10
-230.3263150184052
 20
71.71809467160239
 30
0.0
 10
-230.358815678096
 20
71.76530039012819
 30
0.0
 10
-230.3913163377894
 20
71.74950062831893
 30
0.0
 10
-230.4152307043613
 20
71.70536659422989
 30
0.0
  0
SPLINE
  5
27E
330
1F
100
AcDbEntity
  8
0
  6
CONTINUOUS
 62
     7
100
AcDbSpline
210
0.0
220
0.0
230
1.0
 70
     8
 71
     3
 72
     9
 73
     5
 74
     0
 42
0.000000001
 43
0.0001
 40
0.1290835814575366
 40
0.1290835814575366
 40
0.1290835814575366
 40
0.1290835814575366
 40
0.1297003607715103
 40
0.1297584306971403
 40
0.1297584306971403
 40
0.1297584306971403
 40
0.1297584306971403
 10
-243.0495569647957
 20
71.72072835541422
 30
0.0
 10
-243.0767005114203
 20
71.76112956173324
 30
0.0
 10
-243.1063996297046
 20
71.75915742322935
 30
0.0
 10
-243.1360987479906
 20
71.7050943632999
 30
0.0
 10
-243.1386543196485
 20
71.70006152196666
 30
0.0
  0
LINE
  5
27F
330
1F
100
AcDbEntity
  8
0
  6
CONTINUOUS
 62
     7
100
AcDbLine
 10
-238.2804821201562
 20
71.72229273933996
 30
0.0
 11
-238.3586864646836
 21
71.71737277624247
 31
0.0
  0
LINE
  5
280
330
1F
100
AcDbEntity
  8
0
  6
CONTINUOUS
 62
     7
100
AcDbLine
 10
-999.9679508746777
 20
300.7990986592146
 30
0.0
 11
-999.6433894080814
 21
301.3501986986204
 31
0.0
  0
LINE
  5
281
330
1F
100
AcDbEntity
  8
0
  6
CONTINUOUS
 62
     7
100
AcDbLine
 10
-1000.401879675441
 20
305.0883973533536
 30
0.0
 11
-1000.76782316047
 21
305.709872562694
 31
0.0
  0
LINE
  5
282
330
1F
100
AcDbEntity
  8
0
  6
CONTINUOUS
 62
     7
100
AcDbLine
 10
-239.0720974174359
 20
66.78291595027967
 30
0.0
 11
-239.1507882095681
 21
66.77807976625505
 31
0.0
  0
LINE
  5
283
330
1F
100
AcDbEntity
  8
0
  6
CONTINUOUS
 62
     7
100
AcDbLine
 10
-994.9016709080589
 20
301.3499999993963
 30
0.0
 11
-994.0326463689121
 21
301.3499999994289
 31
0.0
  0
LINE
  5
284
330
1F
100
AcDbEntity
  8
0
  6
CONTINUOUS
 62
     7
100
AcDbLine
 10
-986.102507345044
 20
305.1066817780043
 30
0.0
 11
-986.4650356172375
 21
305.7221765581458
 31
0.0
  0
LINE
  5
285
330
1F
100
AcDbEntity
  8
0
  6
CONTINUOUS
 62
     7
100
AcDbLine
 10
-985.3613080906885
 20
301.3499999997539
 30
0.0
 11
-984.4924594597406
 21
301.3499999997865
 31
0.0
  0
SPLINE
  5
286
330
1F
100
AcDbEntity
  8
0
  6
CONTINUOUS
 62
     7
100
AcDbSpline
210
0.0
220
0.0
230
1.0
 70
     8
 71
     3
 72
     9
 73
     5
 74
     0
 42
0.000000001
 43
0.0001
 40
0.1411771623465533
 40
0.1411771623465533
 40
0.1411771623465533
 40
0.1411771623465533
 40
0.1417802125111214
 40
0.1418517313649067
 40
0.1418517313649067
 40
0.1418517313649067
 40
0.1418517313649067
 10
-241.4529320635552
 20
71.71005173508348
 30
0.0
 10
-241.4794714105922
 20
71.75629751060852
 30
0.0
 10
-241.5091581967529
 20
71.76311099491724
 30
0.0
 10
-241.5388449829152
 20
71.71760945512023
 30
0.0
 10
-241.5419924220373
 20
71.71220578433255
 30
0.0
  0
SPLINE
  5
287
330
1F
100
AcDbEntity
  8
0
  6
CONTINUOUS
 62
     7
100
AcDbSpline
210
0.0
220
0.0
230
1.0
 70
     8
 71
     3
 72
     9
 73
     5
 74
     0
 42
0.000000001
 43
0.0001
 40
0.2374805090693563
 40
0.2374805090693563
 40
0.2374805090693563
 40
0.2374805090693563
 40
0.2375772266883808
 40
0.2382016373567392
 40
0.2382016373567392
 40
0.2382016373567392
 40
0.2382016373567392
 10
-228.7322809059622
 20
71.71000968526432
 30
0.0
 10
-228.7365373055235
 20
71.71752930763424
 30
0.0
 10
-228.7682730963443
 20
71.7657226192935
 30
0.0
 10
-228.8000088871678
 20
71.7540646120842
 30
0.0
 10
-228.8274882784308
 20
71.70105275384913
 30
0.0
  0
LINE
  5
288
330
1F
100
AcDbEntity
  8
0
  6
CONTINUOUS
 62
     7
100
AcDbLine
 10
-243.8455572647304
 20
66.77780733909806
 30
0.0
 11
-243.932547068981
 21
66.7977245206703
 31
0.0
  0
LINE
  5
289
330
1F
100
AcDbEntity
  8
0
  6
CONTINUOUS
 62
     7
100
AcDbLine
 10
-987.6865742245927
 20
305.0969953342026
 30
0.0
 11
-988.0461194799792
 21
305.7073057344286
 31
0.0
  0
ARC
  5
28A
330
1F
100
AcDbEntity
  8
0
  6
CONTINUOUS
 62
     7
100
AcDbCircle
 10
234.3415499150646
 20
66.79568870362695
 30
0.0
 40
0.0455366311411556
210
0.0
220
0.0
230
-1.0
100
AcDbArc
 50
183.750536163121
 51
349.5406319744637
  0
LINE
  5
28B
330
1F
100
AcDbEntity
  8
0
  6
CONTINUOUS
 62
     7
100
AcDbLine
 10
-1001.25
 20
301.3215488526089
 30
0.0
 11
-1001.23307814674
 21
301.3501476704306
 31
0.0
  0
LINE
  5
28C
330
1F
100
AcDbEntity
  8
0
  6
CONTINUOUS
 62
     7
100
AcDbLine
 10
-232.7150262274073
 20
66.7778373044206
 30
0.0
 11
-232.7902411122221
 21
66.7779180856902
 31
0.0
  0
LINE
  5
28D
330
1F
100
AcDbEntity
  8
0
  6
CONTINUOUS
 62
     7
100
AcDbLine
 10
-993.3115802068808
 20
301.3499999994559
 30
0.0
 11
-992.4426022740296
 21
301.3499999994885
 31
0.0
  0
LINE
  5
28E
330
1F
100
AcDbEntity
  8
0
  6
CONTINUOUS
 62
     7
100
AcDbLine
 10
-990.131416353331
 20
301.3499999995751
 30
0.0
 11
-989.262340690301
 21
301.3499999996076
 31
0.0
  0
ARC
  5
28F
330
1F
100
AcDbEntity
  8
0
  6
CONTINUOUS
 62
     7
100
AcDbCircle
 10
235.9337070177336
 20
66.80017232941397
 30
0.0
 40
0.0498248350130257
210
0.0
220
0.0
230
-1.0
100
AcDbArc
 50
183.8829435404317
 51
0.3795459092647206
  0
LINE
  5
290
330
1F
100
AcDbEntity
  8
0
  6
CONTINUOUS
 62
     7
100
AcDbLine
 10
-247.0178177769689
 20
66.79013684077404
 30
0.0
 11
-247.1005496977131
 21
66.77752947412101
 31
0.0
  0
LINE
  5
291
330
1F
100
AcDbEntity
  8
0
  6
CONTINUOUS
 62
     7
100
AcDbLine
 10
-993.6099085249939
 20
300.7953439618042
 30
0.0
 11
-993.2830832894637
 21
301.3501521329034
 31
0.0
  0
LINE
  5
292
330
1F
100
AcDbEntity
  8
0
  6
CONTINUOUS
 62
     7
100
AcDbLine
 10
-982.9115261200474
 20
305.0885017380873
 30
0.0
 11
-983.2725521427643
 21
305.7011318276551
 31
0.0
  0
ARC
  5
293
330
1F
100
AcDbEntity
  8
0
  6
CONTINUOUS
 62
     7
100
AcDbCircle
 10
-236.7303886545744
 20
71.7010734088307
 30
0.0
 40
0.0476862459282719
100
AcDbArc
 50
13.46529004080603
 51
180.7004498020422
  0
LINE
  5
294
330
1F
100
AcDbEntity
  8
0
  6
CONTINUOUS
 62
     7
100
AcDbLine
 10
-224.8156848811076
 20
68.74999999999123
 30
0.0
 11
-225.1706744319819
 21
68.75000000000455
 31
0.0
  0
LINE
  5
295
330
1F
100
AcDbEntity
  8
0
  6
CONTINUOUS
 62
     7
100
AcDbLine
 10
-983.6689193543644
 20
305.1499999998173
 30
0.0
 11
-984.5377193443766
 21
305.1499999997848
 31
0.0
  0
LINE
  5
296
330
1F
100
AcDbEntity
  8
0
  6
CONTINUOUS
 62
     7
100
AcDbLine
 10
-991.6192131244901
 20
305.1499999995193
 30
0.0
 11
-992.4882506923124
 21
305.1499999994868
 31
0.0
  0
LINE
  5
297
330
1F
100
AcDbEntity
  8
0
  6
CONTINUOUS
 62
     7
100
AcDbLine
 10
-988.5413591680099
 20
301.3499999996347
 30
0.0
 11
-987.6725123573999
 21
301.3499999996673
 31
0.0
  0
LINE
  5
298
330
1F
100
AcDbEntity
  8
0
  6
CONTINUOUS
 62
     7
100
AcDbLine
 10
-997.233742271176
 20
305.1080607427762
 30
0.0
 11
-997.5955623576807
 21
305.7222000423803
 31
0.0
  0
LINE
  5
299
330
1F
100
AcDbEntity
  8
0
  6
CONTINUOUS
 62
     7
100
AcDbLine
 10
-1001.25
 20
301.3499999991583
 30
0.0
 11
-1000.39275376795
 21
301.3499999991905
 31
0.0
  0
LINE
  5
29A
330
1F
100
AcDbEntity
  8
0
  6
CONTINUOUS
 62
     7
100
AcDbLine
 10
-994.7992197890562
 20
305.1499999994001
 30
0.0
 11
-995.6680637602997
 21
305.1499999993676
 31
0.0
  0
LINE
  5
29B
330
1F
100
AcDbEntity
  8
0
  6
CONTINUOUS
 62
     7
100
AcDbLine
 10
-225.1706744319444
 20
69.75000000005303
 30
0.0
 11
-226.5730789788457
 21
69.75000000012362
 31
0.0
  0
LINE
  5
29C
330
1F
100
AcDbEntity
  8
0
  6
CONTINUOUS
 62
     7
100
AcDbLine
 10
-992.0304923896562
 20
300.7776922787204
 30
0.0
 11
-991.6933889002104
 21
301.3501000529865
 31
0.0
  0
LINE
  5
29D
330
1F
100
AcDbEntity
  8
0
  6
CONTINUOUS
 62
     7
100
AcDbLine
 10
-237.4835209298045
 20
66.78058144282409
 30
0.0
 11
-237.5692914537289
 21
66.79228374032442
 31
0.0
  0
LINE
  5
29E
330
1F
100
AcDbEntity
  8
0
  6
CONTINUOUS
 62
     7
100
AcDbLine
 10
-1001.159296714681
 20
305.1499999991618
 30
0.0
 11
-1001.25
 21
305.1499999991584
 31
0.0
  0
LINE
  5
29F
330
1F
100
AcDbEntity
  8
0
  6
CONTINUOUS
 62
     7
100
AcDbLine
 10
-991.7214911980202
 20
301.3499999995155
 30
0.0
 11
-990.8524365649594
 21
301.349999999548
 31
0.0
  0
LINE
  5
2A0
330
1F
100
AcDbEntity
  8
0
  6
CONTINUOUS
 62
     7
100
AcDbLine
 10
-997.9792373859464
 20
305.1499999992809
 30
0.0
 11
-998.8481444180514
 21
305.1499999992484
 31
0.0
  0
LINE
  5
2A1
330
1F
100
AcDbEntity
  8
0
  6
CONTINUOUS
 62
     7
100
AcDbLine
 10
-996.7995652286475
 20
300.7792593457439
 30
0.0
 11
-996.4632397216359
 21
301.35011508757
 31
0.0
  0
ARC
  5
2A2
330
1F
100
AcDbEntity
  8
0
  6
CONTINUOUS
 62
     7
100
AcDbCircle
 10
-244.6793179286998
 20
71.70477254035978
 30
0.0
 40
0.0447035534787925
100
AcDbArc
 50
12.9464445383923
 51
174.2753414917945
  0
SPLINE
  5
2A3
330
1F
100
AcDbEntity
  8
0
  6
CONTINUOUS
 62
     7
100
AcDbSpline
210
0.0
220
0.0
230
1.0
 70
     8
 71
     3
 72
     9
 73
     5
 74
     0
 42
0.000000001
 43
0.0001
 40
0.147230723339946
 40
0.147230723339946
 40
0.147230723339946
 40
0.147230723339946
 40
0.1478429668943346
 40
0.1479144396633132
 40
0.1479144396633132
 40
0.1479144396633132
 40
0.1479144396633132
 10
-240.6524995512527
 20
66.79995756920252
 30
0.0
 10
-240.6794434857811
 20
66.74743073405381
 30
0.0
 10
-240.7095328313031
 20
66.73481402892956
 30
0.0
 10
-240.7396221768232
 20
66.77605596373385
 30
0.0
 10
-240.7427675878184
 20
66.78094759792168
 30
0.0
  0
LINE
  5
2A4
330
1F
100
AcDbEntity
  8
0
  6
CONTINUOUS
 62
     7
100
AcDbLine
 10
-233.5079659503816
 20
71.71895136606373
 30
0.0
 11
-233.587448816831
 21
71.71881835180322
 31
0.0
  0
LINE
  5
2A5
330
1F
100
AcDbEntity
  8
0
  6
CONTINUOUS
 62
     7
100
AcDbLine
 10
-231.9180274893525
 20
71.7192208940557
 30
0.0
 11
-231.9954080972991
 21
71.72177066047901
 31
0.0
  0
LINE
  5
2A6
330
1F
100
AcDbEntity
  8
0
  6
CONTINUOUS
 62
     7
100
AcDbLine
 10
-998.3857579691689
 20
300.7852002701148
 30
0.0
 11
-998.0532071304914
 21
301.3501115050435
 31
0.0
  0
LINE
  5
2A7
330
1F
100
AcDbEntity
  8
0
  6
CONTINUOUS
 62
     7
100
AcDbLine
 10
-239.8598987069407
 20
71.70463778276107
 30
0.0
 11
-239.9454534554436
 21
71.72248528267018
 31
0.0
  0
ARC
  5
2A8
330
1F
100
AcDbEntity
  8
0
  6
CONTINUOUS
 62
     7
100
AcDbCircle
 10
-975.1117119661965
 20
227.3882880338035
 30
0.0
 40
70.99999999999999
100
AcDbArc
 50
0.4999999999999838
 51
89.49999999999999
  0
LINE
  5
2A9
330
1F
100
AcDbEntity
  8
0
  6
CONTINUOUS
 62
     7
100
AcDbLine
 10
-1016.25
 20
73.75000000000004
 30
0.0
 11
-1058.007872054188
 21
74.11441542864036
 31
0.0
  0
LINE
  5
2AA
330
1F
100
AcDbEntity
  8
0
  6
CONTINUOUS
 62
     7
100
AcDbLine
 10
-906.75
 20
228.720699701797
 30
0.0
 11
-906.75
 21
143.779300298203
 31
0.0
  0
LINE
  5
2AB
330
1F
100
AcDbEntity
  8
0
  6
CONTINUOUS
 62
     7
100
AcDbLine
 10
-1058.007872054188
 20
298.3855845713597
 30
0.0
 11
-1016.25
 21
298.7500000000001
 31
0.0
  0
LINE
  5
2AC
330
1F
100
AcDbEntity
  8
0
  6
CONTINUOUS
 62
     7
100
AcDbLine
 10
-1016.25
 20
298.7500000000001
 30
0.0
 11
-974.4921279458117
 21
298.3855845713597
 31
0.0
  0
ARC
  5
2AD
330
1F
100
AcDbEntity
  8
0
  6
CONTINUOUS
 62
     7
100
AcDbCircle
 10
262.4999999999999
 20
186.2500000000015
 30
0.0
 40
107.0
210
0.0
220
0.0
230
-1.0
100
AcDbArc
 50
228.9289884798522
 51
231.0710115201478
  0
ARC
  5
2AE
330
1F
100
AcDbEntity
  8
0
  6
CONTINUOUS
 62
     7
100
AcDbCircle
 10
-262.4999999999999
 20
186.2500000000015
 30
0.0
 40
107.0
100
AcDbArc
 50
32.26232181318555
 51
34.40434485348108
  0
LINE
  5
2AF
330
1F
100
AcDbEntity
  8
0
  6
CONTINUOUS
 62
     7
100
AcDbLine
 10
-1050.715422553025
 20
73.7500000001121
 30
0.0
 11
-1052.176921021137
 21
73.62213545233661
 31
0.0
  0
LINE
  5
2B0
330
1F
100
AcDbEntity
  8
0
  6
CONTINUOUS
 62
     7
100
AcDbLine
 10
-170.0350777802996
 20
232.6772350986413
 30
0.0
 11
-170.0971828645076
 21
232.6482750222648
 31
0.0
  0
LINE
  5
2B1
330
1F
100
AcDbEntity
  8
0
  6
CONTINUOUS
 62
     7
100
AcDbLine
 10
-242.5000000000003
 20
303.7499999999994
 30
0.0
 11
-242.5000000000003
 21
298.2433325450273
 31
0.0
  0
LINE
  5
2B2
330
1F
100
AcDbEntity
  8
0
  6
CONTINUOUS
 62
     7
100
AcDbLine
 10
-257.8545864423379
 20
79.85253699980633
 30
0.0
 11
-257.7346318383642
 21
77.10512487393959
 31
0.0
  0
ARC
  5
2B3
330
1F
100
AcDbEntity
  8
0
  6
CONTINUOUS
 62
     7
100
AcDbCircle
 10
-1016.25
 20
186.25
 30
0.0
 40
74.0
100
AcDbArc
 50
270.0
 51
90.0
  0
ARC
  5
2B4
330
1F
100
AcDbEntity
  8
0
  6
CONTINUOUS
 62
     7
100
AcDbCircle
 10
262.4999999999999
 20
186.2500000000015
 30
0.0
 40
107.0
210
0.0
220
0.0
230
-1.0
100
AcDbArc
 50
220.5956551465189
 51
222.7376781868145
  0
LINE
  5
2B5
330
1F
100
AcDbEntity
  8
0
  6
CONTINUOUS
 62
     7
100
AcDbLine
 10
-207.3239526850937
 20
98.70084921769596
 30
0.0
 11
-207.349442694229
 21
98.74217481690987
 31
0.0
  0
ARC
  5
2B6
330
1F
100
AcDbEntity
  8
0
  6
CONTINUOUS
 62
     7
100
AcDbCircle
 10
-262.4999999999999
 20
186.2500000000015
 30
0.0
 40
107.0
100
AcDbArc
 50
48.92898847985224
 51
51.07101152014778
  0
ARC
  5
2B7
330
1F
100
AcDbEntity
  8
0
  6
CONTINUOUS
 62
     7
100
AcDbCircle
 10
262.4999999999999
 20
186.2500000000015
 30
0.0
 40
107.0
210
0.0
220
0.0
230
-1.0
100
AcDbArc
 50
212.2623218131855
 51
214.4043448534811
  0
LINE
  5
2B8
330
1F
100
AcDbEntity
  8
0
  6
CONTINUOUS
 62
     7
100
AcDbLine
 10
-176.650498640535
 20
128.5889891488
 30
0.0
 11
-176.5926666962471
 21
128.5509524806746
 31
0.0
  0
LINE
  5
2B9
330
1F
100
AcDbEntity
  8
0
  6
CONTINUOUS
 62
     7
100
AcDbLine
 10
-170.0979201271429
 20
139.8520687689509
 30
0.0
 11
-170.0350777802996
 21
139.8227649013615
 31
0.0
  0
ARC
  5
2BA
330
1F
100
AcDbEntity
  8
0
  6
CONTINUOUS
 62
     7
100
AcDbCircle
 10
249.5000000000002
 20
65.25000000000357
 30
0.0
 40
2.000000000000002
210
0.0
220
0.0
230
-1.0
100
AcDbArc
 50
180.0
 51
270.0
  0
LINE
  5
2BB
330
1F
100
AcDbEntity
  8
0
  6
CONTINUOUS
 62
     7
100
AcDbLine
 10
-196.794442373632
 20
106.3894418185111
 30
0.0
 11
-196.7499490169073
 21
106.3364167007879
 31
0.0
  0
ARC
  5
2BC
330
1F
100
AcDbEntity
  8
0
  6
CONTINUOUS
 62
     7
100
AcDbCircle
 10
244.5000000000003
 20
307.2499999999993
 30
0.0
 40
2.000000000000002
210
0.0
220
0.0
230
-1.0
100
AcDbArc
 50
90.0
 51
180.0
  0
LINE
  5
2BD
330
1F
100
AcDbEntity
  8
0
  6
CONTINUOUS
 62
     7
100
AcDbLine
 10
-242.5000000000003
 20
307.2499999999993
 30
0.0
 11
-242.5000000000003
 21
303.7499999999994
 31
0.0
  0
LINE
  5
2BE
330
1F
100
AcDbEntity
  8
0
  6
CONTINUOUS
 62
     7
100
AcDbLine
 10
-209.0625245808497
 20
97.70980982130988
 30
0.0
 11
-209.0261860299677
 21
97.65089605702688
 31
0.0
  0
ARC
  5
2BF
330
1F
100
AcDbEntity
  8
0
  6
CONTINUOUS
 62
     7
100
AcDbCircle
 10
-262.4999999999999
 20
186.2500000000015
 30
0.0
 40
107.0
100
AcDbArc
 50
40.5956551465189
 51
42.73767818681444
  0
LINE
  5
2C0
330
1F
100
AcDbEntity
  8
0
  6
CONTINUOUS
 62
     7
100
AcDbLine
 10
-175.5366066131826
 20
242.2498180589091
 30
0.0
 11
-175.4936487401054
 21
242.2780718965024
 31
0.0
  0
ARC
  5
2C1
330
1F
100
AcDbEntity
  8
0
  6
CONTINUOUS
 62
     7
100
AcDbCircle
 10
-1016.25
 20
186.25
 30
0.0
 40
74.00000000000001
100
AcDbArc
 50
90.0
 51
270.0
  0
LINE
  5
2C2
330
1F
100
AcDbEntity
  8
0
  6
CONTINUOUS
 62
     7
100
AcDbLine
 10
-262.4999999999999
 20
68.75000000000354
 30
0.0
 11
-262.4999999999999
 21
79.75000000000333
 31
0.0
  0
ARC
  5
2C3
330
1F
100
AcDbEntity
  8
0
  6
CONTINUOUS
 62
     7
100
AcDbCircle
 10
262.4999999999999
 20
186.2500000000015
 30
0.0
 40
107.0
210
0.0
220
0.0
230
-1.0
100
AcDbArc
 50
237.2623218131856
 51
239.4043448534811
  0
LINE
  5
2C4
330
1F
100
AcDbEntity
  8
0
  6
CONTINUOUS
 62
     7
100
AcDbLine
 10
-176.5926666962471
 20
243.9490475193281
 30
0.0
 11
-176.6498216688947
 21
243.911456102455
 31
0.0
  0
LINE
  5
2C5
330
1F
100
AcDbEntity
  8
0
  6
CONTINUOUS
 62
     7
100
AcDbLine
 10
-257.7346318383643
 20
295.3948751260633
 30
0.0
 11
-257.854586442338
 21
292.6474630001966
 31
0.0
  0
LINE
  5
2C6
330
1F
100
AcDbEntity
  8
0
  6
CONTINUOUS
 62
     7
100
AcDbLine
 10
-247.5000000000002
 20
73.45591090602126
 30
0.0
 11
-247.5000000000002
 21
68.75000000000352
 31
0.0
  0
LINE
  5
2C7
330
1F
100
AcDbEntity
  8
0
  6
CONTINUOUS
 62
     7
100
AcDbLine
 10
-184.5325458758207
 20
118.2035004765606
 30
0.0
 11
-184.5688173526894
 21
118.2357793501758
 31
0.0
  0
LINE
  5
2C8
330
1F
100
AcDbEntity
  8
0
  6
CONTINUOUS
 62
     7
100
AcDbLine
 10
-262.4999999999999
 20
303.7499999999994
 30
0.0
 11
-262.4999999999999
 21
292.7499999999996
 31
0.0
  0
LINE
  5
2C9
330
1F
100
AcDbEntity
  8
0
  6
CONTINUOUS
 62
     7
100
AcDbLine
 10
-1052.176921020809
 20
64.87786454777803
 30
0.0
 11
-1050.715422552687
 21
64.7500000001121
 31
0.0
  0
ARC
  5
2CA
330
1F
100
AcDbEntity
  8
0
  6
CONTINUOUS
 62
     7
100
AcDbCircle
 10
262.4999999999999
 20
186.2500000000015
 30
0.0
 40
107.0
210
0.0
220
0.0
230
-1.0
100
AcDbArc
 50
245.5956551465189
 51
247.7376781868144
  0
ARC
  5
2CB
330
1F
100
AcDbEntity
  8
0
  6
CONTINUOUS
 62
     7
100
AcDbCircle
 10
-257.2351077275733
 20
295.3730654323807
 30
0.0
 40
0.5000000000000004
100
AcDbArc
 50
90.00000000000001
 51
177.5000000000004
  0
ARC
  5
2CC
330
1F
100
AcDbEntity
  8
0
  6
CONTINUOUS
 62
     7
100
AcDbCircle
 10
-262.4999999999999
 20
186.2500000000015
 30
0.0
 40
107.0
100
AcDbArc
 50
57.26232181318557
 51
58.86881570359887
  0
ARC
  5
2CD
330
1F
100
AcDbEntity
  8
0
  6
CONTINUOUS
 62
     7
100
AcDbCircle
 10
-262.4999999999999
 20
186.2500000000015
 30
0.0
 40
107.0
100
AcDbArc
 50
65.59565514651892
 51
67.73767818681445
  0
LINE
  5
2CE
330
1F
100
AcDbEntity
  8
0
  6
CONTINUOUS
 62
     7
100
AcDbLine
 10
-175.4936487401055
 20
130.2219281035005
 30
0.0
 11
-175.5342154867816
 21
130.2486092725195
 31
0.0
  0
LINE
  5
2CF
330
1F
100
AcDbEntity
  8
0
  6
CONTINUOUS
 62
     7
100
AcDbLine
 10
-222.459031145662
 20
90.89985648014564
 30
0.0
 11
-222.4316147517299
 21
90.83629813493464
 31
0.0
  0
LINE
  5
2D0
330
1F
100
AcDbEntity
  8
0
  6
CONTINUOUS
 62
     7
100
AcDbLine
 10
-488.5823778905611
 20
302.7499999999466
 30
0.0
 11
-487.4053358547399
 21
302.749999999876
 31
0.0
  0
ARC
  5
2D1
330
1F
100
AcDbEntity
  8
0
  6
CONTINUOUS
 62
     7
100
AcDbCircle
 10
491.7487870647258
 20
303.2500000000021
 30
0.0
 40
2.426415481686564
210
0.0
220
0.0
230
-1.0
100
AcDbArc
 50
258.1081330224197
 51
281.8918669793352
  0
ARC
  5
2D2
330
1F
100
AcDbEntity
  8
0
  6
CONTINUOUS
 62
     7
100
AcDbCircle
 10
491.7487870646115
 20
303.2499999998877
 30
0.0
 40
4.500000000000004
210
0.0
220
0.0
230
-1.0
100
AcDbArc
 50
0.0000000008774832
 51
172.7990989665457
  0
LINE
  5
2D3
330
1F
100
AcDbEntity
  8
0
  6
CONTINUOUS
 62
     7
100
AcDbLine
 10
-487.4053358547246
 20
303.749999999876
 30
0.0
 11
-488.5823778905458
 21
303.7499999999466
 31
0.0
  0
ARC
  5
2D4
330
1F
100
AcDbEntity
  8
0
  6
CONTINUOUS
 62
     7
100
AcDbCircle
 10
-257.2351077275733
 20
77.12693456762224
 30
0.0
 40
0.5000000000000041
100
AcDbArc
 50
182.4999999999996
 51
272.762224162621
  0
LINE
  5
2D5
330
1F
100
AcDbEntity
  8
0
  6
CONTINUOUS
 62
     7
100
AcDbLine
 10
-195.2178601306694
 20
107.6219919201609
 30
0.0
 11
-195.2490704030067
 21
107.6591868743447
 31
0.0
  0
LINE
  5
2D6
330
1F
100
AcDbEntity
  8
0
  6
CONTINUOUS
 62
     7
100
AcDbLine
 10
-249.5000000000002
 20
63.25000000000361
 30
0.0
 11
-262.4999999999999
 21
63.25000000000361
 31
0.0
  0
LINE
  5
2D7
330
1F
100
AcDbEntity
  8
0
  6
CONTINUOUS
 62
     7
100
AcDbLine
 10
-232.8344641655041
 20
87.12782294737674
 30
0.0
 11
-232.84702723233
 21
87.17470895106982
 31
0.0
  0
LINE
  5
2D8
330
1F
100
AcDbEntity
  8
0
  6
CONTINUOUS
 62
     7
100
AcDbLine
 10
-262.4999999999999
 20
309.2499999999991
 30
0.0
 11
-262.4999999999999
 21
303.7499999999994
 31
0.0
  0
LINE
  5
2D9
330
1F
100
AcDbEntity
  8
0
  6
CONTINUOUS
 62
     7
100
AcDbLine
 10
-247.5000000000002
 20
68.75000000000352
 30
0.0
 11
-247.5000000000002
 21
65.2500000000037
 31
0.0
  0
LINE
  5
2DA
330
1F
100
AcDbEntity
  8
0
  6
CONTINUOUS
 62
     7
100
AcDbLine
 10
-493.0487870647397
 20
302.7499999995815
 30
0.0
 11
-494.9151962388917
 21
302.7499999996101
 31
0.0
  0
LINE
  5
2DB
330
1F
100
AcDbEntity
  8
0
  6
CONTINUOUS
 62
     7
100
AcDbLine
 10
-262.4999999999999
 20
63.2500000000037
 30
0.0
 11
-262.4999999999999
 21
68.75000000000354
 31
0.0
  0
ARC
  5
2DC
330
1F
100
AcDbEntity
  8
0
  6
CONTINUOUS
 62
     7
100
AcDbCircle
 10
-257.2351077275733
 20
295.3730654323807
 30
0.0
 40
0.5000000000000145
100
AcDbArc
 50
87.23777583737898
 51
89.99999999999987
  0
LINE
  5
2DD
330
1F
100
AcDbEntity
  8
0
  6
CONTINUOUS
 62
     7
100
AcDbLine
 10
-244.5000000000003
 20
309.2499999999993
 30
0.0
 11
-262.4999999999999
 21
309.2499999999993
 31
0.0
  0
LINE
  5
2DE
330
1F
100
AcDbEntity
  8
0
  6
CONTINUOUS
 62
     7
100
AcDbLine
 10
-185.9138462157339
 20
116.7554670885278
 30
0.0
 11
-185.8621376070486
 21
116.7094503340787
 31
0.0
  0
ARC
  5
2DF
330
1F
100
AcDbEntity
  8
0
  6
CONTINUOUS
 62
     7
100
AcDbCircle
 10
491.7487870647258
 20
303.2500000000021
 30
0.0
 40
2.426415481686455
210
0.0
220
0.0
230
-1.0
100
AcDbArc
 50
78.1081330224196
 51
101.8918669793352
  0
LINE
  5
2E0
330
1F
100
AcDbEntity
  8
0
  6
CONTINUOUS
 62
     7
100
AcDbLine
 10
-492.2487870642658
 20
304.550000000016
 30
0.0
 11
-492.2487870642493
 21
305.6243403483524
 31
0.0
  0
LINE
  5
2E1
330
1F
100
AcDbEntity
  8
0
  6
CONTINUOUS
 62
     7
100
AcDbLine
 10
-220.5951825379694
 20
91.62845766701297
 30
0.0
 11
-220.6144140184446
 21
91.67304125003221
 31
0.0
  0
ARC
  5
2E2
330
1F
100
AcDbEntity
  8
0
  6
CONTINUOUS
 62
     7
100
AcDbCircle
 10
-509.7487870647225
 20
71.25000000000077
 30
0.0
 40
1.000000000000001
100
AcDbArc
 50
90.0
 51
180.0
  0
CIRCLE
  5
2E3
330
1F
100
AcDbEntity
  8
0
  6
CONTINUOUS
 62
     7
100
AcDbCircle
 10
491.7487870647224
 20
69.25000000000067
 30
0.0
 40
2.749999999999891
210
0.0
220
0.0
230
-1.0
  0
ARC
  5
2E4
330
1F
100
AcDbEntity
  8
0
  6
CONTINUOUS
 62
     7
100
AcDbCircle
 10
-522.7487870647203
 20
72.69338932528898
 30
0.0
 40
2.000000000000002
100
AcDbArc
 50
180.0000000000004
 51
204.9999999999994
  0
LINE
  5
2E5
330
1F
100
AcDbEntity
  8
0
  6
CONTINUOUS
 62
     7
100
AcDbLine
 10
-491.2487870642493
 20
305.6243403483371
 30
0.0
 11
-491.2487870642657
 21
304.5500000000006
 31
0.0
  0
ARC
  5
2E6
330
1F
100
AcDbEntity
  8
0
  6
CONTINUOUS
 62
     7
100
AcDbCircle
 10
-497.7487870647224
 20
71.25000000000065
 30
0.0
 40
1.000000000000001
100
AcDbArc
 50
0.0
 51
90.0
  0
ARC
  5
2E7
330
1F
100
AcDbEntity
  8
0
  6
CONTINUOUS
 62
     7
100
AcDbCircle
 10
-516.7295965764824
 20
303.2499999999991
 30
0.0
 40
6.000000000000005
100
AcDbArc
 50
90.00000000000054
 51
155.0000000000007
  0
LINE
  5
2E8
330
1F
100
AcDbEntity
  8
0
  6
CONTINUOUS
 62
     7
100
AcDbLine
 10
-516.248787064322
 20
300.8756596516673
 30
0.0
 11
-516.2487870643056
 21
301.9500000000162
 31
0.0
  0
ARC
  5
2E9
330
1F
100
AcDbEntity
  8
0
  6
CONTINUOUS
 62
     7
100
AcDbCircle
 10
491.7487870646115
 20
303.2499999998877
 30
0.0
 40
4.500000000000006
210
0.0
220
0.0
230
-1.0
100
AcDbArc
 50
172.7990989665457
 51
187.2009010348532
  0
LINE
  5
2EA
330
1F
100
AcDbEntity
  8
0
  6
CONTINUOUS
 62
     7
100
AcDbLine
 10
-496.0922382746079
 20
302.750000000009
 30
0.0
 11
-494.9151962388917
 21
302.7500000000435
 31
0.0
  0
ARC
  5
2EB
330
1F
100
AcDbEntity
  8
0
  6
CONTINUOUS
 62
     7
100
AcDbCircle
 10
-515.7487870646489
 20
303.2499999999254
 30
0.0
 40
4.412511336474102
100
AcDbArc
 50
173.4936022847345
 51
186.5063977135105
  0
ARC
  5
2EC
330
1F
100
AcDbEntity
  8
0
  6
CONTINUOUS
 62
     7
100
AcDbCircle
 10
-491.748787064649
 20
303.2499999999252
 30
0.0
 40
4.412511336474047
100
AcDbArc
 50
173.4936022847345
 51
186.5063977135105
  0
LINE
  5
2ED
330
1F
100
AcDbEntity
  8
0
  6
CONTINUOUS
 62
     7
100
AcDbLine
 10
-491.2487870643056
 20
301.9500000000007
 30
0.0
 11
-491.2487870643221
 21
300.8756596516517
 31
0.0
  0
LINE
  5
2EE
330
1F
100
AcDbEntity
  8
0
  6
CONTINUOUS
 62
     7
100
AcDbLine
 10
-492.2487870643221
 20
300.8756596516671
 30
0.0
 11
-492.2487870643056
 21
301.950000000016
 31
0.0
  0
LINE
  5
2EF
330
1F
100
AcDbEntity
  8
0
  6
CONTINUOUS
 62
     7
100
AcDbLine
 10
-515.2487870643056
 20
301.950000000001
 30
0.0
 11
-515.2487870643221
 21
300.875659651652
 31
0.0
  0
LINE
  5
2F0
330
1F
100
AcDbEntity
  8
0
  6
CONTINUOUS
 62
     7
100
AcDbLine
 10
-518.9151962388763
 20
303.7499999996103
 30
0.0
 11
-517.0487870647243
 21
303.7499999995817
 31
0.0
  0
ARC
  5
2F1
330
1F
100
AcDbEntity
  8
0
  6
CONTINUOUS
 62
     7
100
AcDbCircle
 10
-491.748787064649
 20
303.2499999999252
 30
0.0
 40
4.412511336474102
100
AcDbArc
 50
353.4936022847347
 51
6.506397713510466
  0
ARC
  5
2F2
330
1F
100
AcDbEntity
  8
0
  6
CONTINUOUS
 62
     7
100
AcDbCircle
 10
515.7487870647257
 20
303.2500000000023
 30
0.0
 40
2.426415481686564
210
0.0
220
0.0
230
-1.0
100
AcDbArc
 50
258.1081330224197
 51
281.8918669793352
  0
LINE
  5
2F3
330
1F
100
AcDbEntity
  8
0
  6
CONTINUOUS
 62
     7
100
AcDbLine
 10
-490.4487870647244
 20
303.7499999995417
 30
0.0
 11
-488.5823778905458
 21
303.7499999995131
 31
0.0
  0
ARC
  5
2F4
330
1F
100
AcDbEntity
  8
0
  6
CONTINUOUS
 62
     7
100
AcDbCircle
 10
515.7487870646114
 20
303.249999999888
 30
0.0
 40
4.500000000000006
210
0.0
220
0.0
230
-1.0
100
AcDbArc
 50
172.7990989665457
 51
187.2009010348532
  0
ARC
  5
2F5
330
1F
100
AcDbEntity
  8
0
  6
CONTINUOUS
 62
     7
100
AcDbCircle
 10
515.7487870646114
 20
303.249999999888
 30
0.0
 40
4.500000000000023
210
0.0
220
0.0
230
-1.0
100
AcDbArc
 50
352.7990989675769
 51
0.000000000877435
  0
ARC
  5
2F6
330
1F
100
AcDbEntity
  8
0
  6
CONTINUOUS
 62
     7
100
AcDbCircle
 10
515.7487870647257
 20
303.2500000000023
 30
0.0
 40
2.426415481686455
210
0.0
220
0.0
230
-1.0
100
AcDbArc
 50
78.1081330224196
 51
101.8918669793352
  0
LINE
  5
2F7
330
1F
100
AcDbEntity
  8
0
  6
CONTINUOUS
 62
     7
100
AcDbLine
 10
-516.2487870642658
 20
304.5500000000162
 30
0.0
 11
-516.2487870642493
 21
305.6243403483526
 31
0.0
  0
LINE
  5
2F8
330
1F
100
AcDbEntity
  8
0
  6
CONTINUOUS
 62
     7
100
AcDbLine
 10
-524.7487870647223
 20
76.5675952484258
 30
0.0
 11
-524.7487870647223
 21
74.12907985845396
 31
0.0
  0
ARC
  5
2F9
330
1F
100
AcDbEntity
  8
0
  6
CONTINUOUS
 62
     7
100
AcDbCircle
 10
491.2487870647224
 20
68.75000000000067
 30
0.0
 40
5.500000000000004
210
0.0
220
0.0
230
-1.0
100
AcDbArc
 50
180.0000000000004
 51
270.0000000000007
  0
LINE
  5
2FA
330
1F
100
AcDbEntity
  8
0
  6
CONTINUOUS
 62
     7
100
AcDbLine
 10
-520.0922382746078
 20
302.7500000000092
 30
0.0
 11
-518.9151962388916
 21
302.7500000000438
 31
0.0
  0
LINE
  5
2FB
330
1F
100
AcDbEntity
  8
0
  6
CONTINUOUS
 62
     7
100
AcDbLine
 10
-491.2487870647225
 20
63.25000000000076
 30
0.0
 11
-516.0877157186832
 21
63.25000000000099
 31
0.0
  0
LINE
  5
2FC
330
1F
100
AcDbEntity
  8
0
  6
CONTINUOUS
 62
     7
100
AcDbLine
 10
-485.7487870647223
 20
77.41679294070786
 30
0.0
 11
-485.7487870647223
 21
74.25666745497273
 31
0.0
  0
ARC
  5
2FD
330
1F
100
AcDbEntity
  8
0
  6
CONTINUOUS
 62
     7
100
AcDbCircle
 10
-515.7487870646489
 20
303.2499999999254
 30
0.0
 40
4.412511336474047
100
AcDbArc
 50
353.4936022847347
 51
6.506397713510466
  0
ARC
  5
2FE
330
1F
100
AcDbEntity
  8
0
  6
CONTINUOUS
 62
     7
100
AcDbCircle
 10
491.7487870646115
 20
303.2499999998877
 30
0.0
 40
4.500000000000014
210
0.0
220
0.0
230
-1.0
100
AcDbArc
 50
187.2009010348532
 51
0.000000000877435
  0
ARC
  5
2FF
330
1F
100
AcDbEntity
  8
0
  6
CONTINUOUS
 62
     7
100
AcDbCircle
 10
515.7487870646114
 20
303.249999999888
 30
0.0
 40
4.500000000000004
210
0.0
220
0.0
230
-1.0
100
AcDbArc
 50
0.0000000008774832
 51
7.200901034488197
  0
LINE
  5
300
330
1F
100
AcDbEntity
  8
0
  6
CONTINUOUS
 62
     7
100
AcDbLine
 10
-514.4487870647243
 20
303.749999999542
 30
0.0
 11
-512.5823778905457
 21
303.7499999995134
 31
0.0
  0
LINE
  5
301
330
1F
100
AcDbEntity
  8
0
  6
CONTINUOUS
 62
     7
100
AcDbLine
 10
-512.582377890561
 20
302.7499999999468
 30
0.0
 11
-511.4053358547398
 21
302.7499999998762
 31
0.0
  0
LINE
  5
302
330
1F
100
AcDbEntity
  8
0
  6
CONTINUOUS
 62
     7
100
AcDbLine
 10
-512.582377890561
 20
302.7499999995134
 30
0.0
 11
-514.4487870647396
 21
302.749999999542
 31
0.0
  0
LINE
  5
303
330
1F
100
AcDbEntity
  8
0
  6
CONTINUOUS
 62
     7
100
AcDbLine
 10
-517.0487870647397
 20
302.7499999995817
 30
0.0
 11
-518.9151962388916
 21
302.7499999996103
 31
0.0
  0
ARC
  5
304
330
1F
100
AcDbEntity
  8
0
  6
CONTINUOUS
 62
     7
100
AcDbCircle
 10
515.7487870646114
 20
303.249999999888
 30
0.0
 40
4.500000000000032
210
0.0
220
0.0
230
-1.0
100
AcDbArc
 50
7.200901034488185
 51
172.7990989665457
  0
LINE
  5
305
330
1F
100
AcDbEntity
  8
0
  6
CONTINUOUS
 62
     7
100
AcDbLine
 10
-485.7487870647223
 20
74.25666745497273
 30
0.0
 11
-485.7487870647224
 21
68.75000000000063
 31
0.0
  0
LINE
  5
306
330
1F
100
AcDbEntity
  8
0
  6
CONTINUOUS
 62
     7
100
AcDbLine
 10
-485.7487870647223
 20
77.66823357487816
 30
0.0
 11
-485.7487870647223
 21
77.41679294070786
 31
0.0
  0
ARC
  5
307
330
1F
100
AcDbEntity
  8
0
  6
CONTINUOUS
 62
     7
100
AcDbCircle
 10
515.7487870646114
 20
303.249999999888
 30
0.0
 40
4.500000000000014
210
0.0
220
0.0
230
-1.0
100
AcDbArc
 50
187.2009010348532
 51
352.7990989675769
  0
LINE
  5
308
330
1F
100
AcDbEntity
  8
0
  6
CONTINUOUS
 62
     7
100
AcDbLine
 10
-494.9151962388764
 20
303.7499999996101
 30
0.0
 11
-493.0487870647244
 21
303.7499999995815
 31
0.0
  0
LINE
  5
309
330
1F
100
AcDbEntity
  8
0
  6
CONTINUOUS
 62
     7
100
AcDbLine
 10
-494.9151962388764
 20
303.7500000000435
 30
0.0
 11
-496.092238274596
 21
303.750000000009
 31
0.0
  0
LINE
  5
30A
330
1F
100
AcDbEntity
  8
0
  6
CONTINUOUS
 62
     7
100
AcDbLine
 10
-511.4053358547245
 20
303.7499999998762
 30
0.0
 11
-512.5823778905458
 21
303.7499999999468
 31
0.0
  0
LINE
  5
30B
330
1F
100
AcDbEntity
  8
0
  6
CONTINUOUS
 62
     7
100
AcDbLine
 10
-485.7487870647203
 20
295.6574951728614
 30
0.0
 11
-485.7487870647223
 21
77.66823357487537
 31
0.0
  0
LINE
  5
30C
330
1F
100
AcDbEntity
  8
0
  6
CONTINUOUS
 62
     7
100
AcDbLine
 10
-518.9151962388763
 20
303.7500000000438
 30
0.0
 11
-520.0922382745958
 21
303.7500000000092
 31
0.0
  0
LINE
  5
30D
330
1F
100
AcDbEntity
  8
0
  6
CONTINUOUS
 62
     7
100
AcDbLine
 10
-510.7487870647223
 20
71.25000000000077
 30
0.0
 11
-510.7487870647223
 21
67.25000000000085
 31
0.0
  0
LINE
  5
30E
330
1F
100
AcDbEntity
  8
0
  6
CONTINUOUS
 62
     7
100
AcDbLine
 10
-524.7487870647223
 20
76.56759524842381
 30
0.0
 11
-524.7487870647203
 21
296.7145723313269
 31
0.0
  0
LINE
  5
30F
330
1F
100
AcDbEntity
  8
0
  6
CONTINUOUS
 62
     7
100
AcDbLine
 10
-515.2487870642492
 20
305.6243403483373
 30
0.0
 11
-515.2487870642657
 21
304.5500000000009
 31
0.0
  0
LINE
  5
310
330
1F
100
AcDbEntity
  8
0
  6
CONTINUOUS
 62
     7
100
AcDbLine
 10
-488.5823778905611
 20
302.7499999995131
 30
0.0
 11
-490.4487870647397
 21
302.7499999995417
 31
0.0
  0
LINE
  5
311
330
1F
100
AcDbEntity
  8
0
  6
CONTINUOUS
 62
     7
100
AcDbLine
 10
-524.7487870647203
 20
299.0596340256434
 30
0.0
 11
-524.7487870647203
 21
299.8066106747129
 31
0.0
  0
ARC
  5
312
330
1F
100
AcDbEntity
  8
0
  6
CONTINUOUS
 62
     7
100
AcDbCircle
 10
497.7487870647203
 20
305.2499999999966
 30
0.0
 40
1.26182597392327
210
0.0
220
0.0
230
-1.0
100
AcDbArc
 50
90.00000000000254
 51
180.0
  0
ARC
  5
313
330
1F
100
AcDbEntity
  8
0
  6
CONTINUOUS
 62
     7
100
AcDbCircle
 10
491.2487870647203
 20
303.7499999999965
 30
0.0
 40
5.500000000000004
210
0.0
220
0.0
230
-1.0
100
AcDbArc
 50
90.00000000000058
 51
180.0000000000004
  0
LINE
  5
314
330
1F
100
AcDbEntity
  8
0
  6
CONTINUOUS
 62
     7
100
AcDbLine
 10
-525.7487870647215
 20
291.25
 30
0.0
 11
-634.2487870647216
 21
291.25
 31
0.0
  0
ARC
  5
315
330
1F
100
AcDbEntity
  8
0
  6
CONTINUOUS
 62
     7
100
AcDbCircle
 10
-744.7491267507794
 20
117.6964696917476
 30
0.0
 40
3.000339697379986
100
AcDbArc
 50
0.004977490047508
 51
74.99502250995096
  0
LINE
  5
316
330
1F
100
AcDbEntity
  8
0
  6
CONTINUOUS
 62
     7
100
AcDbLine
 10
-634.918660045799
 20
288.7500000000001
 30
0.0
 11
-646.7487870647212
 21
288.7500000000001
 31
0.0
  0
LINE
  5
317
330
1F
100
AcDbEntity
  8
0
  6
CONTINUOUS
 62
     7
100
AcDbLine
 10
-634.918660045799
 20
83.75000000000001
 30
0.0
 11
-634.918660045799
 21
288.7500000000001
 31
0.0
  0
LINE
  5
318
330
1F
100
AcDbEntity
  8
0
  6
CONTINUOUS
 62
     7
100
AcDbLine
 10
-1052.176921020791
 20
68.7499999999908
 30
0.0
 11
-1051.715422552673
 21
68.75000000000749
 31
0.0
  0
LINE
  5
319
330
1F
100
AcDbEntity
  8
0
  6
CONTINUOUS
 62
     7
100
AcDbLine
 10
-654.7487870647211
 20
298.75
 30
0.0
 11
-650.3726774897334
 21
298.75
 31
0.0
  0
LINE
  5
31A
330
1F
100
AcDbEntity
  8
0
  6
CONTINUOUS
 62
     7
100
AcDbLine
 10
-1051.715422552837
 20
68.75000000000749
 30
0.0
 11
-1051.715422552875
 21
69.75000000000749
 31
0.0
  0
LINE
  5
31B
330
1F
100
AcDbEntity
  8
0
  6
CONTINUOUS
 62
     7
100
AcDbLine
 10
-786.7487870647212
 20
186.25
 30
0.0
 11
-786.7487870647212
 21
144.4921279458119
 31
0.0
  0
LINE
  5
31C
330
1F
100
AcDbEntity
  8
0
  6
CONTINUOUS
 62
     7
100
AcDbLine
 10
-786.7487870647212
 20
228.0078720541881
 30
0.0
 11
-786.7487870647212
 21
186.25
 31
0.0
  0
ARC
  5
31D
330
1F
100
AcDbEntity
  8
0
  6
CONTINUOUS
 62
     7
100
AcDbCircle
 10
516.7295965764803
 20
303.2499999999968
 30
0.0
 40
6.000000000000014
210
0.0
220
0.0
230
-1.0
100
AcDbArc
 50
24.99999999999998
 51
90.00000000000054
  0
ARC
  5
31E
330
1F
100
AcDbEntity
  8
0
  6
CONTINUOUS
 62
     7
100
AcDbCircle
 10
509.7487870647204
 20
305.2499999999967
 30
0.0
 40
1.261825973923214
210
0.0
220
0.0
230
-1.0
100
AcDbArc
 50
0.0000000000012638
 51
90.00000000000128
  0
LINE
  5
31F
330
1F
100
AcDbEntity
  8
0
  6
CONTINUOUS
 62
     7
100
AcDbLine
 10
-497.7487870647203
 20
299.9881740260734
 30
0.0
 11
-509.7487870647204
 21
299.9881740260735
 31
0.0
  0
LINE
  5
320
330
1F
100
AcDbEntity
  8
0
  6
CONTINUOUS
 62
     7
100
AcDbLine
 10
-516.0877157186832
 20
63.25000000000099
 30
0.0
 11
-516.7295965764824
 21
63.250000000001
 31
0.0
  0
LINE
  5
321
330
1F
100
AcDbEntity
  8
0
  6
CONTINUOUS
 62
     7
100
AcDbLine
 10
-485.7487870647203
 20
295.960104163107
 30
0.0
 11
-485.7487870647203
 21
295.6574951728585
 31
0.0
  0
LINE
  5
322
330
1F
100
AcDbEntity
  8
0
  6
CONTINUOUS
 62
     7
100
AcDbLine
 10
-647.3840731334764
 20
76.48864700691425
 30
0.0
 11
-646.7487870647212
 21
83.75000000000001
 31
0.0
  0
LINE
  5
323
330
1F
100
AcDbEntity
  8
0
  6
CONTINUOUS
 62
     7
100
AcDbLine
 10
-524.7487870647223
 20
72.69338932528497
 30
0.0
 11
-524.7487870647223
 21
74.12907985845224
 31
0.0
  0
LINE
  5
324
330
1F
100
AcDbEntity
  8
0
  6
CONTINUOUS
 62
     7
100
AcDbLine
 10
-516.7295965764802
 20
309.2499999999967
 30
0.0
 11
-516.3938518936814
 21
309.2499999999966
 31
0.0
  0
ARC
  5
325
330
1F
100
AcDbEntity
  8
0
  6
CONTINUOUS
 62
     7
100
AcDbCircle
 10
522.7487870647223
 20
72.6933893252867
 30
0.0
 40
2.000000000000044
210
0.0
220
0.0
230
-1.0
100
AcDbArc
 50
335.000000000001
 51
0.0000000000003411
  0
ARC
  5
326
330
1F
100
AcDbEntity
  8
0
  6
CONTINUOUS
 62
     7
100
AcDbCircle
 10
-509.7487870647225
 20
67.25000000000085
 30
0.0
 40
1.000000000000001
100
AcDbArc
 50
180.0
 51
269.9999999999984
  0
LINE
  5
327
330
1F
100
AcDbEntity
  8
0
  6
CONTINUOUS
 62
     7
100
AcDbLine
 10
-485.7487870647203
 20
299.0440890939787
 30
0.0
 11
-485.7487870647203
 21
295.960104163107
 31
0.0
  0
LINE
  5
328
330
1F
100
AcDbEntity
  8
0
  6
CONTINUOUS
 62
     7
100
AcDbLine
 10
-1050.715422552856
 20
69.25000000004317
 30
0.0
 11
-1050.715422552687
 21
64.7500000001121
 31
0.0
  0
LINE
  5
329
330
1F
100
AcDbEntity
  8
0
  6
CONTINUOUS
 62
     7
100
AcDbLine
 10
-524.7487870647203
 20
299.0596340256416
 30
0.0
 11
-524.7487870647203
 21
296.7145723313249
 31
0.0
  0
LINE
  5
32A
330
1F
100
AcDbEntity
  8
0
  6
CONTINUOUS
 62
     7
100
AcDbLine
 10
-496.486961090797
 20
305.2499999999966
 30
0.0
 11
-496.486961090797
 21
301.2499999999967
 31
0.0
  0
LINE
  5
32B
330
1F
100
AcDbEntity
  8
0
  6
CONTINUOUS
 62
     7
100
AcDbLine
 10
-509.7487870647201
 20
306.5118259739199
 30
0.0
 11
-497.7487870647202
 21
306.5118259739198
 31
0.0
  0
CIRCLE
  5
32C
330
1F
100
AcDbEntity
  8
0
  6
CONTINUOUS
 62
     7
100
AcDbCircle
 10
515.7487870647224
 20
69.2500000000009
 30
0.0
 40
2.749999999999891
210
0.0
220
0.0
230
-1.0
  0
LINE
  5
32D
330
1F
100
AcDbEntity
  8
0
  6
CONTINUOUS
 62
     7
100
AcDbLine
 10
-524.5614026387956
 20
300.6518471981947
 30
0.0
 11
-522.1674432987023
 21
305.7857095704433
 31
0.0
  0
LINE
  5
32E
330
1F
100
AcDbEntity
  8
0
  6
CONTINUOUS
 62
     7
100
AcDbLine
 10
-516.3938518936815
 20
309.2499999999966
 30
0.0
 11
-491.2487870647203
 21
309.2499999999964
 31
0.0
  0
ARC
  5
32F
330
1F
100
AcDbEntity
  8
0
  6
CONTINUOUS
 62
     7
100
AcDbCircle
 10
-516.7295965764803
 20
69.25000000000327
 30
0.0
 40
6.000000000000014
100
AcDbArc
 50
204.9999999999999
 51
270.0000000000007
  0
LINE
  5
330
330
1F
100
AcDbEntity
  8
0
  6
CONTINUOUS
 62
     7
100
AcDbLine
 10
-646.7487870647212
 20
83.7500000000001
 30
0.0
 11
-646.7487870647212
 21
288.7499999999999
 31
0.0
  0
LINE
  5
331
330
1F
100
AcDbEntity
  8
0
  6
CONTINUOUS
 62
     7
100
AcDbLine
 10
-522.1674432987003
 20
66.71429042955907
 30
0.0
 11
-524.5614026387935
 21
71.84815280180759
 31
0.0
  0
ARC
  5
332
330
1F
100
AcDbEntity
  8
0
  6
CONTINUOUS
 62
     7
100
AcDbCircle
 10
522.7487870647203
 20
299.806610674711
 30
0.0
 40
2.000000000000002
210
0.0
220
0.0
230
-1.0
100
AcDbArc
 50
0.0000000000004011
 51
24.99999999999949
  0
LINE
  5
333
330
1F
100
AcDbEntity
  8
0
  6
CONTINUOUS
 62
     7
100
AcDbLine
 10
-509.7487870647225
 20
66.25000000000088
 30
0.0
 11
-497.7487870647224
 21
66.25000000000075
 31
0.0
  0
LINE
  5
334
330
1F
100
AcDbEntity
  8
0
  6
CONTINUOUS
 62
     7
100
AcDbLine
 10
-522.1674432987003
 20
305.7857095704409
 30
0.0
 11
-524.5614026387935
 21
300.6518471981925
 31
0.0
  0
LINE
  5
335
330
1F
100
AcDbEntity
  8
0
  6
CONTINUOUS
 62
     7
100
AcDbLine
 10
-496.7487870647224
 20
67.25000000000074
 30
0.0
 11
-496.7487870647224
 21
71.25000000000065
 31
0.0
  0
ARC
  5
336
330
1F
100
AcDbEntity
  8
0
  6
CONTINUOUS
 62
     7
100
AcDbCircle
 10
516.7295965764824
 20
69.25000000000091
 30
0.0
 40
6.000000000000005
210
0.0
220
0.0
230
-1.0
100
AcDbArc
 50
270.0000000000007
 51
335.0000000000007
  0
LINE
  5
337
330
1F
100
AcDbEntity
  8
0
  6
CONTINUOUS
 62
     7
100
AcDbLine
 10
-647.3840731334764
 20
186.25
 30
0.0
 11
-650.3726774897335
 21
186.25
 31
0.0
  0
ARC
  5
338
330
1F
100
AcDbEntity
  8
0
  6
CONTINUOUS
 62
     7
100
AcDbCircle
 10
-522.7487870647223
 20
299.8066106747133
 30
0.0
 40
2.000000000000005
100
AcDbArc
 50
155.0000000000011
 51
180.0000000000004
  0
ARC
  5
339
330
1F
100
AcDbEntity
  8
0
  6
CONTINUOUS
 62
     7
100
AcDbCircle
 10
497.7487870647203
 20
301.2499999999966
 30
0.0
 40
1.26182597392327
210
0.0
220
0.0
230
-1.0
100
AcDbArc
 50
179.9999999999994
 51
270.0
  0
ARC
  5
33A
330
1F
100
AcDbEntity
  8
0
  6
CONTINUOUS
 62
     7
100
AcDbCircle
 10
-497.7487870647224
 20
67.25000000000074
 30
0.0
 40
1.000000000000001
100
AcDbArc
 50
270.0
 51
0.0
  0
LINE
  5
33B
330
1F
100
AcDbEntity
  8
0
  6
CONTINUOUS
 62
     7
100
AcDbLine
 10
-485.7681286170318
 20
296.0021100610144
 30
0.0
 11
-485.7591396516671
 21
295.9187285435828
 31
0.0
  0
LINE
  5
33C
330
1F
100
AcDbEntity
  8
0
  6
CONTINUOUS
 62
     7
100
AcDbLine
 10
-741.7487870647212
 20
79.61805744496465
 30
0.0
 11
-741.7487870647212
 21
117.6967303420274
 31
0.0
  0
ARC
  5
33D
330
1F
100
AcDbEntity
  8
0
  6
CONTINUOUS
 62
     7
100
AcDbCircle
 10
509.7487870647204
 20
301.2499999999968
 30
0.0
 40
1.26182597392327
210
0.0
220
0.0
230
-1.0
100
AcDbArc
 50
270.0
 51
0.0000000000012506
  0
LINE
  5
33E
330
1F
100
AcDbEntity
  8
0
  6
CONTINUOUS
 62
     7
100
AcDbLine
 10
-511.0106130386436
 20
301.2499999999968
 30
0.0
 11
-511.0106130386436
 21
305.2499999999967
 31
0.0
  0
LINE
  5
33F
330
1F
100
AcDbEntity
  8
0
  6
CONTINUOUS
 62
     7
100
AcDbLine
 10
-485.7487870647203
 20
303.7499999999965
 30
0.0
 11
-485.7487870647203
 21
299.0440890939787
 31
0.0
  0
ARC
  5
340
330
1F
100
AcDbEntity
  8
0
  6
CONTINUOUS
 62
     7
100
AcDbCircle
 10
525.2487870647212
 20
83.75
 30
0.0
 40
0.5000000000000004
210
0.0
220
0.0
230
-1.0
100
AcDbArc
 50
0.0000000000000035
 51
90.0
  0
LINE
  5
341
330
1F
100
AcDbEntity
  8
0
  6
CONTINUOUS
 62
     7
100
AcDbLine
 10
-524.5614026387957
 20
71.84815280180534
 30
0.0
 11
-522.1674432987024
 21
66.71429042955677
 31
0.0
  0
LINE
  5
342
330
1F
100
AcDbEntity
  8
0
  6
CONTINUOUS
 62
     7
100
AcDbLine
 10
-497.7487870647224
 20
72.25000000000064
 30
0.0
 11
-509.7487870647225
 21
72.25000000000075
 31
0.0
  0
LINE
  5
343
330
1F
100
AcDbEntity
  8
0
  6
CONTINUOUS
 62
     7
100
AcDbLine
 10
-755.1193775421698
 20
248.9186497732761
 30
0.0
 11
-743.9723299294136
 21
251.9054921791054
 31
0.0
  0
LINE
  5
344
330
1F
100
AcDbEntity
  8
0
  6
CONTINUOUS
 62
     7
100
AcDbLine
 10
-634.2487870647212
 20
291.25
 30
0.0
 11
-634.2487870647212
 21
81.25000000000004
 31
0.0
  0
LINE
  5
345
330
1F
100
AcDbEntity
  8
0
  6
CONTINUOUS
 62
     7
100
AcDbLine
 10
-786.7487870647212
 20
74.11441542864034
 30
0.0
 11
-786.7487870647212
 21
73.75000000000004
 31
0.0
  0
LINE
  5
346
330
1F
100
AcDbEntity
  8
0
  6
CONTINUOUS
 62
     7
100
AcDbLine
 10
-647.3840731334762
 20
296.0113529930858
 30
0.0
 11
-647.4450336697452
 21
296.4048914060988
 31
0.0
  0
LINE
  5
347
330
1F
100
AcDbEntity
  8
0
  6
CONTINUOUS
 62
     7
100
AcDbLine
 10
-647.4450352298753
 20
76.0951016471212
 30
0.0
 11
-647.3837663249055
 21
76.49366517454226
 31
0.0
  0
LINE
  5
348
330
1F
100
AcDbEntity
  8
0
  6
CONTINUOUS
 62
     7
100
AcDbLine
 10
-741.7487870647212
 20
254.8032696579726
 30
0.0
 11
-741.7487870647212
 21
292.8819425550354
 31
0.0
  0
ELLIPSE
  5
349
330
1F
100
AcDbEntity
  8
0
  6
CONTINUOUS
 62
     7
100
AcDbEllipse
 10
-829.5024045839289
 20
228.9877777468544
 30
0.0
 11
-235.8055912933261
 21
1.421330428343095
 31
0.0
210
0.0
220
0.0
230
1.0
 40
0.2735251099435078
 41
4.342859229098925
 42
4.393115541473612
  0
LINE
  5
34A
330
1F
100
AcDbEntity
  8
0
  6
CONTINUOUS
 62
     7
100
AcDbLine
 10
-1051.715422552711
 20
69.75000000000749
 30
0.0
 11
-1052.176921020829
 21
69.7499999999908
 31
0.0
  0
LINE
  5
34B
330
1F
100
AcDbEntity
  8
0
  6
CONTINUOUS
 62
     7
100
AcDbLine
 10
-485.7600170729752
 20
77.3934949543944
 30
0.0
 11
-485.7693390468822
 21
77.30947302411168
 31
0.0
  0
ELLIPSE
  5
34C
330
1F
100
AcDbEntity
  8
0
  6
CONTINUOUS
 62
     7
100
AcDbEllipse
 10
-829.5024045839289
 20
143.5122222531456
 30
0.0
 11
-235.8055912933261
 21
-1.421330428343032
 31
0.0
210
0.0
220
0.0
230
1.0
 40
0.2735251099435078
 41
1.890069765705974
 42
1.94032607808066
  0
LINE
  5
34D
330
1F
100
AcDbEntity
  8
0
  6
CONTINUOUS
 62
     7
100
AcDbLine
 10
-634.2487870647212
 20
291.25
 30
0.0
 11
-634.918660045799
 21
288.7500000000001
 31
0.0
  0
LINE
  5
34E
330
1F
100
AcDbEntity
  8
0
  6
CONTINUOUS
 62
     7
100
AcDbLine
 10
-1052.176921020829
 20
69.7499999999908
 30
0.0
 11
-1053.579325567818
 21
69.74999999995627
 31
0.0
  0
LINE
  5
34F
330
1F
100
AcDbEntity
  8
0
  6
CONTINUOUS
 62
     7
100
AcDbLine
 10
-525.7487870647212
 20
81.25000000000001
 30
0.0
 11
-525.7487870647212
 21
291.25
 31
0.0
  0
LINE
  5
350
330
1F
100
AcDbEntity
  8
0
  6
CONTINUOUS
 62
     7
100
AcDbLine
 10
-786.7487870647212
 20
228.0078720541881
 30
0.0
 11
-786.7487870647212
 21
298.3855845713596
 31
0.0
  0
LINE
  5
351
330
1F
100
AcDbEntity
  8
0
  6
CONTINUOUS
 62
     7
100
AcDbLine
 10
-1053.579325567781
 20
68.74999999995627
 30
0.0
 11
-1052.176921020791
 21
68.7499999999908
 31
0.0
  0
LINE
  5
352
330
1F
100
AcDbEntity
  8
0
  6
CONTINUOUS
 62
     7
100
AcDbLine
 10
-1053.767550356465
 20
71.67641548168422
 30
0.0
 11
-1053.767550356463
 21
71.62434034833271
 31
0.0
  0
LINE
  5
353
330
1F
100
AcDbEntity
  8
0
  6
CONTINUOUS
 62
     7
100
AcDbLine
 10
-231.2074464746246
 20
81.05571026020101
 30
0.0
 11
-235.0362181929363
 21
95.34488084352208
 31
0.0
  0
LINE
  5
354
330
1F
100
AcDbEntity
  8
0
  6
CONTINUOUS
 62
     7
100
AcDbLine
 10
-289.115990791131
 20
305.703225743098
 30
0.0
 11
-289.4417489441493
 21
305.1497944323793
 31
0.0
  0
LINE
  5
355
330
1F
100
AcDbEntity
  8
0
  6
CONTINUOUS
 62
     7
100
AcDbLine
 10
-292.5936874759319
 20
305.1499999997238
 30
0.0
 11
-293.4626706690827
 21
305.1499999997565
 31
0.0
  0
LINE
  5
356
330
1F
100
AcDbEntity
  8
0
  6
CONTINUOUS
 62
     7
100
AcDbLine
 10
-294.5847777170239
 20
300.7946178654219
 30
0.0
 11
-294.2575405402593
 21
301.3501469870687
 31
0.0
  0
LINE
  5
357
330
1F
100
AcDbEntity
  8
0
  6
CONTINUOUS
 62
     7
100
AcDbLine
 10
-281.1544376423192
 20
305.7222000423801
 30
0.0
 11
-281.4914988128283
 21
305.1499038119981
 31
0.0
  0
LINE
  5
358
330
1F
100
AcDbEntity
  8
0
  6
CONTINUOUS
 62
     7
100
AcDbLine
 10
-281.8613593293921
 20
300.7999116017746
 30
0.0
 11
-281.5373759111267
 21
301.3502068708935
 31
0.0
  0
LINE
  5
359
330
1F
100
AcDbEntity
  8
0
  6
CONTINUOUS
 62
     7
100
AcDbLine
 10
-290.7038805200207
 20
305.7073057344284
 30
0.0
 11
-291.03211336952
 21
305.1498606313373
 31
0.0
  0
LINE
  5
35A
330
1F
100
AcDbEntity
  8
0
  6
CONTINUOUS
 62
     7
100
AcDbLine
 10
-280.2762119761643
 20
300.7907497580056
 30
0.0
 11
-279.9469333981557
 21
301.3500472109438
 31
0.0
  0
LINE
  5
35B
330
1F
100
AcDbEntity
  8
0
  6
CONTINUOUS
 62
     7
100
AcDbLine
 10
-279.5756613703317
 20
305.7035389015029
 30
0.0
 11
-279.9018555819484
 21
305.1498393562121
 31
0.0
  0
LINE
  5
35C
330
1F
100
AcDbEntity
  8
0
  6
CONTINUOUS
 62
     7
100
AcDbLine
 10
-289.8172374417974
 20
300.7898190587603
 30
0.0
 11
-289.4876593096988
 21
301.3500814158289
 31
0.0
  0
LINE
  5
35D
330
1F
100
AcDbEntity
  8
0
  6
CONTINUOUS
 62
     7
100
AcDbLine
 10
-287.8235483815118
 20
305.1499999995451
 30
0.0
 11
-288.6927977850193
 21
305.1499999995776
 31
0.0
  0
LINE
  5
35E
330
1F
100
AcDbEntity
  8
0
  6
CONTINUOUS
 62
     7
100
AcDbLine
 10
-277.5361503348502
 20
305.106075556804
 30
0.0
 11
-277.8994608572476
 21
305.7224857640354
 31
0.0
  0
LINE
  5
35F
330
1F
100
AcDbEntity
  8
0
  6
CONTINUOUS
 62
     7
100
AcDbLine
 10
-291.0036619398223
 20
305.1499999996643
 30
0.0
 11
-291.8727376454499
 21
305.1499999996968
 31
0.0
  0
LINE
  5
360
330
1F
100
AcDbEntity
  8
0
  6
CONTINUOUS
 62
     7
100
AcDbLine
 10
-289.4136145634356
 20
305.1499999996047
 30
0.0
 11
-290.282408380378
 21
305.1499999996372
 31
0.0
  0
LINE
  5
361
330
1F
100
AcDbEntity
  8
0
  6
CONTINUOUS
 62
     7
100
AcDbLine
 10
-287.0712469521594
 20
305.0974906799851
 30
0.0
 11
-287.430719457253
 21
305.7077360592732
 31
0.0
  0
LINE
  5
362
330
1F
100
AcDbEntity
  8
0
  6
CONTINUOUS
 62
     7
100
AcDbLine
 10
-280.706806731159
 20
305.090318765924
 30
0.0
 11
-281.067461445577
 21
305.7022918449246
 31
0.0
  0
LINE
  5
363
330
1F
100
AcDbEntity
  8
0
  6
CONTINUOUS
 62
     7
100
AcDbLine
 10
-282.7502573244304
 20
305.7131287012422
 30
0.0
 11
-283.0819362397002
 21
305.1498454194064
 31
0.0
  0
LINE
  5
364
330
1F
100
AcDbEntity
  8
0
  6
CONTINUOUS
 62
     7
100
AcDbLine
 10
-282.2947825042438
 20
305.0864362772051
 30
0.0
 11
-282.6614481315919
 21
305.7095479574712
 31
0.0
  0
LINE
  5
365
330
1F
100
AcDbEntity
  8
0
  6
CONTINUOUS
 62
     7
100
AcDbLine
 10
-287.9257940963033
 20
301.3499999995489
 30
0.0
 11
-287.0566110997895
 21
301.3499999995163
 31
0.0
  0
LINE
  5
366
330
1F
100
AcDbEntity
  8
0
  6
CONTINUOUS
 62
     7
100
AcDbLine
 10
-286.3357838081017
 20
301.3499999994893
 30
0.0
 11
-285.4669167105362
 21
301.3499999994568
 31
0.0
  0
LINE
  5
367
330
1F
100
AcDbEntity
  8
0
  6
CONTINUOUS
 62
     7
100
AcDbLine
 10
-295.8761260650559
 20
301.3499999998469
 30
0.0
 11
-295.0069110379221
 21
301.3499999998143
 31
0.0
  0
LINE
  5
368
330
1F
100
AcDbEntity
  8
0
  6
CONTINUOUS
 62
     7
100
AcDbLine
 10
-278.2830630828138
 20
305.1499999991875
 30
0.0
 11
-279.1520786276906
 21
305.14999999922
 31
0.0
  0
LINE
  5
369
330
1F
100
AcDbEntity
  8
0
  6
CONTINUOUS
 62
     7
100
AcDbLine
 10
-295.7736966144519
 20
305.149999999843
 30
0.0
 11
-296.6427662685721
 21
305.1499999998755
 31
0.0
  0
LINE
  5
36A
330
1F
100
AcDbEntity
  8
0
  6
CONTINUOUS
 62
     7
100
AcDbLine
 10
-286.6413197479316
 20
300.782617295927
 30
0.0
 11
-286.3073977259703
 21
301.3501068743532
 31
0.0
  0
LINE
  5
36B
330
1F
100
AcDbEntity
  8
0
  6
CONTINUOUS
 62
     7
100
AcDbLine
 10
-283.9134768529369
 20
301.4121949273986
 30
0.0
 11
-283.5470519903745
 21
300.7899204831423
 31
0.0
  0
LINE
  5
36C
330
1F
100
AcDbEntity
  8
0
  6
CONTINUOUS
 62
     7
100
AcDbLine
 10
-277.5481393610896
 20
301.4028550631995
 30
0.0
 11
-277.4999999999997
 21
301.3215488526087
 31
0.0
  0
LINE
  5
36D
330
1F
100
AcDbEntity
  8
0
  6
CONTINUOUS
 62
     7
100
AcDbLine
 10
-283.0532841477883
 20
305.1499999993663
 30
0.0
 11
-283.9221069015456
 21
305.1499999993989
 31
0.0
  0
LINE
  5
36E
330
1F
100
AcDbEntity
  8
0
  6
CONTINUOUS
 62
     7
100
AcDbLine
 10
-283.4580184439961
 20
300.7877755626546
 30
0.0
 11
-283.1270368556681
 21
301.3501565832769
 31
0.0
  0
ARC
  5
36F
330
1F
100
AcDbEntity
  8
0
  6
CONTINUOUS
 62
     7
100
AcDbCircle
 10
-288.265422552856
 20
303.2499999995616
 30
0.0
 40
12.00000000000001
100
AcDbArc
 50
164.5060324973302
 51
168.3342859101275
  0
LINE
  5
370
330
1F
100
AcDbEntity
  8
0
  6
CONTINUOUS
 62
     7
100
AcDbLine
 10
-291.4125613889365
 20
300.7811657992802
 30
0.0
 11
-291.0774876425999
 21
301.3501309353919
 31
0.0
  0
LINE
  5
371
330
1F
100
AcDbEntity
  8
0
  6
CONTINUOUS
 62
     7
100
AcDbLine
 10
-296.6270811740785
 20
301.40024519869
 30
0.0
 11
-296.267715580941
 21
300.7899841085182
 31
0.0
  0
LINE
  5
372
330
1F
100
AcDbEntity
  8
0
  6
CONTINUOUS
 62
     7
100
AcDbLine
 10
-285.4999367547517
 20
301.4058600291024
 30
0.0
 11
-285.1400914750061
 21
300.795343961804
 31
0.0
  0
LINE
  5
373
330
1F
100
AcDbEntity
  8
0
  6
CONTINUOUS
 62
     7
100
AcDbLine
 10
-283.8931838768808
 20
305.1010117086456
 30
0.0
 11
-284.2572439842368
 21
305.7190703959187
 31
0.0
  0
LINE
  5
374
330
1F
100
AcDbEntity
  8
0
  6
CONTINUOUS
 62
     7
100
AcDbLine
 10
-296.1725232091875
 20
300.7989250873153
 30
0.0
 11
-295.8478801474855
 21
301.3502063634664
 31
0.0
  0
LINE
  5
375
330
1F
100
AcDbEntity
  8
0
  6
CONTINUOUS
 62
     7
100
AcDbLine
 10
-291.8526572350231
 20
301.3936385120712
 30
0.0
 11
-291.4920259322711
 21
300.7810359974235
 31
0.0
  0
LINE
  5
376
330
1F
100
AcDbEntity
  8
0
  6
CONTINUOUS
 62
     7
100
AcDbLine
 10
-293.0046036941429
 20
300.7782119632707
 30
0.0
 11
-292.6678943258999
 21
301.3500973174685
 31
0.0
  0
LINE
  5
377
330
1F
100
AcDbEntity
  8
0
  6
CONTINUOUS
 62
     7
100
AcDbLine
 10
-288.2219396583273
 20
300.7994880069668
 30
0.0
 11
-287.8975634350405
 21
301.3501866517498
 31
0.0
  0
LINE
  5
378
330
1F
100
AcDbEntity
  8
0
  6
CONTINUOUS
 62
     7
100
AcDbLine
 10
-288.654131019632
 20
305.0846118252728
 30
0.0
 11
-289.0164819176223
 21
305.6995226713076
 31
0.0
  0
LINE
  5
379
330
1F
100
AcDbEntity
  8
0
  6
CONTINUOUS
 62
     7
100
AcDbLine
 10
-287.5164653010092
 20
305.7194396861174
 30
0.0
 11
-287.8519196295351
 21
305.1498744728129
 31
0.0
  0
LINE
  5
37A
330
1F
100
AcDbEntity
  8
0
  6
CONTINUOUS
 62
     7
100
AcDbLine
 10
-294.1836945849597
 20
305.1499999997834
 30
0.0
 11
-295.0528114861431
 21
305.149999999816
 31
0.0
  0
ARC
  5
37B
330
1F
100
AcDbEntity
  8
0
  6
CONTINUOUS
 62
     7
100
AcDbCircle
 10
-298.2874718324724
 20
306.0282239352698
 30
0.0
 40
1.599999999999966
100
AcDbArc
 50
94.99999999785278
 51
164.5060324973302
  0
LINE
  5
37C
330
1F
100
AcDbEntity
  8
0
  6
CONTINUOUS
 62
     7
100
AcDbLine
 10
-295.4774478572356
 20
305.7011318276549
 30
0.0
 11
-295.802114336917
 21
305.1498133751929
 31
0.0
  0
LINE
  5
37D
330
1F
100
AcDbEntity
  8
0
  6
CONTINUOUS
 62
     7
100
AcDbLine
 10
-293.8815135306288
 20
305.7118636071762
 30
0.0
 11
-294.2122806556233
 21
305.1498424813063
 31
0.0
  0
LINE
  5
37E
330
1F
100
AcDbEntity
  8
0
  6
CONTINUOUS
 62
     7
100
AcDbLine
 10
-292.2849643827623
 20
305.7221765581456
 30
0.0
 11
-292.6219241692491
 21
305.1498955253446
 31
0.0
  0
LINE
  5
37F
330
1F
100
AcDbEntity
  8
0
  6
CONTINUOUS
 62
     7
100
AcDbLine
 10
-284.3474912937334
 20
305.7000602767858
 30
0.0
 11
-284.6716244808586
 21
305.1498010224759
 31
0.0
  0
LINE
  5
380
330
1F
100
AcDbEntity
  8
0
  6
CONTINUOUS
 62
     7
100
AcDbLine
 10
-295.0451198612766
 20
301.4146459084217
 30
0.0
 11
-294.6822626455099
 21
300.7986012497008
 31
0.0
  0
LINE
  5
381
330
1F
100
AcDbEntity
  8
0
  6
CONTINUOUS
 62
     7
100
AcDbLine
 10
-286.2334647396298
 20
305.1499999994854
 30
0.0
 11
-287.1022630479032
 21
305.149999999518
 31
0.0
  0
LINE
  5
382
330
1F
100
AcDbEntity
  8
0
  6
CONTINUOUS
 62
     7
100
AcDbLine
 10
-295.0156926484636
 20
305.0872537527194
 30
0.0
 11
-295.376813582704
 21
305.6997176121864
 31
0.0
  0
LINE
  5
383
330
1F
100
AcDbEntity
  8
0
  6
CONTINUOUS
 62
     7
100
AcDbLine
 10
-282.313969342477
 20
301.3960659186204
 30
0.0
 11
-281.9504347713525
 21
300.7792593457437
 31
0.0
  0
LINE
  5
384
330
1F
100
AcDbEntity
  8
0
  6
CONTINUOUS
 62
     7
100
AcDbLine
 10
-293.4458803726473
 20
301.3985793015503
 30
0.0
 11
-293.0819703396842
 21
300.7807757356809
 31
0.0
  0
LINE
  5
385
330
1F
100
AcDbEntity
  8
0
  6
CONTINUOUS
 62
     7
100
AcDbLine
 10
-281.4631994189842
 20
305.1499999993067
 30
0.0
 11
-282.3323734286375
 21
305.1499999993392
 31
0.0
  0
LINE
  5
386
330
1F
100
AcDbEntity
  8
0
  6
CONTINUOUS
 62
     7
100
AcDbLine
 10
-279.1260455759035
 20
305.1058852349019
 30
0.0
 11
-279.4865012508361
 21
305.718066931876
 31
0.0
  0
ARC
  5
387
330
1F
100
AcDbEntity
  8
0
  6
CONTINUOUS
 62
     7
100
AcDbCircle
 10
-288.265422552856
 20
303.2499999995616
 30
0.0
 40
12.00000000000001
100
AcDbArc
 50
191.6657140855779
 51
195.4939674983752
  0
LINE
  5
388
330
1F
100
AcDbEntity
  8
0
  6
CONTINUOUS
 62
     7
100
AcDbLine
 10
-296.6065328814383
 20
305.0887737438818
 30
0.0
 11
-296.9724600778543
 21
305.7101164908419
 31
0.0
  0
LINE
  5
389
330
1F
100
AcDbEntity
  8
0
  6
CONTINUOUS
 62
     7
100
AcDbLine
 10
-279.8731257549209
 20
305.1499999992471
 30
0.0
 11
-280.7420885979349
 21
305.1499999992797
 31
0.0
  0
LINE
  5
38A
330
1F
100
AcDbEntity
  8
0
  6
CONTINUOUS
 62
     7
100
AcDbLine
 10
-278.6945521685797
 20
300.7773650585164
 30
0.0
 11
-278.3572462320496
 21
301.3500947804818
 31
0.0
  0
LINE
  5
38B
330
1F
100
AcDbEntity
  8
0
  6
CONTINUOUS
 62
     7
100
AcDbLine
 10
-277.9821768395294
 20
305.7098725626938
 30
0.0
 11
-278.3116720068302
 21
305.1499215466712
 31
0.0
  0
LINE
  5
38C
330
1F
100
AcDbEntity
  8
0
  6
CONTINUOUS
 62
     7
100
AcDbLine
 10
-285.9278909457837
 20
305.7171025169956
 30
0.0
 11
-286.2617493076875
 21
305.1498933158735
 31
0.0
  0
LINE
  5
38D
330
1F
100
AcDbEntity
  8
0
  6
CONTINUOUS
 62
     7
100
AcDbLine
 10
-285.0545512757064
 20
300.7775077730906
 30
0.0
 11
-284.7173536310877
 21
301.3501067005178
 31
0.0
  0
LINE
  5
38E
330
1F
100
AcDbEntity
  8
0
  6
CONTINUOUS
 62
     7
100
AcDbLine
 10
-291.8468397273629
 20
305.10613899469
 30
0.0
 11
-292.2097616204431
 21
305.7220859261876
 31
0.0
  0
LINE
  5
38F
330
1F
100
AcDbEntity
  8
0
  6
CONTINUOUS
 62
     7
100
AcDbLine
 10
-285.4875035106605
 20
305.1076503500577
 30
0.0
 11
-285.8492233693606
 21
305.7219374103968
 31
0.0
  0
LINE
  5
390
330
1F
100
AcDbEntity
  8
0
  6
CONTINUOUS
 62
     7
100
AcDbLine
 10
-280.7241745281113
 20
301.3963849756772
 30
0.0
 11
-280.364242030831
 21
300.7852002701146
 31
0.0
  0
LINE
  5
391
330
1F
100
AcDbEntity
  8
0
  6
CONTINUOUS
 62
     7
100
AcDbLine
 10
-290.2506597327571
 20
305.0962456066578
 30
0.0
 11
-290.6136806895279
 21
305.712595961158
 31
0.0
  0
LINE
  5
392
330
1F
100
AcDbEntity
  8
0
  6
CONTINUOUS
 62
     7
100
AcDbLine
 10
-284.643374398751
 20
305.1499999994259
 30
0.0
 11
-285.5124935137294
 21
305.1499999994585
 31
0.0
  0
LINE
  5
393
330
1F
100
AcDbEntity
  8
0
  6
CONTINUOUS
 62
     7
100
AcDbLine
 10
-293.4357325870409
 20
305.104359407016
 30
0.0
 11
-293.7956865622362
 21
305.7156690211993
 31
0.0
  0
LINE
  5
394
330
1F
100
AcDbEntity
  8
0
  6
CONTINUOUS
 62
     7
100
AcDbLine
 10
-279.975752114909
 20
301.3499999992509
 30
0.0
 11
-279.1066105919185
 21
301.3499999992184
 31
0.0
  0
LINE
  5
395
330
1F
100
AcDbEntity
  8
0
  6
CONTINUOUS
 62
     7
100
AcDbLine
 10
-294.2860356244468
 20
301.3499999997873
 30
0.0
 11
-293.4171984364551
 21
301.3499999997547
 31
0.0
  0
LINE
  5
396
330
1F
100
AcDbEntity
  8
0
  6
CONTINUOUS
 62
     7
100
AcDbLine
 10
-281.5657703561259
 20
301.3499999993106
 30
0.0
 11
-280.6967928695084
 21
301.3499999992779
 31
0.0
  0
LINE
  5
397
330
1F
100
AcDbEntity
  8
0
  6
CENTER
 62
     1
100
AcDbLine
 10
-1016.25
 20
60.25000000000001
 30
0.0
 11
-1016.25
 21
312.25
 31
0.0
  0
LINE
  5
399
330
1F
100
AcDbEntity
  8
0
  6
CONTINUOUS
 62
     7
100
AcDbLine
 10
-291.1058775525185
 20
301.3499999996681
 30
0.0
 11
-290.2367451512083
 21
301.3499999996355
 31
0.0
  0
LINE
  5
39A
330
1F
100
AcDbEntity
  8
0
  6
CONTINUOUS
 62
     7
100
AcDbLine
 10
-289.5158263660518
 20
301.3499999996085
 30
0.0
 11
-288.6470259521922
 21
301.3499999995759
 31
0.0
  0
LINE
  5
39B
330
1F
100
AcDbEntity
  8
0
  6
CONTINUOUS
 62
     7
100
AcDbLine
 10
-277.4999999999996
 20
305.1499999991581
 30
0.0
 11
-277.5620911298665
 21
305.1499999991605
 31
0.0
  0
LINE
  5
39C
330
1F
100
AcDbEntity
  8
0
  6
CONTINUOUS
 62
     7
100
AcDbLine
 10
-283.1557791615084
 20
301.3499999993701
 30
0.0
 11
-282.2867602783639
 21
301.3499999993375
 31
0.0
  0
LINE
  5
39D
330
1F
100
AcDbEntity
  8
0
  6
CENTER
 62
     1
100
AcDbLine
 10
-388.4999999999999
 20
186.25
 30
0.0
 11
-136.4999999999999
 21
186.25
 31
0.0
  0
LINE
  5
39E
330
1F
100
AcDbEntity
  8
0
  6
CONTINUOUS
 62
     7
100
AcDbLine
 10
-284.7457810139249
 20
301.3499999994297
 30
0.0
 11
-283.8766745628296
 21
301.3499999993971
 31
0.0
  0
LINE
  5
39F
330
1F
100
AcDbEntity
  8
0
  6
CONTINUOUS
 62
     7
100
AcDbLine
 10
-292.6959480607022
 20
301.3499999997277
 30
0.0
 11
-291.8269097483128
 21
301.3499999996951
 31
0.0
  0
LINE
  5
3A0
330
1F
100
AcDbEntity
  8
0
  6
CENTER
 62
     1
100
AcDbLine
 10
-1132.25
 20
186.25
 30
0.0
 11
-900.2499999999998
 21
186.25
 31
0.0
  0
LINE
  5
3A1
330
1F
100
AcDbEntity
  8
0
  6
CONTINUOUS
 62
     7
100
AcDbLine
 10
-296.9654225529272
 20
301.3499999998877
 30
0.0
 11
-296.597406527265
 21
301.3499999998739
 31
0.0
  0
LINE
  5
3A2
330
1F
100
AcDbEntity
  8
0
  6
CENTER
 62
     1
100
AcDbLine
 10
-262.4999999999999
 20
60.25000000000001
 30
0.0
 11
-262.4999999999999
 21
312.25
 31
0.0
  0
LINE
  5
3A3
330
1F
100
AcDbEntity
  8
0
  6
CONTINUOUS
 62
     7
100
AcDbLine
 10
-278.3857231206675
 20
301.3499999991913
 30
0.0
 11
-277.5169218532602
 21
301.3499999991588
 31
0.0
  0
LINE
  5
3A4
330
1F
100
AcDbEntity
  8
0
  6
CONTINUOUS
 62
     7
100
AcDbLine
 10
-351.3437826092056
 20
126.6196193900462
 30
0.0
 11
-341.3042419396985
 21
133.2227291640494
 31
0.0
  0
LINE
  5
3A5
330
1F
100
AcDbEntity
  8
0
  6
CONTINUOUS
 62
     7
100
AcDbLine
 10
-341.7633959095824
 20
114.3729238986409
 30
0.0
 11
-332.7868573157012
 21
122.3613649489827
 31
0.0
  0
LINE
  5
3A6
330
1F
100
AcDbEntity
  8
0
  6
CONTINUOUS
 62
     7
100
AcDbLine
 10
-342.4032598958399
 20
134.893704786875
 30
0.0
 11
-352.4428005653472
 21
128.2905950128721
 31
0.0
  0
LINE
  5
3A7
330
1F
100
AcDbEntity
  8
0
  6
CONTINUOUS
 62
     7
100
AcDbLine
 10
-360.6622572141417
 20
137.1660539623761
 30
0.0
 11
-347.2550304711602
 21
143.4179464672486
 31
0.0
  0
LINE
  5
3A8
330
1F
100
AcDbEntity
  8
0
  6
CONTINUOUS
 62
     7
100
AcDbLine
 10
-334.1164490469292
 20
123.8554150914648
 30
0.0
 11
-343.0929876408103
 21
115.8669740411229
 31
0.0
  0
LINE
  5
3A9
330
1F
100
AcDbEntity
  8
0
  6
CONTINUOUS
 62
     7
100
AcDbLine
 10
-343.0929876408103
 20
256.6330259588742
 30
0.0
 11
-334.1164490469295
 21
248.6445849085325
 31
0.0
  0
LINE
  5
3AA
330
1F
100
AcDbEntity
  8
0
  6
CONTINUOUS
 62
     7
100
AcDbLine
 10
-213.489394904073
 20
104.88685976973
 30
0.0
 11
-207.1810757917998
 21
94.65951673647128
 31
0.0
  0
LINE
  5
3AB
330
1F
100
AcDbEntity
  8
0
  6
CONTINUOUS
 62
     7
100
AcDbLine
 10
-235.0362181929363
 20
277.1551191564805
 30
0.0
 11
-231.2074464746246
 21
291.4442897398019
 31
0.0
  0
LINE
  5
3AC
330
1F
100
AcDbEntity
  8
0
  6
CONTINUOUS
 62
     7
100
AcDbLine
 10
-172.5571994346526
 20
128.290595012875
 30
0.0
 11
-182.5967401041596
 21
134.893704786878
 31
0.0
  0
LINE
  5
3AD
330
1F
100
AcDbEntity
  8
0
  6
CONTINUOUS
 62
     7
100
AcDbLine
 10
-183.6957580603014
 20
133.2227291640519
 30
0.0
 11
-173.6562173907942
 21
126.6196193900492
 31
0.0
  0
LINE
  5
3AE
330
1F
100
AcDbEntity
  8
0
  6
CONTINUOUS
 62
     7
100
AcDbLine
 10
-223.9625455649312
 20
273.0651173797795
 30
0.0
 11
-219.2030998073756
 21
284.0987528469822
 31
0.0
  0
LINE
  5
3AF
330
1F
100
AcDbEntity
  8
0
  6
CONTINUOUS
 62
     7
100
AcDbLine
 10
-190.8835509530705
 20
248.6445849085349
 30
0.0
 11
-181.9070123591895
 21
256.6330259588772
 31
0.0
  0
LINE
  5
3B0
330
1F
100
AcDbEntity
  8
0
  6
CONTINUOUS
 62
     7
100
AcDbLine
 10
-303.9604679788638
 20
87.60908762093955
 30
0.0
 11
-299.2010222213081
 21
98.64272308814215
 31
0.0
  0
LINE
  5
3B1
330
1F
100
AcDbEntity
  8
0
  6
CONTINUOUS
 62
     7
100
AcDbLine
 10
-200.6826665071557
 20
258.3653054478336
 30
0.0
 11
-192.9586850664328
 21
267.5703880789451
 31
0.0
  0
ARC
  5
3B2
330
1F
100
AcDbEntity
  8
0
  6
CONTINUOUS
 62
     7
100
AcDbCircle
 10
262.4999999999999
 20
186.2500000000013
 30
0.0
 40
94.00000000000001
210
0.0
220
0.0
230
-1.0
100
AcDbArc
 50
114.5396493908629
 51
121.0571255997058
  0
LINE
  5
3B3
330
1F
100
AcDbEntity
  8
0
  6
CONTINUOUS
 62
     7
100
AcDbLine
 10
-341.3042419396987
 20
239.2772708359479
 30
0.0
 11
-351.3437826092057
 21
245.8803806099509
 31
0.0
  0
LINE
  5
3B4
330
1F
100
AcDbEntity
  8
0
  6
CONTINUOUS
 62
     7
100
AcDbLine
 10
-192.9586850664328
 20
104.9296119210577
 30
0.0
 11
-200.6826665071548
 21
114.1346945521696
 31
0.0
  0
LINE
  5
3B5
330
1F
100
AcDbEntity
  8
0
  6
CONTINUOUS
 62
     7
100
AcDbLine
 10
-177.7449695288394
 20
143.4179464672517
 30
0.0
 11
-164.3377427858582
 21
137.166053962379
 31
0.0
  0
LINE
  5
3B6
330
1F
100
AcDbEntity
  8
0
  6
CONTINUOUS
 62
     7
100
AcDbLine
 10
-322.7852446066069
 20
259.6508806672036
 30
0.0
 11
-330.5092260473292
 21
268.8559632983153
 31
0.0
  0
LINE
  5
3B7
330
1F
100
AcDbEntity
  8
0
  6
CONTINUOUS
 62
     7
100
AcDbLine
 10
-221.039532021136
 20
284.8909123790605
 30
0.0
 11
-225.798977778692
 21
273.8572769118579
 31
0.0
  0
LINE
  5
3B8
330
1F
100
AcDbEntity
  8
0
  6
CONTINUOUS
 62
     7
100
AcDbLine
 10
-207.1810757917998
 20
277.8404832635317
 30
0.0
 11
-214.0061106286185
 21
266.7754164449736
 31
0.0
  0
LINE
  5
3B9
330
1F
100
AcDbEntity
  8
0
  6
CONTINUOUS
 62
     7
100
AcDbLine
 10
-332.7868573157015
 20
250.1386350510146
 30
0.0
 11
-341.7633959095825
 21
258.1270761013562
 31
0.0
  0
LINE
  5
3BA
330
1F
100
AcDbEntity
  8
0
  6
CONTINUOUS
 62
     7
100
AcDbLine
 10
-289.9637818070638
 20
95.34488084351965
 30
0.0
 11
-293.7925535253752
 21
81.0557102601981
 31
0.0
  0
LINE
  5
3BB
330
1F
100
AcDbEntity
  8
0
  6
CONTINUOUS
 62
     7
100
AcDbLine
 10
-219.2030998073755
 20
88.4012471530208
 30
0.0
 11
-223.9625455649315
 21
99.43488262022285
 31
0.0
  0
LINE
  5
3BC
330
1F
100
AcDbEntity
  8
0
  6
CONTINUOUS
 62
     7
100
AcDbLine
 10
-205.4788424469259
 20
95.7094698971404
 30
0.0
 11
-211.7871615591991
 21
105.9368129303991
 31
0.0
  0
LINE
  5
3BD
330
1F
100
AcDbEntity
  8
0
  6
CONTINUOUS
 62
     7
100
AcDbLine
 10
-181.9070123591895
 20
115.8669740411258
 30
0.0
 11
-190.8835509530705
 21
123.8554150914675
 31
0.0
  0
LINE
  5
3BE
330
1F
100
AcDbEntity
  8
0
  6
CONTINUOUS
 62
     7
100
AcDbLine
 10
-211.7871615591995
 20
266.5631870696037
 30
0.0
 11
-205.4788424469259
 21
276.7905301028625
 31
0.0
  0
LINE
  5
3BF
330
1F
100
AcDbEntity
  8
0
  6
CONTINUOUS
 62
     7
100
AcDbLine
 10
-173.6562173907942
 20
245.8803806099538
 30
0.0
 11
-183.6957580603016
 21
239.2772708359509
 31
0.0
  0
LINE
  5
3C0
330
1F
100
AcDbEntity
  8
0
  6
CONTINUOUS
 62
     7
100
AcDbLine
 10
-324.3173334928449
 20
114.1346945521671
 30
0.0
 11
-332.0413149335671
 21
104.9296119210548
 31
0.0
  0
LINE
  5
3C1
330
1F
100
AcDbEntity
  8
0
  6
CONTINUOUS
 62
     7
100
AcDbLine
 10
-194.4907739526707
 20
268.8559632983182
 30
0.0
 11
-202.2147553933929
 21
259.6508806672061
 31
0.0
  0
LINE
  5
3C2
330
1F
100
AcDbEntity
  8
0
  6
CONTINUOUS
 62
     7
100
AcDbLine
 10
-332.0413149335672
 20
267.5703880789423
 30
0.0
 11
-324.3173334928451
 21
258.3653054478305
 31
0.0
  0
LINE
  5
3C3
330
1F
100
AcDbEntity
  8
0
  6
CONTINUOUS
 62
     7
100
AcDbLine
 10
-319.521157553074
 20
276.7905301028596
 30
0.0
 11
-313.2128384408011
 21
266.5631870696006
 31
0.0
  0
LINE
  5
3C4
330
1F
100
AcDbEntity
  8
0
  6
CONTINUOUS
 62
     7
100
AcDbLine
 10
-311.5106050959268
 20
267.61314023027
 30
0.0
 11
-317.8189242082001
 21
277.8404832635287
 31
0.0
  0
LINE
  5
3C5
330
1F
100
AcDbEntity
  8
0
  6
CONTINUOUS
 62
     7
100
AcDbLine
 10
-317.8189242082
 20
94.65951673646835
 30
0.0
 11
-310.9938893713814
 21
105.7245835550266
 31
0.0
  0
LINE
  5
3C6
330
1F
100
AcDbEntity
  8
0
  6
CONTINUOUS
 62
     7
100
AcDbLine
 10
-352.4428005653473
 20
244.209404987125
 30
0.0
 11
-342.4032598958402
 21
237.6062952131221
 31
0.0
  0
LINE
  5
3C7
330
1F
100
AcDbEntity
  8
0
  6
CONTINUOUS
 62
     7
100
AcDbLine
 10
-305.7969001926244
 20
284.0987528469792
 30
0.0
 11
-301.0374544350686
 21
273.0651173797771
 31
0.0
  0
LINE
  5
3C8
330
1F
100
AcDbEntity
  8
0
  6
CONTINUOUS
 62
     7
100
AcDbLine
 10
-299.2010222213083
 20
273.8572769118554
 30
0.0
 11
-303.9604679788638
 21
284.8909123790576
 31
0.0
  0
LINE
  5
3C9
330
1F
100
AcDbEntity
  8
0
  6
CONTINUOUS
 62
     7
100
AcDbLine
 10
-330.5092260473292
 20
103.6440367016818
 30
0.0
 11
-322.7852446066067
 21
112.8491193327937
 31
0.0
  0
LINE
  5
3CA
330
1F
100
AcDbEntity
  8
0
  6
CONTINUOUS
 62
     7
100
AcDbLine
 10
-293.7925535253752
 20
291.444289739799
 30
0.0
 11
-289.9637818070639
 21
277.1551191564778
 31
0.0
  0
LINE
  5
3CB
330
1F
100
AcDbEntity
  8
0
  6
CONTINUOUS
 62
     7
100
AcDbLine
 10
-225.7989777786916
 20
98.64272308814468
 30
0.0
 11
-221.0395320211361
 21
87.60908762094246
 31
0.0
  0
LINE
  5
3CC
330
1F
100
AcDbEntity
  8
0
  6
CONTINUOUS
 62
     7
100
AcDbLine
 10
-192.2131426842984
 20
122.3613649489854
 30
0.0
 11
-183.2366040904174
 21
114.3729238986438
 31
0.0
  0
LINE
  5
3CD
330
1F
100
AcDbEntity
  8
0
  6
CONTINUOUS
 62
     7
100
AcDbLine
 10
-347.2550304711604
 20
229.0820535327485
 30
0.0
 11
-360.6622572141416
 21
235.333946037621
 31
0.0
  0
LINE
  5
3CE
330
1F
100
AcDbEntity
  8
0
  6
CONTINUOUS
 62
     7
100
AcDbLine
 10
-313.2128384408006
 20
105.9368129303964
 30
0.0
 11
-319.521157553074
 21
95.70946989713748
 31
0.0
  0
LINE
  5
3CF
330
1F
100
AcDbEntity
  8
0
  6
CONTINUOUS
 62
     7
100
AcDbLine
 10
-183.2366040904174
 20
258.1270761013591
 30
0.0
 11
-192.2131426842987
 21
250.1386350510173
 31
0.0
  0
LINE
  5
3D0
330
1F
100
AcDbEntity
  8
0
  6
CONTINUOUS
 62
     7
100
AcDbLine
 10
-202.214755393393
 20
112.8491193327964
 30
0.0
 11
-194.4907739526707
 21
103.6440367016847
 31
0.0
  0
LINE
  5
3D1
330
1F
100
AcDbEntity
  8
0
  6
CONTINUOUS
 62
     7
100
AcDbLine
 10
-164.3377427858582
 20
235.3339460376239
 30
0.0
 11
-177.7449695288397
 21
229.0820535327514
 31
0.0
  0
LINE
  5
3D2
330
1F
100
AcDbEntity
  8
0
  6
CONTINUOUS
 62
     7
100
AcDbLine
 10
-301.0374544350686
 20
99.43488262022048
 30
0.0
 11
-305.7969001926243
 21
88.40124715301789
 31
0.0
  0
LINE
  5
3D3
330
1F
100
AcDbEntity
  8
0
  6
CONTINUOUS
 62
     7
100
AcDbLine
 10
-182.5967401041597
 20
237.6062952131246
 30
0.0
 11
-172.5571994346526
 21
244.209404987128
 31
0.0
  0
ARC
  5
3D4
330
1F
100
AcDbEntity
  8
0
  6
CONTINUOUS
 62
     7
100
AcDbCircle
 10
290.9297076333528
 20
95.60369988862212
 30
0.0
 40
1.000000000000003
210
0.0
220
0.0
230
-1.0
100
AcDbArc
 50
107.4131672646025
 51
192.913167264603
  0
ARC
  5
3D5
330
1F
100
AcDbEntity
  8
0
  6
CONTINUOUS
 62
     7
100
AcDbCircle
 10
262.4999999999999
 20
186.2499999999988
 30
0.0
 40
93.99999999999999
210
0.0
220
0.0
230
-1.0
100
AcDbArc
 50
302.8729827241962
 51
308.7936839424705
  0
LINE
  5
3D6
330
1F
100
AcDbEntity
  8
0
  6
CONTINUOUS
 62
     7
100
AcDbLine
 10
-257.854586442338
 20
292.6474630001966
 30
0.0
 11
-258.007256037832
 21
289.150754378626
 31
0.0
  0
ARC
  5
3D7
330
1F
100
AcDbEntity
  8
0
  6
CONTINUOUS
 62
     7
100
AcDbCircle
 10
262.4999999999999
 20
186.2500000000014
 30
0.0
 40
113.5
210
0.0
220
0.0
230
-1.0
100
AcDbArc
 50
100.3595411734037
 51
262.1855802186081
  0
ARC
  5
3D8
330
1F
100
AcDbEntity
  8
0
  6
CONTINUOUS
 62
     7
100
AcDbCircle
 10
290.9297076333528
 20
95.60369988862212
 30
0.0
 40
0.9999999999999963
210
0.0
220
0.0
230
-1.0
100
AcDbArc
 50
192.913167264603
 51
194.9999999999999
  0
LINE
  5
3D9
330
1F
100
AcDbEntity
  8
0
  6
CONTINUOUS
 62
     7
100
AcDbLine
 10
-1034.114242030831
 20
71.71479972988519
 30
0.0
 11
-1034.446792869509
 21
71.14988849495646
 31
0.0
  0
ARC
  5
3DA
330
1F
100
AcDbEntity
  8
0
  6
CONTINUOUS
 62
     7
100
AcDbCircle
 10
-1052.037471832472
 20
66.47177606473007
 30
0.0
 40
1.599999999999969
100
AcDbArc
 50
195.4939675026698
 51
265.0000000021472
  0
ARC
  5
3DB
330
1F
100
AcDbEntity
  8
0
  6
CONTINUOUS
 62
     7
100
AcDbCircle
 10
-301.9556705419487
 20
99.83096238625951
 30
0.0
 40
1.000000000000007
100
AcDbArc
 50
336.6666666666664
 51
65.46035060913725
  0
LINE
  5
3DC
330
1F
100
AcDbEntity
  8
0
  6
CONTINUOUS
 62
     7
100
AcDbLine
 10
-157.5455530330587
 20
218.337794593321
 30
0.0
 11
-164.4787625137906
 21
216.2180997340812
 31
0.0
  0
LINE
  5
3DD
330
1F
100
AcDbEntity
  8
0
  6
CONTINUOUS
 62
     7
100
AcDbLine
 10
-1032.082611180995
 20
71.1082670734059
 30
0.0
 11
-1032.44455216858
 21
71.72263494148346
 31
0.0
  0
LINE
  5
3DE
330
1F
100
AcDbEntity
  8
0
  6
CONTINUOUS
 62
     7
100
AcDbLine
 10
-1050.017715580941
 20
71.71001589148163
 30
0.0
 11
-1050.337632639402
 21
71.16641129569173
 31
0.0
  0
LINE
  5
3DF
330
1F
100
AcDbEntity
  8
0
  6
CONTINUOUS
 62
     7
100
AcDbLine
 10
-1050.337632639402
 20
71.16641129569173
 30
0.0
 11
-1050.347366897598
 21
71.14995393609776
 31
0.0
  0
LINE
  5
3E0
330
1F
100
AcDbEntity
  8
0
  6
CONTINUOUS
 62
     7
100
AcDbLine
 10
-1038.459251030585
 20
67.41361408677744
 30
0.0
 11
-1038.097491293733
 21
66.79993972321388
 31
0.0
  0
ARC
  5
3E1
330
1F
100
AcDbEntity
  8
0
  6
CONTINUOUS
 62
     7
100
AcDbCircle
 10
262.4999999999999
 20
186.2500000000014
 30
0.0
 40
102.5
210
0.0
220
0.0
230
-1.0
100
AcDbArc
 50
267.7781359443867
 51
269.9999999999999
  0
LINE
  5
3E2
330
1F
100
AcDbEntity
  8
0
  6
CONTINUOUS
 62
     7
100
AcDbLine
 10
-1036.411448131592
 20
66.7904520425286
 30
0.0
 11
-1036.082373428638
 21
67.35008383400661
 31
0.0
  0
LINE
  5
3E3
330
1F
100
AcDbEntity
  8
0
  6
CONTINUOUS
 62
     7
100
AcDbLine
 10
-1045.959761620443
 20
66.7779140738122
 30
0.0
 11
-1045.62273764545
 21
67.35010662119969
 31
0.0
  0
LINE
  5
3E4
330
1F
100
AcDbEntity
  8
0
  6
CONTINUOUS
 62
     7
100
AcDbLine
 10
-1040.038151126742
 20
67.39473519648732
 30
0.0
 11
-1039.677890945783
 21
66.78289748300419
 31
0.0
  0
LINE
  5
3E5
330
1F
100
AcDbEntity
  8
0
  6
CONTINUOUS
 62
     7
100
AcDbLine
 10
-1041.630201689065
 20
67.39788961534585
 30
0.0
 11
-1041.266465301009
 21
66.78056031388236
 31
0.0
  0
LINE
  5
3E6
330
1F
100
AcDbEntity
  8
0
  6
CONTINUOUS
 62
     7
100
AcDbLine
 10
-1033.685872562879
 20
67.4075363737126
 30
0.0
 11
-1033.325661370332
 21
66.79646109849683
 31
0.0
  0
ARC
  5
3E7
330
1F
100
AcDbEntity
  8
0
  6
CONTINUOUS
 62
     7
100
AcDbCircle
 10
-262.4999999999999
 20
186.2500000000013
 30
0.0
 40
102.5000000000493
100
AcDbArc
 50
16.99999999999999
 51
17.21953502409128
  0
LINE
  5
3E8
330
1F
100
AcDbEntity
  8
0
  6
CONTINUOUS
 62
     7
100
AcDbLine
 10
-262.4999999999999
 20
288.7499999999997
 30
0.0
 11
-262.4999999999999
 21
292.7499999999996
 31
0.0
  0
LINE
  5
3E9
330
1F
100
AcDbEntity
  8
0
  6
CONTINUOUS
 62
     7
100
AcDbLine
 10
-262.4999999999999
 20
83.75000000000317
 30
0.0
 11
-262.4999999999999
 21
79.75000000000333
 31
0.0
  0
ARC
  5
3EA
330
1F
100
AcDbEntity
  8
0
  6
CONTINUOUS
 62
     7
100
AcDbCircle
 10
-258.5067801486229
 20
289.1725640723087
 30
0.0
 40
0.5000000000000296
100
AcDbArc
 50
267.7781359443866
 51
353.2781359443878
  0
LINE
  5
3EB
330
1F
100
AcDbEntity
  8
0
  6
CONTINUOUS
 62
     7
100
AcDbLine
 10
-258.007256037832
 20
83.34924562137684
 30
0.0
 11
-257.8545864423379
 21
79.85253699980633
 31
0.0
  0
ARC
  5
3EC
330
1F
100
AcDbEntity
  8
0
  6
CONTINUOUS
 62
     7
100
AcDbCircle
 10
-262.4999999999999
 20
186.2500000000014
 30
0.0
 40
102.5
100
AcDbArc
 50
87.77813594438672
 51
90.0
  0
ARC
  5
3ED
330
1F
100
AcDbEntity
  8
0
  6
CONTINUOUS
 62
     7
100
AcDbCircle
 10
-258.5067801486229
 20
289.1725640723087
 30
0.0
 40
0.4999999999999823
100
AcDbArc
 50
353.2781359443878
 51
357.4999999999987
  0
ARC
  5
3EE
330
1F
100
AcDbEntity
  8
0
  6
CONTINUOUS
 62
     7
100
AcDbCircle
 10
322.0192001634878
 20
112.2063317231073
 30
0.0
 40
1.000000000000004
210
0.0
220
0.0
230
-1.0
100
AcDbArc
 50
40.00000000000001
 51
128.7936839424696
  0
ARC
  5
3EF
330
1F
100
AcDbEntity
  8
0
  6
CONTINUOUS
 62
     7
100
AcDbCircle
 10
262.4999999999999
 20
186.2499999999988
 30
0.0
 40
94.00000000000001
210
0.0
220
0.0
230
-1.0
100
AcDbArc
 50
294.5396493908628
 51
301.0571255997057
  0
ARC
  5
3F0
330
1F
100
AcDbEntity
  8
0
  6
CONTINUOUS
 62
     7
100
AcDbCircle
 10
-298.2828061144276
 20
98.24664332210294
 30
0.0
 40
0.9999999999999913
100
AcDbArc
 50
67.8729827241961
 51
156.6666666666671
  0
ARC
  5
3F1
330
1F
100
AcDbEntity
  8
0
  6
CONTINUOUS
 62
     7
100
AcDbCircle
 10
-314.0639551132377
 20
106.4617895107311
 30
0.0
 40
0.9999999999999968
100
AcDbArc
 50
328.3333333333347
 51
57.12701727580395
  0
ARC
  5
3F2
330
1F
100
AcDbEntity
  8
0
  6
CONTINUOUS
 62
     7
100
AcDbCircle
 10
262.4999999999999
 20
186.2499999999988
 30
0.0
 40
94.0
210
0.0
220
0.0
230
-1.0
100
AcDbArc
 50
287.4131672646024
 51
292.1270172758038
  0
LINE
  5
3F3
330
1F
100
AcDbEntity
  8
0
  6
CONTINUOUS
 62
     7
100
AcDbLine
 10
-1035.700434771353
 20
71.7207406542561
 30
0.0
 11
-1036.036760278364
 21
71.14988491243004
 31
0.0
  0
LINE
  5
3F4
330
1F
100
AcDbEntity
  8
0
  6
CONTINUOUS
 62
     7
100
AcDbLine
 10
-1047.545686562237
 20
66.78433097879993
 30
0.0
 11
-1047.212670669083
 21
67.35010971925642
 31
0.0
  0
LINE
  5
3F5
330
1F
100
AcDbEntity
  8
0
  6
CONTINUOUS
 62
     7
100
AcDbLine
 10
-1046.393147300447
 20
71.10807015966554
 30
0.0
 11
-1046.754603694143
 21
71.72178803672904
 31
0.0
  0
LINE
  5
3F6
330
1F
100
AcDbEntity
  8
0
  6
CONTINUOUS
 62
     7
100
AcDbLine
 10
-1036.863790638152
 20
67.40392261641357
 30
0.0
 11
-1036.50025732443
 21
66.78687129875763
 31
0.0
  0
LINE
  5
3F7
330
1F
100
AcDbEntity
  8
0
  6
CONTINUOUS
 62
     7
100
AcDbLine
 10
-1040.469507610344
 20
71.72230772127963
 30
0.0
 11
-1040.80661109979
 21
71.1498999470136
 31
0.0
  0
LINE
  5
3F8
330
1F
100
AcDbEntity
  8
0
  6
CONTINUOUS
 62
     7
100
AcDbLine
 10
-1037.297051990374
 20
71.71007951685752
 30
0.0
 11
-1037.62667456283
 21
71.14991954948654
 31
0.0
  0
LINE
  5
3F9
330
1F
100
AcDbEntity
  8
0
  6
CONTINUOUS
 62
     7
100
AcDbLine
 10
-1128.75
 20
186.2500000000001
 30
0.0
 11
-1128.38558457136
 21
228.0078720541881
 31
0.0
  0
ARC
  5
3FA
330
1F
100
AcDbEntity
  8
0
  6
CONTINUOUS
 62
     7
100
AcDbCircle
 10
-1057.388288033804
 20
145.1117119661965
 30
0.0
 40
71.0000000000001
100
AcDbArc
 50
180.5
 51
269.5000000000001
  0
LINE
  5
3FB
330
1F
100
AcDbEntity
  8
0
  6
CONTINUOUS
 62
     7
100
AcDbLine
 10
-1043.95864083199
 20
71.15000000036534
 30
0.0
 11
-1044.8274876426
 21
71.15000000033278
 31
0.0
  0
LINE
  5
3FC
330
1F
100
AcDbEntity
  8
0
  6
CONTINUOUS
 62
     7
100
AcDbLine
 10
-1042.065973661438
 20
71.71219979645592
 30
0.0
 11
-1042.397025952192
 21
71.14984409215737
 31
0.0
  0
LINE
  5
3FD
330
1F
100
AcDbEntity
  8
0
  6
CONTINUOUS
 62
     7
100
AcDbLine
 10
-1050.722460077854
 20
66.78988350915789
 30
0.0
 11
-1050.399817028962
 21
67.33816736486612
 31
0.0
  0
LINE
  5
3FE
330
1F
100
AcDbEntity
  8
0
  6
CONTINUOUS
 62
     7
100
AcDbLine
 10
-1033.236501250836
 20
66.7819330681238
 30
0.0
 11
-1032.913261641127
 21
67.33118578832074
 31
0.0
  0
LINE
  5
3FF
330
1F
100
AcDbEntity
  8
0
  6
CONTINUOUS
 62
     7
100
AcDbLine
 10
-1043.229189957157
 20
67.41334716326578
 30
0.0
 11
-1042.865990791131
 21
66.79677425690187
 31
0.0
  0
LINE
  5
400
330
1F
100
AcDbEntity
  8
0
  6
CONTINUOUS
 62
     7
100
AcDbLine
 10
-1036.845093121422
 20
71.09590368512076
 30
0.0
 11
-1037.208018443996
 21
71.71222443734526
 31
0.0
  0
LINE
  5
401
330
1F
100
AcDbEntity
  8
0
  6
CONTINUOUS
 62
     7
100
AcDbLine
 10
-1040.77850880198
 20
71.15000000048454
 30
0.0
 11
-1041.647563435041
 21
71.15000000045197
 31
0.0
  0
LINE
  5
402
330
1F
100
AcDbEntity
  8
0
  6
CONTINUOUS
 62
     7
100
AcDbLine
 10
-1046.397492654956
 20
67.39331822199576
 30
0.0
 11
-1046.034964382762
 21
66.77782344185422
 31
0.0
  0
ARC
  5
403
330
1F
100
AcDbEntity
  8
0
  6
CONTINUOUS
 62
     7
100
AcDbCircle
 10
-1042.015422552856
 20
69.25000000043816
 30
0.0
 40
12.00000000000006
100
AcDbArc
 50
164.506032501625
 51
168.3342859144222
  0
LINE
  5
404
330
1F
100
AcDbEntity
  8
0
  6
CONTINUOUS
 62
     7
100
AcDbLine
 10
-1043.200942327567
 20
71.08793591505012
 30
0.0
 11
-1043.567237441797
 21
71.71018094123949
 31
0.0
  0
LINE
  5
405
330
1F
100
AcDbEntity
  8
0
  6
CONTINUOUS
 62
     7
100
AcDbLine
 10
-1038.890091475006
 20
71.70465603819586
 30
0.0
 11
-1039.216916710536
 21
71.14984786709663
 31
0.0
  0
LINE
  5
406
330
1F
100
AcDbEntity
  8
0
  6
CONTINUOUS
 62
     7
100
AcDbLine
 10
-1041.180719457253
 20
66.79226394072677
 30
0.0
 11
-1040.852263047904
 21
67.35013721893694
 31
0.0
  0
ARC
  5
407
330
1F
100
AcDbEntity
  8
0
  6
CONTINUOUS
 62
     7
100
AcDbCircle
 10
-975.1117119661965
 20
145.1117119661965
 30
0.0
 40
71.0
100
AcDbArc
 50
270.5000000000001
 51
359.5000000000001
  0
LINE
  5
408
330
1F
100
AcDbEntity
  8
0
  6
CONTINUOUS
 62
     7
100
AcDbLine
 10
-1033.666876865024
 20
71.09918558036456
 30
0.0
 11
-1034.026211976164
 21
71.70925024199416
 31
0.0
  0
LINE
  5
409
330
1F
100
AcDbEntity
  8
0
  6
CONTINUOUS
 62
     7
100
AcDbLine
 10
-1031.25
 20
71.17845114739113
 30
0.0
 11
-1031.26692185326
 21
71.1498523295694
 31
0.0
  0
LINE
  5
40A
330
1F
100
AcDbEntity
  8
0
  6
CONTINUOUS
 62
     7
100
AcDbLine
 10
-973.779300298203
 20
76.75000000000006
 30
0.0
 11
-1058.720699701797
 21
76.75000000000006
 31
0.0
  0
LINE
  5
40B
330
1F
100
AcDbEntity
  8
0
  6
CONTINUOUS
 62
     7
100
AcDbLine
 10
-1128.38558457136
 20
144.492127945812
 30
0.0
 11
-1128.75
 21
186.2500000000001
 31
0.0
  0
LINE
  5
40C
330
1F
100
AcDbEntity
  8
0
  6
CONTINUOUS
 62
     7
100
AcDbLine
 10
-1042.368583646669
 20
71.15000000042492
 30
0.0
 11
-1043.237659309699
 21
71.15000000039235
 31
0.0
  0
LINE
  5
40D
330
1F
100
AcDbEntity
  8
0
  6
CONTINUOUS
 62
     7
100
AcDbLine
 10
-903.7499999999999
 20
186.25
 30
0.0
 11
-904.1144154286403
 21
144.4921279458119
 31
0.0
  0
LINE
  5
40E
330
1F
100
AcDbEntity
  8
0
  6
CONTINUOUS
 62
     7
100
AcDbLine
 10
-1049.588473879953
 20
67.41149826191267
 30
0.0
 11
-1049.227447857236
 21
66.79886817234487
 31
0.0
  0
ARC
  5
40F
330
1F
100
AcDbEntity
  8
0
  6
CONTINUOUS
 62
     7
100
AcDbCircle
 10
-1057.388288033804
 20
227.3882880338035
 30
0.0
 40
70.99999999999999
100
AcDbArc
 50
90.5
 51
179.5
  0
LINE
  5
410
330
1F
100
AcDbEntity
  8
0
  6
CONTINUOUS
 62
     7
100
AcDbLine
 10
-1058.720699701797
 20
295.75
 30
0.0
 11
-973.779300298203
 21
295.75
 31
0.0
  0
LINE
  5
411
330
1F
100
AcDbEntity
  8
0
  6
CONTINUOUS
 62
     7
100
AcDbLine
 10
-1045.242025932271
 20
71.71896400257631
 30
0.0
 11
-1045.576909748313
 21
71.14989613257153
 31
0.0
  0
LINE
  5
412
330
1F
100
AcDbEntity
  8
0
  6
CONTINUOUS
 62
     7
100
AcDbLine
 10
-1035.24924407284
 20
71.08550331866716
 30
0.0
 11
-1035.611359329392
 21
71.70008839822526
 31
0.0
  0
LINE
  5
413
330
1F
100
AcDbEntity
  8
0
  6
CONTINUOUS
 62
     7
100
AcDbLine
 10
-1040.031105691995
 20
71.10543767433853
 30
0.0
 11
-1040.391319747931
 21
71.71738270407265
 31
0.0
  0
LINE
  5
414
330
1F
100
AcDbEntity
  8
0
  6
CONTINUOUS
 62
     7
100
AcDbLine
 10
-1035.266257728824
 20
67.39193925722384
 30
0.0
 11
-1034.904437642319
 21
66.77779995761973
 31
0.0
  0
LINE
  5
415
330
1F
100
AcDbEntity
  8
0
  6
CONTINUOUS
 62
     7
100
AcDbLine
 10
-1032.098120324559
 20
67.41160264664637
 30
0.0
 11
-1031.732176839529
 21
66.79012743730605
 31
0.0
  0
LINE
  5
416
330
1F
100
AcDbEntity
  8
0
  6
CONTINUOUS
 62
     7
100
AcDbLine
 10
-1038.007243984237
 20
66.78092960408107
 30
0.0
 11
-1037.672106901545
 21
67.35013103544685
 31
0.0
  0
LINE
  5
417
330
1F
100
AcDbEntity
  8
0
  6
CONTINUOUS
 62
     7
100
AcDbLine
 10
-1050.318697639722
 20
71.15000000012697
 30
0.0
 11
-1050.715422552927
 21
71.1500000001121
 31
0.0
  0
LINE
  5
418
330
1F
100
AcDbEntity
  8
0
  6
CONTINUOUS
 62
     7
100
AcDbLine
 10
-1045.548677284339
 20
71.15000000030574
 30
0.0
 11
-1046.4178943259
 21
71.15000000027317
 31
0.0
  0
LINE
  5
419
330
1F
100
AcDbEntity
  8
0
  6
CONTINUOUS
 62
     7
100
AcDbLine
 10
-1042.766481917622
 20
66.80047732869212
 30
0.0
 11
-1042.442797785019
 21
67.35021339637598
 31
0.0
  0
LINE
  5
41A
330
1F
100
AcDbEntity
  8
0
  6
CONTINUOUS
 62
     7
100
AcDbLine
 10
-1041.611077470978
 20
71.08830312769196
 30
0.0
 11
-1041.971939658327
 21
71.70051199303299
 31
0.0
  0
LINE
  5
41B
330
1F
100
AcDbEntity
  8
0
  6
CONTINUOUS
 62
     7
100
AcDbLine
 10
-1038.441443595851
 20
71.10610812819515
 30
0.0
 11
-1038.804551275706
 21
71.7224922269092
 31
0.0
  0
LINE
  5
41C
330
1F
100
AcDbEntity
  8
0
  6
CONTINUOUS
 62
     7
100
AcDbLine
 10
-1044.813425775407
 20
67.4030046657974
 30
0.0
 11
-1044.453880520021
 21
66.7926942655714
 31
0.0
  0
LINE
  5
41D
330
1F
100
AcDbEntity
  8
0
  6
CONTINUOUS
 62
     7
100
AcDbLine
 10
-904.1144154286403
 20
228.0078720541881
 30
0.0
 11
-903.7499999999999
 21
186.25
 31
0.0
  0
ARC
  5
41E
330
1F
100
AcDbEntity
  8
0
  6
CONTINUOUS
 62
     7
100
AcDbCircle
 10
-1052.037471832681
 20
72.02822393539503
 30
0.0
 40
1.599999999999996
100
AcDbArc
 50
95.00000000214744
 51
164.506032501625
  0
LINE
  5
41F
330
1F
100
AcDbEntity
  8
0
  6
CONTINUOUS
 62
     7
100
AcDbLine
 10
-1031.649460857248
 20
66.77751423596442
 30
0.0
 11
-1031.312091129867
 21
67.3501041749466
 31
0.0
  0
LINE
  5
420
330
1F
100
AcDbEntity
  8
0
  6
CONTINUOUS
 62
     7
100
AcDbLine
 10
-1044.363680689528
 20
66.78740403884177
 30
0.0
 11
-1044.032408380378
 21
67.35015535840546
 31
0.0
  0
LINE
  5
421
330
1F
100
AcDbEntity
  8
0
  6
CONTINUOUS
 62
     7
100
AcDbLine
 10
-1048.728695985714
 20
71.15000000018657
 30
0.0
 11
-1049.597880147486
 21
71.15000000015398
 31
0.0
  0
LINE
  5
422
330
1F
100
AcDbEntity
  8
0
  6
CONTINUOUS
 62
     7
100
AcDbLine
 10
-974.492127945812
 20
74.11441542864034
 30
0.0
 11
-1016.25
 21
73.75000000000004
 31
0.0
  0
LINE
  5
423
330
1F
100
AcDbEntity
  8
0
  6
CONTINUOUS
 62
     7
100
AcDbLine
 10
-1050.399817028962
 20
67.33816736486612
 30
0.0
 11
-1050.392766268572
 21
67.35007866132982
 31
0.0
  0
LINE
  5
424
330
1F
100
AcDbEntity
  8
0
  6
CONTINUOUS
 62
     7
100
AcDbLine
 10
-1047.975113946647
 20
71.09513768285318
 30
0.0
 11
-1048.334777717024
 21
71.70538213457785
 31
0.0
  0
LINE
  5
425
330
1F
100
AcDbEntity
  8
0
  6
CONTINUOUS
 62
     7
100
AcDbLine
 10
-1044.798613345125
 20
71.10110728728846
 30
0.0
 11
-1045.162561388937
 21
71.71883420071958
 31
0.0
  0
LINE
  5
426
330
1F
100
AcDbEntity
  8
0
  6
CONTINUOUS
 62
     7
100
AcDbLine
 10
-1047.994298907331
 20
67.40422052928373
 30
0.0
 11
-1047.631513530629
 21
66.78813639282366
 31
0.0
  0
LINE
  5
427
330
1F
100
AcDbEntity
  8
0
  6
CONTINUOUS
 62
     7
100
AcDbLine
 10
-1046.831970339684
 20
71.71922426431888
 30
0.0
 11
-1047.167198436455
 21
71.14987042276981
 31
0.0
  0
LINE
  5
428
330
1F
100
AcDbEntity
  8
0
  6
CONTINUOUS
 62
     7
100
AcDbLine
 10
-1034.817461445577
 20
66.79770815507504
 30
0.0
 11
-1034.492088597935
 21
67.35017469223361
 31
0.0
  0
ARC
  5
429
330
1F
100
AcDbEntity
  8
0
  6
CONTINUOUS
 62
     7
100
AcDbCircle
 10
-1042.015422552856
 20
69.25000000043816
 30
0.0
 40
12.00000000000006
100
AcDbArc
 50
191.6657140898728
 51
195.4939675026701
  0
LINE
  5
42A
330
1F
100
AcDbEntity
  8
0
  6
CONTINUOUS
 62
     7
100
AcDbLine
 10
-1032.913261641127
 20
67.33118578832074
 30
0.0
 11
-1032.902078627691
 21
67.35010332808471
 31
0.0
  0
LINE
  5
42B
330
1F
100
AcDbEntity
  8
0
  6
CONTINUOUS
 62
     7
100
AcDbLine
 10
-1049.126813582704
 20
66.8002823878139
 30
0.0
 11
-1048.802811486143
 21
67.35019137087293
 31
0.0
  0
LINE
  5
42C
330
1F
100
AcDbEntity
  8
0
  6
CONTINUOUS
 62
     7
100
AcDbLine
 10
-1043.662888023244
 20
71.699629741216
 30
0.0
 11
-1043.986745151209
 21
71.1498025931241
 31
0.0
  0
LINE
  5
42D
330
1F
100
AcDbEntity
  8
0
  6
CONTINUOUS
 62
     7
100
AcDbLine
 10
-1039.599223369361
 20
66.77806258960304
 30
0.0
 11
-1039.26249351373
 21
67.35009976715571
 31
0.0
  0
LINE
  5
42E
330
1F
100
AcDbEntity
  8
0
  6
CONTINUOUS
 62
     7
100
AcDbLine
 10
-1048.43226264551
 20
71.70139875029898
 30
0.0
 11
-1048.756911037922
 21
71.14978800951323
 31
0.0
  0
LINE
  5
42F
330
1F
100
AcDbEntity
  8
0
  6
CONTINUOUS
 62
     7
100
AcDbLine
 10
-1047.138691909312
 20
71.15000000024615
 30
0.0
 11
-1048.007540540259
 21
71.15000000021358
 31
0.0
  0
LINE
  5
430
330
1F
100
AcDbEntity
  8
0
  6
CONTINUOUS
 62
     7
100
AcDbLine
 10
-1032.532049125322
 20
71.70090134078539
 30
0.0
 11
-1032.856610591919
 21
71.14980130137963
 31
0.0
  0
LINE
  5
431
330
1F
100
AcDbEntity
  8
0
  6
CONTINUOUS
 62
     7
100
AcDbLine
 10
-1049.5598975729
 20
71.08576944434684
 30
0.0
 11
-1049.922523209188
 21
71.70107491268452
 31
0.0
  0
LINE
  5
432
330
1F
100
AcDbEntity
  8
0
  6
CONTINUOUS
 62
     7
100
AcDbLine
 10
-277.4999999999996
 20
303.7499999999965
 30
0.0
 11
-277.4999999999996
 21
307.2499999999964
 31
0.0
  0
ARC
  5
433
330
1F
100
AcDbEntity
  8
0
  6
CONTINUOUS
 62
     7
100
AcDbCircle
 10
262.4999999999999
 20
186.2499999999986
 30
0.0
 40
107.0
210
0.0
220
0.0
230
-1.0
100
AcDbArc
 50
57.26232181318556
 51
59.40434485348109
  0
ARC
  5
434
330
1F
100
AcDbEntity
  8
0
  6
CONTINUOUS
 62
     7
100
AcDbCircle
 10
-262.4999999999999
 20
186.2499999999986
 30
0.0
 40
107.0
100
AcDbArc
 50
237.2623218131856
 51
238.8688157035989
  0
LINE
  5
435
330
1F
100
AcDbEntity
  8
0
  6
CONTINUOUS
 62
     7
100
AcDbLine
 10
-282.4999999999996
 20
68.75000000000064
 30
0.0
 11
-282.4999999999996
 21
74.25666745497274
 31
0.0
  0
LINE
  5
436
330
1F
100
AcDbEntity
  8
0
  6
CONTINUOUS
 62
     7
100
AcDbLine
 10
-262.4999999999999
 20
303.7499999999965
 30
0.0
 11
-262.4999999999999
 21
292.7499999999966
 31
0.0
  0
ARC
  5
437
330
1F
100
AcDbEntity
  8
0
  6
CONTINUOUS
 62
     7
100
AcDbCircle
 10
354.5423039579596
 20
233.5835428856751
 30
0.0
 40
0.9999999999999811
210
0.0
220
0.0
230
-1.0
100
AcDbArc
 50
292.7148812406194
 51
294.9999999999994
  0
ARC
  5
438
330
1F
100
AcDbEntity
  8
0
  6
CONTINUOUS
 62
     7
100
AcDbCircle
 10
-262.4999999999999
 20
186.2499999999986
 30
0.0
 40
107.0
100
AcDbArc
 50
245.5956551465189
 51
247.7376781868144
  0
ARC
  5
439
330
1F
100
AcDbEntity
  8
0
  6
CONTINUOUS
 62
     7
100
AcDbCircle
 10
-262.4999999999999
 20
186.2499999999986
 30
0.0
 40
107.0
100
AcDbArc
 50
220.5956551465189
 51
222.7376781868145
  0
ARC
  5
43A
330
1F
100
AcDbEntity
  8
0
  6
CONTINUOUS
 62
     7
100
AcDbCircle
 10
-262.4999999999999
 20
186.2499999999986
 30
0.0
 40
107.0
100
AcDbArc
 50
228.9289884798522
 51
231.0710115201478
  0
LINE
  5
43B
330
1F
100
AcDbEntity
  8
0
  6
CONTINUOUS
 62
     7
100
AcDbLine
 10
-262.4999999999999
 20
68.75000000000063
 30
0.0
 11
-262.4999999999999
 21
79.75000000000041
 31
0.0
  0
ARC
  5
43C
330
1F
100
AcDbEntity
  8
0
  6
CONTINUOUS
 62
     7
100
AcDbCircle
 10
262.4999999999999
 20
186.2499999999986
 30
0.0
 40
107.0
210
0.0
220
0.0
230
-1.0
100
AcDbArc
 50
40.59565514651892
 51
42.73767818681444
  0
LINE
  5
43D
330
1F
100
AcDbEntity
  8
0
  6
CONTINUOUS
 62
     7
100
AcDbLine
 10
-315.9374754191502
 20
274.7901901786901
 30
0.0
 11
-315.9738139700322
 21
274.8491039429731
 31
0.0
  0
LINE
  5
43E
330
1F
100
AcDbEntity
  8
0
  6
CONTINUOUS
 62
     7
100
AcDbLine
 10
-275.4999999999997
 20
309.2499999999964
 30
0.0
 11
-262.5
 21
309.2499999999964
 31
0.0
  0
LINE
  5
43F
330
1F
100
AcDbEntity
  8
0
  6
CONTINUOUS
 62
     7
100
AcDbLine
 10
-267.2653681616356
 20
77.10512487393667
 30
0.0
 11
-267.145413557662
 21
79.85253699980342
 31
0.0
  0
LINE
  5
440
330
1F
100
AcDbEntity
  8
0
  6
CONTINUOUS
 62
     7
100
AcDbLine
 10
-354.9649222197002
 20
139.8227649013587
 30
0.0
 11
-354.9028171354923
 21
139.8517249777352
 31
0.0
  0
LINE
  5
441
330
1F
100
AcDbEntity
  8
0
  6
CONTINUOUS
 62
     7
100
AcDbLine
 10
-302.5409688543379
 20
281.6001435198544
 30
0.0
 11
-302.56838524827
 21
281.6637018650654
 31
0.0
  0
LINE
  5
442
330
1F
100
AcDbEntity
  8
0
  6
CONTINUOUS
 62
     7
100
AcDbLine
 10
-348.4073333037528
 20
128.5509524806719
 30
0.0
 11
-348.3501783311051
 21
128.588543897545
 31
0.0
  0
ARC
  5
443
330
1F
100
AcDbEntity
  8
0
  6
CONTINUOUS
 62
     7
100
AcDbCircle
 10
-267.7648922724265
 20
77.12693456761933
 30
0.0
 40
0.500000000000002
100
AcDbArc
 50
267.237775837379
 51
269.9999999999999
  0
ARC
  5
444
330
1F
100
AcDbEntity
  8
0
  6
CONTINUOUS
 62
     7
100
AcDbCircle
 10
-262.4999999999999
 20
186.2499999999986
 30
0.0
 40
107.0
100
AcDbArc
 50
212.2623218131856
 51
214.4043448534811
  0
LINE
  5
445
330
1F
100
AcDbEntity
  8
0
  6
CONTINUOUS
 62
     7
100
AcDbLine
 10
-317.6760473149062
 20
273.799150782304
 30
0.0
 11
-317.6505573057709
 21
273.7578251830901
 31
0.0
  0
ARC
  5
446
330
1F
100
AcDbEntity
  8
0
  6
CONTINUOUS
 62
     7
100
AcDbCircle
 10
-267.7648922724266
 20
295.3730654323778
 30
0.0
 40
0.5000000000000036
100
AcDbArc
 50
2.499999999999647
 51
92.76222416262101
  0
LINE
  5
447
330
1F
100
AcDbEntity
  8
0
  6
CONTINUOUS
 62
     7
100
AcDbLine
 10
-282.4999999999996
 20
65.2500000000008
 30
0.0
 11
-282.4999999999996
 21
68.75000000000064
 31
0.0
  0
ARC
  5
448
330
1F
100
AcDbEntity
  8
0
  6
CONTINUOUS
 62
     7
100
AcDbCircle
 10
275.4999999999997
 20
307.2499999999965
 30
0.0
 40
2.000000000000002
210
0.0
220
0.0
230
-1.0
100
AcDbArc
 50
0.0
 51
90.0
  0
ARC
  5
449
330
1F
100
AcDbEntity
  8
0
  6
CONTINUOUS
 62
     7
100
AcDbCircle
 10
280.4999999999997
 20
65.25000000000074
 30
0.0
 40
2.000000000000002
210
0.0
220
0.0
230
-1.0
100
AcDbArc
 50
270.0
 51
0.0
  0
ARC
  5
44A
330
1F
100
AcDbEntity
  8
0
  6
CONTINUOUS
 62
     7
100
AcDbCircle
 10
262.4999999999999
 20
186.2499999999986
 30
0.0
 40
107.0
210
0.0
220
0.0
230
-1.0
100
AcDbArc
 50
65.59565514651888
 51
67.73767818681442
  0
LINE
  5
44B
330
1F
100
AcDbEntity
  8
0
  6
CONTINUOUS
 62
     7
100
AcDbLine
 10
-277.4999999999996
 20
299.0440890939788
 30
0.0
 11
-277.4999999999996
 21
303.7499999999965
 31
0.0
  0
LINE
  5
44C
330
1F
100
AcDbEntity
  8
0
  6
CONTINUOUS
 62
     7
100
AcDbLine
 10
-339.0861537842661
 20
255.7445329114722
 30
0.0
 11
-339.1378623929513
 21
255.7905496659213
 31
0.0
  0
LINE
  5
44D
330
1F
100
AcDbEntity
  8
0
  6
CONTINUOUS
 62
     7
100
AcDbLine
 10
-349.5063512598944
 20
242.2780718964995
 30
0.0
 11
-349.4657845132183
 21
242.2513907274806
 31
0.0
  0
LINE
  5
44E
330
1F
100
AcDbEntity
  8
0
  6
CONTINUOUS
 62
     7
100
AcDbLine
 10
-354.902079872857
 20
232.6479312310491
 30
0.0
 11
-354.9649222197003
 21
232.6772350986386
 31
0.0
  0
LINE
  5
44F
330
1F
100
AcDbEntity
  8
0
  6
CONTINUOUS
 62
     7
100
AcDbLine
 10
-349.4633933868172
 20
130.2501819410909
 30
0.0
 11
-349.5063512598945
 21
130.2219281034976
 31
0.0
  0
LINE
  5
450
330
1F
100
AcDbEntity
  8
0
  6
CONTINUOUS
 62
     7
100
AcDbLine
 10
-292.1522321416485
 20
87.17747300500791
 30
0.0
 11
-292.1655358344958
 21
87.12782294737389
 31
0.0
  0
LINE
  5
451
330
1F
100
AcDbEntity
  8
0
  6
CONTINUOUS
 62
     7
100
AcDbLine
 10
-302.56838524827
 20
90.83629813493192
 30
0.0
 11
-302.5412897863314
 21
90.89911247615444
 31
0.0
  0
ARC
  5
452
330
1F
100
AcDbEntity
  8
0
  6
CONTINUOUS
 62
     7
100
AcDbCircle
 10
-262.4999999999999
 20
186.2499999999988
 30
0.0
 40
93.99999999999997
100
AcDbArc
 50
107.4131672646024
 51
112.1270172758039
  0
LINE
  5
453
330
1F
100
AcDbEntity
  8
0
  6
CONTINUOUS
 62
     7
100
AcDbLine
 10
-348.3495013594649
 20
243.9110108512
 30
0.0
 11
-348.4073333037528
 21
243.9490475193254
 31
0.0
  0
LINE
  5
454
330
1F
100
AcDbEntity
  8
0
  6
CONTINUOUS
 62
     7
100
AcDbLine
 10
-328.2500509830925
 20
106.3364167007851
 30
0.0
 11
-328.2060784586009
 21
106.3888211148235
 31
0.0
  0
ARC
  5
455
330
1F
100
AcDbEntity
  8
0
  6
CONTINUOUS
 62
     7
100
AcDbCircle
 10
-301.9556705419487
 20
272.669037613738
 30
0.0
 40
0.9999999999999963
100
AcDbArc
 50
294.5396493908627
 51
23.33333333333445
  0
LINE
  5
456
330
1F
100
AcDbEntity
  8
0
  6
CONTINUOUS
 62
     7
100
AcDbLine
 10
-315.4564218895474
 20
98.48971638231721
 30
0.0
 11
-315.4337656651324
 21
98.52644771673548
 31
0.0
  0
ARC
  5
457
330
1F
100
AcDbEntity
  8
0
  6
CONTINUOUS
 62
     7
100
AcDbCircle
 10
262.4999999999999
 20
186.2499999999986
 30
0.0
 40
107.0
210
0.0
220
0.0
230
-1.0
100
AcDbArc
 50
32.26232181318554
 51
34.40434485348108
  0
ARC
  5
458
330
1F
100
AcDbEntity
  8
0
  6
CONTINUOUS
 62
     7
100
AcDbCircle
 10
290.9297076333528
 20
276.8963001113754
 30
0.0
 40
0.9999999999999972
210
0.0
220
0.0
230
-1.0
100
AcDbArc
 50
165.0000000000003
 51
252.5868327353967
  0
ARC
  5
459
330
1F
100
AcDbEntity
  8
0
  6
CONTINUOUS
 62
     7
100
AcDbCircle
 10
-310.6594884234898
 20
268.1381168106046
 30
0.0
 40
1.000000000000011
100
AcDbArc
 50
211.6666666666661
 51
300.4603506091378
  0
LINE
  5
45A
330
1F
100
AcDbEntity
  8
0
  6
CONTINUOUS
 62
     7
100
AcDbLine
 10
-304.3844524200927
 20
91.67566914087969
 30
0.0
 11
-304.4048174620305
 21
91.62845766701011
 31
0.0
  0
LINE
  5
45B
330
1F
100
AcDbEntity
  8
0
  6
CONTINUOUS
 62
     7
100
AcDbLine
 10
-262.4999999999999
 20
63.25000000000087
 30
0.0
 11
-262.4999999999999
 21
68.75000000000063
 31
0.0
  0
ARC
  5
45C
330
1F
100
AcDbEntity
  8
0
  6
CONTINUOUS
 62
     7
100
AcDbCircle
 10
-267.7648922724265
 20
77.12693456761933
 30
0.0
 40
0.5000000000000004
100
AcDbArc
 50
270.0
 51
357.5000000000002
  0
LINE
  5
45D
330
1F
100
AcDbEntity
  8
0
  6
CONTINUOUS
 62
     7
100
AcDbLine
 10
-329.7490899694094
 20
107.661379257124
 30
0.0
 11
-329.7821398693306
 21
107.6219919201581
 31
0.0
  0
LINE
  5
45E
330
1F
100
AcDbEntity
  8
0
  6
CONTINUOUS
 62
     7
100
AcDbLine
 10
-262.4999999999999
 20
309.2499999999963
 30
0.0
 11
-262.4999999999999
 21
303.7499999999965
 31
0.0
  0
LINE
  5
45F
330
1F
100
AcDbEntity
  8
0
  6
CONTINUOUS
 62
     7
100
AcDbLine
 10
-328.2055576263678
 20
266.1105581814889
 30
0.0
 11
-328.2500509830925
 21
266.1635832992121
 31
0.0
  0
ARC
  5
460
330
1F
100
AcDbEntity
  8
0
  6
CONTINUOUS
 62
     7
100
AcDbCircle
 10
-298.2828061144277
 20
274.2533566778946
 30
0.0
 40
0.999999999999987
100
AcDbArc
 50
203.3333333333337
 51
292.127017275804
  0
ARC
  5
461
330
1F
100
AcDbEntity
  8
0
  6
CONTINUOUS
 62
     7
100
AcDbCircle
 10
262.4999999999999
 20
186.2499999999986
 30
0.0
 40
107.0
210
0.0
220
0.0
230
-1.0
100
AcDbArc
 50
48.92898847985222
 51
51.07101152014775
  0
ARC
  5
462
330
1F
100
AcDbEntity
  8
0
  6
CONTINUOUS
 62
     7
100
AcDbCircle
 10
-262.4999999999999
 20
186.2499999999988
 30
0.0
 40
93.99999999999996
100
AcDbArc
 50
114.5396493908629
 51
120.4603506091372
  0
LINE
  5
463
330
1F
100
AcDbEntity
  8
0
  6
CONTINUOUS
 62
     7
100
AcDbLine
 10
-267.145413557662
 20
292.6474630001937
 30
0.0
 11
-267.2653681616356
 21
295.3948751260604
 31
0.0
  0
LINE
  5
464
330
1F
100
AcDbEntity
  8
0
  6
CONTINUOUS
 62
     7
100
AcDbLine
 10
-339.1378623929513
 20
116.7094503340759
 30
0.0
 11
-339.0867590771032
 21
116.7549284236379
 31
0.0
  0
LINE
  5
465
330
1F
100
AcDbEntity
  8
0
  6
CONTINUOUS
 62
     7
100
AcDbLine
 10
-340.4290446970666
 20
118.2376819643392
 30
0.0
 11
-340.4674541241792
 21
118.2035004765578
 31
0.0
  0
LINE
  5
466
330
1F
100
AcDbEntity
  8
0
  6
CONTINUOUS
 62
     7
100
AcDbLine
 10
-280.4999999999997
 20
63.25000000000076
 30
0.0
 11
-262.4999999999999
 21
63.25000000000076
 31
0.0
  0
ARC
  5
467
330
1F
100
AcDbEntity
  8
0
  6
CONTINUOUS
 62
     7
100
AcDbCircle
 10
-314.0639551132377
 20
266.0382104892664
 30
0.0
 40
0.9999999999999959
100
AcDbArc
 50
302.8729827241958
 51
31.66666666666629
  0
ARC
  5
468
330
1F
100
AcDbEntity
  8
0
  6
CONTINUOUS
 62
     7
100
AcDbCircle
 10
262.4999999999999
 20
186.2499999999988
 30
0.0
 40
93.99999999999996
210
0.0
220
0.0
230
-1.0
100
AcDbArc
 50
327.8729827241961
 51
332.5868327353976
  0
ARC
  5
469
330
1F
100
AcDbEntity
  8
0
  6
CONTINUOUS
 62
     7
100
AcDbCircle
 10
334.7812449125432
 20
247.8975598372917
 30
0.0
 40
0.9999999999999987
210
0.0
220
0.0
230
-1.0
100
AcDbArc
 50
131.6666666666671
 51
220.4603506091367
  0
ARC
  5
46A
330
1F
100
AcDbEntity
  8
0
  6
CONTINUOUS
 62
     7
100
AcDbCircle
 10
-262.4999999999999
 20
186.2500000000013
 30
0.0
 40
102.5000000000505
100
AcDbArc
 50
356.9999999999999
 51
357.2195350240913
  0
ARC
  5
46B
330
1F
100
AcDbEntity
  8
0
  6
CONTINUOUS
 62
     7
100
AcDbCircle
 10
-247.0000000000002
 20
73.30864353568606
 30
0.0
 40
0.5000000000000004
100
AcDbArc
 50
168.5061122226532
 51
179.9999999999984
  0
ARC
  5
46C
330
1F
100
AcDbEntity
  8
0
  6
CONTINUOUS
 62
     7
100
AcDbCircle
 10
-262.4999999999999
 20
186.2500000000013
 30
0.0
 40
102.5000000000501
100
AcDbArc
 50
349.0000000000001
 51
349.2195350240913
  0
ARC
  5
46D
330
1F
100
AcDbEntity
  8
0
  6
CONTINUOUS
 62
     7
100
AcDbCircle
 10
-247.0000000000002
 20
73.30864353568606
 30
0.0
 40
0.5000000000000053
100
AcDbArc
 50
97.81441978139182
 51
168.5061122226531
  0
ARC
  5
46E
330
1F
100
AcDbEntity
  8
0
  6
CONTINUOUS
 62
     7
100
AcDbCircle
 10
-262.4999999999999
 20
186.2500000000013
 30
0.0
 40
102.5000000000497
100
AcDbArc
 50
345.0
 51
345.2195350240913
  0
LINE
  5
46F
330
1F
100
AcDbEntity
  8
0
  6
CONTINUOUS
 62
     7
100
AcDbLine
 10
-317.6490548477529
 20
98.74461067236555
 30
0.0
 11
-317.6760473149062
 21
98.70084921769312
 31
0.0
  0
ARC
  5
470
330
1F
100
AcDbEntity
  8
0
  6
CONTINUOUS
 62
     7
100
AcDbCircle
 10
-262.4999999999999
 20
186.2499999999988
 30
0.0
 40
94.00000000000003
100
AcDbArc
 50
131.2063160575295
 51
137.1270172758038
  0
LINE
  5
471
330
1F
100
AcDbEntity
  8
0
  6
CONTINUOUS
 62
     7
100
AcDbLine
 10
-153.1676318844329
 20
176.6846572334459
 30
0.0
 11
-160.3900434455979
 21
177.3165363683664
 31
0.0
  0
ARC
  5
472
330
1F
100
AcDbEntity
  8
0
  6
CONTINUOUS
 62
     7
100
AcDbCircle
 10
-262.4999999999999
 20
186.2500000000014
 30
0.0
 40
102.5
100
AcDbArc
 50
357.2195350240913
 51
358.7804649759088
  0
ARC
  5
473
330
1F
100
AcDbEntity
  8
0
  6
CONTINUOUS
 62
     7
100
AcDbCircle
 10
-262.4999999999999
 20
186.2499999999988
 30
0.0
 40
94.00000000000001
100
AcDbArc
 50
122.8729827241962
 51
128.7936839424705
  0
ARC
  5
474
330
1F
100
AcDbEntity
  8
0
  6
CONTINUOUS
 62
     7
100
AcDbCircle
 10
262.4999999999999
 20
186.2500000000014
 30
0.0
 40
102.5
210
0.0
220
0.0
230
-1.0
100
AcDbArc
 50
177.2195350240912
 51
178.7804649759089
  0
ARC
  5
475
330
1F
100
AcDbEntity
  8
0
  6
CONTINUOUS
 62
     7
100
AcDbCircle
 10
-262.4999999999999
 20
186.2500000000014
 30
0.0
 40
102.5
100
AcDbArc
 50
341.2195350240912
 51
342.7804649759088
  0
ARC
  5
476
330
1F
100
AcDbEntity
  8
0
  6
CONTINUOUS
 62
     7
100
AcDbCircle
 10
262.4999999999999
 20
186.2499999999988
 30
0.0
 40
94.00000000000001
210
0.0
220
0.0
230
-1.0
100
AcDbArc
 50
319.5396493908629
 51
325.4603506091372
  0
LINE
  5
477
330
1F
100
AcDbEntity
  8
0
  6
CONTINUOUS
 62
     7
100
AcDbLine
 10
-152.9004085606874
 20
180.5061288023383
 30
0.0
 11
-160.1404726876579
 21
180.8855644850996
 31
0.0
  0
ARC
  5
478
330
1F
100
AcDbEntity
  8
0
  6
CONTINUOUS
 62
     7
100
AcDbCircle
 10
262.4999999999999
 20
186.2499999999988
 30
0.0
 40
94.00000000000001
210
0.0
220
0.0
230
-1.0
100
AcDbArc
 50
311.2063160575295
 51
317.1270172758038
  0
ARC
  5
479
330
1F
100
AcDbEntity
  8
0
  6
CONTINUOUS
 62
     7
100
AcDbCircle
 10
325.0833779359637
 20
114.7774821618535
 30
0.0
 40
0.9999999999999978
210
0.0
220
0.0
230
-1.0
100
AcDbArc
 50
131.2063160575293
 51
220.000000000002
  0
ARC
  5
47A
330
1F
100
AcDbEntity
  8
0
  6
CONTINUOUS
 62
     7
100
AcDbCircle
 10
325.0833779359638
 20
257.7225178381441
 30
0.0
 40
0.9999999999999911
210
0.0
220
0.0
230
-1.0
100
AcDbArc
 50
139.9999999999997
 51
228.7936839424712
  0
ARC
  5
47B
330
1F
100
AcDbEntity
  8
0
  6
CONTINUOUS
 62
     7
100
AcDbCircle
 10
340.7547329616277
 20
132.3872413526366
 30
0.0
 40
1.000000000000006
210
0.0
220
0.0
230
-1.0
100
AcDbArc
 50
56.66666666666685
 51
145.4603506091368
  0
LINE
  5
47C
330
1F
100
AcDbEntity
  8
0
  6
CONTINUOUS
 62
     7
100
AcDbLine
 10
-156.4896405647766
 20
157.8446098000001
 30
0.0
 11
-163.4926028053722
 21
159.7210478769933
 31
0.0
  0
LINE
  5
47D
330
1F
100
AcDbEntity
  8
0
  6
CONTINUOUS
 62
     7
100
AcDbLine
 10
-158.7293363279768
 20
150.5188950483289
 30
0.0
 11
-165.5843460010717
 21
152.8792641681433
 31
0.0
  0
ARC
  5
47E
330
1F
100
AcDbEntity
  8
0
  6
CONTINUOUS
 62
     7
100
AcDbCircle
 10
346.8324122094197
 20
229.9883613197851
 30
0.0
 40
1.000000000000023
210
0.0
220
0.0
230
-1.0
100
AcDbArc
 50
292.9131672646023
 51
294.9999999999992
  0
ARC
  5
47F
330
1F
100
AcDbEntity
  8
0
  6
CONTINUOUS
 62
     7
100
AcDbCircle
 10
262.4999999999999
 20
186.2500000000013
 30
0.0
 40
102.4999999999981
210
0.0
220
0.0
230
-1.0
100
AcDbArc
 50
177.0000000000002
 51
177.2195350240912
  0
ARC
  5
480
330
1F
100
AcDbEntity
  8
0
  6
CONTINUOUS
 62
     7
100
AcDbCircle
 10
262.4999999999999
 20
186.2500000000013
 30
0.0
 40
102.4999999999995
210
0.0
220
0.0
230
-1.0
100
AcDbArc
 50
161.0
 51
161.2195350240911
  0
ARC
  5
481
330
1F
100
AcDbEntity
  8
0
  6
CONTINUOUS
 62
     7
100
AcDbCircle
 10
-262.4999999999999
 20
186.2500000000014
 30
0.0
 40
102.5
100
AcDbArc
 50
353.2195350240913
 51
354.7804649759088
  0
ARC
  5
482
330
1F
100
AcDbEntity
  8
0
  6
CONTINUOUS
 62
     7
100
AcDbCircle
 10
262.4999999999999
 20
186.2500000000013
 30
0.0
 40
102.4999999999991
210
0.0
220
0.0
230
-1.0
100
AcDbArc
 50
197.0
 51
197.2195350240911
  0
ARC
  5
483
330
1F
100
AcDbEntity
  8
0
  6
CONTINUOUS
 62
     7
100
AcDbCircle
 10
262.4999999999999
 20
186.2500000000013
 30
0.0
 40
102.4999999999983
210
0.0
220
0.0
230
-1.0
100
AcDbArc
 50
173.0
 51
173.2195350240911
  0
LINE
  5
484
330
1F
100
AcDbEntity
  8
0
  6
CONTINUOUS
 62
     7
100
AcDbLine
 10
-154.7664166166208
 20
165.3087127574258
 30
0.0
 11
-161.8832136966162
 21
166.6920779739058
 31
0.0
  0
LINE
  5
485
330
1F
100
AcDbEntity
  8
0
  6
CONTINUOUS
 62
     7
100
AcDbLine
 10
-156.4896405647766
 20
214.6553902000024
 30
0.0
 11
-163.4926028053722
 21
212.7789521230092
 31
0.0
  0
ARC
  5
486
330
1F
100
AcDbEntity
  8
0
  6
CONTINUOUS
 62
     7
100
AcDbCircle
 10
-262.4999999999999
 20
186.2499999999988
 30
0.0
 40
93.99999999999999
100
AcDbArc
 50
139.5396493908629
 51
145.4603506091371
  0
ARC
  5
487
330
1F
100
AcDbEntity
  8
0
  6
CONTINUOUS
 62
     7
100
AcDbCircle
 10
346.8324122094197
 20
229.9883613197851
 30
0.0
 40
0.9999999999999784
210
0.0
220
0.0
230
-1.0
100
AcDbArc
 50
207.4131672646021
 51
292.9131672646023
  0
ARC
  5
488
330
1F
100
AcDbEntity
  8
0
  6
CONTINUOUS
 62
     7
100
AcDbCircle
 10
346.8324122094197
 20
142.5116386802124
 30
0.0
 40
0.9999999999999907
210
0.0
220
0.0
230
-1.0
100
AcDbArc
 50
65.00000000000053
 51
152.5868327353975
  0
ARC
  5
489
330
1F
100
AcDbEntity
  8
0
  6
CONTINUOUS
 62
     7
100
AcDbCircle
 10
340.7547329616278
 20
240.112758647361
 30
0.0
 40
0.99999999999999
210
0.0
220
0.0
230
-1.0
100
AcDbArc
 50
214.5396493908629
 51
303.3333333333314
  0
ARC
  5
48A
330
1F
100
AcDbEntity
  8
0
  6
CONTINUOUS
 62
     7
100
AcDbCircle
 10
342.9527688739109
 20
135.7291925982882
 30
0.0
 40
0.9999999999999996
210
0.0
220
0.0
230
-1.0
100
AcDbArc
 50
147.8729827241964
 51
236.666666666668
  0
ARC
  5
48B
330
1F
100
AcDbEntity
  8
0
  6
CONTINUOUS
 62
     7
100
AcDbCircle
 10
-262.4999999999999
 20
186.2500000000014
 30
0.0
 40
102.5
100
AcDbArc
 50
349.2195350240912
 51
350.7804649759087
  0
ARC
  5
48C
330
1F
100
AcDbEntity
  8
0
  6
CONTINUOUS
 62
     7
100
AcDbCircle
 10
-262.4999999999999
 20
186.2500000000013
 30
0.0
 40
102.5000000000503
100
AcDbArc
 50
353.0000000000002
 51
353.2195350240914
  0
ARC
  5
48D
330
1F
100
AcDbEntity
  8
0
  6
CONTINUOUS
 62
     7
100
AcDbCircle
 10
-262.4999999999999
 20
186.2499999999988
 30
0.0
 40
93.99999999999999
100
AcDbArc
 50
147.8729827241962
 51
152.5868327353976
  0
LINE
  5
48E
330
1F
100
AcDbEntity
  8
0
  6
CONTINUOUS
 62
     7
100
AcDbLine
 10
-153.5680598573668
 20
172.8748395612865
 30
0.0
 11
-160.7640194567662
 21
173.7583923009738
 31
0.0
  0
LINE
  5
48F
330
1F
100
AcDbEntity
  8
0
  6
CONTINUOUS
 62
     7
100
AcDbLine
 10
-152.9004085606874
 20
191.9938711976642
 30
0.0
 11
-160.1404726876579
 21
191.6144355149029
 31
0.0
  0
ARC
  5
490
330
1F
100
AcDbEntity
  8
0
  6
CONTINUOUS
 62
     7
100
AcDbCircle
 10
-242.0000000000003
 20
298.3916514948834
 30
0.0
 40
0.5000000000000004
100
AcDbArc
 50
180.0
 51
259.640458826596
  0
ARC
  5
491
330
1F
100
AcDbEntity
  8
0
  6
CONTINUOUS
 62
     7
100
AcDbCircle
 10
334.7812449125432
 20
124.6024401627058
 30
0.0
 40
1.000000000000038
210
0.0
220
0.0
230
-1.0
100
AcDbArc
 50
139.5396493908629
 51
228.3333333333316
  0
ARC
  5
492
330
1F
100
AcDbEntity
  8
0
  6
CONTINUOUS
 62
     7
100
AcDbCircle
 10
342.9527688739109
 20
236.7708074017093
 30
0.0
 40
1.000000000000006
210
0.0
220
0.0
230
-1.0
100
AcDbArc
 50
123.3333333333332
 51
212.1270172758039
  0
LINE
  5
493
330
1F
100
AcDbEntity
  8
0
  6
CONTINUOUS
 62
     7
100
AcDbLine
 10
-247.5000000000002
 20
73.30864353568607
 30
0.0
 11
-247.5000000000002
 21
73.45591090602126
 31
0.0
  0
ARC
  5
494
330
1F
100
AcDbEntity
  8
0
  6
CONTINUOUS
 62
     7
100
AcDbCircle
 10
332.1220614500875
 20
121.6143398777419
 30
0.0
 40
1.000000000000019
210
0.0
220
0.0
230
-1.0
100
AcDbArc
 50
48.33333333333348
 51
137.1270172758036
  0
ARC
  5
495
330
1F
100
AcDbEntity
  8
0
  6
CONTINUOUS
 62
     7
100
AcDbCircle
 10
-262.4999999999999
 20
186.2500000000013
 30
0.0
 40
102.5000000000492
100
AcDbArc
 50
341.0000000000001
 51
341.2195350240914
  0
ARC
  5
496
330
1F
100
AcDbEntity
  8
0
  6
CONTINUOUS
 62
     7
100
AcDbCircle
 10
262.4999999999999
 20
186.2500000000014
 30
0.0
 40
102.5
210
0.0
220
0.0
230
-1.0
100
AcDbArc
 50
173.2195350240913
 51
174.7804649759089
  0
ARC
  5
497
330
1F
100
AcDbEntity
  8
0
  6
CONTINUOUS
 62
     7
100
AcDbCircle
 10
-262.4999999999999
 20
186.2500000000014
 30
0.0
 40
102.5
100
AcDbArc
 50
345.2195350240912
 51
346.7804649759088
  0
ARC
  5
498
330
1F
100
AcDbEntity
  8
0
  6
CONTINUOUS
 62
     7
100
AcDbCircle
 10
332.1220614500875
 20
250.8856601222556
 30
0.0
 40
0.9999999999999916
210
0.0
220
0.0
230
-1.0
100
AcDbArc
 50
222.8729827241963
 51
311.6666666666665
  0
ARC
  5
499
330
1F
100
AcDbEntity
  8
0
  6
CONTINUOUS
 62
     7
100
AcDbCircle
 10
322.0192001634879
 20
260.2936682768902
 30
0.0
 40
0.9999999999999714
210
0.0
220
0.0
230
-1.0
100
AcDbArc
 50
231.2063160575301
 51
319.9999999999997
  0
ARC
  5
49A
330
1F
100
AcDbEntity
  8
0
  6
CONTINUOUS
 62
     7
100
AcDbCircle
 10
262.4999999999999
 20
186.2500000000013
 30
0.0
 40
102.499999999998
210
0.0
220
0.0
230
-1.0
100
AcDbArc
 50
181.0
 51
181.2195350240911
  0
LINE
  5
49B
330
1F
100
AcDbEntity
  8
0
  6
CONTINUOUS
 62
     7
100
AcDbLine
 10
-154.7664166166208
 20
207.1912872425767
 30
0.0
 11
-161.8832136966162
 21
205.8079220260967
 31
0.0
  0
LINE
  5
49C
330
1F
100
AcDbEntity
  8
0
  6
CONTINUOUS
 62
     7
100
AcDbLine
 10
-152.766715456588
 20
188.1654016064931
 30
0.0
 11
-160.0156112464717
 21
188.0388716598228
 31
0.0
  0
ARC
  5
49D
330
1F
100
AcDbEntity
  8
0
  6
CONTINUOUS
 62
     7
100
AcDbCircle
 10
-262.4999999999999
 20
186.2500000000013
 30
0.0
 40
102.5000000000498
100
AcDbArc
 50
13.0
 51
13.2195350240913
  0
LINE
  5
49E
330
1F
100
AcDbEntity
  8
0
  6
CONTINUOUS
 62
     7
100
AcDbLine
 10
-158.7293363279768
 20
221.9811049516736
 30
0.0
 11
-165.5843460010717
 21
219.6207358318592
 31
0.0
  0
LINE
  5
49F
330
1F
100
AcDbEntity
  8
0
  6
CONTINUOUS
 62
     7
100
AcDbLine
 10
-157.5455530330587
 20
154.1622054066815
 30
0.0
 11
-164.4787625137906
 21
156.2819002659213
 31
0.0
  0
ARC
  5
4A0
330
1F
100
AcDbEntity
  8
0
  6
CONTINUOUS
 62
     7
100
AcDbCircle
 10
262.4999999999999
 20
186.2500000000014
 30
0.0
 40
102.5
210
0.0
220
0.0
230
-1.0
100
AcDbArc
 50
165.2195350240912
 51
166.7804649759088
  0
ARC
  5
4A1
330
1F
100
AcDbEntity
  8
0
  6
CONTINUOUS
 62
     7
100
AcDbCircle
 10
262.4999999999999
 20
186.2500000000013
 30
0.0
 40
102.4999999999986
210
0.0
220
0.0
230
-1.0
100
AcDbArc
 50
169.0
 51
169.2195350240911
  0
ARC
  5
4A2
330
1F
100
AcDbEntity
  8
0
  6
CONTINUOUS
 62
     7
100
AcDbCircle
 10
-258.5067801486229
 20
83.32743592769417
 30
0.0
 40
0.5000000000000041
100
AcDbArc
 50
2.499999999999651
 51
92.22186405561342
  0
LINE
  5
4A3
330
1F
100
AcDbEntity
  8
0
  6
CONTINUOUS
 62
     7
100
AcDbLine
 10
-154.1012046196856
 20
203.4186825381663
 30
0.0
 11
-161.2619450890002
 21
202.2845326666246
 31
0.0
  0
LINE
  5
4A4
330
1F
100
AcDbEntity
  8
0
  6
CONTINUOUS
 62
     7
100
AcDbLine
 10
-154.1012046196856
 20
169.0813174618362
 30
0.0
 11
-161.2619450890002
 21
170.2154673333779
 31
0.0
  0
ARC
  5
4A5
330
1F
100
AcDbEntity
  8
0
  6
CONTINUOUS
 62
     7
100
AcDbCircle
 10
-262.4999999999999
 20
186.2500000000013
 30
0.0
 40
102.5000000000501
100
AcDbArc
 50
8.999999999999984
 51
9.219535024091282
  0
ARC
  5
4A6
330
1F
100
AcDbEntity
  8
0
  6
CONTINUOUS
 62
     7
100
AcDbCircle
 10
262.4999999999999
 20
186.2500000000013
 30
0.0
 40
102.499999999999
210
0.0
220
0.0
230
-1.0
100
AcDbArc
 50
165.0
 51
165.2195350240911
  0
ARC
  5
4A7
330
1F
100
AcDbEntity
  8
0
  6
CONTINUOUS
 62
     7
100
AcDbCircle
 10
262.4999999999999
 20
186.2500000000013
 30
0.0
 40
102.4999999999981
210
0.0
220
0.0
230
-1.0
100
AcDbArc
 50
185.0000000000001
 51
185.2195350240912
  0
LINE
  5
4A8
330
1F
100
AcDbEntity
  8
0
  6
CONTINUOUS
 62
     7
100
AcDbLine
 10
-155.5628853898223
 20
161.5616217857625
 30
0.0
 11
-162.6270683595151
 21
163.1925169297555
 31
0.0
  0
LINE
  5
4A9
330
1F
100
AcDbEntity
  8
0
  6
CONTINUOUS
 62
     7
100
AcDbLine
 10
-155.5628853898223
 20
210.93837821424
 30
0.0
 11
-162.6270683595151
 21
209.307483070247
 31
0.0
  0
ARC
  5
4AA
330
1F
100
AcDbEntity
  8
0
  6
CONTINUOUS
 62
     7
100
AcDbCircle
 10
-262.4999999999999
 20
186.2500000000013
 30
0.0
 40
102.5000000000505
100
AcDbArc
 50
1.000000000000001
 51
1.219535024091303
  0
LINE
  5
4AB
330
1F
100
AcDbEntity
  8
0
  6
CONTINUOUS
 62
     7
100
AcDbLine
 10
-153.1676318844329
 20
195.8153427665566
 30
0.0
 11
-160.3900434455979
 21
195.183463631636
 31
0.0
  0
ARC
  5
4AC
330
1F
100
AcDbEntity
  8
0
  6
CONTINUOUS
 62
     7
100
AcDbCircle
 10
262.4999999999999
 20
186.2500000000013
 30
0.0
 40
102.4999999999983
210
0.0
220
0.0
230
-1.0
100
AcDbArc
 50
189.0
 51
189.219535024091
  0
LINE
  5
4AD
330
1F
100
AcDbEntity
  8
0
  6
CONTINUOUS
 62
     7
100
AcDbLine
 10
-152.766715456588
 20
184.3345983935094
 30
0.0
 11
-160.0156112464717
 21
184.4611283401797
 31
0.0
  0
LINE
  5
4AE
330
1F
100
AcDbEntity
  8
0
  6
CONTINUOUS
 62
     7
100
AcDbLine
 10
-153.5680598573668
 20
199.6251604387159
 30
0.0
 11
-160.7640194567662
 21
198.7416076990287
 31
0.0
  0
ARC
  5
4AF
330
1F
100
AcDbEntity
  8
0
  6
CONTINUOUS
 62
     7
100
AcDbCircle
 10
262.4999999999999
 20
186.2500000000014
 30
0.0
 40
102.5
210
0.0
220
0.0
230
-1.0
100
AcDbArc
 50
169.2195350240912
 51
170.7804649759089
  0
ARC
  5
4B0
330
1F
100
AcDbEntity
  8
0
  6
CONTINUOUS
 62
     7
100
AcDbCircle
 10
-262.4999999999999
 20
186.2500000000013
 30
0.0
 40
102.5000000000504
100
AcDbArc
 50
4.999999999999992
 51
5.219535024091297
  0
ARC
  5
4B1
330
1F
100
AcDbEntity
  8
0
  6
CONTINUOUS
 62
     7
100
AcDbCircle
 10
262.4999999999999
 20
186.2500000000013
 30
0.0
 40
102.4999999999986
210
0.0
220
0.0
230
-1.0
100
AcDbArc
 50
192.9999999999999
 51
193.219535024091
  0
ARC
  5
4B2
330
1F
100
AcDbEntity
  8
0
  6
CONTINUOUS
 62
     7
100
AcDbCircle
 10
262.4999999999999
 20
186.2500000000014
 30
0.0
 40
102.5
210
0.0
220
0.0
230
-1.0
100
AcDbArc
 50
161.2195350240912
 51
162.7804649759088
  0
LWPOLYLINE
  5
4B3
330
1F
100
AcDbEntity
  8
0
  6
CONTINUOUS
 62
     7
100
AcDbPolyline
 90
       40
 70
     0
 43
0.0
 10
-755.1193775421699
 20
123.5813502267239
 10
-755.1416362525714
 20
123.5867588009437
 10
-755.1642086735508
 20
123.5911480267198
 10
-755.1870156057429
 20
123.5945084600076
 10
-755.2099778497821
 20
123.5968306567623
 10
-755.2330162063035
 20
123.5981051729393
 10
-755.2560514759417
 20
123.5983225644938
 10
-755.2790044593316
 20
123.5974733873813
 10
-755.3018844881894
 20
123.5955482210222
 10
-755.3247038391498
 20
123.5925573874629
 10
-755.3473864294639
 20
123.5885211353518
 10
-755.3698561763828
 20
123.5834597133376
 10
-755.3920369971576
 20
123.577393370069
 10
-755.4138528090397
 20
123.5703423541945
 10
-755.4352275292803
 20
123.5623269143627
 10
-755.4562546059407
 20
123.5533013440152
 10
-755.4768616561323
 20
123.543306246814
 10
-755.49698859961
 20
123.5323849437664
 10
-755.5165753561282
 20
123.5205807558792
 10
-755.535561845442
 20
123.5079370041597
 10
-755.5538879873058
 20
123.494497009615
 10
-755.5714937014742
 20
123.4803040932521
 10
-755.5889072764552
 20
123.4648684069293
 10
-755.6055825382214
 20
123.4486293798281
 10
-755.6214775889445
 20
123.4316470591934
 10
-755.6365505307964
 20
123.4139814922704
 10
-755.6507594659486
 20
123.3956927263039
 10
-755.6640624965731
 20
123.376840808539
 10
-755.6764177248416
 20
123.3574857862207
 10
-755.6883334982628
 20
123.3366916358504
 10
-755.6992382177943
 20
123.3153341000463
 10
-755.709109110362
 20
123.293485704067
 10
-755.7179234028906
 20
123.2712189731713
 10
-755.7256583223063
 20
123.2486064326181
 10
-755.7322910955344
 20
123.2257206076661
 10
-755.7377989495003
 20
123.2026340235743
 10
-755.742594757347
 20
123.1768123809529
 10
-755.7460298203051
 20
123.1507653702398
 10
-755.7480964766662
 20
123.1245910086953
 10
-755.7487870647212
 20
123.0983873135794
  0
LWPOLYLINE
  5
4B4
330
1F
100
AcDbEntity
  8
0
  6
CONTINUOUS
 62
     7
100
AcDbPolyline
 90
       39
 70
     0
 43
0.0
 10
-755.7487870647212
 20
249.4016126864206
 10
-755.7481527902099
 20
249.376668618192
 10
-755.7462576871462
 20
249.35170744971
 10
-755.7431133362356
 20
249.3268142170248
 10
-755.7387313181841
 20
249.302073956187
 10
-755.7331232136968
 20
249.2775717032469
 10
-755.7263006034796
 20
249.2533924942551
 10
-755.7182750682379
 20
249.2296213652618
 10
-755.7090164947801
 20
249.2062273921831
 10
-755.6985286846864
 20
249.1832206366706
 10
-755.686851310822
 20
249.1606854303837
 10
-755.6740240460528
 20
249.1387061049817
 10
-755.6600865632441
 20
249.1173669921238
 10
-755.6450785352617
 20
249.0967524234694
 10
-755.629039634971
 20
249.0769467306779
 10
-755.6124105641221
 20
249.0584462243309
 10
-755.5947702378777
 20
249.0407045022804
 10
-755.5761870908577
 20
249.0237895150118
 10
-755.5567295576823
 20
249.0077692130106
 10
-755.5364660729712
 20
248.9927115467621
 10
-755.5154650713442
 20
248.9786844667518
 10
-755.4937949874216
 20
248.965755923465
 10
-755.4725251793777
 20
248.9544807330322
 10
-755.4506192272191
 20
248.9442024903734
 10
-755.4281615565756
 20
248.9349568830648
 10
-755.4052365930775
 20
248.9267795986825
 10
-755.3819287623548
 20
248.9197063248024
 10
-755.3583224900381
 20
248.9137727490006
 10
-755.3345022017572
 20
248.9090145588532
 10
-755.3114631976794
 20
248.905569447503
 10
-755.2882046198141
 20
248.9032046175239
 10
-755.2648102118804
 20
248.9019209178786
 10
-755.2413637175969
 20
248.9017191975297
 10
-755.2179488806821
 20
248.9026003054399
 10
-755.194649444855
 20
248.9045650905715
 10
-755.1715491538343
 20
248.9076144018873
 10
-755.1540212260119
 20
248.9106758642864
 10
-755.1366187842459
 20
248.9143573076863
 10
-755.1193775421699
 20
248.9186497732761
  0
ENDSEC
  0
SECTION
  2
OBJECTS
  0
DICTIONARY
  5
C
330
0
100
AcDbDictionary
  3
ACAD_GROUP
350
D
  3
ACAD_LAYOUT
350
1A
  3
ACAD_MATERIAL
350
43
  3
ACAD_MLEADERSTYLE
350
6B
  3
ACAD_MLINESTYLE
350
17
  3
ACAD_PLOTSETTINGS
350
19
  3
ACAD_SCALELIST
350
47
  3
ACAD_VISUALSTYLE
350
2A
  3
ACDBHEADERROUNDTRIPXREC
350
4B5
  3
ACDBVARIABLEDICTIONARY
350
4D6
  0
DICTIONARY
  5
4DD
330
8
100
AcDbDictionary
280
     1
  3
ACAD_XREC_ROUNDTRIP
360
4DE
  0
DICTIONARY
  5
D
102
{ACAD_REACTORS
330
C
102
}
330
C
100
AcDbDictionary
  0
DICTIONARY
  5
1A
102
{ACAD_REACTORS
330
C
102
}
330
C
100
AcDbDictionary
  0
DICTIONARY
  5
43
102
{ACAD_REACTORS
330
C
102
}
330
C
100
AcDbDictionary
  3
BYBLOCK
350
45
  3
BYLAYER
350
44
  3
GLOBAL
350
46
  0
DICTIONARY
  5
6B
102
{ACAD_REACTORS
330
C
102
}
330
C
100
AcDbDictionary
  3
STANDARD
350
6C
  0
DICTIONARY
  5
17
102
{ACAD_REACTORS
330
C
102
}
330
C
100
AcDbDictionary
  3
STANDARD
350
18
  0
DICTIONARY
  5
19
102
{ACAD_REACTORS
330
C
102
}
330
C
100
AcDbDictionary
  0
DICTIONARY
  5
47
102
{ACAD_REACTORS
330
C
102
}
330
C
100
AcDbDictionary
  3
A0
350
48
  3
A1
350
49
  3
A2
350
4A
  3
A3
350
4B
  3
A4
350
4C
  3
A5
350
4D
  3
A6
350
4E
  3
A7
350
4F
  3
A8
350
50
  3
A9
350
51
  3
B0
350
52
  3
B1
350
53
  3
B2
350
54
  3
B3
350
55
  3
B4
350
56
  3
B5
350
57
  3
B6
350
58
  3
B7
350
59
  3
B8
350
5A
  3
B9
350
5B
  3
C0
350
5C
  3
C1
350
5D
  3
C2
350
5E
  3
C3
350
5F
  3
C4
350
60
  3
C5
350
61
  3
C6
350
62
  3
C7
350
63
  3
C8
350
64
  3
C9
350
65
  3
D0
350
66
  3
D1
350
67
  3
D2
350
68
  0
DICTIONARY
  5
2A
102
{ACAD_REACTORS
330
C
102
}
330
C
100
AcDbDictionary
  3
2DWIREFRAME
350
2F
  3
BASIC
350
32
  3
BRIGHTEN
350
36
  3
COLORCHANGE
350
3A
  3
CONCEPTUAL
350
34
  3
DIM
350
35
  3
EDGECOLOROFF
350
3D
  3
FACEPATTERN
350
39
  3
FLAT
350
2B
  3
FLATWITHEDGES
350
2C
  3
GOURAUD
350
2D
  3
GOURAUDWITHEDGES
350
2E
  3
HIDDEN
350
31
  3
JITTEROFF
350
3B
  3
LINEPATTERN
350
38
  3
OVERHANGOFF
350
3C
  3
REALISTIC
350
33
  3
SHADED
350
42
  3
SHADED_WITH_EDGES
350
41
  3
SHADES_OF_GRAY
350
3E
  3
SKETCHY
350
3F
  3
THICKEN
350
37
  3
WIREFRAME
350
30
  3
X-RAY
350
40
  0
DICTIONARY
  5
4B5
102
{ACAD_REACTORS
330
C
102
}
330
C
100
AcDbDictionary
  3
CEPSNID
350
4BF
  3
CEPSNTYPE
350
4BE
  3
DIMSTYLEDATA
350
4D5
  3
FINGERPRINTGUID
350
4C0
  3
HYPERLINKBASE
350
4B8
  3
INSUNITS
350
4BD
  3
LAYOUTDICT
350
4BA
  3
LWETCUNION
350
4BC
  3
PLOTSETDICT
350
4BB
  3
PSVPSCALE
350
4C2
  3
PUCSBASE
350
4C5
  3
PUCSORGBACK
350
4CB
  3
PUCSORGBOTTOM
350
4C7
  3
PUCSORGFRONT
350
4CA
  3
PUCSORGLEFT
350
4C8
  3
PUCSORGRIGHT
350
4C9
  3
PUCSORGTOP
350
4C6
  3
PUCSORTHOREF
350
4C3
  3
PUCSORTHOVIEW
350
4C4
  3
STYLESHEET
350
4B9
  3
TSTACKALIGN
350
4B6
  3
TSTACKSIZE
350
4B7
  3
UCSBASE
350
4CE
  3
UCSORGBACK
350
4D4
  3
UCSORGBOTTOM
350
4D0
  3
UCSORGFRONT
350
4D3
  3
UCSORGLEFT
350
4D1
  3
UCSORGRIGHT
350
4D2
  3
UCSORGTOP
350
4CF
  3
UCSORTHOREF
350
4CC
  3
UCSORTHOVIEW
350
4CD
  3
VERSIONGUID
350
4C1
  0
DICTIONARY
  5
4D6
102
{ACAD_REACTORS
330
C
102
}
330
C
100
AcDbDictionary
  3
CANNOSCALE
350
4DF
  3
CMLEADERSTYLE
350
4D8
  3
CTABLESTYLE
350
4D7
  3
DIMASSOC
350
4DB
  3
HIDETEXT
350
4DC
  3
MSLTSCALE
350
4E0
  0
XRECORD
  5
4DE
102
{ACAD_REACTORS
330
4DD
102
}
330
4DD
100
AcDbXrecord
102
VTR_0.000_0.000_1.000_1.000_VISUALSTYLE
340
2F
102
VTR_0.000_0.000_1.000_1.000_GRIDDISPLAY
 70
     3
102
VTR_0.000_0.000_1.000_1.000_GRIDMAJOR
 70
     5
102
VTR_0.000_0.000_1.000_1.000_DEFAULTLIGHTING
280
     1
102
VTR_0.000_0.000_1.000_1.000_DEFAULTLIGHTINGTYPE
 70
     1
102
VTR_0.000_0.000_1.000_1.000_BRIGHTNESS
141
0.0
102
VTR_0.000_0.000_1.000_1.000_CONTRAST
142
0.0
  0
MATERIAL
  5
45
102
{ACAD_REACTORS
330
43
102
}
102
{ACAD_XDICTIONARY
360
4E3
102
}
330
43
100
AcDbMaterial
  1
BYBLOCK
  0
MATERIAL
  5
44
102
{ACAD_REACTORS
330
43
102
}
102
{ACAD_XDICTIONARY
360
4E1
102
}
330
43
100
AcDbMaterial
  1
BYLAYER
  0
MATERIAL
  5
46
102
{ACAD_REACTORS
330
43
102
}
102
{ACAD_XDICTIONARY
360
4E5
102
}
330
43
100
AcDbMaterial
  1
GLOBAL
  0
ACAD_PROXY_OBJECT
  5
6C
102
{ACAD_REACTORS
330
6B
102
}
330
6B
100
AcDbProxyObject
 90
      499
 91
      505
 93
      610
310
40901902A4063FBFFFFFE056BD1B81E855B9FC0AD7A3703D0AD73F4214DD185B99185C9900AD7A3703D0AC73F90141901A02B5E8DC0F42B1CFC02B5E8DC0F42B1CFE5764000000000000300FC0
340
14
340
0
340
11
340
0
 94
        0
1001
ACAD_MLEADERVER
1070
     2
  0
MLINESTYLE
  5
18
102
{ACAD_REACTORS
330
17
102
}
330
17
100
AcDbMlineStyle
  2
Standard
 70
     0
  3

 62
   256
 51
90.0
 52
90.0
 71
     2
 49
0.5
 62
   256
  6
BYLAYER
 49
-0.5
 62
   256
  6
BYLAYER
  0
ACAD_PROXY_OBJECT
  5
48
102
{ACAD_REACTORS
330
47
102
}
330
47
100
AcDbProxyObject
 90
      499
 91
      503
 93
       41
310
903313A31580
  0
ACAD_PROXY_OBJECT
  5
49
102
{ACAD_REACTORS
330
47
102
}
330
47
100
AcDbProxyObject
 90
      499
 91
      503
 93
      105
310
903313A324000000000000004000
  0
ACAD_PROXY_OBJECT
  5
4A
102
{ACAD_REACTORS
330
47
102
}
330
47
100
AcDbProxyObject
 90
      499
 91
      503
 93
      105
310
903313A344000000000000104000
  0
ACAD_PROXY_OBJECT
  5
4B
102
{ACAD_REACTORS
330
47
102
}
330
47
100
AcDbProxyObject
 90
      499
 91
      503
 93
      105
310
903313A354000000000000144000
  0
ACAD_PROXY_OBJECT
  5
4C
102
{ACAD_REACTORS
330
47
102
}
330
47
100
AcDbProxyObject
 90
      499
 91
      503
 93
      105
310
903313A384000000000000204000
  0
ACAD_PROXY_OBJECT
  5
4D
102
{ACAD_REACTORS
330
47
102
}
330
47
100
AcDbProxyObject
 90
      499
 91
      503
 93
      113
310
904313A31304000000000000244000
  0
ACAD_PROXY_OBJECT
  5
4E
102
{ACAD_REACTORS
330
47
102
}
330
47
100
AcDbProxyObject
 90
      499
 91
      503
 93
      113
310
904313A31364000000000000304000
  0
ACAD_PROXY_OBJECT
  5
4F
102
{ACAD_REACTORS
330
47
102
}
330
47
100
AcDbProxyObject
 90
      499
 91
      503
 93
      113
310
904313A32304000000000000344000
  0
ACAD_PROXY_OBJECT
  5
50
102
{ACAD_REACTORS
330
47
102
}
330
47
100
AcDbProxyObject
 90
      499
 91
      503
 93
      113
310
904313A333040000000000003E4000
  0
ACAD_PROXY_OBJECT
  5
51
102
{ACAD_REACTORS
330
47
102
}
330
47
100
AcDbProxyObject
 90
      499
 91
      503
 93
      113
310
904313A34304000000000000444000
  0
ACAD_PROXY_OBJECT
  5
52
102
{ACAD_REACTORS
330
47
102
}
330
47
100
AcDbProxyObject
 90
      499
 91
      503
 93
      113
310
904313A35304000000000000494000
  0
ACAD_PROXY_OBJECT
  5
53
102
{ACAD_REACTORS
330
47
102
}
330
47
100
AcDbProxyObject
 90
      499
 91
      503
 93
      121
310
905313A3130304000000000000594000
  0
ACAD_PROXY_OBJECT
  5
54
102
{ACAD_REACTORS
330
47
102
}
330
47
100
AcDbProxyObject
 90
      499
 91
      503
 93
      105
310
903323A310000000000000010100
  0
ACAD_PROXY_OBJECT
  5
55
102
{ACAD_REACTORS
330
47
102
}
330
47
100
AcDbProxyObject
 90
      499
 91
      503
 93
      105
310
903343A310000000000000410100
  0
ACAD_PROXY_OBJECT
  5
56
102
{ACAD_REACTORS
330
47
102
}
330
47
100
AcDbProxyObject
 90
      499
 91
      503
 93
      105
310
903383A310000000000000810100
  0
ACAD_PROXY_OBJECT
  5
57
102
{ACAD_REACTORS
330
47
102
}
330
47
100
AcDbProxyObject
 90
      499
 91
      503
 93
      113
310
90431303A310000000000000910100
  0
ACAD_PROXY_OBJECT
  5
58
102
{ACAD_REACTORS
330
47
102
}
330
47
100
AcDbProxyObject
 90
      499
 91
      503
 93
      121
310
9053130303A310000000000001650100
  0
ACAD_PROXY_OBJECT
  5
59
102
{ACAD_REACTORS
330
47
102
}
330
47
100
AcDbProxyObject
 90
      499
 91
      503
 93
      257
310
90E312F31323822203D2031272D3022000000000000200FC000000000000284000
  0
ACAD_PROXY_OBJECT
  5
5A
102
{ACAD_REACTORS
330
47
102
}
330
47
100
AcDbProxyObject
 90
      499
 91
      503
 93
      249
310
90D312F363422203D2031272D3022000000000000240FC000000000000284000
  0
ACAD_PROXY_OBJECT
  5
5B
102
{ACAD_REACTORS
330
47
102
}
330
47
100
AcDbProxyObject
 90
      499
 91
      503
 93
      249
310
90D312F333222203D2031272D3022000000000000280FC000000000000284000
  0
ACAD_PROXY_OBJECT
  5
5C
102
{ACAD_REACTORS
330
47
102
}
330
47
100
AcDbProxyObject
 90
      499
 91
      503
 93
      249
310
90D312F313622203D2031272D30220000000000002C0FC000000000000284000
  0
ACAD_PROXY_OBJECT
  5
5D
102
{ACAD_REACTORS
330
47
102
}
330
47
100
AcDbProxyObject
 90
      499
 91
      503
 93
      249
310
90D332F333222203D2031272D30220000000000002E0FC000000000000284000
  0
ACAD_PROXY_OBJECT
  5
5E
102
{ACAD_REACTORS
330
47
102
}
330
47
100
AcDbProxyObject
 90
      499
 91
      503
 93
      241
310
90C312F3822203D2031272D3022000000000000300FC000000000000284000
  0
ACAD_PROXY_OBJECT
  5
5F
102
{ACAD_REACTORS
330
47
102
}
330
47
100
AcDbProxyObject
 90
      499
 91
      503
 93
      249
310
90D332F313622203D2031272D3022000000000000320FC000000000000284000
  0
ACAD_PROXY_OBJECT
  5
60
102
{ACAD_REACTORS
330
47
102
}
330
47
100
AcDbProxyObject
 90
      499
 91
      503
 93
      241
310
90C312F3422203D2031272D3022000000000000340FC000000000000284000
  0
ACAD_PROXY_OBJECT
  5
61
102
{ACAD_REACTORS
330
47
102
}
330
47
100
AcDbProxyObject
 90
      499
 91
      503
 93
      241
310
90C332F3822203D2031272D3022000000000000360FC000000000000284000
  0
ACAD_PROXY_OBJECT
  5
62
102
{ACAD_REACTORS
330
47
102
}
330
47
100
AcDbProxyObject
 90
      499
 91
      503
 93
      241
310
90C312F3222203D2031272D3022000000000000380FC000000000000284000
  0
ACAD_PROXY_OBJECT
  5
63
102
{ACAD_REACTORS
330
47
102
}
330
47
100
AcDbProxyObject
 90
      499
 91
      503
 93
      241
310
90C332F3422203D2031272D30220000000000003A0FC000000000000284000
  0
ACAD_PROXY_OBJECT
  5
64
102
{ACAD_REACTORS
330
47
102
}
330
47
100
AcDbProxyObject
 90
      499
 91
      503
 93
      161
310
90A3122203D2031272D30224000000000000284000
  0
ACAD_PROXY_OBJECT
  5
65
102
{ACAD_REACTORS
330
47
102
}
330
47
100
AcDbProxyObject
 90
      499
 91
      503
 93
      257
310
90E312D312F3222203D2031272D30220000000000003E0FC000000000000284000
  0
ACAD_PROXY_OBJECT
  5
66
102
{ACAD_REACTORS
330
47
102
}
330
47
100
AcDbProxyObject
 90
      499
 91
      503
 93
      225
310
90A3322203D2031272D302200000000000002100000000000000284000
  0
ACAD_PROXY_OBJECT
  5
67
102
{ACAD_REACTORS
330
47
102
}
330
47
100
AcDbProxyObject
 90
      499
 91
      503
 93
      225
310
90A3622203D2031272D302200000000000006100000000000000284000
  0
ACAD_PROXY_OBJECT
  5
68
102
{ACAD_REACTORS
330
47
102
}
330
47
100
AcDbProxyObject
 90
      499
 91
      503
 93
      249
310
90D31272D3022203D2031272D30220000000000000A100000000000000284000
  0
ACAD_PROXY_OBJECT
  5
2F
102
{ACAD_REACTORS
330
2A
102
}
330
2A
100
AcDbProxyObject
 90
      499
 91
      501
 93
      436
310
42CC9915DA5C99599C985B595049028333333333333E33F0000000000000F90107901411070040501600405405064090741402480A0340
1001
ACAD
1000
AcDbSavedByObjectVersion
1070
     0
  0
ACAD_PROXY_OBJECT
  5
32
102
{ACAD_REACTORS
330
2A
102
}
330
2A
100
AcDbProxyObject
 90
      499
 91
      501
 93
      388
310
4150985CDA58D07406404333333333333E33F0000000000000F90107A41107004050150841D405064090741402480A0350
1001
ACAD
1000
AcDbSavedByObjectVersion
1070
     0
  0
ACAD_PROXY_OBJECT
  5
36
102
{ACAD_REACTORS
330
2A
102
}
330
2A
100
AcDbProxyObject
 90
      499
 91
      501
 93
      428
310
42109C9A59DA1D195B90C409028333333333333E33F0000000000000F9010790141107004050150841D405064090741402480A029950
1001
ACAD
1000
AcDbSavedByObjectVersion
1070
     0
  0
ACAD_PROXY_OBJECT
  5
3A
102
{ACAD_REACTORS
330
2A
102
}
330
2A
100
AcDbProxyObject
 90
      499
 91
      501
 93
      452
310
42D0DBDB1BDC90DA185B99D95104090240C333333333333E33F0000000000000F90108901411070040501508421405064090741402480A0350
1001
ACAD
1000
AcDbSavedByObjectVersion
1070
     0
  0
ACAD_PROXY_OBJECT
  5
34
102
{ACAD_REACTORS
330
2A
102
}
330
2A
100
AcDbProxyObject
 90
      499
 91
      501
 93
      500
310
4290DBDB98D95C1D1D585B10940D028333333333333E33F0000000000000F90107902409070040501000000000018199010841D405064090740C02480A0340
1001
ACAD
1000
AcDbSavedByObjectVersion
1070
     0
  0
ACAD_PROXY_OBJECT
  5
35
102
{ACAD_REACTORS
330
2A
102
}
330
2A
100
AcDbProxyObject
 90
      499
 91
      501
 93
      412
310
40D11A5B50B409028333333333333E33F0000000000000F9010790141107004050150841D405064090741402480A02677FFFFFD0
1001
ACAD
1000
AcDbSavedByObjectVersion
1070
     0
  0
ACAD_PROXY_OBJECT
  5
3D
102
{ACAD_REACTORS
330
2A
102
}
330
2A
100
AcDbProxyObject
 90
      499
 91
      501
 93
      452
310
43115919D950DBDB1BDC93D999916409028333333333333E33F0000000000000F9010790141107004050150841D405064090741402480A0350
1001
ACAD
1000
AcDbSavedByObjectVersion
1070
     0
  0
ACAD_PROXY_OBJECT
  5
39
102
{ACAD_REACTORS
330
2A
102
}
330
2A
100
AcDbProxyObject
 90
      499
 91
      501
 93
      444
310
42D19858D95C185D1D195C9B90F409028333333333333E33F0000000000000F9010790141107004050150841D405064090741402480A0350
1001
ACAD
1000
AcDbSavedByObjectVersion
1070
     0
  0
ACAD_PROXY_OBJECT
  5
2B
102
{ACAD_REACTORS
330
2A
102
}
330
2A
100
AcDbProxyObject
 90
      499
 91
      501
 93
      380
310
41119B185D240901404333333333333E33F0000000000000F9010740A907004050150841D405064090741402480A1B50
1001
ACAD
1000
AcDbSavedByObjectVersion
1070
     0
  0
ACAD_PROXY_OBJECT
  5
2C
102
{ACAD_REACTORS
330
2A
102
}
330
2A
100
AcDbProxyObject
 90
      499
 91
      501
 93
      468
310
43519B185D15DA5D1A115919D95CD0140901404333333333333E33F0000000000000F90107409019070040501600405405064090741402480A1B50
1001
ACAD
1000
AcDbSavedByObjectVersion
1070
     0
  0
ACAD_PROXY_OBJECT
  5
2D
102
{ACAD_REACTORS
330
2A
102
}
330
2A
100
AcDbProxyObject
 90
      499
 91
      501
 93
      404
310
41D1DBDD5C985D5910240902404333333333333E33F0000000000000F9010740A9070040501641D405064090741402480A1B50
1001
ACAD
1000
AcDbSavedByObjectVersion
1070
     0
  0
ACAD_PROXY_OBJECT
  5
2E
102
{ACAD_REACTORS
330
2A
102
}
330
2A
100
AcDbProxyObject
 90
      499
 91
      501
 93
      492
310
4411DBDD5C985D5915DA5D1A115919D95CD0340902404333333333333E33F0000000000000F90107409019070040501600405405064090741402480A1B50
1001
ACAD
1000
AcDbSavedByObjectVersion
1070
     0
  0
ACAD_PROXY_OBJECT
  5
31
102
{ACAD_REACTORS
330
2A
102
}
330
2A
100
AcDbProxyObject
 90
      499
 91
      501
 93
      476
310
41921A5919195B90640502408333333333333E33F0000000000000F901079024090700405020000000000001110200405405064090740C02480A0340
1001
ACAD
1000
AcDbSavedByObjectVersion
1070
     0
  0
ACAD_PROXY_OBJECT
  5
3B
102
{ACAD_REACTORS
330
2A
102
}
330
2A
100
AcDbProxyObject
 90
      499
 91
      501
 93
      428
310
42529A5D1D195C93D999914409028333333333333E33F0000000000000F9010790141107004050150A41D405064090741402480A0350
1001
ACAD
1000
AcDbSavedByObjectVersion
1070
     0
  0
ACAD_PROXY_OBJECT
  5
38
102
{ACAD_REACTORS
330
2A
102
}
330
2A
100
AcDbProxyObject
 90
      499
 91
      501
 93
      444
310
42D31A5B995C185D1D195C9B90E409028333333333333E33F0000000000000F9010790141107004050750841D405064090741402483A0350
1001
ACAD
1000
AcDbSavedByObjectVersion
1070
     0
  0
ACAD_PROXY_OBJECT
  5
3C
102
{ACAD_REACTORS
330
2A
102
}
330
2A
100
AcDbProxyObject
 90
      499
 91
      501
 93
      444
310
42D3DD995C9A185B99D3D999915409028333333333333E33F0000000000000F9010790141107004050150941D405064090741402480A0350
1001
ACAD
1000
AcDbSavedByObjectVersion
1070
     0
  0
ACAD_PROXY_OBJECT
  5
33
102
{ACAD_REACTORS
330
2A
102
}
330
2A
100
AcDbProxyObject
 90
      499
 91
      501
 93
      428
310
425499585B1A5CDD1A58D08409038333333333333E33F0000000000000F9010740A907004050150800405405064090740C02480A1B40
1001
ACAD
1000
AcDbSavedByObjectVersion
1070
     0
  0
ACAD_PROXY_OBJECT
  5
42
102
{ACAD_REACTORS
330
2A
102
}
330
2A
100
AcDbProxyObject
 90
      499
 91
      501
 93
      420
310
4194DA1859195911B40902404333333333333E33F0000000000000F9010740A41107004050150800405405064090840C02480A0B40
1001
ACAD
1000
AcDbSavedByObjectVersion
1070
     0
  0
ACAD_PROXY_OBJECT
  5
41
102
{ACAD_REACTORS
330
2A
102
}
330
2A
100
AcDbProxyObject
 90
      499
 91
      501
 93
      516
310
4454DA18591959081DDA5D1A08195919D95CD1A40902404333333333333E33F0000000000000F901074090142907004050250800405405064090740C02480A0B40
1001
ACAD
1000
AcDbSavedByObjectVersion
1070
     0
  0
ACAD_PROXY_OBJECT
  5
3E
102
{ACAD_REACTORS
330
2A
102
}
330
2A
100
AcDbProxyObject
 90
      499
 91
      501
 93
      532
310
4394DA1859195CC81BD98811DC985E5174090240C333333333333E33F0000000000000F901079024090741D01000000000000111010841D405064090740C02480A0340
1001
ACAD
1000
AcDbSavedByObjectVersion
1070
     0
  0
ACAD_PROXY_OBJECT
  5
3F
102
{ACAD_REACTORS
330
2A
102
}
330
2A
100
AcDbProxyObject
 90
      499
 91
      501
 93
      476
310
41D4DAD95D18DA1E51840502408333333333333E33F0000000000000F901079024090741D01000000000000111010B41D405064090741802480A0340
1001
ACAD
1000
AcDbSavedByObjectVersion
1070
     0
  0
ACAD_PROXY_OBJECT
  5
37
102
{ACAD_REACTORS
330
2A
102
}
330
2A
100
AcDbProxyObject
 90
      499
 91
      501
 93
      412
310
41D51A1A58DAD95B90D409028333333333333E33F0000000000000F9010790141107004050150C41D405064090741402480A0350
1001
ACAD
1000
AcDbSavedByObjectVersion
1070
     0
  0
ACAD_PROXY_OBJECT
  5
30
102
{ACAD_REACTORS
330
2A
102
}
330
2A
100
AcDbProxyObject
 90
      499
 91
      501
 93
      420
310
4255DA5C99599C985B595059028333333333333E33F0000000000000F90107901411070040501600405405064090740C02480A0340
1001
ACAD
1000
AcDbSavedByObjectVersion
1070
     0
  0
ACAD_PROXY_OBJECT
  5
40
102
{ACAD_REACTORS
330
2A
102
}
330
2A
100
AcDbProxyObject
 90
      499
 91
      501
 93
      404
310
41560B54985E51940902404000000000000E03F0000000000000F9010740501907004050150841D405064090740C02480A1B40
1001
ACAD
1000
AcDbSavedByObjectVersion
1070
     0
  0
XRECORD
  5
4BF
102
{ACAD_REACTORS
330
4B5
102
}
330
4B5
100
AcDbXrecord
340
0
  0
XRECORD
  5
4BE
102
{ACAD_REACTORS
330
4B5
102
}
330
4B5
100
AcDbXrecord
 90
        0
  0
XRECORD
  5
4D5
102
{ACAD_REACTORS
330
4B5
102
}
330
4B5
100
AcDbXrecord
1000
DSTYLE
1002
{
1070
   179
 70
     2
1070
   171
 70
     2
1070
   143
 40
25.4
1070
   274
 70
     2
1070
    41
 40
3.0
1070
   141
 40
0.09
1070
    43
 40
0.38
1070
   278
 70
    46
1070
    44
 40
1.5
1070
    42
 40
0.0625
1070
   147
 40
1.5
1070
   272
 70
     4
1070
    73
 70
     1
1070
   172
 70
     0
1070
    74
 70
     1
1070
   283
 70
     1
1070
   340
340
6E
1070
   140
 40
3.0
1070
   284
 70
     0
1070
    78
 70
     0
1002
}
  0
XRECORD
  5
4C0
102
{ACAD_REACTORS
330
4B5
102
}
330
4B5
100
AcDbXrecord
  1
{80F0BC01-4925-4677-9E48-2B3D648297D5}
  0
XRECORD
  5
4B8
102
{ACAD_REACTORS
330
4B5
102
}
330
4B5
100
AcDbXrecord
  1

  0
XRECORD
  5
4BD
102
{ACAD_REACTORS
330
4B5
102
}
330
4B5
100
AcDbXrecord
 90
        4
  0
XRECORD
  5
4BA
102
{ACAD_REACTORS
330
4B5
102
}
330
4B5
100
AcDbXrecord
340
1A
  0
XRECORD
  5
4BC
102
{ACAD_REACTORS
330
4B5
102
}
330
4B5
100
AcDbXrecord
 90
    10269
  0
XRECORD
  5
4BB
102
{ACAD_REACTORS
330
4B5
102
}
330
4B5
100
AcDbXrecord
340
19
  0
XRECORD
  5
4C2
102
{ACAD_REACTORS
330
4B5
102
}
330
4B5
100
AcDbXrecord
 40
0.0
  0
XRECORD
  5
4C5
102
{ACAD_REACTORS
330
4B5
102
}
330
4B5
100
AcDbXrecord
340
0
  0
XRECORD
  5
4CB
102
{ACAD_REACTORS
330
4B5
102
}
330
4B5
100
AcDbXrecord
 10
0.0
 20
0.0
 30
0.0
  0
XRECORD
  5
4C7
102
{ACAD_REACTORS
330
4B5
102
}
330
4B5
100
AcDbXrecord
 10
0.0
 20
0.0
 30
0.0
  0
XRECORD
  5
4CA
102
{ACAD_REACTORS
330
4B5
102
}
330
4B5
100
AcDbXrecord
 10
0.0
 20
0.0
 30
0.0
  0
XRECORD
  5
4C8
102
{ACAD_REACTORS
330
4B5
102
}
330
4B5
100
AcDbXrecord
 10
0.0
 20
0.0
 30
0.0
  0
XRECORD
  5
4C9
102
{ACAD_REACTORS
330
4B5
102
}
330
4B5
100
AcDbXrecord
 10
0.0
 20
0.0
 30
0.0
  0
XRECORD
  5
4C6
102
{ACAD_REACTORS
330
4B5
102
}
330
4B5
100
AcDbXrecord
 10
0.0
 20
0.0
 30
0.0
  0
XRECORD
  5
4C3
102
{ACAD_REACTORS
330
4B5
102
}
330
4B5
100
AcDbXrecord
340
0
  0
XRECORD
  5
4C4
102
{ACAD_REACTORS
330
4B5
102
}
330
4B5
100
AcDbXrecord
 70
     0
  0
XRECORD
  5
4B9
102
{ACAD_REACTORS
330
4B5
102
}
330
4B5
100
AcDbXrecord
  1

  0
XRECORD
  5
4B6
102
{ACAD_REACTORS
330
4B5
102
}
330
4B5
100
AcDbXrecord
 90
        1
  0
XRECORD
  5
4B7
102
{ACAD_REACTORS
330
4B5
102
}
330
4B5
100
AcDbXrecord
 90
       70
  0
XRECORD
  5
4CE
102
{ACAD_REACTORS
330
4B5
102
}
330
4B5
100
AcDbXrecord
340
0
  0
XRECORD
  5
4D4
102
{ACAD_REACTORS
330
4B5
102
}
330
4B5
100
AcDbXrecord
 10
0.0
 20
0.0
 30
0.0
  0
XRECORD
  5
4D0
102
{ACAD_REACTORS
330
4B5
102
}
330
4B5
100
AcDbXrecord
 10
0.0
 20
0.0
 30
0.0
  0
XRECORD
  5
4D3
102
{ACAD_REACTORS
330
4B5
102
}
330
4B5
100
AcDbXrecord
 10
0.0
 20
0.0
 30
0.0
  0
XRECORD
  5
4D1
102
{ACAD_REACTORS
330
4B5
102
}
330
4B5
100
AcDbXrecord
 10
0.0
 20
0.0
 30
0.0
  0
XRECORD
  5
4D2
102
{ACAD_REACTORS
330
4B5
102
}
330
4B5
100
AcDbXrecord
 10
0.0
 20
0.0
 30
0.0
  0
XRECORD
  5
4CF
102
{ACAD_REACTORS
330
4B5
102
}
330
4B5
100
AcDbXrecord
 10
0.0
 20
0.0
 30
0.0
  0
XRECORD
  5
4CC
102
{ACAD_REACTORS
330
4B5
102
}
330
4B5
100
AcDbXrecord
340
0
  0
XRECORD
  5
4CD
102
{ACAD_REACTORS
330
4B5
102
}
330
4B5
100
AcDbXrecord
 70
     0
  0
XRECORD
  5
4C1
102
{ACAD_REACTORS
330
4B5
102
}
330
4B5
100
AcDbXrecord
  1
{FAEB1C32-E019-11D5-929B-00C0DF256EC4}
  0
DICTIONARYVAR
  5
4DF
102
{ACAD_REACTORS
330
4D6
102
}
330
4D6
100
DictionaryVariables
280
     0
  1
1:1
  0
DICTIONARYVAR
  5
4D8
102
{ACAD_REACTORS
330
4D6
102
}
330
4D6
100
DictionaryVariables
280
     0
  1
Standard
  0
DICTIONARYVAR
  5
4D7
102
{ACAD_REACTORS
330
4D6
102
}
330
4D6
100
DictionaryVariables
280
     0
  1
Standard
  0
DICTIONARYVAR
  5
4DB
102
{ACAD_REACTORS
330
4D6
102
}
330
4D6
100
DictionaryVariables
280
     0
  1
2
  0
DICTIONARYVAR
  5
4DC
102
{ACAD_REACTORS
330
4D6
102
}
330
4D6
100
DictionaryVariables
280
     0
  1
1
  0
DICTIONARYVAR
  5
4E0
102
{ACAD_REACTORS
330
4D6
102
}
330
4D6
100
DictionaryVariables
280
     0
  1
1
  0
DICTIONARY
  5
4E3
330
45
100
AcDbDictionary
280
     1
  3
ACAD_XREC_ROUNDTRIP
360
4E4
  0
DICTIONARY
  5
4E1
330
44
100
AcDbDictionary
280
     1
  3
ACAD_XREC_ROUNDTRIP
360
4E2
  0
DICTIONARY
  5
4E5
330
46
100
AcDbDictionary
280
     1
  3
ACAD_XREC_ROUNDTRIP
360
4E6
  0
XRECORD
  5
4E4
102
{ACAD_REACTORS
330
4E3
102
}
330
4E3
100
AcDbXrecord
102
MATERIAL
148
0.0
149
0.0
149
0.0
 93
        0
 94
      127
282
     0
 72
     1
 77
     1
171
     1
175
     1
179
     1
273
     0
  0
XRECORD
  5
4E2
102
{ACAD_REACTORS
330
4E1
102
}
330
4E1
100
AcDbXrecord
102
MATERIAL
148
0.0
149
0.0
149
0.0
 93
        0
 94
      127
282
     0
 72
     1
 77
     1
171
     1
175
     1
179
     1
273
     0
  0
XRECORD
  5
4E6
102
{ACAD_REACTORS
330
4E5
102
}
330
4E5
100
AcDbXrecord
102
MATERIAL
148
0.0
149
0.0
149
0.0
 93
        0
 94
      127
282
     0
 72
     1
 77
     1
171
     1
175
     1
179
     1
273
     0
  0
ENDSEC
  0
EOF
