  0
SECTION
  2
HEADER
  9
$ACADVER
  1
AC1006
  9
$DWGCODEPAGE
  3
ansi_932
  9
$INSBASE
 10
0.0
 20
0.0
 30
0.0
  9
$EXTMIN
 10
-3629.68016
 20
-790.676621
  9
$EXTMAX
 10
6.956136363636363
 20
5.686136363636363
  9
$LIMMIN
 10
0.0
 20
0.0
  9
$LIMMAX
 10
12.0
 20
9.0
  9
$ORTHOMODE
 70
     0
  9
$REGENMODE
 70
     1
  9
$FILLMODE
 70
     1
  9
$QTEXTMODE
 70
     0
  9
$MIRRTEXT
 70
     1
  9
$DRAGMODE
 70
     2
  9
$LTSCALE
 40
1.0
  9
$OSMODE
 70
    37
  9
$ATTMODE
 70
     1
  9
$TEXTSIZE
 40
0.2
  9
$TRACEWID
 40
0.05
  9
$TEXTSTYLE
  7
STANDARD
  9
$CLAYER
  8
0
  9
$CELTYPE
  6
BYLAYER
  9
$CECOLOR
 62
   256
  9
$DIMSCALE
 40
1.0
  9
$DIMASZ
 40
1.4
  9
$DIMEXO
 40
0.0625
  9
$DIMDLI
 40
0.38
  9
$DIMRND
 40
0.0
  9
$DIMDLE
 40
0.0
  9
$DIMEXE
 40
0.7
  9
$DIMTP
 40
0.0
  9
$DIMTM
 40
0.0
  9
$DIMTXT
 40
3.5
  9
$DIMCEN
 40
0.09
  9
$DIMTSZ
 40
0.0
  9
$DIMTOL
 70
     0
  9
$DIMLIM
 70
     0
  9
$DIMTIH
 70
     1
  9
$DIMTOH
 70
     1
  9
$DIMSE1
 70
     0
  9
$DIMSE2
 70
     0
  9
$DIMTAD
 70
     1
  9
$DIMZIN
 70
     0
  9
$DIMBLK
  1

  9
$DIMASO
 70
     1
  9
$DIMSHO
 70
     1
  9
$DIMPOST
  1

  9
$DIMAPOST
  1

  9
$DIMALT
 70
     0
  9
$DIMALTD
 70
     2
  9
$DIMALTF
 40
25.4
  9
$DIMLFAC
 40
1.0
  9
$DIMTOFL
 70
     0
  9
$DIMTVP
 40
0.0
  9
$DIMTIX
 70
     0
  9
$DIMSOXD
 70
     0
  9
$DIMSAH
 70
     0
  9
$DIMBLK1
  1

  9
$DIMBLK2
  1

  9
$LUNITS
 70
     2
  9
$LUPREC
 70
     4
  9
$SKETCHINC
 40
0.1
  9
$FILLETRAD
 40
0.5
  9
$AUNITS
 70
     0
  9
$AUPREC
 70
     0
  9
$MENU
  1
.
  9
$ELEVATION
 40
0.0
  9
$THICKNESS
 40
0.0
  9
$LIMCHECK
 70
     0
  9
$CHAMFERA
 40
0.0
  9
$CHAMFERB
 40
0.0
  9
$SKPOLY
 70
     0
  9
$TDCREATE
 40
2459514.479752986
  9
$TDUPDATE
 40
2459514.479753171
  9
$TDINDWG
 40
0.0000000116
  9
$TDUSRTIMER
 40
0.0000000116
  9
$USRTIMER
 70
     1
  9
$ANGBASE
 50
0.0
  9
$ANGDIR
 70
     0
  9
$PDMODE
 70
     0
  9
$PDSIZE
 40
0.0
  9
$PLINEWID
 40
0.0
  9
$COORDS
 70
     1
  9
$SPLFRAME
 70
     0
  9
$SPLINETYPE
 70
     6
  9
$SPLINESEGS
 70
     8
  9
$ATTDIA
 70
     0
  9
$ATTREQ
 70
     1
  9
$HANDLING
 70
     1
  9
$HANDSEED
  5
181
  9
$SURFTAB1
 70
     6
  9
$SURFTAB2
 70
     6
  9
$SURFTYPE
 70
     6
  9
$SURFU
 70
     6
  9
$SURFV
 70
     6
  9
$UCSNAME
  2

  9
$UCSORG
 10
0.0
 20
0.0
 30
0.0
  9
$UCSXDIR
 10
1.0
 20
0.0
 30
0.0
  9
$UCSYDIR
 10
0.0
 20
1.0
 30
0.0
  9
$USERI1
 70
     0
  9
$USERI2
 70
     0
  9
$USERI3
 70
     0
  9
$USERI4
 70
     0
  9
$USERI5
 70
     0
  9
$USERR1
 40
0.0
  9
$USERR2
 40
0.0
  9
$USERR3
 40
0.0
  9
$USERR4
 40
0.0
  9
$USERR5
 40
0.0
  9
$WORLDVIEW
 70
     1
  0
ENDSEC
  0
SECTION
  2
TABLES
  0
TABLE
  2
VPORT
 70
     1
  0
VPORT
  2
*ACTIVE
 70
     0
 10
0.0
 20
0.0
 11
1.0
 21
1.0
 12
-1811.362011818182
 22
-392.4952423181818
 13
0.0
 23
0.0
 14
0.5
 24
0.5
 15
0.5
 25
0.5
 16
0.0
 26
0.0
 36
1.0
 17
0.0
 27
0.0
 37
0.0
 40
796.3627573636363
 41
1.6
 42
50.0
 43
0.0
 44
0.0
 50
0.0
 51
0.0
 71
     0
 72
   100
 73
     1
 74
     3
 75
     0
 76
     0
 77
     0
 78
     0
  0
ENDTAB
  0
TABLE
  2
LTYPE
 70
     2
  0
LTYPE
  2
CONTINUOUS
 70
     0
  3
Solid line
 72
    65
 73
     0
 40
0.0
  0
LTYPE
  2
CENTER
 70
     0
  3

 72
    65
 73
     0
 40
0.0
  0
ENDTAB
  0
TABLE
  2
LAYER
 70
     1
  0
LAYER
  2
0
 70
     0
 62
     7
  6
CONTINUOUS
  0
ENDTAB
  0
TABLE
  2
STYLE
 70
     2
  0
STYLE
  2
STANDARD
 70
     0
 40
0.0
 41
1.0
 50
0.0
 71
     0
 42
0.2
  3
txt
  4

  0
STYLE
  2
ＭＳ_ゴシック
 70
     0
 40
0.0
 41
1.0
 50
0.0
 71
     0
 42
0.2
  3
ＭＳ ゴシック.shx
  4

  0
ENDTAB
  0
TABLE
  2
VIEW
 70
     0
  0
ENDTAB
  0
TABLE
  2
UCS
 70
     0
  0
ENDTAB
  0
ENDSEC
  0
SECTION
  2
BLOCKS
  0
BLOCK
  8
0
  2
D_FRAME_DRAWING_21
 70
     0
 10
0.0
 20
0.0
 30
0.0
  0
LINE
  5
71
  8
0
  6
CONTINUOUS
 62
     7
 10
0.0
 20
0.0
 30
0.0
 11
420.0
 21
0.0
 31
0.0
  0
LINE
  5
72
  8
0
  6
CONTINUOUS
 62
     7
 10
420.0
 20
0.0
 30
0.0
 11
420.0
 21
297.0
 31
0.0
  0
LINE
  5
73
  8
0
  6
CONTINUOUS
 62
     7
 10
420.0
 20
297.0
 30
0.0
 11
0.0
 21
297.0
 31
0.0
  0
LINE
  5
74
  8
0
  6
CONTINUOUS
 62
     7
 10
0.0
 20
297.0
 30
0.0
 11
0.0
 21
0.0
 31
0.0
  0
LINE
  5
75
  8
0
  6
CONTINUOUS
 62
     7
 10
10.0
 20
10.0
 30
0.0
 11
409.9999999999999
 21
10.0
 31
0.0
  0
LINE
  5
76
  8
0
  6
CONTINUOUS
 62
     7
 10
409.9999999999999
 20
10.0
 30
0.0
 11
409.9999999999999
 21
286.9999999999999
 31
0.0
  0
LINE
  5
77
  8
0
  6
CONTINUOUS
 62
     7
 10
409.9999999999999
 20
286.9999999999999
 30
0.0
 11
10.00000000000006
 21
286.9999999999999
 31
0.0
  0
LINE
  5
78
  8
0
  6
CONTINUOUS
 62
     7
 10
10.0
 20
286.9999999999999
 30
0.0
 11
10.0
 21
10.00000000000001
 31
0.0
  0
LINE
  5
79
  8
0
  6
CONTINUOUS
 62
     7
 10
210.0
 20
0.0
 30
0.0
 11
210.0
 21
10.0
 31
0.0
  0
LINE
  5
7A
  8
0
  6
CONTINUOUS
 62
     7
 10
420.0
 20
148.5
 30
0.0
 11
409.9999999999999
 21
148.5
 31
0.0
  0
LINE
  5
7B
  8
0
  6
CONTINUOUS
 62
     7
 10
210.0
 20
297.0
 30
0.0
 11
210.0
 21
286.9999999999999
 31
0.0
  0
LINE
  5
7C
  8
0
  6
CONTINUOUS
 62
     7
 10
0.0
 20
148.5
 30
0.0
 11
10.0
 21
148.5
 31
0.0
  0
POLYLINE
  5
7D
  8
0
  6
CONTINUOUS
 62
     7
 66
     1
 10
0.0
 20
0.0
 30
0.0
 70
     1
  0
VERTEX
  5
152
  8
0
  6
CONTINUOUS
 62
     7
 10
11.0
 20
152.5
 30
0.0
  0
VERTEX
  5
153
  8
0
  6
CONTINUOUS
 62
     7
 10
0.0
 20
148.5
 30
0.0
  0
VERTEX
  5
154
  8
0
  6
CONTINUOUS
 62
     7
 10
11.0
 20
144.5
 30
0.0
  0
VERTEX
  5
155
  8
0
  6
CONTINUOUS
 62
     7
 10
11.0
 20
152.5
 30
0.0
  0
SEQEND
  5
17F
  8
0
  6
CONTINUOUS
 62
     7
  0
INSERT
  5
7E
  8
0
 62
     7
  2
*U2
 10
0.0
 20
0.0
 30
0.0
  0
POLYLINE
  5
7F
  8
0
  6
CONTINUOUS
 62
     7
 66
     1
 10
0.0
 20
0.0
 30
0.0
 70
     1
  0
VERTEX
  5
158
  8
0
  6
CONTINUOUS
 62
     7
 10
206.0
 20
11.0
 30
0.0
  0
VERTEX
  5
159
  8
0
  6
CONTINUOUS
 62
     7
 10
210.0
 20
0.0
 30
0.0
  0
VERTEX
  5
15A
  8
0
  6
CONTINUOUS
 62
     7
 10
214.0
 20
11.0
 30
0.0
  0
VERTEX
  5
15B
  8
0
  6
CONTINUOUS
 62
     7
 10
206.0
 20
11.0
 30
0.0
  0
SEQEND
  5
180
  8
0
  6
CONTINUOUS
 62
     7
  0
INSERT
  5
80
  8
0
 62
     7
  2
*U3
 10
0.0
 20
0.0
 30
0.0
  0
LINE
  5
81
  8
0
  6
CONTINUOUS
 62
     7
 10
367.5
 20
286.9999999999999
 30
0.0
 11
367.5
 21
292.0
 31
0.0
  0
TEXT
  5
82
  8
0
  6
CONTINUOUS
 62
     7
 10
391.6340909090909
 20
291.8324293485057
 30
0.0
 40
3.5
  1
A
 50
270.0
  0
LINE
  5
83
  8
0
  6
CONTINUOUS
 62
     7
 10
367.5
 20
10.0
 30
0.0
 11
367.5
 21
5.0
 31
0.0
  0
TEXT
  5
84
  8
0
  6
CONTINUOUS
 62
     7
 10
392.9868888333125
 20
4.602272727272727
 30
0.0
 40
3.5
  1
A
  0
LINE
  5
85
  8
0
  6
CONTINUOUS
 62
     7
 10
315.0
 20
286.9999999999999
 30
0.0
 11
315.0
 21
292.0
 31
0.0
  0
TEXT
  5
86
  8
0
  6
CONTINUOUS
 62
     7
 10
339.1340909090909
 20
291.9745607727899
 30
0.0
 40
3.5
  1
B
 50
270.0
  0
LINE
  5
87
  8
0
  6
CONTINUOUS
 62
     7
 10
315.0
 20
10.0
 30
0.0
 11
315.0
 21
5.0
 31
0.0
  0
TEXT
  5
88
  8
0
  6
CONTINUOUS
 62
     7
 10
340.3447574090284
 20
4.602272727272727
 30
0.0
 40
3.5
  1
B
  0
LINE
  5
89
  8
0
  6
CONTINUOUS
 62
     7
 10
262.5
 20
286.9999999999999
 30
0.0
 11
262.5
 21
292.0
 31
0.0
  0
TEXT
  5
8A
  8
0
  6
CONTINUOUS
 62
     7
 10
286.6327779167187
 20
291.9399305989747
 30
0.0
 40
3.5
  1
C
 50
270.0
  0
LINE
  5
8B
  8
0
  6
CONTINUOUS
 62
     7
 10
262.5
 20
10.0
 30
0.0
 11
262.5
 21
5.0
 31
0.0
  0
TEXT
  5
8C
  8
0
  6
CONTINUOUS
 62
     7
 10
287.8793875828435
 20
4.600959734900587
 30
0.0
 40
3.5
  1
C
  0
LINE
  5
8D
  8
0
  6
CONTINUOUS
 62
     7
 10
210.0
 20
286.9999999999999
 30
0.0
 11
210.0
 21
292.0
 31
0.0
  0
TEXT
  5
8E
  8
0
  6
CONTINUOUS
 62
     7
 10
234.1340909090909
 20
291.9745607727898
 30
0.0
 40
3.5
  1
D
 50
270.0
  0
LINE
  5
8F
  8
0
  6
CONTINUOUS
 62
     7
 10
157.5
 20
286.9999999999999
 30
0.0
 11
157.5
 21
292.0
 31
0.0
  0
TEXT
  5
90
  8
0
  6
CONTINUOUS
 62
     7
 10
181.6327779167188
 20
292.027463423784
 30
0.0
 40
3.5
  1
E
 50
270.0
  0
LINE
  5
91
  8
0
  6
CONTINUOUS
 62
     7
 10
157.5
 20
10.0
 30
0.0
 11
157.5
 21
5.0
 31
0.0
  0
LINE
  5
92
  8
0
  6
CONTINUOUS
 62
     7
 10
105.0
 20
286.9999999999999
 30
0.0
 11
105.0
 21
292.0
 31
0.0
  0
TEXT
  5
93
  8
0
  6
CONTINUOUS
 62
     7
 10
129.1327779167188
 20
291.9924502938602
 30
0.0
 40
3.5
  1
F
 50
270.0
  0
LINE
  5
94
  8
0
  6
CONTINUOUS
 62
     7
 10
105.0
 20
10.0
 30
0.0
 11
105.0
 21
5.0
 31
0.0
  0
TEXT
  5
95
  8
0
  6
CONTINUOUS
 62
     7
 10
130.326867887958
 20
4.600959734900587
 30
0.0
 40
3.5
  1
F
  0
LINE
  5
96
  8
0
  6
CONTINUOUS
 62
     7
 10
52.50000000000004
 20
286.9999999999999
 30
0.0
 11
52.50000000000004
 21
292.0
 31
0.0
  0
TEXT
  5
97
  8
0
  6
CONTINUOUS
 62
     7
 10
76.6327779167188
 20
291.9399305989746
 30
0.0
 40
3.5
  1
G
 50
270.0
  0
LINE
  5
98
  8
0
  6
CONTINUOUS
 62
     7
 10
52.50000000000004
 20
10.0
 30
0.0
 11
52.50000000000004
 21
5.0
 31
0.0
  0
TEXT
  5
99
  8
0
  6
CONTINUOUS
 62
     7
 10
77.8793875828436
 20
4.600959734900587
 30
0.0
 40
3.5
  1
G
  0
TEXT
  5
9A
  8
0
  6
CONTINUOUS
 62
     7
 10
24.13277791671879
 20
291.9749437288983
 30
0.0
 40
3.5
  1
H
 50
270.0
  0
TEXT
  5
9B
  8
0
  6
CONTINUOUS
 62
     7
 10
25.34437445291988
 20
4.600959734900587
 30
0.0
 40
3.5
  1
H
  0
LINE
  5
9C
  8
0
  6
CONTINUOUS
 62
     7
 10
409.9999999999999
 20
74.25
 30
0.0
 11
414.9999999999999
 21
74.25
 31
0.0
  0
TEXT
  5
9D
  8
0
  6
CONTINUOUS
 62
     7
 10
412.9326059772414
 20
35.00777791671877
 30
0.0
 40
3.5
  1
1
  0
LINE
  5
9E
  8
0
  6
CONTINUOUS
 62
     7
 10
10.0
 20
74.25
 30
0.0
 11
5.0
 21
74.25
 31
0.0
  0
TEXT
  5
9F
  8
0
  6
CONTINUOUS
 62
     7
 10
4.600959734900584
 20
38.26171220457671
 30
0.0
 40
3.5
  1
1
 50
270.0
  0
LINE
  5
A0
  8
0
  6
CONTINUOUS
 62
     7
 10
409.9999999999999
 20
148.5
 30
0.0
 11
414.9999999999999
 21
148.5
 31
0.0
  0
TEXT
  5
A1
  8
0
  6
CONTINUOUS
 62
     7
 10
413.163692634738
 20
109.2577779167188
 30
0.0
 40
3.5
  1
2
  0
LINE
  5
A2
  8
0
  6
CONTINUOUS
 62
     7
 10
10.0
 20
148.5
 30
0.0
 11
5.0
 21
148.5
 31
0.0
  0
TEXT
  5
A3
  8
0
  6
CONTINUOUS
 62
     7
 10
4.600959734900599
 20
112.2806255470802
 30
0.0
 40
3.5
  1
2
 50
270.0
  0
LINE
  5
A4
  8
0
  6
CONTINUOUS
 62
     7
 10
409.9999999999999
 20
222.75
 30
0.0
 11
414.9999999999999
 21
222.75
 31
0.0
  0
TEXT
  5
A5
  8
0
  6
CONTINUOUS
 62
     7
 10
413.1811991996998
 20
183.5077779167188
 30
0.0
 40
3.5
  1
3
  0
LINE
  5
A6
  8
0
  6
CONTINUOUS
 62
     7
 10
10.0
 20
222.75
 30
0.0
 11
5.0
 21
222.75
 31
0.0
  0
TEXT
  5
A7
  8
0
  6
CONTINUOUS
 62
     7
 10
4.600959734900584
 20
186.5131189821183
 30
0.0
 40
3.5
  1
3
 50
270.0
  0
TEXT
  5
A8
  8
0
  6
CONTINUOUS
 62
     7
 10
413.2351413029886
 20
257.7590909090909
 30
0.0
 40
3.5
  1
4
  0
TEXT
  5
A9
  8
0
  6
CONTINUOUS
 62
     7
 10
4.60227272727272
 20
260.7091768788295
 30
0.0
 40
3.5
  1
4
 50
270.0
  0
LINE
  5
AA
  8
0
  6
CONTINUOUS
 62
     7
 10
220.0
 20
10.0
 30
0.0
 11
220.0
 21
7.0
 31
0.0
  0
LINE
  5
AB
  8
0
  6
CONTINUOUS
 62
     7
 10
200.0
 20
10.0
 30
0.0
 11
200.0
 21
7.0
 31
0.0
  0
LINE
  5
AC
  8
0
  6
CONTINUOUS
 62
     7
 10
230.0
 20
10.0
 30
0.0
 11
230.0
 21
7.0
 31
0.0
  0
LINE
  5
AD
  8
0
  6
CONTINUOUS
 62
     7
 10
190.0
 20
10.0
 30
0.0
 11
190.0
 21
7.0
 31
0.0
  0
LINE
  5
AE
  8
0
  6
CONTINUOUS
 62
     7
 10
240.0
 20
10.0
 30
0.0
 11
240.0
 21
7.0
 31
0.0
  0
LINE
  5
AF
  8
0
  6
CONTINUOUS
 62
     7
 10
180.0
 20
10.0
 30
0.0
 11
180.0
 21
7.0
 31
0.0
  0
LINE
  5
B0
  8
0
  6
CONTINUOUS
 62
     7
 10
250.0
 20
10.0
 30
0.0
 11
250.0
 21
7.0
 31
0.0
  0
LINE
  5
B1
  8
0
  6
CONTINUOUS
 62
     7
 10
170.0
 20
10.0
 30
0.0
 11
170.0
 21
7.0
 31
0.0
  0
LINE
  5
B2
  8
0
  6
CONTINUOUS
 62
     7
 10
260.0
 20
10.0
 30
0.0
 11
260.0
 21
5.0
 31
0.0
  0
LINE
  5
B3
  8
0
  6
CONTINUOUS
 62
     7
 10
160.0
 20
10.0
 30
0.0
 11
160.0
 21
5.0
 31
0.0
  0
LINE
  5
B4
  8
0
  6
CONTINUOUS
 62
     7
 10
260.0
 20
10.0
 30
0.0
 11
160.0
 21
10.0
 31
0.0
  0
LINE
  5
B5
  8
0
  6
CONTINUOUS
 62
     7
 10
260.0
 20
7.0
 30
0.0
 11
160.0
 21
7.0
 31
0.0
  0
INSERT
  5
B6
  8
0
 62
     7
  2
*U4
 10
0.0
 20
0.0
 30
0.0
  0
INSERT
  5
B7
  8
0
 62
     7
  2
*U5
 10
0.0
 20
0.0
 30
0.0
  0
INSERT
  5
B8
  8
0
 62
     7
  2
*U6
 10
0.0
 20
0.0
 30
0.0
  0
INSERT
  5
B9
  8
0
 62
     7
  2
*U7
 10
0.0
 20
0.0
 30
0.0
  0
ENDBLK
  8
0
  0
BLOCK
  8
0
  2
*U2
 70
     1
 10
0.0
 20
0.0
 30
0.0
  0
SOLID
  5
157
  8
0
  6
CONTINUOUS
 62
     7
 10
11.0
 20
144.5
 30
0.0
 11
6.999999999999999
 21
148.5
 31
0.0
 12
11.0
 22
152.5
 32
0.0
 13
11.0
 23
152.5
 33
0.0
  0
ENDBLK
  8
0
  0
BLOCK
  8
0
  2
*U3
 70
     1
 10
0.0
 20
0.0
 30
0.0
  0
SOLID
  5
15D
  8
0
  6
CONTINUOUS
 62
     7
 10
210.0
 20
6.999999999999999
 30
0.0
 11
206.0
 21
11.0
 31
0.0
 12
210.0
 22
11.0
 32
0.0
 13
210.0
 23
11.0
 33
0.0
  0
SOLID
  5
15E
  8
0
  6
CONTINUOUS
 62
     7
 10
210.0
 20
6.999999999999999
 30
0.0
 11
210.0
 21
11.0
 31
0.0
 12
214.0
 22
11.0
 32
0.0
 13
214.0
 23
11.0
 33
0.0
  0
ENDBLK
  8
0
  0
BLOCK
  8
0
  2
*U4
 70
     1
 10
0.0
 20
0.0
 30
0.0
  0
SOLID
  5
160
  8
0
  6
CONTINUOUS
 62
     7
 10
0.0
 20
0.0
 30
0.0
 11
0.0
 21
10.0
 31
0.0
 12
2.0
 22
0.0
 32
0.0
 13
2.0
 23
0.0
 33
0.0
  0
SOLID
  5
161
  8
0
  6
CONTINUOUS
 62
     7
 10
2.0
 20
0.0
 30
0.0
 11
0.0
 21
10.0
 31
0.0
 12
2.0
 22
10.0
 32
0.0
 13
2.0
 23
10.0
 33
0.0
  0
SOLID
  5
162
  8
0
  6
CONTINUOUS
 62
     7
 10
2.0
 20
0.0
 30
0.0
 11
2.0
 21
2.0
 31
0.0
 12
10.0
 22
0.0
 32
0.0
 13
10.0
 23
0.0
 33
0.0
  0
SOLID
  5
163
  8
0
  6
CONTINUOUS
 62
     7
 10
10.0
 20
0.0
 30
0.0
 11
2.0
 21
2.0
 31
0.0
 12
10.0
 22
2.0
 32
0.0
 13
10.0
 23
2.0
 33
0.0
  0
ENDBLK
  8
0
  0
BLOCK
  8
0
  2
*U5
 70
     1
 10
0.0
 20
0.0
 30
0.0
  0
SOLID
  5
165
  8
0
  6
CONTINUOUS
 62
     7
 10
409.9999999999999
 20
0.0
 30
0.0
 11
409.9999999999999
 21
2.0
 31
0.0
 12
418.0
 22
0.0
 32
0.0
 13
418.0
 23
0.0
 33
0.0
  0
SOLID
  5
166
  8
0
  6
CONTINUOUS
 62
     7
 10
418.0
 20
0.0
 30
0.0
 11
409.9999999999999
 21
2.0
 31
0.0
 12
418.0
 22
2.0
 32
0.0
 13
418.0
 23
2.0
 33
0.0
  0
SOLID
  5
167
  8
0
  6
CONTINUOUS
 62
     7
 10
418.0
 20
0.0
 30
0.0
 11
418.0
 21
10.0
 31
0.0
 12
420.0
 22
0.0
 32
0.0
 13
420.0
 23
0.0
 33
0.0
  0
SOLID
  5
168
  8
0
  6
CONTINUOUS
 62
     7
 10
420.0
 20
0.0
 30
0.0
 11
418.0
 21
10.0
 31
0.0
 12
420.0
 22
10.0
 32
0.0
 13
420.0
 23
10.0
 33
0.0
  0
ENDBLK
  8
0
  0
BLOCK
  8
0
  2
*U6
 70
     1
 10
0.0
 20
0.0
 30
0.0
  0
SOLID
  5
16A
  8
0
  6
CONTINUOUS
 62
     7
 10
409.9999999999999
 20
295.0
 30
0.0
 11
409.9999999999999
 21
297.0
 31
0.0
 12
418.0
 22
295.0
 32
0.0
 13
418.0
 23
295.0
 33
0.0
  0
SOLID
  5
16B
  8
0
  6
CONTINUOUS
 62
     7
 10
418.0
 20
295.0
 30
0.0
 11
409.9999999999999
 21
297.0
 31
0.0
 12
418.0
 22
297.0
 32
0.0
 13
418.0
 23
297.0
 33
0.0
  0
SOLID
  5
16C
  8
0
  6
CONTINUOUS
 62
     7
 10
418.0
 20
286.9999999999999
 30
0.0
 11
418.0
 21
297.0
 31
0.0
 12
420.0
 22
286.9999999999999
 32
0.0
 13
420.0
 23
286.9999999999999
 33
0.0
  0
SOLID
  5
16D
  8
0
  6
CONTINUOUS
 62
     7
 10
420.0
 20
286.9999999999999
 30
0.0
 11
418.0
 21
297.0
 31
0.0
 12
420.0
 22
297.0
 32
0.0
 13
420.0
 23
297.0
 33
0.0
  0
ENDBLK
  8
0
  0
BLOCK
  8
0
  2
*U7
 70
     1
 10
0.0
 20
0.0
 30
0.0
  0
SOLID
  5
16F
  8
0
  6
CONTINUOUS
 62
     7
 10
0.0
 20
286.9999999999999
 30
0.0
 11
0.0
 21
297.0
 31
0.0
 12
2.0
 22
286.9999999999999
 32
0.0
 13
2.0
 23
286.9999999999999
 33
0.0
  0
SOLID
  5
170
  8
0
  6
CONTINUOUS
 62
     7
 10
2.0
 20
286.9999999999999
 30
0.0
 11
0.0
 21
297.0
 31
0.0
 12
2.0
 22
297.0
 32
0.0
 13
2.0
 23
297.0
 33
0.0
  0
SOLID
  5
171
  8
0
  6
CONTINUOUS
 62
     7
 10
2.0
 20
295.0
 30
0.0
 11
2.0
 21
297.0
 31
0.0
 12
10.0
 22
295.0
 32
0.0
 13
10.0
 23
295.0
 33
0.0
  0
SOLID
  5
172
  8
0
  6
CONTINUOUS
 62
     7
 10
10.0
 20
295.0
 30
0.0
 11
2.0
 21
297.0
 31
0.0
 12
10.0
 22
297.0
 32
0.0
 13
10.0
 23
297.0
 33
0.0
  0
ENDBLK
  8
0
  0
ENDSEC
  0
SECTION
  2
ENTITIES
  0
INSERT
  5
70
  8
0
 62
     7
  2
D_FRAME_DRAWING_21
 10
0.0
 20
0.0
 30
0.0
  0
LINE
  5
BA
  8
0
  6
CONTINUOUS
 62
     7
 10
-3445.591837
 20
-751.972178
 30
0.0
 11
-3345.974609
 21
-751.972178
 31
0.0
  0
LINE
  5
BB
  8
0
  6
CONTINUOUS
 62
     7
 10
-3434.091836
 20
-747.972178
 30
0.0
 11
-3434.091836
 21
-748.921668
 31
0.0
  0
LINE
  5
BC
  8
0
  6
CONTINUOUS
 62
     7
 10
-3315.520113
 20
-685.972178
 30
0.0
 11
-3315.520113
 21
-695.972178
 31
0.0
  0
LINE
  5
BD
  8
0
  6
CONTINUOUS
 62
     7
 10
-3343.591827
 20
-739.972178
 30
0.0
 11
-3344.982331
 21
-751.096213
 31
0.0
  0
LINE
  5
BE
  8
0
  6
CONTINUOUS
 62
     7
 10
-3427.591836
 20
-741.47217
 30
0.0
 11
-3439.591836
 21
-741.47217
 31
0.0
  0
ARC
  5
BF
  8
0
  6
CONTINUOUS
 62
     7
 10
-3435.091836
 20
-747.972178
 30
0.0
 40
1.0
 50
0.0
 51
90.0
  0
LINE
  5
C0
  8
0
  6
CONTINUOUS
 62
     7
 10
-3313.283411
 20
-746.972178
 30
0.0
 11
-3308.091827
 21
-746.972178
 31
0.0
  0
ARC
  5
C1
  8
0
  6
CONTINUOUS
 62
     7
 10
-3435.091836
 20
-744.972178
 30
0.0
 40
1.0
 50
270.0
 51
0.0
  0
LINE
  5
C2
  8
0
  6
CONTINUOUS
 62
     7
 10
-3343.591827
 20
-739.972178
 30
0.0
 11
-3315.591827
 21
-739.972178
 31
0.0
  0
ARC
  5
C3
  8
0
  6
CONTINUOUS
 62
     7
 10
-3432.341836
 20
-746.472178
 30
0.0
 40
4.75
 50
270.0
 51
0.0
  0
LINE
  5
C4
  8
0
  6
CONTINUOUS
 62
     7
 10
-3434.841836
 20
-751.222178
 30
0.0
 11
-3432.341836
 21
-751.222178
 31
0.0
  0
LINE
  5
C5
  8
0
  6
CONTINUOUS
 62
     7
 10
-3445.591837
 20
-739.367058
 30
0.0
 11
-3440.591836
 21
-739.367058
 31
0.0
  0
CIRCLE
  5
C6
  8
0
  6
CONTINUOUS
 62
     7
 10
-3433.591836
 20
-746.472178
 30
0.0
 40
4.5
  0
ARC
  5
C7
  8
0
  6
CONTINUOUS
 62
     7
 10
-3433.591836
 20
-746.472178
 30
0.0
 40
2.5
 50
78.463041
 51
101.536959
  0
LINE
  5
C8
  8
0
  6
CONTINUOUS
 62
     7
 10
-3435.091836
 20
-745.972178
 30
0.0
 11
-3438.063972
 21
-745.972178
 31
0.0
  0
CIRCLE
  5
C9
  8
0
  6
CONTINUOUS
 62
     7
 10
-3564.586297
 20
-690.972178
 30
0.0
 40
38.5
  0
LINE
  5
CA
  8
0
  6
CONTINUOUS
 62
     7
 10
-3315.520113
 20
-685.972178
 30
0.0
 11
-3320.591827
 21
-685.972178
 31
0.0
  0
ARC
  5
CB
  8
0
  6
CONTINUOUS
 62
     7
 10
-3345.974609
 20
-750.972178
 30
0.0
 40
1.0
 50
270.0
 51
352.874984
  0
ARC
  5
CC
  8
0
  6
CONTINUOUS
 62
     7
 10
-3434.841836
 20
-746.472178
 30
0.0
 40
4.75
 50
180.0
 51
270.0
  0
LINE
  5
CD
  8
0
  6
CONTINUOUS
 62
     7
 10
-3427.591836
 20
-733.47217
 30
0.0
 11
-3439.591836
 21
-733.47217
 31
0.0
  0
LINE
  5
CE
  8
0
  6
CONTINUOUS
 62
     7
 10
-3435.091836
 20
-746.972178
 30
0.0
 11
-3438.063972
 21
-746.972178
 31
0.0
  0
ARC
  5
CF
  8
0
  6
CONTINUOUS
 62
     7
 10
-3432.091836
 20
-744.972178
 30
0.0
 40
1.0
 50
180.0
 51
270.0
  0
LINE
  5
D0
  8
0
  6
CONTINUOUS
 62
     7
 10
-3315.591827
 20
-739.972178
 30
0.0
 11
-3315.591827
 21
-695.972178
 31
0.0
  0
LINE
  5
D1
  8
0
  6
CONTINUOUS
 62
     7
 10
-3432.091836
 20
-745.972178
 30
0.0
 11
-3429.1197
 21
-745.972178
 31
0.0
  0
ARC
  5
D2
  8
0
  6
CONTINUOUS
 62
     7
 10
-3432.091836
 20
-747.972178
 30
0.0
 40
1.0
 50
90.0
 51
180.0
  0
LINE
  5
D3
  8
0
  6
CONTINUOUS
 62
     7
 10
-3433.091836
 20
-744.972178
 30
0.0
 11
-3433.091836
 21
-744.022688
 31
0.0
  0
LINE
  5
D4
  8
0
  6
CONTINUOUS
 62
     7
 10
-3315.520113
 20
-695.972178
 30
0.0
 11
-3320.591827
 21
-695.972178
 31
0.0
  0
LINE
  5
D5
  8
0
  6
CONTINUOUS
 62
     7
 10
-3314.261214
 20
-746.181707
 30
0.0
 11
-3315.591827
 21
-739.972178
 31
0.0
  0
ARC
  5
D6
  8
0
  6
CONTINUOUS
 62
     7
 10
-3313.283411
 20
-745.972178
 30
0.0
 40
1.0
 50
192.094757
 51
270.0
  0
ARC
  5
D7
  8
0
  6
CONTINUOUS
 62
     7
 10
-3440.591836
 20
-740.367058
 30
0.0
 40
1.0
 50
0.0
 51
90.0
  0
LINE
  5
D8
  8
0
  6
CONTINUOUS
 62
     7
 10
-3315.591827
 20
-711.268643
 30
0.0
 11
-3343.591827
 21
-711.268643
 31
0.0
  0
ARC
  5
D9
  8
0
  6
CONTINUOUS
 62
     7
 10
-3433.591836
 20
-746.472178
 30
0.0
 40
2.5
 50
258.463041
 51
281.536959
  0
LINE
  5
DA
  8
0
  6
CONTINUOUS
 62
     7
 10
-3433.091836
 20
-747.972178
 30
0.0
 11
-3433.091836
 21
-748.921668
 31
0.0
  0
LINE
  5
DB
  8
0
  6
CONTINUOUS
 62
     7
 10
-3434.091836
 20
-744.972178
 30
0.0
 11
-3434.091836
 21
-744.022688
 31
0.0
  0
LINE
  5
DC
  8
0
  6
CONTINUOUS
 62
     7
 10
-3432.091836
 20
-746.972178
 30
0.0
 11
-3429.1197
 21
-746.972178
 31
0.0
  0
CIRCLE
  5
DD
  8
0
  6
CONTINUOUS
 62
     7
 10
-3320.591827
 20
-690.972178
 30
0.0
 40
3.25
  0
ARC
  5
DE
  8
0
  6
CONTINUOUS
 62
     7
 10
-3313.283411
 20
-635.972178
 30
0.0
 40
1.0
 50
90.0
 51
167.905243
  0
LINE
  5
DF
  8
0
  6
CENTER
 62
     1
 10
-3445.950114
 20
-690.972178
 30
0.0
 11
-3302.737722
 21
-690.972178
 31
0.0
  0
ARC
  5
E1
  8
0
  6
CONTINUOUS
 62
     7
 10
-3516.645779
 20
-649.007245
 30
0.0
 40
2.0
 50
125.0
 51
206.55564
  0
ARC
  5
E2
  8
0
  6
CONTINUOUS
 62
     7
 10
-3509.586298
 20
-639.24113
 30
0.0
 40
10.0
 50
345.963757
 51
0.0
  0
ARC
  5
E3
  8
0
  6
CONTINUOUS
 62
     7
 10
-3498.786298
 20
-744.472178
 30
0.0
 40
2.5
 50
0.0
 51
90.0
  0
ARC
  5
E4
  8
0
  6
CONTINUOUS
 62
     7
 10
-3509.586297
 20
-742.763312
 30
0.0
 40
2.0
 50
0.0
 51
55.00000000000001
  0
LINE
  5
E5
  8
0
  6
CONTINUOUS
 62
     7
 10
-3498.786298
 20
-750.972178
 30
0.0
 11
-3499.586298
 21
-750.972178
 31
0.0
  0
LINE
  5
E6
  8
0
  6
CONTINUOUS
 62
     7
 10
-3496.286298
 20
-637.472178
 30
0.0
 11
-3496.286298
 21
-633.472178
 31
0.0
  0
LINE
  5
E7
  8
0
  6
CONTINUOUS
 62
     7
 10
-3308.091827
 20
-746.972178
 30
0.0
 11
-3308.091827
 21
-634.972178
 31
0.0
  0
LINE
  5
E8
  8
0
  6
CONTINUOUS
 62
     7
 10
-3345.091827
 20
-751.379657
 30
0.0
 11
-3345.091827
 21
-630.564699
 31
0.0
  0
LINE
  5
E9
  8
0
  6
CONTINUOUS
 62
     7
 10
-3314.261214
 20
-635.762649
 30
0.0
 11
-3315.591827
 21
-641.972178
 31
0.0
  0
LINE
  5
EA
  8
0
  6
CONTINUOUS
 62
     7
 10
-3498.786298
 20
-741.972178
 30
0.0
 11
-3499.586298
 21
-741.972178
 31
0.0
  0
ARC
  5
EB
  8
0
  6
CONTINUOUS
 62
     7
 10
-3434.841836
 20
-635.472178
 30
0.0
 40
4.75
 50
90.0
 51
180.0
  0
LINE
  5
EC
  8
0
  6
CONTINUOUS
 62
     7
 10
-3498.786298
 20
-639.972178
 30
0.0
 11
-3499.586298
 21
-639.972178
 31
0.0
  0
LINE
  5
ED
  8
0
  6
CONTINUOUS
 62
     7
 10
-3445.591837
 20
-629.972178
 30
0.0
 11
-3345.974609
 21
-629.972178
 31
0.0
  0
LINE
  5
EE
  8
0
  6
CONTINUOUS
 62
     7
 10
-3445.591837
 20
-642.577298
 30
0.0
 11
-3440.591836
 21
-642.577298
 31
0.0
  0
LINE
  5
EF
  8
0
  6
CONTINUOUS
 62
     7
 10
-3439.591836
 20
-635.472177
 30
0.0
 11
-3439.591836
 21
-746.472179
 31
0.0
  0
LINE
  5
F0
  8
0
  6
CONTINUOUS
 62
     7
 10
-3343.591827
 20
-739.972178
 30
0.0
 11
-3343.591827
 21
-641.972178
 31
0.0
  0
ARC
  5
F1
  8
0
  6
CONTINUOUS
 62
     7
 10
-3542.586297
 20
-661.972178
 30
0.0
 40
27.0
 50
0.0
 51
26.55564
  0
LINE
  5
F2
  8
0
  6
CONTINUOUS
 62
     7
 10
-3498.786298
 20
-630.972178
 30
0.0
 11
-3499.586298
 21
-630.972178
 31
0.0
  0
LINE
  5
F3
  8
0
  6
CONTINUOUS
 62
     7
 10
-3427.591836
 20
-640.472186
 30
0.0
 11
-3439.591836
 21
-640.472186
 31
0.0
  0
LINE
  5
F4
  8
0
  6
CONTINUOUS
 62
     7
 10
-3496.286298
 20
-744.472178
 30
0.0
 11
-3496.286298
 21
-748.472178
 31
0.0
  0
ARC
  5
F5
  8
0
  6
CONTINUOUS
 62
     7
 10
-3491.586298
 20
-649.703242
 30
0.0
 40
10.0
 50
165.963757
 51
180.0
  0
ARC
  5
F6
  8
0
  6
CONTINUOUS
 62
     7
 10
-3498.786298
 20
-748.472178
 30
0.0
 40
2.5
 50
270.0
 51
0.0
  0
ARC
  5
F7
  8
0
  6
CONTINUOUS
 62
     7
 10
-3536.045712
 20
-662.431593
 30
0.0
 40
32.0
 50
1.0
 51
38.348764
  0
LINE
  5
F8
  8
0
  6
CONTINUOUS
 62
     7
 10
-3504.050586
 20
-661.873116
 30
0.0
 11
-3503.586297
 21
-688.472207
 31
0.0
  0
ARC
  5
F9
  8
0
  6
CONTINUOUS
 62
     7
 10
-3509.586297
 20
-639.181044
 30
0.0
 40
2.0
 50
305.0
 51
0.0
  0
ARC
  5
FA
  8
0
  6
CONTINUOUS
 62
     7
 10
-3498.786298
 20
-633.472178
 30
0.0
 40
2.5
 50
0.0
 51
90.0
  0
LINE
  5
FB
  8
0
  6
CONTINUOUS
 62
     7
 10
-3313.283411
 20
-634.972178
 30
0.0
 11
-3308.091827
 21
-634.972178
 31
0.0
  0
LINE
  5
FC
  8
0
  6
CONTINUOUS
 62
     7
 10
-3343.591827
 20
-641.972178
 30
0.0
 11
-3344.982331
 21
-630.848143
 31
0.0
  0
LINE
  5
FD
  8
0
  6
CONTINUOUS
 62
     7
 10
-3343.591827
 20
-641.972178
 30
0.0
 11
-3315.591827
 21
-641.972178
 31
0.0
  0
LINE
  5
FE
  8
0
  6
CONTINUOUS
 62
     7
 10
-3315.591827
 20
-670.675713
 30
0.0
 11
-3343.591827
 21
-670.675713
 31
0.0
  0
LINE
  5
FF
  8
0
  6
CONTINUOUS
 62
     7
 10
-3508.439144
 20
-640.819348
 30
0.0
 11
-3517.792932
 21
-647.36894
 31
0.0
  0
ARC
  5
100
  8
0
  6
CONTINUOUS
 62
     7
 10
-3498.786298
 20
-637.472178
 30
0.0
 40
2.5
 50
270.0
 51
0.0
  0
LINE
  5
101
  8
0
  6
CONTINUOUS
 62
     7
 10
-3314.091827
 20
-635.383566
 30
0.0
 11
-3314.091827
 21
-746.56079
 31
0.0
  0
ARC
  5
102
  8
0
  6
CONTINUOUS
 62
     7
 10
-3345.974609
 20
-630.972178
 30
0.0
 40
1.0
 50
7.125016
 51
90.0
  0
LINE
  5
103
  8
0
  6
CONTINUOUS
 62
     7
 10
-3427.591836
 20
-746.472178
 30
0.0
 11
-3427.591836
 21
-635.472178
 31
0.0
  0
LINE
  5
104
  8
0
  6
CONTINUOUS
 62
     7
 10
-3434.841836
 20
-630.722178
 30
0.0
 11
-3432.341836
 21
-630.722178
 31
0.0
  0
ARC
  5
105
  8
0
  6
CONTINUOUS
 62
     7
 10
-3432.341836
 20
-635.472178
 30
0.0
 40
4.75
 50
0.0
 51
90.0
  0
ARC
  5
106
  8
0
  6
CONTINUOUS
 62
     7
 10
-3435.091836
 20
-636.972178
 30
0.0
 40
1.0
 50
0.0
 51
90.0
  0
LINE
  5
107
  8
0
  6
CONTINUOUS
 62
     7
 10
-3433.091836
 20
-636.972178
 30
0.0
 11
-3433.091836
 21
-637.921668
 31
0.0
  0
ARC
  5
108
  8
0
  6
CONTINUOUS
 62
     7
 10
-3432.091836
 20
-636.972178
 30
0.0
 40
1.0
 50
90.0
 51
180.0
  0
LINE
  5
109
  8
0
  6
CONTINUOUS
 62
     7
 10
-3433.091836
 20
-633.972178
 30
0.0
 11
-3433.091836
 21
-633.022688
 31
0.0
  0
LINE
  5
10A
  8
0
  6
CONTINUOUS
 62
     7
 10
-3432.091836
 20
-635.972178
 30
0.0
 11
-3429.1197
 21
-635.972178
 31
0.0
  0
CIRCLE
  5
10B
  8
0
  6
CONTINUOUS
 62
     7
 10
-3320.591827
 20
-690.972178
 30
0.0
 40
2.25
  0
LINE
  5
10C
  8
0
  6
CONTINUOUS
 62
     7
 10
-3315.591827
 20
-641.972178
 30
0.0
 11
-3315.591827
 21
-685.972178
 31
0.0
  0
LINE
  5
10D
  8
0
  6
CONTINUOUS
 62
     7
 10
-3435.091836
 20
-635.972178
 30
0.0
 11
-3438.063972
 21
-635.972178
 31
0.0
  0
ARC
  5
10E
  8
0
  6
CONTINUOUS
 62
     7
 10
-3433.591836
 20
-635.472178
 30
0.0
 40
2.5
 50
258.463041
 51
281.536959
  0
ARC
  5
10F
  8
0
  6
CONTINUOUS
 62
     7
 10
-3435.091836
 20
-633.972178
 30
0.0
 40
1.0
 50
270.0
 51
0.0
  0
ARC
  5
110
  8
0
  6
CONTINUOUS
 62
     7
 10
-3433.591836
 20
-635.472178
 30
0.0
 40
2.5
 50
78.463041
 51
101.536959
  0
LINE
  5
111
  8
0
  6
CONTINUOUS
 62
     7
 10
-3434.091836
 20
-633.972178
 30
0.0
 11
-3434.091836
 21
-633.022688
 31
0.0
  0
LINE
  5
112
  8
0
  6
CONTINUOUS
 62
     7
 10
-3432.091836
 20
-634.972178
 30
0.0
 11
-3429.1197
 21
-634.972178
 31
0.0
  0
LINE
  5
113
  8
0
  6
CONTINUOUS
 62
     7
 10
-3434.091836
 20
-636.972178
 30
0.0
 11
-3434.091836
 21
-637.921668
 31
0.0
  0
ARC
  5
114
  8
0
  6
CONTINUOUS
 62
     7
 10
-3320.591827
 20
-690.972178
 30
0.0
 40
5.0
 50
90.0
 51
270.0
  0
ARC
  5
115
  8
0
  6
CONTINUOUS
 62
     7
 10
-3440.591836
 20
-641.577298
 30
0.0
 40
1.0
 50
270.0
 51
0.0
  0
CIRCLE
  5
116
  8
0
  6
CONTINUOUS
 62
     7
 10
-3433.591836
 20
-635.472178
 30
0.0
 40
4.5
  0
LINE
  5
117
  8
0
  6
CONTINUOUS
 62
     7
 10
-3435.091836
 20
-634.972178
 30
0.0
 11
-3438.063972
 21
-634.972178
 31
0.0
  0
ARC
  5
118
  8
0
  6
CONTINUOUS
 62
     7
 10
-3432.091836
 20
-633.972178
 30
0.0
 40
1.0
 50
180.0
 51
270.0
  0
LINE
  5
119
  8
0
  6
CONTINUOUS
 62
     7
 10
-3445.591837
 20
-629.972178
 30
0.0
 11
-3445.591837
 21
-751.972178
 31
0.0
  0
LINE
  5
11A
  8
0
  6
CONTINUOUS
 62
     7
 10
-3427.591836
 20
-648.472186
 30
0.0
 11
-3439.591836
 21
-648.472186
 31
0.0
  0
LINE
  5
11B
  8
0
  6
CONTINUOUS
 62
     7
 10
-3625.122008
 20
-720.07124
 30
0.0
 11
-3625.586297
 21
-693.472149
 31
0.0
  0
ARC
  5
11C
  8
0
  6
CONTINUOUS
 62
     7
 10
-3593.126882
 20
-719.512763
 30
0.0
 40
32.0
 50
181.0
 51
269.0
  0
LINE
  5
11D
  8
0
  6
CENTER
 62
     1
 10
-3487.742864
 20
-690.972178
 30
0.0
 11
-3629.68016
 21
-690.972178
 31
0.0
  0
LINE
  5
11E
  8
0
  6
CENTER
 62
     1
 10
-3564.586297
 20
-626.768849
 30
0.0
 11
-3564.586297
 21
-751.972178
 31
0.0
  0
LINE
  5
11F
  8
0
  6
CONTINUOUS
 62
     7
 10
-3593.586297
 20
-746.972178
 30
0.0
 11
-3535.586297
 21
-746.972178
 31
0.0
  0
LINE
  5
120
  8
0
  6
CONTINUOUS
 62
     7
 10
-3567.086268
 20
-751.972178
 30
0.0
 11
-3562.086326
 21
-751.972178
 31
0.0
  0
LINE
  5
121
  8
0
  6
CONTINUOUS
 62
     7
 10
-3535.487235
 20
-751.507889
 30
0.0
 11
-3562.086326
 21
-751.972178
 31
0.0
  0
LINE
  5
122
  8
0
  6
CONTINUOUS
 62
     7
 10
-3593.685359
 20
-751.507889
 30
0.0
 11
-3567.086268
 21
-751.972178
 31
0.0
  0
LINE
  5
123
  8
0
  6
CONTINUOUS
 62
     7
 10
-3562.086326
 20
-629.972178
 30
0.0
 11
-3567.086268
 21
-629.972178
 31
0.0
  0
LINE
  5
124
  8
0
  6
CONTINUOUS
 62
     7
 10
-3593.685359
 20
-630.436467
 30
0.0
 11
-3567.086268
 21
-629.972178
 31
0.0
  0
LINE
  5
125
  8
0
  6
CONTINUOUS
 62
     7
 10
-3625.122008
 20
-661.873116
 30
0.0
 11
-3625.586297
 21
-688.472207
 31
0.0
  0
LINE
  5
126
  8
0
  6
CONTINUOUS
 62
     7
 10
-3535.487235
 20
-630.436467
 30
0.0
 11
-3562.086326
 21
-629.972178
 31
0.0
  0
ARC
  5
127
  8
0
  6
CONTINUOUS
 62
     7
 10
-3536.045712
 20
-662.431593
 30
0.0
 40
32.0
 50
38.716134
 51
89.00000000000001
  0
ARC
  5
128
  8
0
  6
CONTINUOUS
 62
     7
 10
-3535.586297
 20
-661.972178
 30
0.0
 40
27.0
 50
0.0
 51
90.0
  0
LINE
  5
129
  8
0
  6
CONTINUOUS
 62
     7
 10
-3508.586297
 20
-719.972178
 30
0.0
 11
-3508.586297
 21
-661.972178
 31
0.0
  0
LINE
  5
12A
  8
0
  6
CONTINUOUS
 62
     7
 10
-3507.586297
 20
-630.722178
 30
0.0
 11
-3534.289172
 21
-630.489146
 31
0.0
  0
LINE
  5
12B
  8
0
  6
CONTINUOUS
 62
     7
 10
-3507.586297
 20
-639.181044
 30
0.0
 11
-3507.586297
 21
-630.722178
 31
0.0
  0
ARC
  5
12C
  8
0
  6
CONTINUOUS
 62
     7
 10
-3536.045712
 20
-719.512763
 30
0.0
 40
32.0
 50
271.0
 51
321.283866
  0
ARC
  5
12D
  8
0
  6
CONTINUOUS
 62
     7
 10
-3535.586297
 20
-719.972178
 30
0.0
 40
27.0
 50
270.0
 51
0.0
  0
ARC
  5
12E
  8
0
  6
CONTINUOUS
 62
     7
 10
-3593.126882
 20
-662.431593
 30
0.0
 40
32.0
 50
91.0
 51
179.0
  0
LINE
  5
12F
  8
0
  6
CONTINUOUS
 62
     7
 10
-3535.586297
 20
-634.972178
 30
0.0
 11
-3593.586297
 21
-634.972178
 31
0.0
  0
LINE
  5
130
  8
0
  6
CONTINUOUS
 62
     7
 10
-3620.586297
 20
-661.972178
 30
0.0
 11
-3620.586297
 21
-719.972178
 31
0.0
  0
ARC
  5
131
  8
0
  6
CONTINUOUS
 62
     7
 10
-3593.586297
 20
-661.972178
 30
0.0
 40
27.0
 50
90.0
 51
180.0
  0
LINE
  5
132
  8
0
  6
CONTINUOUS
 62
     7
 10
-3503.586297
 20
-693.472149
 30
0.0
 11
-3503.586297
 21
-688.472207
 31
0.0
  0
LINE
  5
133
  8
0
  6
CONTINUOUS
 62
     7
 10
-3508.439144
 20
-741.125008
 30
0.0
 11
-3517.792932
 21
-734.575416
 31
0.0
  0
LINE
  5
134
  8
0
  6
CONTINUOUS
 62
     7
 10
-3500.586297
 20
-630.722178
 30
0.0
 11
-3507.586297
 21
-630.722178
 31
0.0
  0
ARC
  5
135
  8
0
  6
CONTINUOUS
 62
     7
 10
-3536.045712
 20
-719.512763
 30
0.0
 40
32.0
 50
321.651236
 51
358.9999999999999
  0
ARC
  5
136
  8
0
  6
CONTINUOUS
 62
     7
 10
-3509.586298
 20
-742.703226
 30
0.0
 40
10.0
 50
0.0
 51
14.036243
  0
ARC
  5
137
  8
0
  6
CONTINUOUS
 62
     7
 10
-3500.586298
 20
-750.22217
 30
0.0
 40
1.0
 50
270.0
 51
0.0
  0
LINE
  5
138
  8
0
  6
CONTINUOUS
 62
     7
 10
-3499.884873
 20
-740.27787
 30
0.0
 11
-3501.287723
 21
-734.66647
 31
0.0
  0
LINE
  5
139
  8
0
  6
CONTINUOUS
 62
     7
 10
-3507.586297
 20
-742.763312
 30
0.0
 11
-3507.586297
 21
-751.222178
 31
0.0
  0
LINE
  5
13A
  8
0
  6
CONTINUOUS
 62
     7
 10
-3500.586297
 20
-751.222178
 30
0.0
 11
-3507.586297
 21
-751.222178
 31
0.0
  0
LINE
  5
13B
  8
0
  6
CONTINUOUS
 62
     7
 10
-3515.586298
 20
-661.972178
 30
0.0
 11
-3515.586298
 21
-719.972178
 31
0.0
  0
ARC
  5
13C
  8
0
  6
CONTINUOUS
 62
     7
 10
-3516.645779
 20
-732.937112
 30
0.0
 40
2.0
 50
153.44436
 51
235.0
  0
ARC
  5
13D
  8
0
  6
CONTINUOUS
 62
     7
 10
-3593.586297
 20
-719.972178
 30
0.0
 40
27.0
 50
180.0
 51
270.0
  0
LINE
  5
13E
  8
0
  6
CONTINUOUS
 62
     7
 10
-3504.050586
 20
-720.07124
 30
0.0
 11
-3503.586297
 21
-693.472149
 31
0.0
  0
ARC
  5
13F
  8
0
  6
CONTINUOUS
 62
     7
 10
-3542.586297
 20
-719.972178
 30
0.0
 40
27.0
 50
333.44436
 51
0.0
  0
ARC
  5
140
  8
0
  6
CONTINUOUS
 62
     7
 10
-3491.586298
 20
-732.241114
 30
0.0
 40
10.0
 50
180.0
 51
194.036243
  0
LINE
  5
141
  8
0
  6
CONTINUOUS
 62
     7
 10
-3499.586298
 20
-639.24113
 30
0.0
 11
-3499.586298
 21
-630.972178
 31
0.0
  0
ARC
  5
142
  8
0
  6
CONTINUOUS
 62
     7
 10
-3500.586298
 20
-631.722186
 30
0.0
 40
1.0
 50
0.0
 51
90.0
  0
LINE
  5
143
  8
0
  6
CONTINUOUS
 62
     7
 10
-3625.586297
 20
-688.472207
 30
0.0
 11
-3625.586297
 21
-693.472149
 31
0.0
  0
LINE
  5
144
  8
0
  6
CONTINUOUS
 62
     7
 10
-3499.884873
 20
-641.666486
 30
0.0
 11
-3501.287723
 21
-647.277886
 31
0.0
  0
LINE
  5
145
  8
0
  6
CONTINUOUS
 62
     7
 10
-3507.586297
 20
-751.222178
 30
0.0
 11
-3534.289172
 21
-751.45521
 31
0.0
  0
LINE
  5
146
  8
0
  6
CONTINUOUS
 62
     7
 10
-3501.586298
 20
-649.703242
 30
0.0
 11
-3501.586298
 21
-732.241114
 31
0.0
  0
LINE
  5
147
  8
0
  6
CONTINUOUS
 62
     7
 10
-3499.586298
 20
-742.703226
 30
0.0
 11
-3499.586298
 21
-750.972178
 31
0.0
  0
TEXT
  5
148
  8
0
  6
CONTINUOUS
 62
     7
 10
-3493.654541985182
 20
-791.7220755454546
 30
0.0
 40
10.0
  1
ＫＦＥＧＰ－７５
 41
0.832611
  0
ENDSEC
  0
EOF
