  0
SECTION
  2
HEADER
  9
$ACADVER
  1
AC1006
  9
$DWGCODEPAGE
  3
ansi_932
  9
$INSBASE
 10
0.0
 20
0.0
 30
0.0
  9
$EXTMIN
 10
-3698.997708
 20
0.0
  9
$EXTMAX
 10
6.956136363636363
 20
466.573682
  9
$LIMMIN
 10
0.0
 20
0.0
  9
$LIMMAX
 10
12.0
 20
9.0
  9
$ORTHOMODE
 70
     0
  9
$REGENMODE
 70
     1
  9
$FILLMODE
 70
     1
  9
$QTEXTMODE
 70
     0
  9
$MIRRTEXT
 70
     1
  9
$DRAGMODE
 70
     2
  9
$LTSCALE
 40
1.0
  9
$OSMODE
 70
    37
  9
$ATTMODE
 70
     1
  9
$TEXTSIZE
 40
0.2
  9
$TRACEWID
 40
0.05
  9
$TEXTSTYLE
  7
STANDARD
  9
$CLAYER
  8
0
  9
$CELTYPE
  6
BYLAYER
  9
$CECOLOR
 62
   256
  9
$DIMSCALE
 40
1.0
  9
$DIMASZ
 40
1.4
  9
$DIMEXO
 40
0.0625
  9
$DIMDLI
 40
0.38
  9
$DIMRND
 40
0.0
  9
$DIMDLE
 40
0.0
  9
$DIMEXE
 40
0.7
  9
$DIMTP
 40
0.0
  9
$DIMTM
 40
0.0
  9
$DIMTXT
 40
3.5
  9
$DIMCEN
 40
0.09
  9
$DIMTSZ
 40
0.0
  9
$DIMTOL
 70
     0
  9
$DIMLIM
 70
     0
  9
$DIMTIH
 70
     1
  9
$DIMTOH
 70
     1
  9
$DIMSE1
 70
     0
  9
$DIMSE2
 70
     0
  9
$DIMTAD
 70
     1
  9
$DIMZIN
 70
     0
  9
$DIMBLK
  1

  9
$DIMASO
 70
     1
  9
$DIMSHO
 70
     1
  9
$DIMPOST
  1

  9
$DIMAPOST
  1

  9
$DIMALT
 70
     0
  9
$DIMALTD
 70
     2
  9
$DIMALTF
 40
25.4
  9
$DIMLFAC
 40
1.0
  9
$DIMTOFL
 70
     0
  9
$DIMTVP
 40
0.0
  9
$DIMTIX
 70
     0
  9
$DIMSOXD
 70
     0
  9
$DIMSAH
 70
     0
  9
$DIMBLK1
  1

  9
$DIMBLK2
  1

  9
$LUNITS
 70
     2
  9
$LUPREC
 70
     4
  9
$SKETCHINC
 40
0.1
  9
$FILLETRAD
 40
0.5
  9
$AUNITS
 70
     0
  9
$AUPREC
 70
     0
  9
$MENU
  1
.
  9
$ELEVATION
 40
0.0
  9
$THICKNESS
 40
0.0
  9
$LIMCHECK
 70
     0
  9
$CHAMFERA
 40
0.0
  9
$CHAMFERB
 40
0.0
  9
$SKPOLY
 70
     0
  9
$TDCREATE
 40
2459514.406581215
  9
$TDUPDATE
 40
2459514.406581574
  9
$TDINDWG
 40
0.0000000116
  9
$TDUSRTIMER
 40
0.0000000116
  9
$USRTIMER
 70
     1
  9
$ANGBASE
 50
0.0
  9
$ANGDIR
 70
     0
  9
$PDMODE
 70
     0
  9
$PDSIZE
 40
0.0
  9
$PLINEWID
 40
0.0
  9
$COORDS
 70
     1
  9
$SPLFRAME
 70
     0
  9
$SPLINETYPE
 70
     6
  9
$SPLINESEGS
 70
     8
  9
$ATTDIA
 70
     0
  9
$ATTREQ
 70
     1
  9
$HANDLING
 70
     1
  9
$HANDSEED
  5
1C9
  9
$SURFTAB1
 70
     6
  9
$SURFTAB2
 70
     6
  9
$SURFTYPE
 70
     6
  9
$SURFU
 70
     6
  9
$SURFV
 70
     6
  9
$UCSNAME
  2

  9
$UCSORG
 10
0.0
 20
0.0
 30
0.0
  9
$UCSXDIR
 10
1.0
 20
0.0
 30
0.0
  9
$UCSYDIR
 10
0.0
 20
1.0
 30
0.0
  9
$USERI1
 70
     0
  9
$USERI2
 70
     0
  9
$USERI3
 70
     0
  9
$USERI4
 70
     0
  9
$USERI5
 70
     0
  9
$USERR1
 40
0.0
  9
$USERR2
 40
0.0
  9
$USERR3
 40
0.0
  9
$USERR4
 40
0.0
  9
$USERR5
 40
0.0
  9
$WORLDVIEW
 70
     1
  0
ENDSEC
  0
SECTION
  2
TABLES
  0
TABLE
  2
VPORT
 70
     1
  0
VPORT
  2
*ACTIVE
 70
     0
 10
0.0
 20
0.0
 11
1.0
 21
1.0
 12
-1846.020785818182
 22
233.286841
 13
0.0
 23
0.0
 14
0.5
 24
0.5
 15
0.5
 25
0.5
 16
0.0
 26
0.0
 36
1.0
 17
0.0
 27
0.0
 37
0.0
 40
466.573682
 41
1.6
 42
50.0
 43
0.0
 44
0.0
 50
0.0
 51
0.0
 71
     0
 72
   100
 73
     1
 74
     3
 75
     0
 76
     0
 77
     0
 78
     0
  0
ENDTAB
  0
TABLE
  2
LTYPE
 70
     2
  0
LTYPE
  2
CONTINUOUS
 70
     0
  3
Solid line
 72
    65
 73
     0
 40
0.0
  0
LTYPE
  2
CENTER
 70
     0
  3

 72
    65
 73
     0
 40
0.0
  0
ENDTAB
  0
TABLE
  2
LAYER
 70
     1
  0
LAYER
  2
0
 70
     0
 62
     7
  6
CONTINUOUS
  0
ENDTAB
  0
TABLE
  2
STYLE
 70
     2
  0
STYLE
  2
STANDARD
 70
     0
 40
0.0
 41
1.0
 50
0.0
 71
     0
 42
0.2
  3
txt
  4

  0
STYLE
  2
ＭＳ_ゴシック
 70
     0
 40
0.0
 41
1.0
 50
0.0
 71
     0
 42
0.2
  3
ＭＳ ゴシック.shx
  4

  0
ENDTAB
  0
TABLE
  2
VIEW
 70
     0
  0
ENDTAB
  0
TABLE
  2
UCS
 70
     0
  0
ENDTAB
  0
ENDSEC
  0
SECTION
  2
BLOCKS
  0
BLOCK
  8
0
  2
D_FRAME_DRAWING_21
 70
     0
 10
0.0
 20
0.0
 30
0.0
  0
LINE
  5
71
  8
0
  6
CONTINUOUS
 62
     7
 10
0.0
 20
0.0
 30
0.0
 11
420.0
 21
0.0
 31
0.0
  0
LINE
  5
72
  8
0
  6
CONTINUOUS
 62
     7
 10
420.0
 20
0.0
 30
0.0
 11
420.0
 21
297.0
 31
0.0
  0
LINE
  5
73
  8
0
  6
CONTINUOUS
 62
     7
 10
420.0
 20
297.0
 30
0.0
 11
0.0
 21
297.0
 31
0.0
  0
LINE
  5
74
  8
0
  6
CONTINUOUS
 62
     7
 10
0.0
 20
297.0
 30
0.0
 11
0.0
 21
0.0
 31
0.0
  0
LINE
  5
75
  8
0
  6
CONTINUOUS
 62
     7
 10
10.0
 20
10.0
 30
0.0
 11
409.9999999999999
 21
10.0
 31
0.0
  0
LINE
  5
76
  8
0
  6
CONTINUOUS
 62
     7
 10
409.9999999999999
 20
10.0
 30
0.0
 11
409.9999999999999
 21
286.9999999999999
 31
0.0
  0
LINE
  5
77
  8
0
  6
CONTINUOUS
 62
     7
 10
409.9999999999999
 20
286.9999999999999
 30
0.0
 11
10.00000000000006
 21
286.9999999999999
 31
0.0
  0
LINE
  5
78
  8
0
  6
CONTINUOUS
 62
     7
 10
10.0
 20
286.9999999999999
 30
0.0
 11
10.0
 21
10.00000000000001
 31
0.0
  0
LINE
  5
79
  8
0
  6
CONTINUOUS
 62
     7
 10
210.0
 20
0.0
 30
0.0
 11
210.0
 21
10.0
 31
0.0
  0
LINE
  5
7A
  8
0
  6
CONTINUOUS
 62
     7
 10
420.0
 20
148.5
 30
0.0
 11
409.9999999999999
 21
148.5
 31
0.0
  0
LINE
  5
7B
  8
0
  6
CONTINUOUS
 62
     7
 10
210.0
 20
297.0
 30
0.0
 11
210.0
 21
286.9999999999999
 31
0.0
  0
LINE
  5
7C
  8
0
  6
CONTINUOUS
 62
     7
 10
0.0
 20
148.5
 30
0.0
 11
10.0
 21
148.5
 31
0.0
  0
POLYLINE
  5
7D
  8
0
  6
CONTINUOUS
 62
     7
 66
     1
 10
0.0
 20
0.0
 30
0.0
 70
     1
  0
VERTEX
  5
19A
  8
0
  6
CONTINUOUS
 62
     7
 10
11.0
 20
152.5
 30
0.0
  0
VERTEX
  5
19B
  8
0
  6
CONTINUOUS
 62
     7
 10
0.0
 20
148.5
 30
0.0
  0
VERTEX
  5
19C
  8
0
  6
CONTINUOUS
 62
     7
 10
11.0
 20
144.5
 30
0.0
  0
VERTEX
  5
19D
  8
0
  6
CONTINUOUS
 62
     7
 10
11.0
 20
152.5
 30
0.0
  0
SEQEND
  5
1C7
  8
0
  6
CONTINUOUS
 62
     7
  0
INSERT
  5
7E
  8
0
 62
     7
  2
*U2
 10
0.0
 20
0.0
 30
0.0
  0
POLYLINE
  5
7F
  8
0
  6
CONTINUOUS
 62
     7
 66
     1
 10
0.0
 20
0.0
 30
0.0
 70
     1
  0
VERTEX
  5
1A0
  8
0
  6
CONTINUOUS
 62
     7
 10
206.0
 20
11.0
 30
0.0
  0
VERTEX
  5
1A1
  8
0
  6
CONTINUOUS
 62
     7
 10
210.0
 20
0.0
 30
0.0
  0
VERTEX
  5
1A2
  8
0
  6
CONTINUOUS
 62
     7
 10
214.0
 20
11.0
 30
0.0
  0
VERTEX
  5
1A3
  8
0
  6
CONTINUOUS
 62
     7
 10
206.0
 20
11.0
 30
0.0
  0
SEQEND
  5
1C8
  8
0
  6
CONTINUOUS
 62
     7
  0
INSERT
  5
80
  8
0
 62
     7
  2
*U3
 10
0.0
 20
0.0
 30
0.0
  0
LINE
  5
81
  8
0
  6
CONTINUOUS
 62
     7
 10
367.5
 20
286.9999999999999
 30
0.0
 11
367.5
 21
292.0
 31
0.0
  0
TEXT
  5
82
  8
0
  6
CONTINUOUS
 62
     7
 10
391.6340909090909
 20
291.8324293485057
 30
0.0
 40
3.5
  1
A
 50
270.0
  0
LINE
  5
83
  8
0
  6
CONTINUOUS
 62
     7
 10
367.5
 20
10.0
 30
0.0
 11
367.5
 21
5.0
 31
0.0
  0
TEXT
  5
84
  8
0
  6
CONTINUOUS
 62
     7
 10
392.9868888333125
 20
4.602272727272727
 30
0.0
 40
3.5
  1
A
  0
LINE
  5
85
  8
0
  6
CONTINUOUS
 62
     7
 10
315.0
 20
286.9999999999999
 30
0.0
 11
315.0
 21
292.0
 31
0.0
  0
TEXT
  5
86
  8
0
  6
CONTINUOUS
 62
     7
 10
339.1340909090909
 20
291.9745607727899
 30
0.0
 40
3.5
  1
B
 50
270.0
  0
LINE
  5
87
  8
0
  6
CONTINUOUS
 62
     7
 10
315.0
 20
10.0
 30
0.0
 11
315.0
 21
5.0
 31
0.0
  0
TEXT
  5
88
  8
0
  6
CONTINUOUS
 62
     7
 10
340.3447574090284
 20
4.602272727272727
 30
0.0
 40
3.5
  1
B
  0
LINE
  5
89
  8
0
  6
CONTINUOUS
 62
     7
 10
262.5
 20
286.9999999999999
 30
0.0
 11
262.5
 21
292.0
 31
0.0
  0
TEXT
  5
8A
  8
0
  6
CONTINUOUS
 62
     7
 10
286.6327779167187
 20
291.9399305989747
 30
0.0
 40
3.5
  1
C
 50
270.0
  0
LINE
  5
8B
  8
0
  6
CONTINUOUS
 62
     7
 10
262.5
 20
10.0
 30
0.0
 11
262.5
 21
5.0
 31
0.0
  0
TEXT
  5
8C
  8
0
  6
CONTINUOUS
 62
     7
 10
287.8793875828435
 20
4.600959734900587
 30
0.0
 40
3.5
  1
C
  0
LINE
  5
8D
  8
0
  6
CONTINUOUS
 62
     7
 10
210.0
 20
286.9999999999999
 30
0.0
 11
210.0
 21
292.0
 31
0.0
  0
TEXT
  5
8E
  8
0
  6
CONTINUOUS
 62
     7
 10
234.1340909090909
 20
291.9745607727898
 30
0.0
 40
3.5
  1
D
 50
270.0
  0
LINE
  5
8F
  8
0
  6
CONTINUOUS
 62
     7
 10
157.5
 20
286.9999999999999
 30
0.0
 11
157.5
 21
292.0
 31
0.0
  0
TEXT
  5
90
  8
0
  6
CONTINUOUS
 62
     7
 10
181.6327779167188
 20
292.027463423784
 30
0.0
 40
3.5
  1
E
 50
270.0
  0
LINE
  5
91
  8
0
  6
CONTINUOUS
 62
     7
 10
157.5
 20
10.0
 30
0.0
 11
157.5
 21
5.0
 31
0.0
  0
LINE
  5
92
  8
0
  6
CONTINUOUS
 62
     7
 10
105.0
 20
286.9999999999999
 30
0.0
 11
105.0
 21
292.0
 31
0.0
  0
TEXT
  5
93
  8
0
  6
CONTINUOUS
 62
     7
 10
129.1327779167188
 20
291.9924502938602
 30
0.0
 40
3.5
  1
F
 50
270.0
  0
LINE
  5
94
  8
0
  6
CONTINUOUS
 62
     7
 10
105.0
 20
10.0
 30
0.0
 11
105.0
 21
5.0
 31
0.0
  0
TEXT
  5
95
  8
0
  6
CONTINUOUS
 62
     7
 10
130.326867887958
 20
4.600959734900587
 30
0.0
 40
3.5
  1
F
  0
LINE
  5
96
  8
0
  6
CONTINUOUS
 62
     7
 10
52.50000000000004
 20
286.9999999999999
 30
0.0
 11
52.50000000000004
 21
292.0
 31
0.0
  0
TEXT
  5
97
  8
0
  6
CONTINUOUS
 62
     7
 10
76.6327779167188
 20
291.9399305989746
 30
0.0
 40
3.5
  1
G
 50
270.0
  0
LINE
  5
98
  8
0
  6
CONTINUOUS
 62
     7
 10
52.50000000000004
 20
10.0
 30
0.0
 11
52.50000000000004
 21
5.0
 31
0.0
  0
TEXT
  5
99
  8
0
  6
CONTINUOUS
 62
     7
 10
77.8793875828436
 20
4.600959734900587
 30
0.0
 40
3.5
  1
G
  0
TEXT
  5
9A
  8
0
  6
CONTINUOUS
 62
     7
 10
24.13277791671879
 20
291.9749437288983
 30
0.0
 40
3.5
  1
H
 50
270.0
  0
TEXT
  5
9B
  8
0
  6
CONTINUOUS
 62
     7
 10
25.34437445291988
 20
4.600959734900587
 30
0.0
 40
3.5
  1
H
  0
LINE
  5
9C
  8
0
  6
CONTINUOUS
 62
     7
 10
409.9999999999999
 20
74.25
 30
0.0
 11
414.9999999999999
 21
74.25
 31
0.0
  0
TEXT
  5
9D
  8
0
  6
CONTINUOUS
 62
     7
 10
412.9326059772414
 20
35.00777791671877
 30
0.0
 40
3.5
  1
1
  0
LINE
  5
9E
  8
0
  6
CONTINUOUS
 62
     7
 10
10.0
 20
74.25
 30
0.0
 11
5.0
 21
74.25
 31
0.0
  0
TEXT
  5
9F
  8
0
  6
CONTINUOUS
 62
     7
 10
4.600959734900584
 20
38.26171220457671
 30
0.0
 40
3.5
  1
1
 50
270.0
  0
LINE
  5
A0
  8
0
  6
CONTINUOUS
 62
     7
 10
409.9999999999999
 20
148.5
 30
0.0
 11
414.9999999999999
 21
148.5
 31
0.0
  0
TEXT
  5
A1
  8
0
  6
CONTINUOUS
 62
     7
 10
413.163692634738
 20
109.2577779167188
 30
0.0
 40
3.5
  1
2
  0
LINE
  5
A2
  8
0
  6
CONTINUOUS
 62
     7
 10
10.0
 20
148.5
 30
0.0
 11
5.0
 21
148.5
 31
0.0
  0
TEXT
  5
A3
  8
0
  6
CONTINUOUS
 62
     7
 10
4.600959734900599
 20
112.2806255470802
 30
0.0
 40
3.5
  1
2
 50
270.0
  0
LINE
  5
A4
  8
0
  6
CONTINUOUS
 62
     7
 10
409.9999999999999
 20
222.75
 30
0.0
 11
414.9999999999999
 21
222.75
 31
0.0
  0
TEXT
  5
A5
  8
0
  6
CONTINUOUS
 62
     7
 10
413.1811991996998
 20
183.5077779167188
 30
0.0
 40
3.5
  1
3
  0
LINE
  5
A6
  8
0
  6
CONTINUOUS
 62
     7
 10
10.0
 20
222.75
 30
0.0
 11
5.0
 21
222.75
 31
0.0
  0
TEXT
  5
A7
  8
0
  6
CONTINUOUS
 62
     7
 10
4.600959734900584
 20
186.5131189821183
 30
0.0
 40
3.5
  1
3
 50
270.0
  0
TEXT
  5
A8
  8
0
  6
CONTINUOUS
 62
     7
 10
413.2351413029886
 20
257.7590909090909
 30
0.0
 40
3.5
  1
4
  0
TEXT
  5
A9
  8
0
  6
CONTINUOUS
 62
     7
 10
4.60227272727272
 20
260.7091768788295
 30
0.0
 40
3.5
  1
4
 50
270.0
  0
LINE
  5
AA
  8
0
  6
CONTINUOUS
 62
     7
 10
220.0
 20
10.0
 30
0.0
 11
220.0
 21
7.0
 31
0.0
  0
LINE
  5
AB
  8
0
  6
CONTINUOUS
 62
     7
 10
200.0
 20
10.0
 30
0.0
 11
200.0
 21
7.0
 31
0.0
  0
LINE
  5
AC
  8
0
  6
CONTINUOUS
 62
     7
 10
230.0
 20
10.0
 30
0.0
 11
230.0
 21
7.0
 31
0.0
  0
LINE
  5
AD
  8
0
  6
CONTINUOUS
 62
     7
 10
190.0
 20
10.0
 30
0.0
 11
190.0
 21
7.0
 31
0.0
  0
LINE
  5
AE
  8
0
  6
CONTINUOUS
 62
     7
 10
240.0
 20
10.0
 30
0.0
 11
240.0
 21
7.0
 31
0.0
  0
LINE
  5
AF
  8
0
  6
CONTINUOUS
 62
     7
 10
180.0
 20
10.0
 30
0.0
 11
180.0
 21
7.0
 31
0.0
  0
LINE
  5
B0
  8
0
  6
CONTINUOUS
 62
     7
 10
250.0
 20
10.0
 30
0.0
 11
250.0
 21
7.0
 31
0.0
  0
LINE
  5
B1
  8
0
  6
CONTINUOUS
 62
     7
 10
170.0
 20
10.0
 30
0.0
 11
170.0
 21
7.0
 31
0.0
  0
LINE
  5
B2
  8
0
  6
CONTINUOUS
 62
     7
 10
260.0
 20
10.0
 30
0.0
 11
260.0
 21
5.0
 31
0.0
  0
LINE
  5
B3
  8
0
  6
CONTINUOUS
 62
     7
 10
160.0
 20
10.0
 30
0.0
 11
160.0
 21
5.0
 31
0.0
  0
LINE
  5
B4
  8
0
  6
CONTINUOUS
 62
     7
 10
260.0
 20
10.0
 30
0.0
 11
160.0
 21
10.0
 31
0.0
  0
LINE
  5
B5
  8
0
  6
CONTINUOUS
 62
     7
 10
260.0
 20
7.0
 30
0.0
 11
160.0
 21
7.0
 31
0.0
  0
INSERT
  5
B6
  8
0
 62
     7
  2
*U4
 10
0.0
 20
0.0
 30
0.0
  0
INSERT
  5
B7
  8
0
 62
     7
  2
*U5
 10
0.0
 20
0.0
 30
0.0
  0
INSERT
  5
B8
  8
0
 62
     7
  2
*U6
 10
0.0
 20
0.0
 30
0.0
  0
INSERT
  5
B9
  8
0
 62
     7
  2
*U7
 10
0.0
 20
0.0
 30
0.0
  0
ENDBLK
  8
0
  0
BLOCK
  8
0
  2
*U2
 70
     1
 10
0.0
 20
0.0
 30
0.0
  0
SOLID
  5
19F
  8
0
  6
CONTINUOUS
 62
     7
 10
11.0
 20
144.5
 30
0.0
 11
6.999999999999999
 21
148.5
 31
0.0
 12
11.0
 22
152.5
 32
0.0
 13
11.0
 23
152.5
 33
0.0
  0
ENDBLK
  8
0
  0
BLOCK
  8
0
  2
*U3
 70
     1
 10
0.0
 20
0.0
 30
0.0
  0
SOLID
  5
1A5
  8
0
  6
CONTINUOUS
 62
     7
 10
210.0
 20
6.999999999999999
 30
0.0
 11
206.0
 21
11.0
 31
0.0
 12
210.0
 22
11.0
 32
0.0
 13
210.0
 23
11.0
 33
0.0
  0
SOLID
  5
1A6
  8
0
  6
CONTINUOUS
 62
     7
 10
210.0
 20
6.999999999999999
 30
0.0
 11
210.0
 21
11.0
 31
0.0
 12
214.0
 22
11.0
 32
0.0
 13
214.0
 23
11.0
 33
0.0
  0
ENDBLK
  8
0
  0
BLOCK
  8
0
  2
*U4
 70
     1
 10
0.0
 20
0.0
 30
0.0
  0
SOLID
  5
1A8
  8
0
  6
CONTINUOUS
 62
     7
 10
0.0
 20
0.0
 30
0.0
 11
0.0
 21
10.0
 31
0.0
 12
2.0
 22
0.0
 32
0.0
 13
2.0
 23
0.0
 33
0.0
  0
SOLID
  5
1A9
  8
0
  6
CONTINUOUS
 62
     7
 10
2.0
 20
0.0
 30
0.0
 11
0.0
 21
10.0
 31
0.0
 12
2.0
 22
10.0
 32
0.0
 13
2.0
 23
10.0
 33
0.0
  0
SOLID
  5
1AA
  8
0
  6
CONTINUOUS
 62
     7
 10
2.0
 20
0.0
 30
0.0
 11
2.0
 21
2.0
 31
0.0
 12
10.0
 22
0.0
 32
0.0
 13
10.0
 23
0.0
 33
0.0
  0
SOLID
  5
1AB
  8
0
  6
CONTINUOUS
 62
     7
 10
10.0
 20
0.0
 30
0.0
 11
2.0
 21
2.0
 31
0.0
 12
10.0
 22
2.0
 32
0.0
 13
10.0
 23
2.0
 33
0.0
  0
ENDBLK
  8
0
  0
BLOCK
  8
0
  2
*U5
 70
     1
 10
0.0
 20
0.0
 30
0.0
  0
SOLID
  5
1AD
  8
0
  6
CONTINUOUS
 62
     7
 10
409.9999999999999
 20
0.0
 30
0.0
 11
409.9999999999999
 21
2.0
 31
0.0
 12
418.0
 22
0.0
 32
0.0
 13
418.0
 23
0.0
 33
0.0
  0
SOLID
  5
1AE
  8
0
  6
CONTINUOUS
 62
     7
 10
418.0
 20
0.0
 30
0.0
 11
409.9999999999999
 21
2.0
 31
0.0
 12
418.0
 22
2.0
 32
0.0
 13
418.0
 23
2.0
 33
0.0
  0
SOLID
  5
1AF
  8
0
  6
CONTINUOUS
 62
     7
 10
418.0
 20
0.0
 30
0.0
 11
418.0
 21
10.0
 31
0.0
 12
420.0
 22
0.0
 32
0.0
 13
420.0
 23
0.0
 33
0.0
  0
SOLID
  5
1B0
  8
0
  6
CONTINUOUS
 62
     7
 10
420.0
 20
0.0
 30
0.0
 11
418.0
 21
10.0
 31
0.0
 12
420.0
 22
10.0
 32
0.0
 13
420.0
 23
10.0
 33
0.0
  0
ENDBLK
  8
0
  0
BLOCK
  8
0
  2
*U6
 70
     1
 10
0.0
 20
0.0
 30
0.0
  0
SOLID
  5
1B2
  8
0
  6
CONTINUOUS
 62
     7
 10
409.9999999999999
 20
295.0
 30
0.0
 11
409.9999999999999
 21
297.0
 31
0.0
 12
418.0
 22
295.0
 32
0.0
 13
418.0
 23
295.0
 33
0.0
  0
SOLID
  5
1B3
  8
0
  6
CONTINUOUS
 62
     7
 10
418.0
 20
295.0
 30
0.0
 11
409.9999999999999
 21
297.0
 31
0.0
 12
418.0
 22
297.0
 32
0.0
 13
418.0
 23
297.0
 33
0.0
  0
SOLID
  5
1B4
  8
0
  6
CONTINUOUS
 62
     7
 10
418.0
 20
286.9999999999999
 30
0.0
 11
418.0
 21
297.0
 31
0.0
 12
420.0
 22
286.9999999999999
 32
0.0
 13
420.0
 23
286.9999999999999
 33
0.0
  0
SOLID
  5
1B5
  8
0
  6
CONTINUOUS
 62
     7
 10
420.0
 20
286.9999999999999
 30
0.0
 11
418.0
 21
297.0
 31
0.0
 12
420.0
 22
297.0
 32
0.0
 13
420.0
 23
297.0
 33
0.0
  0
ENDBLK
  8
0
  0
BLOCK
  8
0
  2
*U7
 70
     1
 10
0.0
 20
0.0
 30
0.0
  0
SOLID
  5
1B7
  8
0
  6
CONTINUOUS
 62
     7
 10
0.0
 20
286.9999999999999
 30
0.0
 11
0.0
 21
297.0
 31
0.0
 12
2.0
 22
286.9999999999999
 32
0.0
 13
2.0
 23
286.9999999999999
 33
0.0
  0
SOLID
  5
1B8
  8
0
  6
CONTINUOUS
 62
     7
 10
2.0
 20
286.9999999999999
 30
0.0
 11
0.0
 21
297.0
 31
0.0
 12
2.0
 22
297.0
 32
0.0
 13
2.0
 23
297.0
 33
0.0
  0
SOLID
  5
1B9
  8
0
  6
CONTINUOUS
 62
     7
 10
2.0
 20
295.0
 30
0.0
 11
2.0
 21
297.0
 31
0.0
 12
10.0
 22
295.0
 32
0.0
 13
10.0
 23
295.0
 33
0.0
  0
SOLID
  5
1BA
  8
0
  6
CONTINUOUS
 62
     7
 10
10.0
 20
295.0
 30
0.0
 11
2.0
 21
297.0
 31
0.0
 12
10.0
 22
297.0
 32
0.0
 13
10.0
 23
297.0
 33
0.0
  0
ENDBLK
  8
0
  0
ENDSEC
  0
SECTION
  2
ENTITIES
  0
INSERT
  5
70
  8
0
 62
     7
  2
D_FRAME_DRAWING_21
 10
0.0
 20
0.0
 30
0.0
  0
LINE
  5
BA
  8
0
  6
CENTER
 62
     1
 10
-3564.359814
 20
457.870353
 30
0.0
 11
-3578.148273
 21
457.870353
 31
0.0
  0
ARC
  5
BC
  8
0
  6
CONTINUOUS
 62
     7
 10
-3611.903846
 20
373.370353
 30
0.0
 40
27.0
 50
333.44436
 51
0.0
  0
LINE
  5
BD
  8
0
  6
CONTINUOUS
 62
     7
 10
-3584.903846
 20
431.370353
 30
0.0
 11
-3584.903846
 21
373.370353
 31
0.0
  0
ARC
  5
BE
  8
0
  6
CONTINUOUS
 62
     7
 10
-3569.903846
 20
461.620346
 30
0.0
 40
1.0
 50
0.0
 51
90.0
  0
LINE
  5
BF
  8
0
  6
CONTINUOUS
 62
     7
 10
-3577.756693
 20
452.523183
 30
0.0
 11
-3587.11048
 21
445.973591
 31
0.0
  0
LINE
  5
C0
  8
0
  6
CONTINUOUS
 62
     7
 10
-3573.368135
 20
431.469415
 30
0.0
 11
-3572.903846
 21
404.870324
 31
0.0
  0
ARC
  5
C1
  8
0
  6
CONTINUOUS
 62
     7
 10
-3605.363261
 20
430.910938
 30
0.0
 40
32.0
 50
1.0
 51
38.348764
  0
ARC
  5
C2
  8
0
  6
CONTINUOUS
 62
     7
 10
-3611.903846
 20
431.370353
 30
0.0
 40
27.0
 50
0.0
 51
26.55564
  0
LINE
  5
C3
  8
0
  6
CONTINUOUS
 62
     7
 10
-3570.903846
 20
443.639289
 30
0.0
 11
-3570.903846
 21
361.101418
 31
0.0
  0
LINE
  5
C4
  8
0
  6
CONTINUOUS
 62
     7
 10
-3573.368135
 20
373.271292
 30
0.0
 11
-3572.903846
 21
399.870382
 31
0.0
  0
LINE
  5
C5
  8
0
  6
CONTINUOUS
 62
     7
 10
-3631.403875
 20
463.370353
 30
0.0
 11
-3636.403817
 21
463.370353
 31
0.0
  0
ARC
  5
C6
  8
0
  6
CONTINUOUS
 62
     7
 10
-3604.903846
 20
431.370353
 30
0.0
 40
27.0
 50
0.0
 51
90.0
  0
LINE
  5
C7
  8
0
  6
CONTINUOUS
 62
     7
 10
-3568.903846
 20
454.101402
 30
0.0
 11
-3568.903846
 21
462.370353
 31
0.0
  0
LINE
  5
C8
  8
0
  6
CONTINUOUS
 62
     7
 10
-3569.202421
 20
451.676045
 30
0.0
 11
-3570.605271
 21
446.064645
 31
0.0
  0
ARC
  5
C9
  8
0
  6
CONTINUOUS
 62
     7
 10
-3585.963327
 20
444.335287
 30
0.0
 40
2.0
 50
125.0
 51
206.55564
  0
ARC
  5
CA
  8
0
  6
CONTINUOUS
 62
     7
 10
-3560.903846
 20
443.639289
 30
0.0
 40
10.0
 50
165.963757
 51
180.0
  0
ARC
  5
CB
  8
0
  6
CONTINUOUS
 62
     7
 10
-3605.363261
 20
373.829769
 30
0.0
 40
32.0
 50
271.0
 51
321.283866
  0
ARC
  5
CC
  8
0
  6
CONTINUOUS
 62
     7
 10
-3662.903846
 20
373.370353
 30
0.0
 40
27.0
 50
180.0
 51
270.0
  0
ARC
  5
CD
  8
0
  6
CONTINUOUS
 62
     7
 10
-3585.963327
 20
360.40542
 30
0.0
 40
2.0
 50
153.44436
 51
235.0
  0
ARC
  5
CE
  8
0
  6
CONTINUOUS
 62
     7
 10
-3578.903846
 20
454.101402
 30
0.0
 40
10.0
 50
345.963757
 51
0.0
  0
ARC
  5
CF
  8
0
  6
CONTINUOUS
 62
     7
 10
-3578.903846
 20
350.579219
 30
0.0
 40
2.0
 50
0.0
 51
55.00000000000001
  0
ARC
  5
D0
  8
0
  6
CONTINUOUS
 62
     7
 10
-3578.903846
 20
454.161488
 30
0.0
 40
2.0
 50
305.0
 51
0.0
  0
LINE
  5
D1
  8
0
  6
CONTINUOUS
 62
     7
 10
-3604.804784
 20
462.906065
 30
0.0
 11
-3631.403875
 21
463.370353
 31
0.0
  0
LINE
  5
D2
  8
0
  6
CONTINUOUS
 62
     7
 10
-3569.903845
 20
462.620353
 30
0.0
 11
-3576.903846
 21
462.620353
 31
0.0
  0
LINE
  5
D3
  8
0
  6
CONTINUOUS
 62
     7
 10
-3576.903846
 20
350.579219
 30
0.0
 11
-3576.903846
 21
342.120353
 31
0.0
  0
ARC
  5
D4
  8
0
  6
CONTINUOUS
 62
     7
 10
-3662.444431
 20
430.910938
 30
0.0
 40
32.0
 50
91.0
 51
179.0
  0
LINE
  5
D5
  8
0
  6
CONTINUOUS
 62
     7
 10
-3694.439557
 20
431.469415
 30
0.0
 11
-3694.903846
 21
404.870324
 31
0.0
  0
ARC
  5
D6
  8
0
  6
CONTINUOUS
 62
     7
 10
-3604.903846
 20
373.370353
 30
0.0
 40
27.0
 50
270.0
 51
0.0
  0
LINE
  5
D7
  8
0
  6
CONTINUOUS
 62
     7
 10
-3604.903846
 20
458.370353
 30
0.0
 11
-3662.903846
 21
458.370353
 31
0.0
  0
ARC
  5
D8
  8
0
  6
CONTINUOUS
 62
     7
 10
-3662.444431
 20
373.829769
 30
0.0
 40
32.0
 50
181.0
 51
269.0
  0
LINE
  5
D9
  8
0
  6
CONTINUOUS
 62
     7
 10
-3569.903845
 20
342.120353
 30
0.0
 11
-3576.903846
 21
342.120353
 31
0.0
  0
LINE
  5
DA
  8
0
  6
CONTINUOUS
 62
     7
 10
-3689.903846
 20
431.370353
 30
0.0
 11
-3689.903846
 21
373.370353
 31
0.0
  0
LINE
  5
DB
  8
0
  6
CONTINUOUS
 62
     7
 10
-3569.202421
 20
353.064661
 30
0.0
 11
-3570.605271
 21
358.676061
 31
0.0
  0
ARC
  5
DC
  8
0
  6
CONTINUOUS
 62
     7
 10
-3605.363261
 20
373.829769
 30
0.0
 40
32.0
 50
321.651236
 51
358.9999999999999
  0
ARC
  5
DD
  8
0
  6
CONTINUOUS
 62
     7
 10
-3578.903846
 20
350.639305
 30
0.0
 40
10.0
 50
0.0
 51
14.036243
  0
ARC
  5
DE
  8
0
  6
CONTINUOUS
 62
     7
 10
-3605.363261
 20
430.910938
 30
0.0
 40
32.0
 50
38.716134
 51
89.00000000000001
  0
ARC
  5
DF
  8
0
  6
CONTINUOUS
 62
     7
 10
-3662.903846
 20
431.370353
 30
0.0
 40
27.0
 50
90.0
 51
180.0
  0
LINE
  5
E0
  8
0
  6
CONTINUOUS
 62
     7
 10
-3663.002908
 20
462.906065
 30
0.0
 11
-3636.403817
 21
463.370353
 31
0.0
  0
LINE
  5
E1
  8
0
  6
CONTINUOUS
 62
     7
 10
-3577.903846
 20
373.370353
 30
0.0
 11
-3577.903846
 21
431.370353
 31
0.0
  0
LINE
  5
E2
  8
0
  6
CONTINUOUS
 62
     7
 10
-3576.903846
 20
462.620353
 30
0.0
 11
-3603.606721
 21
462.853386
 31
0.0
  0
LINE
  5
E3
  8
0
  6
CONTINUOUS
 62
     7
 10
-3576.903846
 20
454.161488
 30
0.0
 11
-3576.903846
 21
462.620353
 31
0.0
  0
LINE
  5
E4
  8
0
  6
CONTINUOUS
 62
     7
 10
-3568.903846
 20
350.639305
 30
0.0
 11
-3568.903846
 21
342.370353
 31
0.0
  0
LINE
  5
E5
  8
0
  6
CONTINUOUS
 62
     7
 10
-3572.903846
 20
399.870382
 30
0.0
 11
-3572.903846
 21
404.870324
 31
0.0
  0
LINE
  5
E6
  8
0
  6
CONTINUOUS
 62
     7
 10
-3576.903846
 20
342.120353
 30
0.0
 11
-3603.606721
 21
341.887321
 31
0.0
  0
LINE
  5
E7
  8
0
  6
CONTINUOUS
 62
     7
 10
-3694.903846
 20
404.870324
 30
0.0
 11
-3694.903846
 21
399.870382
 31
0.0
  0
ARC
  5
E8
  8
0
  6
CONTINUOUS
 62
     7
 10
-3569.903846
 20
343.120361
 30
0.0
 40
1.0
 50
270.0
 51
0.0
  0
LINE
  5
E9
  8
0
  6
CONTINUOUS
 62
     7
 10
-3577.756693
 20
352.217523
 30
0.0
 11
-3587.11048
 21
358.767116
 31
0.0
  0
ARC
  5
EA
  8
0
  6
CONTINUOUS
 62
     7
 10
-3560.903846
 20
361.101418
 30
0.0
 40
10.0
 50
180.0
 51
194.036243
  0
ARC
  5
EB
  8
0
  6
CONTINUOUS
 62
     7
 10
-3317.637182
 20
373.829769
 30
0.0
 40
32.0
 50
181.0
 51
218.348764
  0
LINE
  5
EC
  8
0
  6
CONTINUOUS
 62
     7
 10
-3354.096597
 20
454.101402
 30
0.0
 11
-3354.096597
 21
462.370353
 31
0.0
  0
LINE
  5
ED
  8
0
  6
CONTINUOUS
 62
     7
 10
-3345.24375
 20
452.523183
 30
0.0
 11
-3342.722782
 21
450.757982
 31
0.0
  0
ARC
  5
EE
  8
0
  6
CONTINUOUS
 62
     7
 10
-3568.103846
 20
455.870353
 30
0.0
 40
2.5
 50
270.0
 51
0.0
  0
LINE
  5
EF
  8
0
  6
CONTINUOUS
 62
     7
 10
-3346.096597
 20
342.120353
 30
0.0
 11
-3319.393722
 21
341.887321
 31
0.0
  0
ARC
  5
F0
  8
0
  6
CONTINUOUS
 62
     7
 10
-3353.096597
 20
343.120361
 30
0.0
 40
1.0
 50
180.0
 51
270.0
  0
LINE
  5
F1
  8
0
  6
CONTINUOUS
 62
     7
 10
-3349.632308
 20
431.469415
 30
0.0
 11
-3350.096597
 21
404.870324
 31
0.0
  0
LINE
  5
F2
  8
0
  6
CONTINUOUS
 62
     7
 10
-3568.103846
 20
342.370353
 30
0.0
 11
-3568.903846
 21
342.370353
 31
0.0
  0
LINE
  5
F3
  8
0
  6
CENTER
 62
     1
 10
-3564.359814
 20
346.870353
 30
0.0
 11
-3578.148273
 21
346.870353
 31
0.0
  0
LINE
  5
F4
  8
0
  6
CONTINUOUS
 62
     7
 10
-3565.603846
 20
348.870353
 30
0.0
 11
-3565.603846
 21
344.870353
 31
0.0
  0
LINE
  5
F5
  8
0
  6
CONTINUOUS
 62
     7
 10
-3318.195659
 20
462.906065
 30
0.0
 11
-3291.596568
 21
463.370353
 31
0.0
  0
ARC
  5
F6
  8
0
  6
CONTINUOUS
 62
     7
 10
-3260.556012
 20
430.910938
 30
0.0
 40
32.0
 50
1.0
 51
89.00000000000001
  0
ARC
  5
F7
  8
0
  6
CONTINUOUS
 62
     7
 10
-3317.637182
 20
430.910938
 30
0.0
 40
32.0
 50
91.0
 51
141.283866
  0
LINE
  5
F8
  8
0
  6
CONTINUOUS
 62
     7
 10
-3346.096597
 20
350.579219
 30
0.0
 11
-3346.096597
 21
342.120353
 31
0.0
  0
LINE
  5
F9
  8
0
  6
CONTINUOUS
 62
     7
 10
-3345.24375
 20
352.217523
 30
0.0
 11
-3342.733137
 21
353.975473
 31
0.0
  0
LINE
  5
FA
  8
0
  6
CENTER
 62
     1
 10
-3358.640629
 20
457.870353
 30
0.0
 11
-3344.85217
 21
457.870353
 31
0.0
  0
LINE
  5
FB
  8
0
  6
CONTINUOUS
 62
     7
 10
-3568.103846
 20
453.370353
 30
0.0
 11
-3568.903846
 21
453.370353
 31
0.0
  0
LINE
  5
FC
  8
0
  6
CENTER
 62
     1
 10
-3289.096597
 20
466.573682
 30
0.0
 11
-3289.096597
 21
337.016829
 31
0.0
  0
ARC
  5
FD
  8
0
  6
CONTINUOUS
 62
     7
 10
-3317.637182
 20
373.829769
 30
0.0
 40
32.0
 50
218.716134
 51
269.0
  0
LINE
  5
FE
  8
0
  6
CONTINUOUS
 62
     7
 10
-3228.560886
 20
431.469415
 30
0.0
 11
-3228.096597
 21
404.870324
 31
0.0
  0
LINE
  5
FF
  8
0
  6
CONTINUOUS
 62
     7
 10
-3350.096597
 20
399.870382
 30
0.0
 11
-3350.096597
 21
404.870324
 31
0.0
  0
LINE
  5
100
  8
0
  6
CONTINUOUS
 62
     7
 10
-3354.096597
 20
350.639305
 30
0.0
 11
-3354.096597
 21
342.370353
 31
0.0
  0
LINE
  5
101
  8
0
  6
CONTINUOUS
 62
     7
 10
-3228.096597
 20
404.870324
 30
0.0
 11
-3228.096597
 21
399.870382
 31
0.0
  0
ARC
  5
102
  8
0
  6
CONTINUOUS
 62
     7
 10
-3344.096597
 20
350.639305
 30
0.0
 40
10.0
 50
165.963757
 51
180.0
  0
ARC
  5
103
  8
0
  6
CONTINUOUS
 62
     7
 10
-3353.096597
 20
461.620346
 30
0.0
 40
1.0
 50
90.0
 51
180.0
  0
ARC
  5
104
  8
0
  6
CONTINUOUS
 62
     7
 10
-3568.103846
 20
459.870353
 30
0.0
 40
2.5
 50
0.0
 51
90.0
  0
ARC
  5
105
  8
0
  6
CONTINUOUS
 62
     7
 10
-3568.103846
 20
348.870353
 30
0.0
 40
2.5
 50
0.0
 51
90.0
  0
LINE
  5
106
  8
0
  6
CENTER
 62
     1
 10
-3365.94003
 20
402.370353
 30
0.0
 11
-3226.498991
 21
402.370353
 31
0.0
  0
LINE
  5
107
  8
0
  6
CONTINUOUS
 62
     7
 10
-3346.096597
 20
462.620353
 30
0.0
 11
-3319.393722
 21
462.853386
 31
0.0
  0
LINE
  5
108
  8
0
  6
CONTINUOUS
 62
     7
 10
-3352.096597
 20
443.639289
 30
0.0
 11
-3352.096597
 21
361.101418
 31
0.0
  0
LINE
  5
109
  8
0
  6
CONTINUOUS
 62
     7
 10
-3353.798022
 20
451.676045
 30
0.0
 11
-3352.395172
 21
446.064645
 31
0.0
  0
LINE
  5
10A
  8
0
  6
CONTINUOUS
 62
     7
 10
-3259.997535
 20
341.834642
 30
0.0
 11
-3286.596626
 21
341.370353
 31
0.0
  0
ARC
  5
10B
  8
0
  6
CONTINUOUS
 62
     7
 10
-3568.103846
 20
344.870353
 30
0.0
 40
2.5
 50
270.0
 51
0.0
  0
LINE
  5
10C
  8
0
  6
CONTINUOUS
 62
     7
 10
-3228.560886
 20
373.271292
 30
0.0
 11
-3228.096597
 21
399.870382
 31
0.0
  0
LINE
  5
10D
  8
0
  6
CONTINUOUS
 62
     7
 10
-3291.596568
 20
463.370353
 30
0.0
 11
-3286.596626
 21
463.370353
 31
0.0
  0
LINE
  5
10E
  8
0
  6
CONTINUOUS
 62
     7
 10
-3259.997535
 20
462.906065
 30
0.0
 11
-3286.596626
 21
463.370353
 31
0.0
  0
LINE
  5
10F
  8
0
  6
CONTINUOUS
 62
     7
 10
-3568.103846
 20
351.370353
 30
0.0
 11
-3568.903846
 21
351.370353
 31
0.0
  0
LINE
  5
110
  8
0
  6
CONTINUOUS
 62
     7
 10
-3353.798022
 20
353.064661
 30
0.0
 11
-3352.395172
 21
358.676061
 31
0.0
  0
LINE
  5
111
  8
0
  6
CONTINUOUS
 62
     7
 10
-3353.096598
 20
462.620353
 30
0.0
 11
-3346.096597
 21
462.620353
 31
0.0
  0
LINE
  5
112
  8
0
  6
CONTINUOUS
 62
     7
 10
-3318.195659
 20
341.834642
 30
0.0
 11
-3291.596568
 21
341.370353
 31
0.0
  0
LINE
  5
113
  8
0
  6
CONTINUOUS
 62
     7
 10
-3286.596626
 20
341.370353
 30
0.0
 11
-3291.596568
 21
341.370353
 31
0.0
  0
LINE
  5
114
  8
0
  6
CONTINUOUS
 62
     7
 10
-3565.603846
 20
455.870353
 30
0.0
 11
-3565.603846
 21
459.870353
 31
0.0
  0
ARC
  5
115
  8
0
  6
CONTINUOUS
 62
     7
 10
-3260.556012
 20
373.829769
 30
0.0
 40
32.0
 50
271.0
 51
358.9999999999999
  0
LINE
  5
116
  8
0
  6
CONTINUOUS
 62
     7
 10
-3353.096598
 20
342.120353
 30
0.0
 11
-3346.096597
 21
342.120353
 31
0.0
  0
LINE
  5
117
  8
0
  6
CONTINUOUS
 62
     7
 10
-3349.632308
 20
373.271292
 30
0.0
 11
-3350.096597
 21
399.870382
 31
0.0
  0
LINE
  5
118
  8
0
  6
CONTINUOUS
 62
     7
 10
-3346.096597
 20
454.161488
 30
0.0
 11
-3346.096597
 21
462.620353
 31
0.0
  0
LINE
  5
119
  8
0
  6
CONTINUOUS
 62
     7
 10
-3568.103846
 20
462.370353
 30
0.0
 11
-3568.903846
 21
462.370353
 31
0.0
  0
ARC
  5
11A
  8
0
  6
CONTINUOUS
 62
     7
 10
-3362.096597
 20
361.101418
 30
0.0
 40
10.0
 50
345.963757
 51
0.0
  0
LINE
  5
11B
  8
0
  6
CONTINUOUS
 62
     7
 10
-3425.1265
 20
451.370353
 30
0.0
 11
-3397.1265
 21
451.370353
 31
0.0
  0
LINE
  5
11C
  8
0
  6
CONTINUOUS
 62
     7
 10
-3397.1265
 20
422.666818
 30
0.0
 11
-3425.1265
 21
422.666818
 31
0.0
  0
LINE
  5
11D
  8
0
  6
CONTINUOUS
 62
     7
 10
-3395.6265
 20
457.958965
 30
0.0
 11
-3395.6265
 21
346.781742
 31
0.0
  0
ARC
  5
11E
  8
0
  6
CONTINUOUS
 62
     7
 10
-3522.126508
 20
451.765233
 30
0.0
 40
1.0
 50
270.0
 51
0.0
  0
ARC
  5
11F
  8
0
  6
CONTINUOUS
 62
     7
 10
-3401.6265
 20
402.370353
 30
0.0
 40
5.0
 50
90.0
 51
270.0
  0
ARC
  5
120
  8
0
  6
CONTINUOUS
 62
     7
 10
-3515.126509
 20
457.870353
 30
0.0
 40
2.5
 50
258.463041
 51
281.536959
  0
LINE
  5
121
  8
0
  6
CONTINUOUS
 62
     7
 10
-3425.1265
 20
353.370353
 30
0.0
 11
-3425.1265
 21
451.370353
 31
0.0
  0
LINE
  5
122
  8
0
  6
CONTINUOUS
 62
     7
 10
-3516.626509
 20
457.370353
 30
0.0
 11
-3519.598645
 21
457.370353
 31
0.0
  0
LINE
  5
123
  8
0
  6
CONTINUOUS
 62
     7
 10
-3527.126509
 20
450.765233
 30
0.0
 11
-3522.126508
 21
450.765233
 31
0.0
  0
LINE
  5
124
  8
0
  6
CONTINUOUS
 62
     7
 10
-3509.126508
 20
444.870345
 30
0.0
 11
-3521.126508
 21
444.870345
 31
0.0
  0
LINE
  5
125
  8
0
  6
CONTINUOUS
 62
     7
 10
-3509.126508
 20
452.870345
 30
0.0
 11
-3521.126508
 21
452.870345
 31
0.0
  0
LINE
  5
126
  8
0
  6
CENTER
 62
     1
 10
-3527.484787
 20
402.370353
 30
0.0
 11
-3376.419242
 21
402.370353
 31
0.0
  0
LINE
  5
127
  8
0
  6
CONTINUOUS
 62
     7
 10
-3426.6265
 20
341.962875
 30
0.0
 11
-3426.6265
 21
462.777832
 31
0.0
  0
LINE
  5
128
  8
0
  6
CENTER
 62
     1
 10
-3401.6265
 20
410.145354
 30
0.0
 11
-3401.6265
 21
394.595353
 31
0.0
  0
CIRCLE
  5
129
  8
0
  6
CONTINUOUS
 62
     7
 10
-3515.126509
 20
457.870353
 30
0.0
 40
4.5
  0
ARC
  5
12A
  8
0
  6
CONTINUOUS
 62
     7
 10
-3515.126509
 20
457.870353
 30
0.0
 40
2.5
 50
78.463041
 51
101.536959
  0
LINE
  5
12B
  8
0
  6
CONTINUOUS
 62
     7
 10
-3515.626509
 20
456.370353
 30
0.0
 11
-3515.626509
 21
455.420864
 31
0.0
  0
LINE
  5
12C
  8
0
  6
CONTINUOUS
 62
     7
 10
-3425.1265
 20
451.370353
 30
0.0
 11
-3426.517004
 21
462.494388
 31
0.0
  0
LINE
  5
12D
  8
0
  6
CONTINUOUS
 62
     7
 10
-3516.376508
 20
462.620354
 30
0.0
 11
-3513.876508
 21
462.620354
 31
0.0
  0
ARC
  5
12E
  8
0
  6
CONTINUOUS
 62
     7
 10
-3513.876508
 20
457.870354
 30
0.0
 40
4.75
 50
0.0
 51
90.0
  0
LINE
  5
12F
  8
0
  6
CONTINUOUS
 62
     7
 10
-3527.126509
 20
463.370353
 30
0.0
 11
-3527.126509
 21
341.370353
 31
0.0
  0
LINE
  5
130
  8
0
  6
CONTINUOUS
 62
     7
 10
-3396.554786
 20
407.370353
 30
0.0
 11
-3396.554786
 21
397.370353
 31
0.0
  0
LINE
  5
131
  8
0
  6
CONTINUOUS
 62
     7
 10
-3396.554786
 20
407.370353
 30
0.0
 11
-3401.6265
 21
407.370353
 31
0.0
  0
LINE
  5
132
  8
0
  6
CONTINUOUS
 62
     7
 10
-3509.126508
 20
346.870353
 30
0.0
 11
-3509.126508
 21
457.870354
 31
0.0
  0
LINE
  5
133
  8
0
  6
CONTINUOUS
 62
     7
 10
-3395.795887
 20
457.579883
 30
0.0
 11
-3397.1265
 21
451.370353
 31
0.0
  0
CIRCLE
  5
134
  8
0
  6
CONTINUOUS
 62
     7
 10
-3401.6265
 20
402.370353
 30
0.0
 40
2.25
  0
LINE
  5
135
  8
0
  6
CONTINUOUS
 62
     7
 10
-3521.126508
 20
457.870355
 30
0.0
 11
-3521.126508
 21
346.870352
 31
0.0
  0
LINE
  5
136
  8
0
  6
CENTER
 62
     1
 10
-3515.12651
 20
453.132744
 30
0.0
 11
-3515.126508
 21
462.99639
 31
0.0
  0
ARC
  5
137
  8
0
  6
CONTINUOUS
 62
     7
 10
-3516.376508
 20
457.870354
 30
0.0
 40
4.75
 50
90.0
 51
180.0
  0
LINE
  5
138
  8
0
  6
CONTINUOUS
 62
     7
 10
-3389.6265
 20
346.370353
 30
0.0
 11
-3389.6265
 21
458.370353
 31
0.0
  0
LINE
  5
139
  8
0
  6
CONTINUOUS
 62
     7
 10
-3394.859173
 20
458.370353
 30
0.0
 11
-3381.6265
 21
458.370353
 31
0.0
  0
ARC
  5
13A
  8
0
  6
CONTINUOUS
 62
     7
 10
-3394.818084
 20
457.370353
 30
0.0
 40
1.0
 50
90.0
 51
167.905243
  0
ARC
  5
13B
  8
0
  6
CONTINUOUS
 62
     7
 10
-3427.509282
 20
462.370353
 30
0.0
 40
1.0
 50
7.125016
 51
90.0
  0
LINE
  5
13C
  8
0
  6
CONTINUOUS
 62
     7
 10
-3527.126509
 20
463.370353
 30
0.0
 11
-3427.509282
 21
463.370353
 31
0.0
  0
LINE
  5
13D
  8
0
  6
CENTER
 62
     1
 10
-3509.802472
 20
457.870352
 30
0.0
 11
-3520.429559
 21
457.870354
 31
0.0
  0
LINE
  5
13E
  8
0
  6
CENTER
 62
     1
 10
-3633.903846
 20
466.573682
 30
0.0
 11
-3633.903846
 21
341.370353
 31
0.0
  0
LINE
  5
13F
  8
0
  6
CONTINUOUS
 62
     7
 10
-3636.403817
 20
341.370353
 30
0.0
 11
-3631.403875
 21
341.370353
 31
0.0
  0
LINE
  5
140
  8
0
  6
CONTINUOUS
 62
     7
 10
-3604.804784
 20
341.834642
 30
0.0
 11
-3631.403875
 21
341.370353
 31
0.0
  0
LINE
  5
141
  8
0
  6
CONTINUOUS
 62
     7
 10
-3516.626509
 20
458.370353
 30
0.0
 11
-3519.598645
 21
458.370353
 31
0.0
  0
ARC
  5
142
  8
0
  6
CONTINUOUS
 62
     7
 10
-3513.626509
 20
456.370353
 30
0.0
 40
1.0
 50
90.0
 51
180.0
  0
LINE
  5
143
  8
0
  6
CONTINUOUS
 62
     7
 10
-3381.6265
 20
425.566313
 30
0.0
 11
-3387.6265
 21
425.566313
 31
0.0
  0
LINE
  5
144
  8
0
  6
CONTINUOUS
 62
     7
 10
-3513.626509
 20
457.370353
 30
0.0
 11
-3510.654373
 21
457.370353
 31
0.0
  0
LINE
  5
145
  8
0
  6
CONTINUOUS
 62
     7
 10
-3514.626509
 20
459.370353
 30
0.0
 11
-3514.626509
 21
460.319843
 31
0.0
  0
ARC
  5
146
  8
0
  6
CONTINUOUS
 62
     7
 10
-3513.626509
 20
459.370353
 30
0.0
 40
1.0
 50
180.0
 51
270.0
  0
LINE
  5
147
  8
0
  6
CONTINUOUS
 62
     7
 10
-3387.6265
 20
346.370353
 30
0.0
 11
-3387.6265
 21
458.370353
 31
0.0
  0
ARC
  5
148
  8
0
  6
CONTINUOUS
 62
     7
 10
-3516.626509
 20
456.370353
 30
0.0
 40
1.0
 50
0.0
 51
90.0
  0
LINE
  5
149
  8
0
  6
CONTINUOUS
 62
     7
 10
-3694.439557
 20
373.271292
 30
0.0
 11
-3694.903846
 21
399.870382
 31
0.0
  0
LINE
  5
14A
  8
0
  6
CONTINUOUS
 62
     7
 10
-3663.002908
 20
341.834642
 30
0.0
 11
-3636.403817
 21
341.370353
 31
0.0
  0
LINE
  5
14B
  8
0
  6
CONTINUOUS
 62
     7
 10
-3513.626509
 20
458.370353
 30
0.0
 11
-3510.654373
 21
458.370353
 31
0.0
  0
LINE
  5
14C
  8
0
  6
CONTINUOUS
 62
     7
 10
-3514.626509
 20
456.370353
 30
0.0
 11
-3514.626509
 21
455.420864
 31
0.0
  0
LINE
  5
14D
  8
0
  6
CONTINUOUS
 62
     7
 10
-3515.626509
 20
459.370353
 30
0.0
 11
-3515.626509
 21
460.319843
 31
0.0
  0
ARC
  5
14E
  8
0
  6
CONTINUOUS
 62
     7
 10
-3516.626509
 20
459.370353
 30
0.0
 40
1.0
 50
270.0
 51
0.0
  0
LINE
  5
14F
  8
0
  6
CONTINUOUS
 62
     7
 10
-3381.6265
 20
458.370353
 30
0.0
 11
-3381.6265
 21
346.370353
 31
0.0
  0
LINE
  5
150
  8
0
  6
CENTER
 62
     1
 10
-3557.060413
 20
402.370353
 30
0.0
 11
-3698.997708
 21
402.370353
 31
0.0
  0
LINE
  5
151
  8
0
  6
CONTINUOUS
 62
     7
 10
-3662.903846
 20
346.370353
 30
0.0
 11
-3604.903846
 21
346.370353
 31
0.0
  0
TEXT
  5
152
  8
0
  6
CONTINUOUS
 62
     7
 10
-3488.922025395836
 20
303.3793274545454
 30
0.0
 40
10.0
  1
ＫＦＥＫ－７５
 41
0.810811
  0
LINE
  5
153
  8
0
  6
CONTINUOUS
 62
     7
 10
-3394.859173
 20
346.370353
 30
0.0
 11
-3381.6265
 21
346.370353
 31
0.0
  0
LINE
  5
154
  8
0
  6
CONTINUOUS
 62
     7
 10
-3397.1265
 20
382.073889
 30
0.0
 11
-3425.1265
 21
382.073889
 31
0.0
  0
LINE
  5
155
  8
0
  6
CONTINUOUS
 62
     7
 10
-3509.126508
 20
359.870361
 30
0.0
 11
-3521.126508
 21
359.870361
 31
0.0
  0
ARC
  5
156
  8
0
  6
CONTINUOUS
 62
     7
 10
-3515.126509
 20
346.870353
 30
0.0
 40
2.5
 50
258.463041
 51
281.536959
  0
LINE
  5
157
  8
0
  6
CENTER
 62
     1
 10
-3358.640629
 20
346.870353
 30
0.0
 11
-3344.85217
 21
346.870353
 31
0.0
  0
ARC
  5
158
  8
0
  6
CONTINUOUS
 62
     7
 10
-3344.096597
 20
454.101402
 30
0.0
 40
10.0
 50
180.0
 51
194.036243
  0
LINE
  5
159
  8
0
  6
CONTINUOUS
 62
     7
 10
-3312.292557
 20
346.370353
 30
0.0
 11
-3265.900638
 21
346.370353
 31
0.0
  0
ARC
  5
15A
  8
0
  6
CONTINUOUS
 62
     7
 10
-3344.096597
 20
454.161488
 30
0.0
 40
2.0
 50
180.0
 51
235.0
  0
LINE
  5
15B
  8
0
  6
CONTINUOUS
 62
     7
 10
-3527.126509
 20
341.370353
 30
0.0
 11
-3427.509282
 21
341.370353
 31
0.0
  0
ARC
  5
15C
  8
0
  6
CONTINUOUS
 62
     7
 10
-3317.637182
 20
430.910938
 30
0.0
 40
32.0
 50
141.651236
 51
179.0
  0
LINE
  5
15D
  8
0
  6
CONTINUOUS
 62
     7
 10
-3265.900638
 20
346.370353
 30
0.0
 11
-3233.096597
 21
379.174394
 31
0.0
  0
ARC
  5
15E
  8
0
  6
CONTINUOUS
 62
     7
 10
-3513.876508
 20
346.870353
 30
0.0
 40
4.75
 50
270.0
 51
0.0
  0
CIRCLE
  5
15F
  8
0
  6
CONTINUOUS
 62
     7
 10
-3289.096597
 20
402.370353
 30
0.0
 40
38.5
  0
LINE
  5
160
  8
0
  6
CENTER
 62
     1
 10
-3509.802472
 20
346.870354
 30
0.0
 11
-3520.429559
 21
346.870352
 31
0.0
  0
LINE
  5
161
  8
0
  6
CONTINUOUS
 62
     7
 10
-3515.626509
 20
345.370353
 30
0.0
 11
-3515.626509
 21
344.420864
 31
0.0
  0
LINE
  5
162
  8
0
  6
CONTINUOUS
 62
     7
 10
-3513.626509
 20
346.370353
 30
0.0
 11
-3510.654373
 21
346.370353
 31
0.0
  0
LINE
  5
163
  8
0
  6
CONTINUOUS
 62
     7
 10
-3513.626509
 20
347.370353
 30
0.0
 11
-3510.654373
 21
347.370353
 31
0.0
  0
ARC
  5
164
  8
0
  6
CONTINUOUS
 62
     7
 10
-3513.626509
 20
348.370353
 30
0.0
 40
1.0
 50
180.0
 51
270.0
  0
LINE
  5
165
  8
0
  6
CONTINUOUS
 62
     7
 10
-3381.6265
 20
379.174394
 30
0.0
 11
-3387.6265
 21
379.174394
 31
0.0
  0
LINE
  5
166
  8
0
  6
CONTINUOUS
 62
     7
 10
-3397.1265
 20
353.370353
 30
0.0
 11
-3397.1265
 21
397.370353
 31
0.0
  0
ARC
  5
167
  8
0
  6
CONTINUOUS
 62
     7
 10
-3354.896597
 20
348.870353
 30
0.0
 40
2.5
 50
90.0
 51
180.0
  0
CIRCLE
  5
168
  8
0
  6
CONTINUOUS
 62
     7
 10
-3633.903846
 20
402.370353
 30
0.0
 40
38.5
  0
LINE
  5
169
  8
0
  6
CONTINUOUS
 62
     7
 10
-3425.1265
 20
353.370353
 30
0.0
 11
-3426.517004
 21
342.246319
 31
0.0
  0
LINE
  5
16A
  8
0
  6
CONTINUOUS
 62
     7
 10
-3397.1265
 20
451.370354
 30
0.0
 11
-3397.1265
 21
407.370353
 31
0.0
  0
ARC
  5
16B
  8
0
  6
CONTINUOUS
 62
     7
 10
-3354.896597
 20
455.870353
 30
0.0
 40
2.5
 50
180.0
 51
270.0
  0
ARC
  5
16C
  8
0
  6
CONTINUOUS
 62
     7
 10
-3522.126508
 20
352.975473
 30
0.0
 40
1.0
 50
0.0
 51
90.0
  0
ARC
  5
16D
  8
0
  6
CONTINUOUS
 62
     7
 10
-3427.509282
 20
342.370353
 30
0.0
 40
1.0
 50
270.0
 51
352.874984
  0
CIRCLE
  5
16E
  8
0
  6
CONTINUOUS
 62
     7
 10
-3515.126509
 20
346.870353
 30
0.0
 40
4.5
  0
LINE
  5
16F
  8
0
  6
CONTINUOUS
 62
     7
 10
-3233.096597
 20
379.174394
 30
0.0
 11
-3233.096597
 21
425.566313
 31
0.0
  0
ARC
  5
170
  8
0
  6
CONTINUOUS
 62
     7
 10
-3515.126509
 20
346.870353
 30
0.0
 40
2.5
 50
78.463041
 51
101.536959
  0
LINE
  5
171
  8
0
  6
CONTINUOUS
 62
     7
 10
-3515.626509
 20
348.370353
 30
0.0
 11
-3515.626509
 21
349.319843
 31
0.0
  0
LINE
  5
172
  8
0
  6
CONTINUOUS
 62
     7
 10
-3357.396597
 20
348.870353
 30
0.0
 11
-3357.396597
 21
344.870353
 31
0.0
  0
ARC
  5
173
  8
0
  6
CONTINUOUS
 62
     7
 10
-3354.896597
 20
459.870353
 30
0.0
 40
2.5
 50
90.0
 51
180.0
  0
LINE
  5
174
  8
0
  6
CONTINUOUS
 62
     7
 10
-3265.900638
 20
458.370353
 30
0.0
 11
-3312.292557
 21
458.370353
 31
0.0
  0
ARC
  5
175
  8
0
  6
CONTINUOUS
 62
     7
 10
-3394.818084
 20
347.370353
 30
0.0
 40
1.0
 50
192.094757
 51
270.0
  0
LINE
  5
176
  8
0
  6
CONTINUOUS
 62
     7
 10
-3516.626509
 20
346.370353
 30
0.0
 11
-3519.598645
 21
346.370353
 31
0.0
  0
LINE
  5
177
  8
0
  6
CONTINUOUS
 62
     7
 10
-3514.626509
 20
345.370353
 30
0.0
 11
-3514.626509
 21
344.420864
 31
0.0
  0
LINE
  5
178
  8
0
  6
CONTINUOUS
 62
     7
 10
-3354.896597
 20
453.370353
 30
0.0
 11
-3354.096597
 21
453.370353
 31
0.0
  0
LINE
  5
179
  8
0
  6
CONTINUOUS
 62
     7
 10
-3527.126509
 20
353.975473
 30
0.0
 11
-3522.126508
 21
353.975473
 31
0.0
  0
LINE
  5
17A
  8
0
  6
CONTINUOUS
 62
     7
 10
-3514.626509
 20
348.370353
 30
0.0
 11
-3514.626509
 21
349.319843
 31
0.0
  0
LINE
  5
17B
  8
0
  6
CONTINUOUS
 62
     7
 10
-3345.096597
 20
379.174394
 30
0.0
 11
-3312.292557
 21
346.370353
 31
0.0
  0
ARC
  5
17C
  8
0
  6
CONTINUOUS
 62
     7
 10
-3513.626509
 20
345.370353
 30
0.0
 40
1.0
 50
90.0
 51
180.0
  0
ARC
  5
17D
  8
0
  6
CONTINUOUS
 62
     7
 10
-3362.096597
 20
443.639289
 30
0.0
 40
10.0
 50
0.0
 51
14.036243
  0
LINE
  5
17E
  8
0
  6
CONTINUOUS
 62
     7
 10
-3396.554786
 20
397.370353
 30
0.0
 11
-3401.6265
 21
397.370353
 31
0.0
  0
LINE
  5
17F
  8
0
  6
CONTINUOUS
 62
     7
 10
-3516.376508
 20
342.120353
 30
0.0
 11
-3513.876508
 21
342.120353
 31
0.0
  0
LINE
  5
180
  8
0
  6
CONTINUOUS
 62
     7
 10
-3354.896597
 20
462.370353
 30
0.0
 11
-3354.096597
 21
462.370353
 31
0.0
  0
ARC
  5
181
  8
0
  6
CONTINUOUS
 62
     7
 10
-3516.376508
 20
346.870353
 30
0.0
 40
4.75
 50
180.0
 51
270.0
  0
ARC
  5
182
  8
0
  6
CONTINUOUS
 62
     7
 10
-3344.096597
 20
350.579219
 30
0.0
 40
2.0
 50
125.0
 51
180.0
  0
ARC
  5
183
  8
0
  6
CONTINUOUS
 62
     7
 10
-3354.896597
 20
344.870353
 30
0.0
 40
2.5
 50
180.0
 51
270.0
  0
LINE
  5
184
  8
0
  6
CENTER
 62
     1
 10
-3515.12651
 20
351.607963
 30
0.0
 11
-3515.126508
 21
341.744317
 31
0.0
  0
LINE
  5
185
  8
0
  6
CONTINUOUS
 62
     7
 10
-3509.126508
 20
351.870361
 30
0.0
 11
-3521.126508
 21
351.870361
 31
0.0
  0
LINE
  5
186
  8
0
  6
CONTINUOUS
 62
     7
 10
-3516.626509
 20
347.370353
 30
0.0
 11
-3519.598645
 21
347.370353
 31
0.0
  0
LINE
  5
187
  8
0
  6
CONTINUOUS
 62
     7
 10
-3233.096597
 20
425.566313
 30
0.0
 11
-3265.900638
 21
458.370353
 31
0.0
  0
LINE
  5
188
  8
0
  6
CONTINUOUS
 62
     7
 10
-3395.795887
 20
347.160824
 30
0.0
 11
-3397.1265
 21
353.370353
 31
0.0
  0
ARC
  5
189
  8
0
  6
CONTINUOUS
 62
     7
 10
-3516.626509
 20
348.370353
 30
0.0
 40
1.0
 50
270.0
 51
0.0
  0
ARC
  5
18A
  8
0
  6
CONTINUOUS
 62
     7
 10
-3516.626509
 20
345.370353
 30
0.0
 40
1.0
 50
0.0
 51
90.0
  0
LINE
  5
18B
  8
0
  6
CONTINUOUS
 62
     7
 10
-3354.896597
 20
351.370353
 30
0.0
 11
-3354.096597
 21
351.370353
 31
0.0
  0
LINE
  5
18C
  8
0
  6
CONTINUOUS
 62
     7
 10
-3354.896597
 20
342.370353
 30
0.0
 11
-3354.096597
 21
342.370353
 31
0.0
  0
LINE
  5
18D
  8
0
  6
CONTINUOUS
 62
     7
 10
-3312.292557
 20
458.370353
 30
0.0
 11
-3345.096597
 21
425.566313
 31
0.0
  0
LINE
  5
18E
  8
0
  6
CONTINUOUS
 62
     7
 10
-3345.096597
 20
425.566313
 30
0.0
 11
-3345.096597
 21
379.174394
 31
0.0
  0
LINE
  5
18F
  8
0
  6
CONTINUOUS
 62
     7
 10
-3357.396597
 20
455.870353
 30
0.0
 11
-3357.396597
 21
459.870353
 31
0.0
  0
LINE
  5
190
  8
0
  6
CONTINUOUS
 62
     7
 10
-3425.1265
 20
353.370353
 30
0.0
 11
-3397.1265
 21
353.370353
 31
0.0
  0
ENDSEC
  0
EOF
