  0
SECTION
  2
HEADER
  9
$ACADVER
  1
AC1006
  9
$DWGCODEPAGE
  3
ansi_932
  9
$INSBASE
 10
0.0
 20
0.0
 30
0.0
  9
$EXTMIN
 10
0.0
 20
-344.5339311167937
  9
$EXTMAX
 10
6107.2351492939
 20
297.0
  9
$LIMMIN
 10
0.0
 20
0.0
  9
$LIMMAX
 10
12.0
 20
9.0
  9
$ORTHOMODE
 70
     0
  9
$REGENMODE
 70
     1
  9
$FILLMODE
 70
     1
  9
$QTEXTMODE
 70
     0
  9
$MIRRTEXT
 70
     1
  9
$DRAGMODE
 70
     2
  9
$LTSCALE
 40
1.0
  9
$OSMODE
 70
    37
  9
$ATTMODE
 70
     1
  9
$TEXTSIZE
 40
0.2
  9
$TRACEWID
 40
0.05
  9
$TEXTSTYLE
  7
STANDARD
  9
$CLAYER
  8
0
  9
$CELTYPE
  6
BYLAYER
  9
$CECOLOR
 62
   256
  9
$DIMSCALE
 40
1.0
  9
$DIMASZ
 40
0.9
  9
$DIMEXO
 40
0.0625
  9
$DIMDLI
 40
0.38
  9
$DIMRND
 40
0.0
  9
$DIMDLE
 40
0.0
  9
$DIMEXE
 40
0.45
  9
$DIMTP
 40
0.0
  9
$DIMTM
 40
0.0
  9
$DIMTXT
 40
3.0
  9
$DIMCEN
 40
0.09
  9
$DIMTSZ
 40
0.0
  9
$DIMTOL
 70
     0
  9
$DIMLIM
 70
     0
  9
$DIMTIH
 70
     1
  9
$DIMTOH
 70
     1
  9
$DIMSE1
 70
     0
  9
$DIMSE2
 70
     0
  9
$DIMTAD
 70
     1
  9
$DIMZIN
 70
     0
  9
$DIMBLK
  1

  9
$DIMASO
 70
     1
  9
$DIMSHO
 70
     1
  9
$DIMPOST
  1

  9
$DIMAPOST
  1

  9
$DIMALT
 70
     0
  9
$DIMALTD
 70
     2
  9
$DIMALTF
 40
25.4
  9
$DIMLFAC
 40
1.0
  9
$DIMTOFL
 70
     0
  9
$DIMTVP
 40
0.0
  9
$DIMTIX
 70
     0
  9
$DIMSOXD
 70
     0
  9
$DIMSAH
 70
     0
  9
$DIMBLK1
  1

  9
$DIMBLK2
  1

  9
$LUNITS
 70
     2
  9
$LUPREC
 70
     4
  9
$SKETCHINC
 40
0.1
  9
$FILLETRAD
 40
0.5
  9
$AUNITS
 70
     0
  9
$AUPREC
 70
     0
  9
$MENU
  1
.
  9
$ELEVATION
 40
0.0
  9
$THICKNESS
 40
0.0
  9
$LIMCHECK
 70
     0
  9
$CHAMFERA
 40
0.0
  9
$CHAMFERB
 40
0.0
  9
$SKPOLY
 70
     0
  9
$TDCREATE
 40
2460027.679370336
  9
$TDUPDATE
 40
2460027.679370799
  9
$TDINDWG
 40
0.0000000116
  9
$TDUSRTIMER
 40
0.0000000116
  9
$USRTIMER
 70
     1
  9
$ANGBASE
 50
0.0
  9
$ANGDIR
 70
     0
  9
$PDMODE
 70
     0
  9
$PDSIZE
 40
0.0
  9
$PLINEWID
 40
0.0
  9
$COORDS
 70
     1
  9
$SPLFRAME
 70
     0
  9
$SPLINETYPE
 70
     6
  9
$SPLINESEGS
 70
     8
  9
$ATTDIA
 70
     0
  9
$ATTREQ
 70
     1
  9
$HANDLING
 70
     1
  9
$HANDSEED
  5
2DA
  9
$SURFTAB1
 70
     6
  9
$SURFTAB2
 70
     6
  9
$SURFTYPE
 70
     6
  9
$SURFU
 70
     6
  9
$SURFV
 70
     6
  9
$UCSNAME
  2

  9
$UCSORG
 10
0.0
 20
0.0
 30
0.0
  9
$UCSXDIR
 10
1.0
 20
0.0
 30
0.0
  9
$UCSYDIR
 10
0.0
 20
1.0
 30
0.0
  9
$USERI1
 70
     0
  9
$USERI2
 70
     0
  9
$USERI3
 70
     0
  9
$USERI4
 70
     0
  9
$USERI5
 70
     0
  9
$USERR1
 40
0.0
  9
$USERR2
 40
0.0
  9
$USERR3
 40
0.0
  9
$USERR4
 40
0.0
  9
$USERR5
 40
0.0
  9
$WORLDVIEW
 70
     1
  0
ENDSEC
  0
SECTION
  2
TABLES
  0
TABLE
  2
VPORT
 70
     1
  0
VPORT
  2
*ACTIVE
 70
     0
 10
0.0
 20
0.0
 11
1.0
 21
1.0
 12
3053.61757464695
 22
-23.76696555839683
 13
0.0
 23
0.0
 14
0.5
 24
0.5
 15
0.5
 25
0.5
 16
0.0
 26
0.0
 36
1.0
 17
0.0
 27
0.0
 37
0.0
 40
641.5339311167936
 41
1.6
 42
50.0
 43
0.0
 44
0.0
 50
0.0
 51
0.0
 71
     0
 72
   100
 73
     1
 74
     3
 75
     0
 76
     0
 77
     0
 78
     0
  0
ENDTAB
  0
TABLE
  2
LTYPE
 70
     2
  0
LTYPE
  2
CONTINUOUS
 70
     0
  3
Solid line
 72
    65
 73
     0
 40
0.0
  0
LTYPE
  2
CENTER
 70
     0
  3

 72
    65
 73
     0
 40
0.0
  0
ENDTAB
  0
TABLE
  2
LAYER
 70
     2
  0
LAYER
  2
0
 70
     0
 62
     7
  6
CONTINUOUS
  0
LAYER
  2
1
 70
     0
 62
     7
  6
CONTINUOUS
  0
ENDTAB
  0
TABLE
  2
STYLE
 70
     2
  0
STYLE
  2
STANDARD
 70
     0
 40
0.0
 41
1.0
 50
0.0
 71
     0
 42
0.2
  3
txt
  4

  0
STYLE
  2
ＭＳ_ゴシック
 70
     0
 40
0.0
 41
1.0
 50
0.0
 71
     0
 42
0.2
  3
ＭＳ ゴシック.shx
  4

  0
ENDTAB
  0
TABLE
  2
VIEW
 70
     0
  0
ENDTAB
  0
TABLE
  2
UCS
 70
     0
  0
ENDTAB
  0
ENDSEC
  0
SECTION
  2
BLOCKS
  0
BLOCK
  8
0
  2
D_FRAME_DRAWING_21
 70
     0
 10
0.0
 20
0.0
 30
0.0
  0
LINE
  5
72
  8
0
  6
CONTINUOUS
 62
     7
 10
0.0
 20
0.0
 30
0.0
 11
420.0
 21
0.0
 31
0.0
  0
LINE
  5
73
  8
0
  6
CONTINUOUS
 62
     7
 10
420.0
 20
0.0
 30
0.0
 11
420.0
 21
297.0
 31
0.0
  0
LINE
  5
74
  8
0
  6
CONTINUOUS
 62
     7
 10
420.0
 20
297.0
 30
0.0
 11
0.0
 21
297.0
 31
0.0
  0
LINE
  5
75
  8
0
  6
CONTINUOUS
 62
     7
 10
0.0
 20
297.0
 30
0.0
 11
0.0
 21
0.0
 31
0.0
  0
LINE
  5
76
  8
0
  6
CONTINUOUS
 62
     7
 10
10.0
 20
10.0
 30
0.0
 11
409.9999999999999
 21
10.0
 31
0.0
  0
LINE
  5
77
  8
0
  6
CONTINUOUS
 62
     7
 10
409.9999999999999
 20
10.0
 30
0.0
 11
409.9999999999999
 21
286.9999999999999
 31
0.0
  0
LINE
  5
78
  8
0
  6
CONTINUOUS
 62
     7
 10
409.9999999999999
 20
286.9999999999999
 30
0.0
 11
10.00000000000006
 21
286.9999999999999
 31
0.0
  0
LINE
  5
79
  8
0
  6
CONTINUOUS
 62
     7
 10
10.0
 20
286.9999999999999
 30
0.0
 11
10.0
 21
10.00000000000001
 31
0.0
  0
LINE
  5
7A
  8
0
  6
CONTINUOUS
 62
     7
 10
210.0
 20
0.0
 30
0.0
 11
210.0
 21
10.0
 31
0.0
  0
LINE
  5
7B
  8
0
  6
CONTINUOUS
 62
     7
 10
420.0
 20
148.5
 30
0.0
 11
409.9999999999999
 21
148.5
 31
0.0
  0
LINE
  5
7C
  8
0
  6
CONTINUOUS
 62
     7
 10
210.0
 20
297.0
 30
0.0
 11
210.0
 21
286.9999999999999
 31
0.0
  0
LINE
  5
7D
  8
0
  6
CONTINUOUS
 62
     7
 10
0.0
 20
148.5
 30
0.0
 11
10.0
 21
148.5
 31
0.0
  0
POLYLINE
  5
7E
  8
0
  6
CONTINUOUS
 62
     7
 66
     1
 10
0.0
 20
0.0
 30
0.0
 70
     1
  0
VERTEX
  5
285
  8
0
  6
CONTINUOUS
 62
     7
 10
11.0
 20
152.5
 30
0.0
  0
VERTEX
  5
286
  8
0
  6
CONTINUOUS
 62
     7
 10
0.0
 20
148.5
 30
0.0
  0
VERTEX
  5
287
  8
0
  6
CONTINUOUS
 62
     7
 10
11.0
 20
144.5
 30
0.0
  0
VERTEX
  5
288
  8
0
  6
CONTINUOUS
 62
     7
 10
11.0
 20
152.5
 30
0.0
  0
SEQEND
  5
2D8
  8
0
  6
CONTINUOUS
 62
     7
  0
INSERT
  5
7F
  8
0
 62
     7
  2
*U21
 10
0.0
 20
0.0
 30
0.0
  0
POLYLINE
  5
80
  8
0
  6
CONTINUOUS
 62
     7
 66
     1
 10
0.0
 20
0.0
 30
0.0
 70
     1
  0
VERTEX
  5
28B
  8
0
  6
CONTINUOUS
 62
     7
 10
206.0
 20
11.0
 30
0.0
  0
VERTEX
  5
28C
  8
0
  6
CONTINUOUS
 62
     7
 10
210.0
 20
0.0
 30
0.0
  0
VERTEX
  5
28D
  8
0
  6
CONTINUOUS
 62
     7
 10
214.0
 20
11.0
 30
0.0
  0
VERTEX
  5
28E
  8
0
  6
CONTINUOUS
 62
     7
 10
206.0
 20
11.0
 30
0.0
  0
SEQEND
  5
2D9
  8
0
  6
CONTINUOUS
 62
     7
  0
INSERT
  5
81
  8
0
 62
     7
  2
*U22
 10
0.0
 20
0.0
 30
0.0
  0
LINE
  5
82
  8
0
  6
CONTINUOUS
 62
     7
 10
367.5
 20
286.9999999999999
 30
0.0
 11
367.5
 21
292.0
 31
0.0
  0
TEXT
  5
83
  8
0
  6
CONTINUOUS
 62
     7
 10
391.6340909090909
 20
291.8324293485057
 30
0.0
 40
3.5
  1
A
 50
270.0
  0
LINE
  5
84
  8
0
  6
CONTINUOUS
 62
     7
 10
367.5
 20
10.0
 30
0.0
 11
367.5
 21
5.0
 31
0.0
  0
TEXT
  5
85
  8
0
  6
CONTINUOUS
 62
     7
 10
392.9868888333125
 20
4.602272727272727
 30
0.0
 40
3.5
  1
A
  0
LINE
  5
86
  8
0
  6
CONTINUOUS
 62
     7
 10
315.0
 20
286.9999999999999
 30
0.0
 11
315.0
 21
292.0
 31
0.0
  0
TEXT
  5
87
  8
0
  6
CONTINUOUS
 62
     7
 10
339.1340909090909
 20
291.9745607727899
 30
0.0
 40
3.5
  1
B
 50
270.0
  0
LINE
  5
88
  8
0
  6
CONTINUOUS
 62
     7
 10
315.0
 20
10.0
 30
0.0
 11
315.0
 21
5.0
 31
0.0
  0
TEXT
  5
89
  8
0
  6
CONTINUOUS
 62
     7
 10
340.3447574090284
 20
4.602272727272727
 30
0.0
 40
3.5
  1
B
  0
LINE
  5
8A
  8
0
  6
CONTINUOUS
 62
     7
 10
262.5
 20
286.9999999999999
 30
0.0
 11
262.5
 21
292.0
 31
0.0
  0
TEXT
  5
8B
  8
0
  6
CONTINUOUS
 62
     7
 10
286.6327779167187
 20
291.9399305989747
 30
0.0
 40
3.5
  1
C
 50
270.0
  0
LINE
  5
8C
  8
0
  6
CONTINUOUS
 62
     7
 10
262.5
 20
10.0
 30
0.0
 11
262.5
 21
5.0
 31
0.0
  0
TEXT
  5
8D
  8
0
  6
CONTINUOUS
 62
     7
 10
287.8793875828435
 20
4.600959734900587
 30
0.0
 40
3.5
  1
C
  0
LINE
  5
8E
  8
0
  6
CONTINUOUS
 62
     7
 10
210.0
 20
286.9999999999999
 30
0.0
 11
210.0
 21
292.0
 31
0.0
  0
TEXT
  5
8F
  8
0
  6
CONTINUOUS
 62
     7
 10
234.1340909090909
 20
291.9745607727898
 30
0.0
 40
3.5
  1
D
 50
270.0
  0
LINE
  5
90
  8
0
  6
CONTINUOUS
 62
     7
 10
157.5
 20
286.9999999999999
 30
0.0
 11
157.5
 21
292.0
 31
0.0
  0
TEXT
  5
91
  8
0
  6
CONTINUOUS
 62
     7
 10
181.6327779167188
 20
292.027463423784
 30
0.0
 40
3.5
  1
E
 50
270.0
  0
LINE
  5
92
  8
0
  6
CONTINUOUS
 62
     7
 10
157.5
 20
10.0
 30
0.0
 11
157.5
 21
5.0
 31
0.0
  0
LINE
  5
93
  8
0
  6
CONTINUOUS
 62
     7
 10
105.0
 20
286.9999999999999
 30
0.0
 11
105.0
 21
292.0
 31
0.0
  0
TEXT
  5
94
  8
0
  6
CONTINUOUS
 62
     7
 10
129.1327779167188
 20
291.9924502938602
 30
0.0
 40
3.5
  1
F
 50
270.0
  0
LINE
  5
95
  8
0
  6
CONTINUOUS
 62
     7
 10
105.0
 20
10.0
 30
0.0
 11
105.0
 21
5.0
 31
0.0
  0
TEXT
  5
96
  8
0
  6
CONTINUOUS
 62
     7
 10
130.326867887958
 20
4.600959734900587
 30
0.0
 40
3.5
  1
F
  0
LINE
  5
97
  8
0
  6
CONTINUOUS
 62
     7
 10
52.50000000000004
 20
286.9999999999999
 30
0.0
 11
52.50000000000004
 21
292.0
 31
0.0
  0
TEXT
  5
98
  8
0
  6
CONTINUOUS
 62
     7
 10
76.6327779167188
 20
291.9399305989746
 30
0.0
 40
3.5
  1
G
 50
270.0
  0
LINE
  5
99
  8
0
  6
CONTINUOUS
 62
     7
 10
52.50000000000004
 20
10.0
 30
0.0
 11
52.50000000000004
 21
5.0
 31
0.0
  0
TEXT
  5
9A
  8
0
  6
CONTINUOUS
 62
     7
 10
77.8793875828436
 20
4.600959734900587
 30
0.0
 40
3.5
  1
G
  0
TEXT
  5
9B
  8
0
  6
CONTINUOUS
 62
     7
 10
24.13277791671879
 20
291.9749437288983
 30
0.0
 40
3.5
  1
H
 50
270.0
  0
TEXT
  5
9C
  8
0
  6
CONTINUOUS
 62
     7
 10
25.34437445291988
 20
4.600959734900587
 30
0.0
 40
3.5
  1
H
  0
LINE
  5
9D
  8
0
  6
CONTINUOUS
 62
     7
 10
409.9999999999999
 20
74.25
 30
0.0
 11
414.9999999999999
 21
74.25
 31
0.0
  0
TEXT
  5
9E
  8
0
  6
CONTINUOUS
 62
     7
 10
412.9326059772414
 20
35.00777791671877
 30
0.0
 40
3.5
  1
1
  0
LINE
  5
9F
  8
0
  6
CONTINUOUS
 62
     7
 10
10.0
 20
74.25
 30
0.0
 11
5.0
 21
74.25
 31
0.0
  0
TEXT
  5
A0
  8
0
  6
CONTINUOUS
 62
     7
 10
4.600959734900584
 20
38.26171220457671
 30
0.0
 40
3.5
  1
1
 50
270.0
  0
LINE
  5
A1
  8
0
  6
CONTINUOUS
 62
     7
 10
409.9999999999999
 20
148.5
 30
0.0
 11
414.9999999999999
 21
148.5
 31
0.0
  0
TEXT
  5
A2
  8
0
  6
CONTINUOUS
 62
     7
 10
413.163692634738
 20
109.2577779167188
 30
0.0
 40
3.5
  1
2
  0
LINE
  5
A3
  8
0
  6
CONTINUOUS
 62
     7
 10
10.0
 20
148.5
 30
0.0
 11
5.0
 21
148.5
 31
0.0
  0
TEXT
  5
A4
  8
0
  6
CONTINUOUS
 62
     7
 10
4.600959734900599
 20
112.2806255470802
 30
0.0
 40
3.5
  1
2
 50
270.0
  0
LINE
  5
A5
  8
0
  6
CONTINUOUS
 62
     7
 10
409.9999999999999
 20
222.75
 30
0.0
 11
414.9999999999999
 21
222.75
 31
0.0
  0
TEXT
  5
A6
  8
0
  6
CONTINUOUS
 62
     7
 10
413.1811991996998
 20
183.5077779167188
 30
0.0
 40
3.5
  1
3
  0
LINE
  5
A7
  8
0
  6
CONTINUOUS
 62
     7
 10
10.0
 20
222.75
 30
0.0
 11
5.0
 21
222.75
 31
0.0
  0
TEXT
  5
A8
  8
0
  6
CONTINUOUS
 62
     7
 10
4.600959734900584
 20
186.5131189821183
 30
0.0
 40
3.5
  1
3
 50
270.0
  0
TEXT
  5
A9
  8
0
  6
CONTINUOUS
 62
     7
 10
413.2351413029886
 20
257.7590909090909
 30
0.0
 40
3.5
  1
4
  0
TEXT
  5
AA
  8
0
  6
CONTINUOUS
 62
     7
 10
4.60227272727272
 20
260.7091768788295
 30
0.0
 40
3.5
  1
4
 50
270.0
  0
LINE
  5
AB
  8
0
  6
CONTINUOUS
 62
     7
 10
220.0
 20
10.0
 30
0.0
 11
220.0
 21
7.0
 31
0.0
  0
LINE
  5
AC
  8
0
  6
CONTINUOUS
 62
     7
 10
200.0
 20
10.0
 30
0.0
 11
200.0
 21
7.0
 31
0.0
  0
LINE
  5
AD
  8
0
  6
CONTINUOUS
 62
     7
 10
230.0
 20
10.0
 30
0.0
 11
230.0
 21
7.0
 31
0.0
  0
LINE
  5
AE
  8
0
  6
CONTINUOUS
 62
     7
 10
190.0
 20
10.0
 30
0.0
 11
190.0
 21
7.0
 31
0.0
  0
LINE
  5
AF
  8
0
  6
CONTINUOUS
 62
     7
 10
240.0
 20
10.0
 30
0.0
 11
240.0
 21
7.0
 31
0.0
  0
LINE
  5
B0
  8
0
  6
CONTINUOUS
 62
     7
 10
180.0
 20
10.0
 30
0.0
 11
180.0
 21
7.0
 31
0.0
  0
LINE
  5
B1
  8
0
  6
CONTINUOUS
 62
     7
 10
250.0
 20
10.0
 30
0.0
 11
250.0
 21
7.0
 31
0.0
  0
LINE
  5
B2
  8
0
  6
CONTINUOUS
 62
     7
 10
170.0
 20
10.0
 30
0.0
 11
170.0
 21
7.0
 31
0.0
  0
LINE
  5
B3
  8
0
  6
CONTINUOUS
 62
     7
 10
260.0
 20
10.0
 30
0.0
 11
260.0
 21
5.0
 31
0.0
  0
LINE
  5
B4
  8
0
  6
CONTINUOUS
 62
     7
 10
160.0
 20
10.0
 30
0.0
 11
160.0
 21
5.0
 31
0.0
  0
LINE
  5
B5
  8
0
  6
CONTINUOUS
 62
     7
 10
260.0
 20
10.0
 30
0.0
 11
160.0
 21
10.0
 31
0.0
  0
LINE
  5
B6
  8
0
  6
CONTINUOUS
 62
     7
 10
260.0
 20
7.0
 30
0.0
 11
160.0
 21
7.0
 31
0.0
  0
INSERT
  5
B7
  8
0
 62
     7
  2
*U23
 10
0.0
 20
0.0
 30
0.0
  0
INSERT
  5
B8
  8
0
 62
     7
  2
*U24
 10
0.0
 20
0.0
 30
0.0
  0
INSERT
  5
B9
  8
0
 62
     7
  2
*U25
 10
0.0
 20
0.0
 30
0.0
  0
INSERT
  5
BA
  8
0
 62
     7
  2
*U26
 10
0.0
 20
0.0
 30
0.0
  0
ENDBLK
  8
0
  0
BLOCK
  8
0
  2
*U2
 70
     1
 10
0.0
 20
0.0
 30
0.0
  0
SOLID
  5
25E
  8
0
  6
CONTINUOUS
 62
     7
 10
11.0
 20
144.5
 30
0.0
 11
6.999999999999999
 21
148.5
 31
0.0
 12
11.0
 22
152.5
 32
0.0
 13
11.0
 23
152.5
 33
0.0
  0
ENDBLK
  8
0
  0
BLOCK
  8
0
  2
*U3
 70
     1
 10
0.0
 20
0.0
 30
0.0
  0
SOLID
  5
260
  8
0
  6
CONTINUOUS
 62
     7
 10
210.0
 20
6.999999999999999
 30
0.0
 11
206.0
 21
11.0
 31
0.0
 12
210.0
 22
11.0
 32
0.0
 13
210.0
 23
11.0
 33
0.0
  0
ENDBLK
  8
0
  0
BLOCK
  8
0
  2
*U4
 70
     1
 10
0.0
 20
0.0
 30
0.0
  0
SOLID
  5
262
  8
0
  6
CONTINUOUS
 62
     7
 10
210.0
 20
6.999999999999999
 30
0.0
 11
210.0
 21
11.0
 31
0.0
 12
214.0
 22
11.0
 32
0.0
 13
214.0
 23
11.0
 33
0.0
  0
ENDBLK
  8
0
  0
BLOCK
  8
0
  2
*U5
 70
     1
 10
0.0
 20
0.0
 30
0.0
  0
SOLID
  5
264
  8
0
  6
CONTINUOUS
 62
     7
 10
0.0
 20
0.0
 30
0.0
 11
0.0
 21
10.0
 31
0.0
 12
2.0
 22
0.0
 32
0.0
 13
2.0
 23
0.0
 33
0.0
  0
ENDBLK
  8
0
  0
BLOCK
  8
0
  2
*U6
 70
     1
 10
0.0
 20
0.0
 30
0.0
  0
SOLID
  5
266
  8
0
  6
CONTINUOUS
 62
     7
 10
2.0
 20
0.0
 30
0.0
 11
0.0
 21
10.0
 31
0.0
 12
2.0
 22
10.0
 32
0.0
 13
2.0
 23
10.0
 33
0.0
  0
ENDBLK
  8
0
  0
BLOCK
  8
0
  2
*U7
 70
     1
 10
0.0
 20
0.0
 30
0.0
  0
SOLID
  5
268
  8
0
  6
CONTINUOUS
 62
     7
 10
2.0
 20
0.0
 30
0.0
 11
2.0
 21
2.0
 31
0.0
 12
10.0
 22
0.0
 32
0.0
 13
10.0
 23
0.0
 33
0.0
  0
ENDBLK
  8
0
  0
BLOCK
  8
0
  2
*U8
 70
     1
 10
0.0
 20
0.0
 30
0.0
  0
SOLID
  5
26A
  8
0
  6
CONTINUOUS
 62
     7
 10
10.0
 20
0.0
 30
0.0
 11
2.0
 21
2.0
 31
0.0
 12
10.0
 22
2.0
 32
0.0
 13
10.0
 23
2.0
 33
0.0
  0
ENDBLK
  8
0
  0
BLOCK
  8
0
  2
*U9
 70
     1
 10
0.0
 20
0.0
 30
0.0
  0
SOLID
  5
26C
  8
0
  6
CONTINUOUS
 62
     7
 10
409.9999999999999
 20
0.0
 30
0.0
 11
409.9999999999999
 21
2.0
 31
0.0
 12
418.0
 22
0.0
 32
0.0
 13
418.0
 23
0.0
 33
0.0
  0
ENDBLK
  8
0
  0
BLOCK
  8
0
  2
*U10
 70
     1
 10
0.0
 20
0.0
 30
0.0
  0
SOLID
  5
26E
  8
0
  6
CONTINUOUS
 62
     7
 10
418.0
 20
0.0
 30
0.0
 11
409.9999999999999
 21
2.0
 31
0.0
 12
418.0
 22
2.0
 32
0.0
 13
418.0
 23
2.0
 33
0.0
  0
ENDBLK
  8
0
  0
BLOCK
  8
0
  2
*U11
 70
     1
 10
0.0
 20
0.0
 30
0.0
  0
SOLID
  5
270
  8
0
  6
CONTINUOUS
 62
     7
 10
418.0
 20
0.0
 30
0.0
 11
418.0
 21
10.0
 31
0.0
 12
420.0
 22
0.0
 32
0.0
 13
420.0
 23
0.0
 33
0.0
  0
ENDBLK
  8
0
  0
BLOCK
  8
0
  2
*U12
 70
     1
 10
0.0
 20
0.0
 30
0.0
  0
SOLID
  5
272
  8
0
  6
CONTINUOUS
 62
     7
 10
420.0
 20
0.0
 30
0.0
 11
418.0
 21
10.0
 31
0.0
 12
420.0
 22
10.0
 32
0.0
 13
420.0
 23
10.0
 33
0.0
  0
ENDBLK
  8
0
  0
BLOCK
  8
0
  2
*U13
 70
     1
 10
0.0
 20
0.0
 30
0.0
  0
SOLID
  5
274
  8
0
  6
CONTINUOUS
 62
     7
 10
409.9999999999999
 20
295.0
 30
0.0
 11
409.9999999999999
 21
297.0
 31
0.0
 12
418.0
 22
295.0
 32
0.0
 13
418.0
 23
295.0
 33
0.0
  0
ENDBLK
  8
0
  0
BLOCK
  8
0
  2
*U14
 70
     1
 10
0.0
 20
0.0
 30
0.0
  0
SOLID
  5
276
  8
0
  6
CONTINUOUS
 62
     7
 10
418.0
 20
295.0
 30
0.0
 11
409.9999999999999
 21
297.0
 31
0.0
 12
418.0
 22
297.0
 32
0.0
 13
418.0
 23
297.0
 33
0.0
  0
ENDBLK
  8
0
  0
BLOCK
  8
0
  2
*U15
 70
     1
 10
0.0
 20
0.0
 30
0.0
  0
SOLID
  5
278
  8
0
  6
CONTINUOUS
 62
     7
 10
418.0
 20
286.9999999999999
 30
0.0
 11
418.0
 21
297.0
 31
0.0
 12
420.0
 22
286.9999999999999
 32
0.0
 13
420.0
 23
286.9999999999999
 33
0.0
  0
ENDBLK
  8
0
  0
BLOCK
  8
0
  2
*U16
 70
     1
 10
0.0
 20
0.0
 30
0.0
  0
SOLID
  5
27A
  8
0
  6
CONTINUOUS
 62
     7
 10
420.0
 20
286.9999999999999
 30
0.0
 11
418.0
 21
297.0
 31
0.0
 12
420.0
 22
297.0
 32
0.0
 13
420.0
 23
297.0
 33
0.0
  0
ENDBLK
  8
0
  0
BLOCK
  8
0
  2
*U17
 70
     1
 10
0.0
 20
0.0
 30
0.0
  0
SOLID
  5
27C
  8
0
  6
CONTINUOUS
 62
     7
 10
0.0
 20
286.9999999999999
 30
0.0
 11
0.0
 21
297.0
 31
0.0
 12
2.0
 22
286.9999999999999
 32
0.0
 13
2.0
 23
286.9999999999999
 33
0.0
  0
ENDBLK
  8
0
  0
BLOCK
  8
0
  2
*U18
 70
     1
 10
0.0
 20
0.0
 30
0.0
  0
SOLID
  5
27E
  8
0
  6
CONTINUOUS
 62
     7
 10
2.0
 20
286.9999999999999
 30
0.0
 11
0.0
 21
297.0
 31
0.0
 12
2.0
 22
297.0
 32
0.0
 13
2.0
 23
297.0
 33
0.0
  0
ENDBLK
  8
0
  0
BLOCK
  8
0
  2
*U19
 70
     1
 10
0.0
 20
0.0
 30
0.0
  0
SOLID
  5
280
  8
0
  6
CONTINUOUS
 62
     7
 10
2.0
 20
295.0
 30
0.0
 11
2.0
 21
297.0
 31
0.0
 12
10.0
 22
295.0
 32
0.0
 13
10.0
 23
295.0
 33
0.0
  0
ENDBLK
  8
0
  0
BLOCK
  8
0
  2
*U20
 70
     1
 10
0.0
 20
0.0
 30
0.0
  0
SOLID
  5
282
  8
0
  6
CONTINUOUS
 62
     7
 10
10.0
 20
295.0
 30
0.0
 11
2.0
 21
297.0
 31
0.0
 12
10.0
 22
297.0
 32
0.0
 13
10.0
 23
297.0
 33
0.0
  0
ENDBLK
  8
0
  0
BLOCK
  8
0
  2
*U21
 70
     1
 10
0.0
 20
0.0
 30
0.0
  0
SOLID
  5
28A
  8
0
  6
CONTINUOUS
 62
     7
 10
11.0
 20
144.5
 30
0.0
 11
6.999999999999999
 21
148.5
 31
0.0
 12
11.0
 22
152.5
 32
0.0
 13
11.0
 23
152.5
 33
0.0
  0
ENDBLK
  8
0
  0
BLOCK
  8
0
  2
*U22
 70
     1
 10
0.0
 20
0.0
 30
0.0
  0
SOLID
  5
290
  8
0
  6
CONTINUOUS
 62
     7
 10
210.0
 20
6.999999999999999
 30
0.0
 11
206.0
 21
11.0
 31
0.0
 12
210.0
 22
11.0
 32
0.0
 13
210.0
 23
11.0
 33
0.0
  0
SOLID
  5
291
  8
0
  6
CONTINUOUS
 62
     7
 10
210.0
 20
6.999999999999999
 30
0.0
 11
210.0
 21
11.0
 31
0.0
 12
214.0
 22
11.0
 32
0.0
 13
214.0
 23
11.0
 33
0.0
  0
ENDBLK
  8
0
  0
BLOCK
  8
0
  2
*U23
 70
     1
 10
0.0
 20
0.0
 30
0.0
  0
SOLID
  5
293
  8
0
  6
CONTINUOUS
 62
     7
 10
0.0
 20
0.0
 30
0.0
 11
0.0
 21
10.0
 31
0.0
 12
2.0
 22
0.0
 32
0.0
 13
2.0
 23
0.0
 33
0.0
  0
SOLID
  5
294
  8
0
  6
CONTINUOUS
 62
     7
 10
2.0
 20
0.0
 30
0.0
 11
0.0
 21
10.0
 31
0.0
 12
2.0
 22
10.0
 32
0.0
 13
2.0
 23
10.0
 33
0.0
  0
SOLID
  5
295
  8
0
  6
CONTINUOUS
 62
     7
 10
2.0
 20
0.0
 30
0.0
 11
2.0
 21
2.0
 31
0.0
 12
10.0
 22
0.0
 32
0.0
 13
10.0
 23
0.0
 33
0.0
  0
SOLID
  5
296
  8
0
  6
CONTINUOUS
 62
     7
 10
10.0
 20
0.0
 30
0.0
 11
2.0
 21
2.0
 31
0.0
 12
10.0
 22
2.0
 32
0.0
 13
10.0
 23
2.0
 33
0.0
  0
ENDBLK
  8
0
  0
BLOCK
  8
0
  2
*U24
 70
     1
 10
0.0
 20
0.0
 30
0.0
  0
SOLID
  5
298
  8
0
  6
CONTINUOUS
 62
     7
 10
409.9999999999999
 20
0.0
 30
0.0
 11
409.9999999999999
 21
2.0
 31
0.0
 12
418.0
 22
0.0
 32
0.0
 13
418.0
 23
0.0
 33
0.0
  0
SOLID
  5
299
  8
0
  6
CONTINUOUS
 62
     7
 10
418.0
 20
0.0
 30
0.0
 11
409.9999999999999
 21
2.0
 31
0.0
 12
418.0
 22
2.0
 32
0.0
 13
418.0
 23
2.0
 33
0.0
  0
SOLID
  5
29A
  8
0
  6
CONTINUOUS
 62
     7
 10
418.0
 20
0.0
 30
0.0
 11
418.0
 21
10.0
 31
0.0
 12
420.0
 22
0.0
 32
0.0
 13
420.0
 23
0.0
 33
0.0
  0
SOLID
  5
29B
  8
0
  6
CONTINUOUS
 62
     7
 10
420.0
 20
0.0
 30
0.0
 11
418.0
 21
10.0
 31
0.0
 12
420.0
 22
10.0
 32
0.0
 13
420.0
 23
10.0
 33
0.0
  0
ENDBLK
  8
0
  0
BLOCK
  8
0
  2
*U25
 70
     1
 10
0.0
 20
0.0
 30
0.0
  0
SOLID
  5
29D
  8
0
  6
CONTINUOUS
 62
     7
 10
409.9999999999999
 20
295.0
 30
0.0
 11
409.9999999999999
 21
297.0
 31
0.0
 12
418.0
 22
295.0
 32
0.0
 13
418.0
 23
295.0
 33
0.0
  0
SOLID
  5
29E
  8
0
  6
CONTINUOUS
 62
     7
 10
418.0
 20
295.0
 30
0.0
 11
409.9999999999999
 21
297.0
 31
0.0
 12
418.0
 22
297.0
 32
0.0
 13
418.0
 23
297.0
 33
0.0
  0
SOLID
  5
29F
  8
0
  6
CONTINUOUS
 62
     7
 10
418.0
 20
286.9999999999999
 30
0.0
 11
418.0
 21
297.0
 31
0.0
 12
420.0
 22
286.9999999999999
 32
0.0
 13
420.0
 23
286.9999999999999
 33
0.0
  0
SOLID
  5
2A0
  8
0
  6
CONTINUOUS
 62
     7
 10
420.0
 20
286.9999999999999
 30
0.0
 11
418.0
 21
297.0
 31
0.0
 12
420.0
 22
297.0
 32
0.0
 13
420.0
 23
297.0
 33
0.0
  0
ENDBLK
  8
0
  0
BLOCK
  8
0
  2
*U26
 70
     1
 10
0.0
 20
0.0
 30
0.0
  0
SOLID
  5
2A2
  8
0
  6
CONTINUOUS
 62
     7
 10
0.0
 20
286.9999999999999
 30
0.0
 11
0.0
 21
297.0
 31
0.0
 12
2.0
 22
286.9999999999999
 32
0.0
 13
2.0
 23
286.9999999999999
 33
0.0
  0
SOLID
  5
2A3
  8
0
  6
CONTINUOUS
 62
     7
 10
2.0
 20
286.9999999999999
 30
0.0
 11
0.0
 21
297.0
 31
0.0
 12
2.0
 22
297.0
 32
0.0
 13
2.0
 23
297.0
 33
0.0
  0
SOLID
  5
2A4
  8
0
  6
CONTINUOUS
 62
     7
 10
2.0
 20
295.0
 30
0.0
 11
2.0
 21
297.0
 31
0.0
 12
10.0
 22
295.0
 32
0.0
 13
10.0
 23
295.0
 33
0.0
  0
SOLID
  5
2A5
  8
0
  6
CONTINUOUS
 62
     7
 10
10.0
 20
295.0
 30
0.0
 11
2.0
 21
297.0
 31
0.0
 12
10.0
 22
297.0
 32
0.0
 13
10.0
 23
297.0
 33
0.0
  0
ENDBLK
  8
0
  0
ENDSEC
  0
SECTION
  2
ENTITIES
  0
INSERT
  5
71
  8
0
 62
     7
  2
D_FRAME_DRAWING_21
 10
0.0
 20
0.0
 30
0.0
  0
LINE
  5
BB
  8
1
  6
CONTINUOUS
 62
     7
 10
5706.362366293901
 20
-202.3173990971
 30
0.0
 11
5709.8623662939
 21
-202.3174070971
 31
0.0
  0
LINE
  5
BC
  8
1
  6
CONTINUOUS
 62
     7
 10
5705.7967892939
 20
-204.8172030971
 30
0.0
 11
5706.362366293901
 21
-202.3173990971
 31
0.0
  0
LINE
  5
BD
  8
1
  6
CONTINUOUS
 62
     7
 10
5704.862181293901
 20
-321.3166070971
 30
0.0
 11
5701.3621812939
 21
-321.3166150971
 31
0.0
  0
LINE
  5
BE
  8
1
  6
CONTINUOUS
 62
     7
 10
5700.9218632942
 20
-318.8170618552
 30
0.0
 11
5701.362459293901
 21
-321.3169330971
 31
0.0
  0
LINE
  5
BF
  8
1
  6
CONTINUOUS
 62
     7
 10
5705.4275972939
 20
-318.8172030971
 30
0.0
 11
5704.862459293901
 21
-321.3169250971
 31
0.0
  0
LINE
  5
C0
  8
1
  6
CONTINUOUS
 62
     7
 10
5710.302961293901
 20
-204.8172030971
 30
0.0
 11
5709.8623662939
 21
-202.3174070971
 31
0.0
  0
LINE
  5
C1
  8
1
  6
CONTINUOUS
 62
     7
 10
5701.362459293901
 20
-321.3169330971
 30
0.0
 11
5706.362366293901
 21
-202.3173990971
 31
0.0
  0
LINE
  5
C2
  8
1
  6
CONTINUOUS
 62
     7
 10
5709.8623662939
 20
-202.3174070971
 30
0.0
 11
5704.862459293901
 21
-321.3169250971
 31
0.0
  0
LINE
  5
C3
  8
1
  6
CONTINUOUS
 62
     7
 10
5714.8624592939
 20
-321.3169250971
 30
0.0
 11
5711.3624592939
 21
-321.3169330971
 31
0.0
  0
LINE
  5
C4
  8
1
  6
CONTINUOUS
 62
     7
 10
5834.8624592939
 20
-321.3169250971
 30
0.0
 11
5831.3624592939
 21
-321.3169330971
 31
0.0
  0
LINE
  5
C5
  8
1
  6
CONTINUOUS
 62
     7
 10
5836.7231552939
 20
-277.0317159633
 30
0.0
 11
5834.8624592939
 21
-321.3169250971
 31
0.0
  0
ARC
  5
C6
  8
1
  6
CONTINUOUS
 62
     7
 10
5512.923087046101
 20
-216.035268188
 30
0.0
 40
0.600000000000378
 50
180.0000908811
 51
285.0
  0
LINE
  5
C7
  8
1
  6
CONTINUOUS
 62
     7
 10
5513.078378473201
 20
-307.0195825105
 30
0.0
 11
5518.054828897001
 21
-308.3530183827
 31
0.0
  0
LINE
  5
C8
  8
1
  6
CONTINUOUS
 62
     7
 10
5810.9218632942
 20
-318.8170618552
 30
0.0
 11
5805.4280792942
 21
-318.8170618552
 31
0.0
  0
LINE
  5
C9
  8
1
  6
CONTINUOUS
 62
     7
 10
5810.9218632942
 20
-318.8170618552
 30
0.0
 11
5811.3624592939
 21
-321.3169330971
 31
0.0
  0
LINE
  5
CA
  8
1
  6
CONTINUOUS
 62
     7
 10
5831.3624592939
 20
-321.3169330971
 30
0.0
 11
5836.3623662939
 21
-202.3173990971
 31
0.0
  0
LINE
  5
CB
  8
1
  6
CONTINUOUS
 62
     7
 10
5835.4275972939
 20
-318.8172030971
 30
0.0
 11
5834.8624592939
 21
-321.3169250971
 31
0.0
  0
ARC
  5
CC
  8
1
  6
CONTINUOUS
 62
     7
 10
5881.8038538886
 20
-207.3307721998
 30
0.0
 40
1.0377930422
 50
52.8720896848
 51
69.31881021340001
  0
LINE
  5
CD
  8
1
  6
CONTINUOUS
 62
     7
 10
5848.2231552939
 20
-318.3172030971
 30
0.0
 11
5850.2231552939
 21
-318.3172030971
 31
0.0
  0
ARC
  5
CE
  8
1
  6
CONTINUOUS
 62
     7
 10
5881.7283600608
 20
-306.9460729475
 30
0.0
 40
1.4732413435
 50
269.7975811637
 51
287.4590881554
  0
ARC
  5
CF
  8
1
  6
CONTINUOUS
 62
     7
 10
5881.7268430228
 20
-207.5355256597
 30
0.0
 40
1.256549974
 50
69.3308491282
 51
90.16815217170003
  0
ARC
  5
D0
  8
1
  6
CONTINUOUS
 62
     7
 10
5881.8319980965
 20
-198.1556991729
 30
0.0
 40
0.9023407967
 50
29.47072389740001
 51
48.4699064194
  0
LINE
  5
D1
  8
1
  6
CONTINUOUS
 62
     7
 10
5856.7231552939
 20
-320.3172030971
 30
0.0
 11
5859.7231552939
 21
-320.3172030971
 31
0.0
  0
LINE
  5
D2
  8
1
  6
CONTINUOUS
 62
     7
 10
5881.7231552939
 20
-228.9028920971
 30
0.0
 11
5878.7231552939
 21
-228.9028920971
 31
0.0
  0
LINE
  5
D3
  8
1
  6
CONTINUOUS
 62
     7
 10
5878.7231552939
 20
-326.4151760971
 30
0.0
 11
5878.7231552939
 21
-317.3554250971
 31
0.0
  0
ARC
  5
D4
  8
1
  6
CONTINUOUS
 62
     7
 10
5854.2231552939
 20
-318.8172030971
 30
0.0
 40
0.5
 50
90.0
 51
180.0
  0
LINE
  5
D5
  8
1
  6
CONTINUOUS
 62
     7
 10
5856.2231552939
 20
-205.3172030971
 30
0.0
 11
5854.2231552939
 21
-205.3172030971
 31
0.0
  0
ARC
  5
D6
  8
1
  6
CONTINUOUS
 62
     7
 10
5882.0320590015
 20
-216.0384245403
 30
0.0
 40
0.7495737395
 50
38.6347506229
 51
57.9107683145
  0
LINE
  5
D7
  8
1
  6
CONTINUOUS
 62
     7
 10
5853.7231552939
 20
-203.3172030971
 30
0.0
 11
5853.7231552939
 21
-320.3172030971
 31
0.0
  0
ARC
  5
D8
  8
1
  6
CONTINUOUS
 62
     7
 10
5882.1397449399
 20
-293.9296251321
 30
0.0
 40
0.7292818351
 50
293.4757303839
 51
310.9360737330999
  0
LINE
  5
D9
  8
1
  6
CONTINUOUS
 62
     7
 10
5854.2231552939
 20
-318.3172030971
 30
0.0
 11
5856.2231552939
 21
-318.3172030971
 31
0.0
  0
ARC
  5
DA
  8
1
  6
CONTINUOUS
 62
     7
 10
5974.6248932939
 20
-230.5250590971
 30
0.0
 40
1.5
 50
243.0000000000001
 51
331.6977110000001
  0
LINE
  5
DB
  8
1
  6
CONTINUOUS
 62
     7
 10
5881.7231552939
 20
-189.3279800971
 30
0.0
 11
5876.7231552939
 21
-189.3279800971
 31
0.0
  0
ARC
  5
DC
  8
1
  6
CONTINUOUS
 62
     7
 10
5882.4413423003
 20
-294.2599489626
 30
0.0
 40
0.2823604943
 50
308.6210948484
 51
356.4313974334
  0
LINE
  5
DD
  8
1
  6
CONTINUOUS
 62
     7
 10
5878.7231552939
 20
-308.4193050971
 30
0.0
 11
5881.7231552939
 21
-308.4193050971
 31
0.0
  0
ARC
  5
DE
  8
1
  6
CONTINUOUS
 62
     7
 10
5882.2554779303
 20
-215.8665286719
 30
0.0
 40
0.4677571578
 50
1.0583254872
 51
39.2738350585
  0
LINE
  5
DF
  8
1
  6
CONTINUOUS
 62
     7
 10
5881.7231552939
 20
-197.2192300971
 30
0.0
 11
5878.7231552939
 21
-197.2192300971
 31
0.0
  0
ARC
  5
E0
  8
1
  6
CONTINUOUS
 62
     7
 10
6032.7351492939
 20
-261.8172030971
 30
0.0
 40
64.5
 50
51.30228900000001
 51
61.697711
  0
LINE
  5
E1
  8
1
  6
CONTINUOUS
 62
     7
 10
5859.7231552939
 20
-203.3172030971
 30
0.0
 11
5856.7231552939
 21
-203.3172030971
 31
0.0
  0
LINE
  5
E2
  8
1
  6
CONTINUOUS
 62
     7
 10
5876.7231552939
 20
-334.3172030971
 30
0.0
 11
5881.7231552939
 21
-334.3172030971
 31
0.0
  0
ARC
  5
E3
  8
1
  6
CONTINUOUS
 62
     7
 10
5881.7635012056
 20
-198.2326450459
 30
0.0
 40
1.005357447
 50
48.45502321200001
 51
66.1277006375
  0
LINE
  5
E4
  8
1
  6
CONTINUOUS
 62
     7
 10
5606.723155380701
 20
-199.0672030971
 30
0.0
 11
5606.723155380701
 21
-324.5672030971
 31
0.0
  0
LINE
  5
E5
  8
1
  6
CONTINUOUS
 62
     7
 10
5850.7231552939
 20
-203.3172030971
 30
0.0
 11
5850.7231552939
 21
-320.3172030971
 31
0.0
  0
LINE
  5
E6
  8
1
  6
CONTINUOUS
 62
     7
 10
5860.2231552939
 20
-318.3172030971
 30
0.0
 11
5874.7231552939
 21
-318.3172030971
 31
0.0
  0
LINE
  5
E7
  8
1
  6
CONTINUOUS
 62
     7
 10
5847.7231552939
 20
-203.3172030971
 30
0.0
 11
5847.7231552939
 21
-320.3172030971
 31
0.0
  0
LINE
  5
E8
  8
1
  6
CONTINUOUS
 62
     7
 10
5484.723155381801
 20
-186.8172030618
 30
0.0
 11
5484.723155380701
 21
-336.8172031324
 31
0.0
  0
LINE
  5
E9
  8
1
  6
CONTINUOUS
 62
     7
 10
5603.723155380701
 20
-336.8172031324
 30
0.0
 11
5606.723155380701
 21
-324.5672030971
 31
0.0
  0
LINE
  5
EA
  8
1
  6
CONTINUOUS
 62
     7
 10
5882.7231552939
 20
-190.3172030971
 30
0.0
 11
5882.7231552939
 21
-333.3172030971
 31
0.0
  0
ARC
  5
EB
  8
1
  6
CONTINUOUS
 62
     7
 10
6032.7351492939
 20
-261.8172030971
 30
0.0
 40
64.5
 50
141.302289
 51
151.697711
  0
LINE
  5
EC
  8
1
  6
CONTINUOUS
 62
     7
 10
5878.7231552939
 20
-228.9028920971
 30
0.0
 11
5878.7231552939
 21
-215.2151010971
 31
0.0
  0
LINE
  5
ED
  8
1
  6
CONTINUOUS
 62
     7
 10
5484.723156809101
 20
-186.8172030618
 30
0.0
 11
5603.723155380701
 21
-186.8172030618
 31
0.0
  0
LINE
  5
EE
  8
1
  6
CONTINUOUS
 62
     7
 10
5484.723155380701
 20
-336.8172031324
 30
0.0
 11
5603.723155380701
 21
-336.8172031324
 31
0.0
  0
ARC
  5
EF
  8
1
  6
CONTINUOUS
 62
     7
 10
5860.2231552939
 20
-318.8172030971
 30
0.0
 40
0.5
 50
90.0
 51
180.0
  0
ARC
  5
F0
  8
1
  6
CONTINUOUS
 62
     7
 10
6001.4430052939
 20
-203.7069470971
 30
0.0
 40
1.5
 50
298.302289
 51
27.0
  0
LINE
  5
F1
  8
1
  6
CONTINUOUS
 62
     7
 10
5603.723155380701
 20
-186.8172030618
 30
0.0
 11
5606.723155380701
 21
-199.0672030971
 31
0.0
  0
LINE
  5
F2
  8
1
  6
CONTINUOUS
 62
     7
 10
5876.7231552939
 20
-189.3279800971
 30
0.0
 11
5876.7231552939
 21
-334.3172030971
 31
0.0
  0
LINE
  5
F3
  8
1
  6
CONTINUOUS
 62
     7
 10
5844.7231552939
 20
-203.3172030971
 30
0.0
 11
5844.7231552939
 21
-320.3172030971
 31
0.0
  0
LINE
  5
F4
  8
1
  6
CONTINUOUS
 62
     7
 10
5982.1892752939
 20
-219.4041790971
 30
0.0
 11
5977.1969269072
 21
-215.2151015579
 31
0.0
  0
ARC
  5
F5
  8
1
  6
CONTINUOUS
 62
     7
 10
5881.9410292893
 20
-316.4830759925
 30
0.0
 40
0.8119278381
 50
307.0532481588
 51
326.4358818713
  0
ARC
  5
F6
  8
1
  6
CONTINUOUS
 62
     7
 10
5882.1397449399
 20
-229.7047810621
 30
0.0
 40
0.7292818351
 50
49.0639262668
 51
66.5242696161
  0
ARC
  5
F7
  8
1
  6
CONTINUOUS
 62
     7
 10
5881.8773955824
 20
-230.2858153323
 30
0.0
 40
1.366763684
 50
66.139716553
 51
77.6222815906
  0
LINE
  5
F8
  8
1
  6
CONTINUOUS
 62
     7
 10
5881.7231552939
 20
-326.4151760971
 30
0.0
 11
5878.7231552939
 21
-326.4151760971
 31
0.0
  0
LINE
  5
F9
  8
1
  6
CONTINUOUS
 62
     7
 10
5603.723155380701
 20
-336.8172031324
 30
0.0
 11
5603.723155380701
 21
-186.8172030618
 31
0.0
  0
LINE
  5
FA
  8
1
  6
CENTER
 62
     1
 10
6107.2351492939
 20
-261.8172030971
 30
0.0
 11
5958.2351492939
 21
-261.8172030971
 31
0.0
  0
LINE
  5
FC
  8
1
  6
CONTINUOUS
 62
     7
 10
5878.7231552939
 20
-197.2192300971
 30
0.0
 11
5878.7231552939
 21
-206.2789810971
 31
0.0
  0
ARC
  5
FD
  8
1
  6
CONTINUOUS
 62
     7
 10
5882.4413423003
 20
-229.3744572316
 30
0.0
 40
0.2823604943
 50
3.5686025666
 51
51.3789051515
  0
ARC
  5
FE
  8
1
  6
CONTINUOUS
 62
     7
 10
5881.9410292893
 20
-207.1513302017
 30
0.0
 40
0.8119278381
 50
33.5641181287
 51
52.9467518412
  0
ARC
  5
FF
  8
1
  6
CONTINUOUS
 62
     7
 10
5981.2250932939
 20
-220.5532450971
 30
0.0
 40
1.5
 50
321.302289
 51
50.0
  0
ARC
  5
100
  8
1
  6
CONTINUOUS
 62
     7
 10
5874.7231552939
 20
-203.3172030971
 30
0.0
 40
2.0
 50
270.0
 51
0.0
  0
LINE
  5
101
  8
1
  6
CONTINUOUS
 62
     7
 10
5999.820837975
 20
-197.2192297501
 30
0.0
 11
6002.7795152939
 21
-203.0259620971
 31
0.0
  0
ARC
  5
102
  8
1
  6
CONTINUOUS
 62
     7
 10
6032.7351492939
 20
-261.8172030971
 30
0.0
 40
64.5
 50
321.302289
 51
331.6977110000001
  0
CIRCLE
  5
103
  8
1
  6
CONTINUOUS
 62
     7
 10
6032.7351492939
 20
-261.8172030971
 30
0.0
 40
51.920049
  0
LINE
  5
104
  8
1
  6
CONTINUOUS
 62
     7
 10
5990.3221242939
 20
-211.2713290971
 30
0.0
 11
5986.133047861
 21
-206.2789806212
 31
0.0
  0
ARC
  5
105
  8
1
  6
CONTINUOUS
 62
     7
 10
5974.6248932939
 20
-293.1093460971
 30
0.0
 40
1.5
 50
28.302289
 51
117.0
  0
ARC
  5
106
  8
1
  6
CONTINUOUS
 62
     7
 10
6084.2452042939
 20
-220.5532450971
 30
0.0
 40
1.5
 50
130.0
 51
218.697711
  0
ARC
  5
107
  8
1
  6
CONTINUOUS
 62
     7
 10
5991.4711912939
 20
-210.3071470971
 30
0.0
 40
1.5
 50
220.0
 51
308.697711
  0
ARC
  5
108
  8
1
  6
CONTINUOUS
 62
     7
 10
5842.2231552939
 20
-204.8172030971
 30
0.0
 40
0.5
 50
180.0
 51
270.0
  0
LINE
  5
109
  8
1
  6
CONTINUOUS
 62
     7
 10
5836.7231552939
 20
-321.3172030971
 30
0.0
 11
5841.7231552939
 21
-321.3172030971
 31
0.0
  0
LINE
  5
10A
  8
1
  6
CONTINUOUS
 62
     7
 10
5990.3221242939
 20
-312.3630770971
 30
0.0
 11
5986.1330472794
 21
-317.355425085
 31
0.0
  0
LINE
  5
10B
  8
1
  6
CENTER
 62
     1
 10
6032.7351492939
 20
-187.3172030971
 30
0.0
 11
6032.7351492939
 21
-336.3172030971
 31
0.0
  0
ARC
  5
10C
  8
1
  6
CONTINUOUS
 62
     7
 10
6064.0272922939
 20
-319.9274580971
 30
0.0
 40
1.5
 50
118.302289
 51
207.0
  0
LINE
  5
10D
  8
1
  6
CONTINUOUS
 62
     7
 10
5961.2351492939
 20
-263.0672030971
 30
0.0
 11
5960.2459259569
 21
-263.0672030971
 31
0.0
  0
ARC
  5
10E
  8
1
  6
CONTINUOUS
 62
     7
 10
6073.9991062939
 20
-210.3071470971
 30
0.0
 40
1.5
 50
231.302289
 51
320.0
  0
ARC
  5
10F
  8
1
  6
CONTINUOUS
 62
     7
 10
5848.2231552939
 20
-318.8172030971
 30
0.0
 40
0.5
 50
90.0
 51
180.0
  0
ARC
  5
110
  8
1
  6
CONTINUOUS
 62
     7
 10
5844.2231552939
 20
-204.8172030971
 30
0.0
 40
0.5
 50
270.0
 51
0.0
  0
LINE
  5
111
  8
1
  6
CONTINUOUS
 62
     7
 10
5999.8208374971
 20
-326.4151762007
 30
0.0
 11
6002.7795152939
 21
-320.6084440971
 31
0.0
  0
LINE
  5
112
  8
1
  6
CONTINUOUS
 62
     7
 10
6075.1481732939
 20
-211.2713290971
 30
0.0
 11
6079.3372504199
 21
-206.2789812029
 31
0.0
  0
LINE
  5
113
  8
1
  6
CONTINUOUS
 62
     7
 10
6065.6494596128
 20
-197.2192297501
 30
0.0
 11
6062.6907822939
 21
-203.0259620971
 31
0.0
  0
LINE
  5
114
  8
1
  6
CONTINUOUS
 62
     7
 10
6097.3331219929
 20
-228.9028915065
 30
0.0
 11
6091.5263902939
 21
-231.8615690971
 31
0.0
  0
ARC
  5
115
  8
1
  6
CONTINUOUS
 62
     7
 10
6090.8454042939
 20
-230.5250590971
 30
0.0
 40
1.5
 50
208.302289
 51
297.0
  0
LINE
  5
116
  8
1
  6
CONTINUOUS
 62
     7
 10
6083.2810232939
 20
-304.2302270971
 30
0.0
 11
6088.2733707001
 21
-308.4193048048
 31
0.0
  0
ARC
  5
117
  8
1
  6
CONTINUOUS
 62
     7
 10
5848.2231552939
 20
-204.8172030971
 30
0.0
 40
0.5
 50
180.0
 51
270.0
  0
LINE
  5
118
  8
1
  6
CONTINUOUS
 62
     7
 10
5841.7231552939
 20
-202.3172030971
 30
0.0
 11
5841.7231552939
 21
-321.3172030971
 31
0.0
  0
CIRCLE
  5
119
  8
1
  6
CONTINUOUS
 62
     7
 10
6032.7351492939
 20
-261.8172030971
 30
0.0
 40
40.0
  0
ARC
  5
11A
  8
1
  6
CONTINUOUS
 62
     7
 10
6032.7351492939
 20
-261.8172030971
 30
0.0
 40
64.5
 50
118.302289
 51
128.697711
  0
LINE
  5
11B
  8
1
  6
CONTINUOUS
 62
     7
 10
5847.7231552939
 20
-203.3172030971
 30
0.0
 11
5844.7231552939
 21
-203.3172030971
 31
0.0
  0
ARC
  5
11C
  8
1
  6
CONTINUOUS
 62
     7
 10
6032.7351492939
 20
-261.8172030971
 30
0.0
 40
64.5
 50
28.302289
 51
38.697711
  0
LINE
  5
11D
  8
1
  6
CONTINUOUS
 62
     7
 10
5850.2231552939
 20
-205.3172030971
 30
0.0
 11
5848.2231552939
 21
-205.3172030971
 31
0.0
  0
LINE
  5
11E
  8
1
  6
CONTINUOUS
 62
     7
 10
5844.7231552939
 20
-320.3172030971
 30
0.0
 11
5847.7231552939
 21
-320.3172030971
 31
0.0
  0
LINE
  5
11F
  8
1
  6
CONTINUOUS
 62
     7
 10
5699.7231552939
 20
-199.0672030971
 30
0.0
 11
5699.7231552939
 21
-324.5672030971
 31
0.0
  0
LINE
  5
120
  8
1
  6
CONTINUOUS
 62
     7
 10
5973.9439063792
 20
-291.7728323394
 30
0.0
 11
5968.1371762939
 21
-294.7315140971
 31
0.0
  0
LINE
  5
121
  8
1
  6
CONTINUOUS
 62
     7
 10
6083.2810232939
 20
-219.4041790971
 30
0.0
 11
6088.2733711925
 21
-215.2151009763
 31
0.0
  0
ARC
  5
122
  8
1
  6
CONTINUOUS
 62
     7
 10
6073.9991062939
 20
-313.3272580971
 30
0.0
 40
1.5
 50
40.0
 51
128.697711
  0
LINE
  5
123
  8
1
  6
CONTINUOUS
 62
     7
 10
5961.2351492939
 20
-263.0672030971
 30
0.0
 11
5961.2351492939
 21
-260.5672030971
 31
0.0
  0
LINE
  5
124
  8
1
  6
CONTINUOUS
 62
     7
 10
5982.1892752939
 20
-304.2302270971
 30
0.0
 11
5977.1969273996
 21
-308.4193042231
 31
0.0
  0
LINE
  5
125
  8
1
  6
CONTINUOUS
 62
     7
 10
6065.6494600906
 20
-326.4151762007
 30
0.0
 11
6062.6907822939
 21
-320.6084440971
 31
0.0
  0
LINE
  5
126
  8
1
  6
CONTINUOUS
 62
     7
 10
5842.2231552939
 20
-205.3172030971
 30
0.0
 11
5844.2231552939
 21
-205.3172030971
 31
0.0
  0
ARC
  5
127
  8
1
  6
CONTINUOUS
 62
     7
 10
5981.2250932939
 20
-303.0811600971
 30
0.0
 40
1.5
 50
310.0
 51
38.69771100000003
  0
LINE
  5
128
  8
1
  6
CONTINUOUS
 62
     7
 10
6097.3331223974
 20
-294.7315138938
 30
0.0
 11
6091.5263902939
 21
-291.7728360971
 31
0.0
  0
LINE
  5
129
  8
1
  6
CONTINUOUS
 62
     7
 10
6075.1481732939
 20
-312.3630770971
 30
0.0
 11
6079.3372510015
 21
-317.3554245033
 31
0.0
  0
LINE
  5
12A
  8
1
  6
CONTINUOUS
 62
     7
 10
5853.7231552939
 20
-203.3172030971
 30
0.0
 11
5850.7231552939
 21
-203.3172030971
 31
0.0
  0
ARC
  5
12B
  8
1
  6
CONTINUOUS
 62
     7
 10
6090.8454042939
 20
-293.1093460971
 30
0.0
 40
1.5
 50
62.99999999999999
 51
151.697711
  0
ARC
  5
12C
  8
1
  6
CONTINUOUS
 62
     7
 10
6032.7351492939
 20
-261.8172030971
 30
0.0
 40
64.5
 50
298.302289
 51
308.697711
  0
ARC
  5
12D
  8
1
  6
CONTINUOUS
 62
     7
 10
6084.2452042939
 20
-303.0811600971
 30
0.0
 40
1.5
 50
141.302289
 51
230.0
  0
LINE
  5
12E
  8
1
  6
CONTINUOUS
 62
     7
 10
5850.7231552939
 20
-320.3172030971
 30
0.0
 11
5853.7231552939
 21
-320.3172030971
 31
0.0
  0
ARC
  5
12F
  8
1
  6
CONTINUOUS
 62
     7
 10
6064.0272922939
 20
-203.7069470971
 30
0.0
 40
1.5
 50
153.0
 51
241.6977109999999
  0
LINE
  5
130
  8
1
  6
CONTINUOUS
 62
     7
 10
5724.2231552939
 20
-331.3172030971
 30
0.0
 11
5724.2231552939
 21
-192.3172030971
 31
0.0
  0
ARC
  5
131
  8
1
  6
CONTINUOUS
 62
     7
 10
6032.7351492939
 20
-261.8172030971
 30
0.0
 40
72.5
 50
180.987907
 51
179.012093
  0
ARC
  5
132
  8
1
  6
CONTINUOUS
 62
     7
 10
5739.447057094101
 20
-197.6924594556
 30
0.0
 40
0.149986061999563
 50
142.0859335003
 51
168.6832820549
  0
LINE
  5
133
  8
1
  6
CONTINUOUS
 62
     7
 10
5830.3029612939
 20
-204.8172030971
 30
0.0
 11
5829.8623662939
 21
-202.3174070971
 31
0.0
  0
ARC
  5
134
  8
1
  6
CONTINUOUS
 62
     7
 10
5740.221707800101
 20
-325.5869713194
 30
0.0
 40
0.998671992399558
 50
206.5983465353
 51
225.0412389146
  0
ARC
  5
135
  8
1
  6
CONTINUOUS
 62
     7
 10
5739.9323289636
 20
-304.3833346638
 30
0.0
 40
0.7603207031001702
 50
217.450718193
 51
236.8038907925
  0
LINE
  5
136
  8
1
  6
CONTINUOUS
 62
     7
 10
5751.7231552939
 20
-265.5859860971
 30
0.0
 11
5727.223155293901
 21
-265.5859860971
 31
0.0
  0
ARC
  5
137
  8
1
  6
CONTINUOUS
 62
     7
 10
5727.223155293901
 20
-192.3172030971
 30
0.0
 40
3.000000000000114
 50
90.0
 51
180.0
  0
LINE
  5
138
  8
1
  6
CONTINUOUS
 62
     7
 10
5825.7967892939
 20
-204.8172030971
 30
0.0
 11
5826.3623662939
 21
-202.3173990971
 31
0.0
  0
LINE
  5
139
  8
1
  6
CONTINUOUS
 62
     7
 10
5816.3623662939
 20
-202.3173990971
 30
0.0
 11
5819.8623662939
 21
-202.3174070971
 31
0.0
  0
LINE
  5
13A
  8
1
  6
CONTINUOUS
 62
     7
 10
5751.7231552939
 20
-327.5946940971
 30
0.0
 11
5740.135999293901
 21
-326.5823380971
 31
0.0
  0
LINE
  5
13B
  8
1
  6
CONTINUOUS
 62
     7
 10
5825.4275972939
 20
-318.8172030971
 30
0.0
 11
5824.8624592939
 21
-321.3169250971
 31
0.0
  0
LINE
  5
13C
  8
1
  6
CONTINUOUS
 62
     7
 10
5751.7231552939
 20
-208.2773910971
 30
0.0
 11
5751.7231552939
 21
-189.3919580971
 31
0.0
  0
LINE
  5
13D
  8
1
  6
CONTINUOUS
 62
     7
 10
5826.3623662939
 20
-202.3173990971
 30
0.0
 11
5829.8623662939
 21
-202.3174070971
 31
0.0
  0
LINE
  5
13E
  8
1
  6
CONTINUOUS
 62
     7
 10
5836.7231552939
 20
-321.3172030971
 30
0.0
 11
5836.7231552939
 21
-271.7524840971
 31
0.0
  0
LINE
  5
13F
  8
1
  6
CONTINUOUS
 62
     7
 10
5814.8624592939
 20
-321.3169250971
 30
0.0
 11
5811.3624592939
 21
-321.3169330971
 31
0.0
  0
LINE
  5
140
  8
1
  6
CONTINUOUS
 62
     7
 10
5820.9218632942
 20
-318.8170618552
 30
0.0
 11
5815.4280792942
 21
-318.8170618552
 31
0.0
  0
ARC
  5
141
  8
1
  6
CONTINUOUS
 62
     7
 10
5727.223155293901
 20
-331.3172030971
 30
0.0
 40
3.000000000000114
 50
180.0
 51
270.0
  0
LINE
  5
142
  8
1
  6
CONTINUOUS
 62
     7
 10
5820.3029612939
 20
-204.8172030971
 30
0.0
 11
5819.8623662939
 21
-202.3174070971
 31
0.0
  0
LINE
  5
143
  8
1
  6
CONTINUOUS
 62
     7
 10
5751.7231552939
 20
-217.7430680971
 30
0.0
 11
5740.135999293901
 21
-218.4213960971
 31
0.0
  0
LINE
  5
144
  8
1
  6
CONTINUOUS
 62
     7
 10
5751.7231552939
 20
-334.2424480971
 30
0.0
 11
5751.7231552939
 21
-315.3570150971
 31
0.0
  0
LINE
  5
145
  8
1
  6
CONTINUOUS
 62
     7
 10
5821.3624592939
 20
-321.3169330971
 30
0.0
 11
5826.3623662939
 21
-202.3173990971
 31
0.0
  0
LINE
  5
146
  8
1
  6
CONTINUOUS
 62
     7
 10
5815.7967892939
 20
-204.8172030971
 30
0.0
 11
5816.3623662939
 21
-202.3173990971
 31
0.0
  0
ARC
  5
147
  8
1
  6
CONTINUOUS
 62
     7
 10
5842.2231552939
 20
-318.8172030971
 30
0.0
 40
0.5
 50
90.0
 51
180.0
  0
LINE
  5
148
  8
1
  6
CONTINUOUS
 62
     7
 10
5841.7231552939
 20
-202.3172030971
 30
0.0
 11
5836.7231552939
 21
-202.3172030971
 31
0.0
  0
ARC
  5
149
  8
1
  6
CONTINUOUS
 62
     7
 10
5991.4711912939
 20
-313.3272580971
 30
0.0
 40
1.5
 50
51.30228900000001
 51
140.0
  0
ARC
  5
14A
  8
1
  6
CONTINUOUS
 62
     7
 10
5740.171493766601
 20
-325.7679486449
 30
0.0
 40
0.8151634827999743
 50
240.9716302332
 51
267.5044123586
  0
LINE
  5
14B
  8
1
  6
CONTINUOUS
 62
     7
 10
5811.3624592939
 20
-321.3169330971
 30
0.0
 11
5816.3623662939
 21
-202.3173990971
 31
0.0
  0
LINE
  5
14C
  8
1
  6
CONTINUOUS
 62
     7
 10
5973.9439086109
 20
-231.8615684749
 30
0.0
 11
5968.1371762939
 21
-228.9028920971
 31
0.0
  0
ARC
  5
14D
  8
1
  6
CONTINUOUS
 62
     7
 10
6001.4430052939
 20
-319.9274580971
 30
0.0
 40
1.5
 50
333.0
 51
61.69771100000003
  0
LINE
  5
14E
  8
1
  6
CONTINUOUS
 62
     7
 10
5739.2999862939
 20
-304.8036370971
 30
0.0
 11
5739.2231552939
 21
-304.4892830971
 31
0.0
  0
LINE
  5
14F
  8
1
  6
CONTINUOUS
 62
     7
 10
5820.9218632942
 20
-318.8170618552
 30
0.0
 11
5821.3624592939
 21
-321.3169330971
 31
0.0
  0
ARC
  5
150
  8
1
  6
CONTINUOUS
 62
     7
 10
5740.222723080601
 20
-325.5865670342
 30
0.0
 40
0.999760839100361
 50
202.6377720665
 51
206.5930123781
  0
ARC
  5
151
  8
1
  6
CONTINUOUS
 62
     7
 10
5740.115478053
 20
-219.5256228776
 30
0.0
 40
1.090345780600188
 50
108.1437693768
 51
123.3506152024
  0
ARC
  5
152
  8
1
  6
CONTINUOUS
 62
     7
 10
6032.7351492939
 20
-261.8172030971
 30
0.0
 40
64.5
 50
208.302289
 51
218.697711
  0
ARC
  5
153
  8
1
  6
CONTINUOUS
 62
     7
 10
5740.115478053
 20
-304.1087823167
 30
0.0
 40
1.090345780600188
 50
236.6493847976
 51
251.8562306231999
  0
ARC
  5
154
  8
1
  6
CONTINUOUS
 62
     7
 10
5740.0766905362
 20
-219.0937521526
 30
0.0
 40
0.6749675837998126
 50
84.95895141160001
 51
116.4601478312
  0
ARC
  5
155
  8
1
  6
CONTINUOUS
 62
     7
 10
5740.2226182823
 20
-325.5860595762
 30
0.0
 40
0.9999605006001389
 50
225.0412368681
 51
243.46821396
  0
LINE
  5
156
  8
1
  6
CONTINUOUS
 62
     7
 10
5727.223155293901
 20
-258.0484190971
 30
0.0
 11
5751.7231552939
 21
-258.0484190971
 31
0.0
  0
LINE
  5
157
  8
1
  6
CONTINUOUS
 62
     7
 10
5739.2231552939
 20
-219.1451230971
 30
0.0
 11
5739.2999862939
 21
-218.8307690971
 31
0.0
  0
LINE
  5
158
  8
1
  6
CONTINUOUS
 62
     7
 10
5810.3029072939
 20
-204.8172030971
 30
0.0
 11
5815.7967892939
 21
-204.8172030971
 31
0.0
  0
ARC
  5
159
  8
1
  6
CONTINUOUS
 62
     7
 10
6032.7351492939
 20
-261.8172030971
 30
0.0
 40
64.5
 50
231.302289
 51
241.6977109999999
  0
ARC
  5
15A
  8
1
  6
CONTINUOUS
 62
     7
 10
5740.2224719511
 20
-198.0470680139
 30
0.0
 40
0.9987512823004252
 50
94.96691679469997
 51
116.5570405842
  0
LINE
  5
15B
  8
1
  6
CONTINUOUS
 62
     7
 10
5815.4275972939
 20
-318.8172030971
 30
0.0
 11
5814.8624592939
 21
-321.3169250971
 31
0.0
  0
LINE
  5
15C
  8
1
  6
CONTINUOUS
 62
     7
 10
5757.0324252939
 20
-334.3172030971
 30
0.0
 11
5727.223155293901
 21
-334.3172030971
 31
0.0
  0
LINE
  5
15D
  8
1
  6
CONTINUOUS
 62
     7
 10
5819.8623662939
 20
-202.3174070971
 30
0.0
 11
5814.8624592939
 21
-321.3169250971
 31
0.0
  0
ARC
  5
15E
  8
1
  6
CONTINUOUS
 62
     7
 10
5844.2231552939
 20
-318.8172030971
 30
0.0
 40
0.5
 50
0.0
 51
90.0
  0
LINE
  5
15F
  8
1
  6
CONTINUOUS
 62
     7
 10
5844.2231552939
 20
-318.3172030971
 30
0.0
 11
5842.2231552939
 21
-318.3172030971
 31
0.0
  0
LINE
  5
160
  8
1
  6
CONTINUOUS
 62
     7
 10
5961.2351492939
 20
-260.5672030971
 30
0.0
 11
5960.2459259569
 21
-260.5672030971
 31
0.0
  0
ARC
  5
161
  8
1
  6
CONTINUOUS
 62
     7
 10
5740.166790012501
 20
-304.0642502837
 30
0.0
 40
1.149172135799681
 50
250.116244839
 51
268.4646559182
  0
LINE
  5
162
  8
1
  6
CONTINUOUS
 62
     7
 10
5761.3624592939
 20
-321.3169330971
 30
0.0
 11
5766.3623662939
 21
-202.3173990971
 31
0.0
  0
LINE
  5
163
  8
1
  6
CONTINUOUS
 62
     7
 10
5770.921863294201
 20
-318.8170618552
 30
0.0
 11
5771.3624592939
 21
-321.3169330971
 31
0.0
  0
LINE
  5
164
  8
1
  6
CONTINUOUS
 62
     7
 10
5739.2231552939
 20
-258.0491050971
 30
0.0
 11
5739.2231552939
 21
-219.1451230971
 31
0.0
  0
LINE
  5
165
  8
1
  6
CONTINUOUS
 62
     7
 10
5739.2231552939
 20
-325.5834410971
 30
0.0
 11
5739.2231552939
 21
-315.4877750971
 31
0.0
  0
ARC
  5
166
  8
1
  6
CONTINUOUS
 62
     7
 10
5727.0044382939
 20
-210.9985670971
 30
0.0
 40
2.86031100000006
 50
85.614532
 51
165.006275
  0
LINE
  5
167
  8
1
  6
CONTINUOUS
 62
     7
 10
5829.8623662939
 20
-202.3174070971
 30
0.0
 11
5824.8624592939
 21
-321.3169250971
 31
0.0
  0
LINE
  5
168
  8
1
  6
CONTINUOUS
 62
     7
 10
5765.7967892939
 20
-204.8172030971
 30
0.0
 11
5766.3623662939
 21
-202.3173990971
 31
0.0
  0
LINE
  5
169
  8
1
  6
CONTINUOUS
 62
     7
 10
5727.223155293901
 20
-265.5859860971
 30
0.0
 11
5727.223155293901
 21
-265.5790870971
 31
0.0
  0
LINE
  5
16A
  8
1
  6
CONTINUOUS
 62
     7
 10
5751.7231552939
 20
-258.5257200971
 30
0.0
 11
5751.7231552939
 21
-212.9322510971
 31
0.0
  0
LINE
  5
16B
  8
1
  6
CONTINUOUS
 62
     7
 10
5760.9218632942
 20
-318.8170618552
 30
0.0
 11
5761.3624592939
 21
-321.3169330971
 31
0.0
  0
LINE
  5
16C
  8
1
  6
CONTINUOUS
 62
     7
 10
5765.427597293901
 20
-318.8172030971
 30
0.0
 11
5764.8624592939
 21
-321.3169250971
 31
0.0
  0
LINE
  5
16D
  8
1
  6
CONTINUOUS
 62
     7
 10
5770.302907293901
 20
-204.8172030971
 30
0.0
 11
5775.7967892939
 21
-204.8172030971
 31
0.0
  0
LINE
  5
16E
  8
1
  6
CONTINUOUS
 62
     7
 10
5739.2231552939
 20
-198.0509650971
 30
0.0
 11
5739.2999862939
 21
-197.6630270971
 31
0.0
  0
LINE
  5
16F
  8
1
  6
CONTINUOUS
 62
     7
 10
5764.8624592939
 20
-321.3169250971
 30
0.0
 11
5761.3624592939
 21
-321.3169330971
 31
0.0
  0
LINE
  5
170
  8
1
  6
CONTINUOUS
 62
     7
 10
5775.7967892939
 20
-204.8172030971
 30
0.0
 11
5776.362366293901
 21
-202.3173990971
 31
0.0
  0
LINE
  5
171
  8
1
  6
CONTINUOUS
 62
     7
 10
5751.7231552939
 20
-196.0397120971
 30
0.0
 11
5740.135999293901
 21
-197.0520670971
 31
0.0
  0
ARC
  5
172
  8
1
  6
CONTINUOUS
 62
     7
 10
5739.9323289633
 20
-219.2510705305
 30
0.0
 40
0.76032070290033
 50
123.1961091913
 51
142.5492817904
  0
ARC
  5
173
  8
1
  6
CONTINUOUS
 62
     7
 10
5740.2217077997
 20
-198.0474348748
 30
0.0
 40
0.9986719921002418
 50
134.9587610747
 51
153.4016534544
  0
LINE
  5
174
  8
1
  6
CONTINUOUS
 62
     7
 10
5769.862366293901
 20
-202.3174070971
 30
0.0
 11
5764.8624592939
 21
-321.3169250971
 31
0.0
  0
LINE
  5
175
  8
1
  6
CONTINUOUS
 62
     7
 10
5766.3623662939
 20
-202.3173990971
 30
0.0
 11
5769.862366293901
 21
-202.3174070971
 31
0.0
  0
LINE
  5
176
  8
1
  6
CONTINUOUS
 62
     7
 10
5774.862459293901
 20
-321.3169250971
 30
0.0
 11
5771.3624592939
 21
-321.3169330971
 31
0.0
  0
LINE
  5
177
  8
1
  6
CONTINUOUS
 62
     7
 10
5780.921863294201
 20
-318.8170618552
 30
0.0
 11
5775.4280792942
 21
-318.8170618552
 31
0.0
  0
LINE
  5
178
  8
1
  6
CONTINUOUS
 62
     7
 10
5727.223155293901
 20
-208.1466310971
 30
0.0
 11
5751.7231552939
 21
-208.1466310971
 31
0.0
  0
LINE
  5
179
  8
1
  6
CONTINUOUS
 62
     7
 10
5779.862366293901
 20
-202.3174070971
 30
0.0
 11
5774.862459293901
 21
-321.3169250971
 31
0.0
  0
LINE
  5
17A
  8
1
  6
CONTINUOUS
 62
     7
 10
5830.3029072939
 20
-204.8172030971
 30
0.0
 11
5835.7967982939
 21
-204.8172030971
 31
0.0
  0
ARC
  5
17B
  8
1
  6
CONTINUOUS
 62
     7
 10
5739.966830817601
 20
-304.3785101801
 30
0.0
 40
0.7908305616002309
 50
212.5183416048
 51
216.2081153794
  0
LINE
  5
17C
  8
1
  6
CONTINUOUS
 62
     7
 10
5751.7231552939
 20
-310.7021550971
 30
0.0
 11
5751.7231552939
 21
-265.1086860971
 31
0.0
  0
ARC
  5
17D
  8
1
  6
CONTINUOUS
 62
     7
 10
5726.9025012939
 20
-243.5285560971
 30
0.0
 40
22.05286299999987
 50
264.199779
 51
270.833124
  0
LINE
  5
17E
  8
1
  6
CONTINUOUS
 62
     7
 10
5760.9218632942
 20
-318.8170618552
 30
0.0
 11
5757.0324252939
 21
-318.8170618552
 31
0.0
  0
LINE
  5
17F
  8
1
  6
CONTINUOUS
 62
     7
 10
5770.302961293901
 20
-204.8172030971
 30
0.0
 11
5769.862366293901
 21
-202.3174070971
 31
0.0
  0
LINE
  5
180
  8
1
  6
CONTINUOUS
 62
     7
 10
5739.2231552939
 20
-304.4892830971
 30
0.0
 11
5739.2231552939
 21
-265.5853010971
 31
0.0
  0
LINE
  5
181
  8
1
  6
CONTINUOUS
 62
     7
 10
5775.427597293901
 20
-318.8172030971
 30
0.0
 11
5774.862459293901
 21
-321.3169250971
 31
0.0
  0
LINE
  5
182
  8
1
  6
CONTINUOUS
 62
     7
 10
5739.2231552939
 20
-208.1466310971
 30
0.0
 11
5739.2231552939
 21
-198.0509650971
 31
0.0
  0
LINE
  5
183
  8
1
  6
CONTINUOUS
 62
     7
 10
5751.7231552939
 20
-315.4877750971
 30
0.0
 11
5727.223155293901
 21
-315.4877750971
 31
0.0
  0
ARC
  5
184
  8
1
  6
CONTINUOUS
 62
     7
 10
5739.3770215824
 20
-218.8525999557
 30
0.0
 40
0.0800681833004191
 50
127.0961528242
 51
164.1773903186
  0
LINE
  5
185
  8
1
  6
CONTINUOUS
 62
     7
 10
5780.3029612939
 20
-204.8172030971
 30
0.0
 11
5779.862366293901
 21
-202.3174070971
 31
0.0
  0
LINE
  5
186
  8
1
  6
CONTINUOUS
 62
     7
 10
5820.3029072939
 20
-204.8172030971
 30
0.0
 11
5825.7967892939
 21
-204.8172030971
 31
0.0
  0
LINE
  5
187
  8
1
  6
CONTINUOUS
 62
     7
 10
5771.3624592939
 20
-321.3169330971
 30
0.0
 11
5776.362366293901
 21
-202.3173990971
 31
0.0
  0
ARC
  5
188
  8
1
  6
CONTINUOUS
 62
     7
 10
5727.0007142939
 20
-312.6410940971
 30
0.0
 40
2.855357999999697
 50
194.91117
 51
274.468023
  0
LINE
  5
189
  8
1
  6
CONTINUOUS
 62
     7
 10
5727.223155293901
 20
-189.3172030971
 30
0.0
 11
5757.0324252939
 21
-189.3172030971
 31
0.0
  0
LINE
  5
18A
  8
1
  6
CONTINUOUS
 62
     7
 10
5824.8624592939
 20
-321.3169250971
 30
0.0
 11
5821.3624592939
 21
-321.3169330971
 31
0.0
  0
ARC
  5
18B
  8
1
  6
CONTINUOUS
 62
     7
 10
5726.922327293901
 20
-281.3164460971
 30
0.0
 40
23.26307399999994
 50
89.25905599999999
 51
95.475783
  0
ARC
  5
18C
  8
1
  6
CONTINUOUS
 62
     7
 10
5740.222618282601
 20
-198.048346618
 30
0.0
 40
0.999960500799979
 50
116.5317860543
 51
134.9587631466
  0
LINE
  5
18D
  8
1
  6
CONTINUOUS
 62
     7
 10
5830.9213812939
 20
-318.8172030971
 30
0.0
 11
5825.4275972939
 21
-318.8172030971
 31
0.0
  0
LINE
  5
18E
  8
1
  6
CONTINUOUS
 62
     7
 10
5776.362366293901
 20
-202.3173990971
 30
0.0
 11
5779.862366293901
 21
-202.3174070971
 31
0.0
  0
LINE
  5
18F
  8
1
  6
CONTINUOUS
 62
     7
 10
5770.921863294201
 20
-318.8170618552
 30
0.0
 11
5765.428079294201
 21
-318.8170618552
 31
0.0
  0
LINE
  5
190
  8
1
  6
CONTINUOUS
 62
     7
 10
5760.302907293901
 20
-204.8172030971
 30
0.0
 11
5765.7967892939
 21
-204.8172030971
 31
0.0
  0
LINE
  5
191
  8
1
  6
CONTINUOUS
 62
     7
 10
5751.7231552939
 20
-305.8913370971
 30
0.0
 11
5740.135999293901
 21
-305.2130100971
 31
0.0
  0
LINE
  5
192
  8
1
  6
CONTINUOUS
 62
     7
 10
5739.2999862939
 20
-325.9713780971
 30
0.0
 11
5739.2231552939
 21
-325.5834410971
 31
0.0
  0
LINE
  5
193
  8
1
  6
CONTINUOUS
 62
     7
 10
5606.723155380701
 20
-324.5672030971
 30
0.0
 11
5699.7231552939
 21
-324.5672030971
 31
0.0
  0
LINE
  5
194
  8
1
  6
CONTINUOUS
 62
     7
 10
5710.921888187729
 20
-318.8172030971
 30
0.0
 11
5705.4275972939
 21
-318.8172030971
 31
0.0
  0
LINE
  5
195
  8
1
  6
CONTINUOUS
 62
     7
 10
5700.921888187729
 20
-318.8172030971
 30
0.0
 11
5699.7231552939
 21
-318.8172030971
 31
0.0
  0
LINE
  5
196
  8
1
  6
CONTINUOUS
 62
     7
 10
5606.723155380701
 20
-199.0672030971
 30
0.0
 11
5699.7231552939
 21
-199.0672030971
 31
0.0
  0
LINE
  5
197
  8
1
  6
CONTINUOUS
 62
     7
 10
5705.7967892939
 20
-204.8172030971
 30
0.0
 11
5699.7231552939
 21
-204.8172030971
 31
0.0
  0
LINE
  5
198
  8
1
  6
CONTINUOUS
 62
     7
 10
5715.7967892939
 20
-204.8172030971
 30
0.0
 11
5710.302961293901
 21
-204.8172030971
 31
0.0
  0
LINE
  5
199
  8
1
  6
CONTINUOUS
 62
     7
 10
5727.223155293901
 20
-258.0553180971
 30
0.0
 11
5727.223155293901
 21
-258.0484190971
 31
0.0
  0
LINE
  5
19A
  8
1
  6
CONTINUOUS
 62
     7
 10
5810.3029612939
 20
-204.8172030971
 30
0.0
 11
5809.8623662939
 21
-202.3174070971
 31
0.0
  0
LINE
  5
19B
  8
1
  6
CONTINUOUS
 62
     7
 10
5805.4275972939
 20
-318.8172030971
 30
0.0
 11
5804.8624592939
 21
-321.3169250971
 31
0.0
  0
LINE
  5
19C
  8
1
  6
CONTINUOUS
 62
     7
 10
5794.8624592939
 20
-321.3169250971
 30
0.0
 11
5791.3624592939
 21
-321.3169330971
 31
0.0
  0
LINE
  5
19D
  8
1
  6
CONTINUOUS
 62
     7
 10
5796.3623662939
 20
-202.3173990971
 30
0.0
 11
5799.8623662939
 21
-202.3174070971
 31
0.0
  0
LINE
  5
19E
  8
1
  6
CONTINUOUS
 62
     7
 10
5714.862181293901
 20
-321.3166070971
 30
0.0
 11
5711.3621812939
 21
-321.3166150971
 31
0.0
  0
LINE
  5
19F
  8
1
  6
CONTINUOUS
 62
     7
 10
5790.3029072939
 20
-204.8172030971
 30
0.0
 11
5795.7967892939
 21
-204.8172030971
 31
0.0
  0
LINE
  5
1A0
  8
1
  6
CONTINUOUS
 62
     7
 10
5809.8623662939
 20
-202.3174070971
 30
0.0
 11
5804.8624592939
 21
-321.3169250971
 31
0.0
  0
LINE
  5
1A1
  8
1
  6
CONTINUOUS
 62
     7
 10
5791.3624592939
 20
-321.3169330971
 30
0.0
 11
5796.3623662939
 21
-202.3173990971
 31
0.0
  0
LINE
  5
1A2
  8
1
  6
CONTINUOUS
 62
     7
 10
5805.7967892939
 20
-204.8172030971
 30
0.0
 11
5806.3623662939
 21
-202.3173990971
 31
0.0
  0
LINE
  5
1A3
  8
1
  6
CONTINUOUS
 62
     7
 10
5800.3029612939
 20
-204.8172030971
 30
0.0
 11
5799.8623662939
 21
-202.3174070971
 31
0.0
  0
LINE
  5
1A4
  8
1
  6
CONTINUOUS
 62
     7
 10
5800.9218632942
 20
-318.8170618552
 30
0.0
 11
5795.4280792942
 21
-318.8170618552
 31
0.0
  0
LINE
  5
1A5
  8
1
  6
CONTINUOUS
 62
     7
 10
5799.8623662939
 20
-202.3174070971
 30
0.0
 11
5794.8624592939
 21
-321.3169250971
 31
0.0
  0
LINE
  5
1A6
  8
1
  6
CONTINUOUS
 62
     7
 10
5757.0324252939
 20
-334.3172030971
 30
0.0
 11
5757.0324252939
 21
-189.3172030971
 31
0.0
  0
LINE
  5
1A7
  8
1
  6
CONTINUOUS
 62
     7
 10
5830.9218632942
 20
-318.8170618552
 30
0.0
 11
5831.3624592939
 21
-321.3169330971
 31
0.0
  0
LINE
  5
1A8
  8
1
  6
CONTINUOUS
 62
     7
 10
5804.8624592939
 20
-321.3169250971
 30
0.0
 11
5801.3624592939
 21
-321.3169330971
 31
0.0
  0
LINE
  5
1A9
  8
1
  6
CONTINUOUS
 62
     7
 10
5800.3029072939
 20
-204.8172030971
 30
0.0
 11
5805.7967892939
 21
-204.8172030971
 31
0.0
  0
LINE
  5
1AA
  8
1
  6
CONTINUOUS
 62
     7
 10
5800.9218632942
 20
-318.8170618552
 30
0.0
 11
5801.3624592939
 21
-321.3169330971
 31
0.0
  0
LINE
  5
1AB
  8
1
  6
CENTER
 62
     7
 10
5480.0
 20
-261.8172030971
 30
0.0
 11
5893.1144597651
 21
-261.8172030971
 31
0.0
  0
LINE
  5
1AC
  8
1
  6
CONTINUOUS
 62
     7
 10
5801.3624592939
 20
-321.3169330971
 30
0.0
 11
5806.3623662939
 21
-202.3173990971
 31
0.0
  0
LINE
  5
1AD
  8
1
  6
CONTINUOUS
 62
     7
 10
5835.7967892939
 20
-204.8172030971
 30
0.0
 11
5836.3623662939
 21
-202.3173990971
 31
0.0
  0
ARC
  5
1AE
  8
1
  6
CONTINUOUS
 62
     7
 10
5850.2231552939
 20
-318.8172030971
 30
0.0
 40
0.5
 50
0.0
 51
90.0
  0
ARC
  5
1AF
  8
1
  6
CONTINUOUS
 62
     7
 10
5850.2231552939
 20
-204.8172030971
 30
0.0
 40
0.5
 50
270.0
 51
0.0
  0
ARC
  5
1B0
  8
1
  6
CONTINUOUS
 62
     7
 10
5882.0320590015
 20
-307.5959816539
 30
0.0
 40
0.7495737395
 50
302.0892316855
 51
321.3652493771
  0
LINE
  5
1B1
  8
1
  6
CONTINUOUS
 62
     7
 10
5878.7231552939
 20
-215.2151010971
 30
0.0
 11
5881.7231552939
 21
-215.2151010971
 31
0.0
  0
ARC
  5
1B2
  8
1
  6
CONTINUOUS
 62
     7
 10
5881.7231552939
 20
-190.3279800971
 30
0.0
 40
1.0
 50
0.0
 51
90.0
  0
ARC
  5
1B3
  8
1
  6
CONTINUOUS
 62
     7
 10
5881.8319980965
 20
-325.4787070213
 30
0.0
 40
0.9023407967
 50
311.5300935806
 51
330.5292761026
  0
ARC
  5
1B4
  8
1
  6
CONTINUOUS
 62
     7
 10
5881.7283600608
 20
-216.6883332467
 30
0.0
 40
1.4732413435
 50
72.5409118446
 51
90.20241883619998
  0
ARC
  5
1B5
  8
1
  6
CONTINUOUS
 62
     7
 10
5854.2231552939
 20
-204.8172030971
 30
0.0
 40
0.5
 50
180.0
 51
270.0
  0
LINE
  5
1B6
  8
1
  6
CONTINUOUS
 62
     7
 10
5878.7231552939
 20
-294.7315140971
 30
0.0
 11
5878.7231552939
 21
-308.4193050971
 31
0.0
  0
ARC
  5
1B7
  8
1
  6
CONTINUOUS
 62
     7
 10
5882.0983072191
 20
-207.050021857
 30
0.0
 40
0.6248680535
 50
0.4581708146
 51
33.7967662743
  0
ARC
  5
1B8
  8
1
  6
CONTINUOUS
 62
     7
 10
5874.7231552939
 20
-320.3172030971
 30
0.0
 40
2.0
 50
0.0
 51
90.0
  0
ARC
  5
1B9
  8
1
  6
CONTINUOUS
 62
     7
 10
5860.2231552939
 20
-204.8172030971
 30
0.0
 40
0.5
 50
180.0
 51
270.0
  0
ARC
  5
1BA
  8
1
  6
CONTINUOUS
 62
     7
 10
5856.2231552939
 20
-204.8172030971
 30
0.0
 40
0.5
 50
270.0
 51
0.0
  0
LINE
  5
1BB
  8
1
  6
CONTINUOUS
 62
     7
 10
5874.7231552939
 20
-205.3172030971
 30
0.0
 11
5860.2231552939
 21
-205.3172030971
 31
0.0
  0
LINE
  5
1BC
  8
1
  6
CONTINUOUS
 62
     7
 10
5878.7231552939
 20
-317.3554250971
 30
0.0
 11
5881.7231552939
 21
-317.3554250971
 31
0.0
  0
ARC
  5
1BD
  8
1
  6
CONTINUOUS
 62
     7
 10
5881.7268430228
 20
-316.0988805345
 30
0.0
 40
1.256549974
 50
269.8318478283
 51
290.6691508718
  0
ARC
  5
1BE
  8
1
  6
CONTINUOUS
 62
     7
 10
5881.8038538886
 20
-316.3036339944
 30
0.0
 40
1.0377930422
 50
290.6811897865999
 51
307.1279103152
  0
ARC
  5
1BF
  8
1
  6
CONTINUOUS
 62
     7
 10
5881.7250083598
 20
-325.3138708718
 30
0.0
 40
1.1013067843
 50
269.9035937083
 51
293.8530822054
  0
LINE
  5
1C0
  8
1
  6
CONTINUOUS
 62
     7
 10
5859.7231552939
 20
-203.3172030971
 30
0.0
 11
5859.7231552939
 21
-320.3172030971
 31
0.0
  0
ARC
  5
1C1
  8
1
  6
CONTINUOUS
 62
     7
 10
5881.7231552939
 20
-333.3172030971
 30
0.0
 40
1.0
 50
270.0
 51
0.0
  0
ARC
  5
1C2
  8
1
  6
CONTINUOUS
 62
     7
 10
5881.7301427502
 20
-230.9480778943
 30
0.0
 40
2.0451977336
 50
77.5698820156
 51
90.1957524822
  0
ARC
  5
1C3
  8
1
  6
CONTINUOUS
 62
     7
 10
5881.8375178856
 20
-216.3420912522
 30
0.0
 40
1.1102002055
 50
57.73015057909999
 51
72.5537066434
  0
LINE
  5
1C4
  8
1
  6
CONTINUOUS
 62
     7
 10
5856.7231552939
 20
-203.3172030971
 30
0.0
 11
5856.7231552939
 21
-320.3172030971
 31
0.0
  0
ARC
  5
1C5
  8
1
  6
CONTINUOUS
 62
     7
 10
5882.0983072191
 20
-316.5843843372
 30
0.0
 40
0.6248680535
 50
326.2032337258
 51
359.5418291854
  0
ARC
  5
1C6
  8
1
  6
CONTINUOUS
 62
     7
 10
5881.9104078313
 20
-325.5220563276
 30
0.0
 40
0.8127502087
 50
330.4703619149
 51
359.8510576643
  0
ARC
  5
1C7
  8
1
  6
CONTINUOUS
 62
     7
 10
5881.7635012056
 20
-325.4017611483
 30
0.0
 40
1.005357447
 50
293.8722993625
 51
311.544976788
  0
LINE
  5
1C8
  8
1
  6
CONTINUOUS
 62
     7
 10
5878.7231552939
 20
-206.2789810971
 30
0.0
 11
5881.7231552939
 21
-206.2789810971
 31
0.0
  0
ARC
  5
1C9
  8
1
  6
CONTINUOUS
 62
     7
 10
5881.8773955824
 20
-293.3485908619
 30
0.0
 40
1.366763684
 50
282.3777184094
 51
293.860283447
  0
ARC
  5
1CA
  8
1
  6
CONTINUOUS
 62
     7
 10
5856.2231552939
 20
-318.8172030971
 30
0.0
 40
0.5
 50
0.0
 51
90.0
  0
ARC
  5
1CB
  8
1
  6
CONTINUOUS
 62
     7
 10
5881.7301427502
 20
-292.6863282999
 30
0.0
 40
2.0451977336
 50
269.8042475178
 51
282.4301179844
  0
ARC
  5
1CC
  8
1
  6
CONTINUOUS
 62
     7
 10
5881.7250083598
 20
-198.3205353224
 30
0.0
 40
1.1013067843
 50
66.1469177946
 51
90.0964062917
  0
LINE
  5
1CD
  8
1
  6
CONTINUOUS
 62
     7
 10
5881.7231552939
 20
-294.7315140971
 30
0.0
 11
5878.7231552939
 21
-294.7315140971
 31
0.0
  0
ARC
  5
1CE
  8
1
  6
CONTINUOUS
 62
     7
 10
5881.9104078313
 20
-198.1123498666
 30
0.0
 40
0.8127502087
 50
0.1489423357
 51
29.5296380852
  0
ARC
  5
1CF
  8
1
  6
CONTINUOUS
 62
     7
 10
5881.8375178856
 20
-307.292314942
 30
0.0
 40
1.1102002055
 50
287.4462933566
 51
302.2698494209
  0
ARC
  5
1D0
  8
1
  6
CONTINUOUS
 62
     7
 10
5882.2554779303
 20
-307.7678775223
 30
0.0
 40
0.4677571578
 50
320.7261649415
 51
358.9416745129
  0
POINT
  5
1D1
  8
1
 62
     1
 10
5732.7231552939
 20
-261.8172030971
 30
0.0
  0
LINE
  5
1D2
  8
0
  6
CONTINUOUS
 62
     7
 10
0.0
 20
0.0
 30
0.0
 11
420.0
 21
0.0
 31
0.0
  0
LINE
  5
1D3
  8
0
  6
CONTINUOUS
 62
     7
 10
420.0
 20
0.0
 30
0.0
 11
420.0
 21
297.0
 31
0.0
  0
LINE
  5
1D4
  8
0
  6
CONTINUOUS
 62
     7
 10
420.0
 20
297.0
 30
0.0
 11
0.0
 21
297.0
 31
0.0
  0
LINE
  5
1D5
  8
0
  6
CONTINUOUS
 62
     7
 10
0.0
 20
297.0
 30
0.0
 11
0.0
 21
0.0
 31
0.0
  0
LINE
  5
1D6
  8
0
  6
CONTINUOUS
 62
     7
 10
10.0
 20
10.0
 30
0.0
 11
409.9999999999999
 21
10.0
 31
0.0
  0
LINE
  5
1D7
  8
0
  6
CONTINUOUS
 62
     7
 10
409.9999999999999
 20
10.0
 30
0.0
 11
409.9999999999999
 21
286.9999999999999
 31
0.0
  0
LINE
  5
1D8
  8
0
  6
CONTINUOUS
 62
     7
 10
409.9999999999999
 20
286.9999999999999
 30
0.0
 11
10.00000000000006
 21
286.9999999999999
 31
0.0
  0
LINE
  5
1D9
  8
0
  6
CONTINUOUS
 62
     7
 10
10.0
 20
286.9999999999999
 30
0.0
 11
10.0
 21
10.00000000000001
 31
0.0
  0
LINE
  5
1DA
  8
0
  6
CONTINUOUS
 62
     7
 10
210.0
 20
0.0
 30
0.0
 11
210.0
 21
10.0
 31
0.0
  0
LINE
  5
1DB
  8
0
  6
CONTINUOUS
 62
     7
 10
420.0
 20
148.5
 30
0.0
 11
409.9999999999999
 21
148.5
 31
0.0
  0
LINE
  5
1DC
  8
0
  6
CONTINUOUS
 62
     7
 10
210.0
 20
297.0
 30
0.0
 11
210.0
 21
286.9999999999999
 31
0.0
  0
LINE
  5
1DD
  8
0
  6
CONTINUOUS
 62
     7
 10
0.0
 20
148.5
 30
0.0
 11
10.0
 21
148.5
 31
0.0
  0
LINE
  5
1DE
  8
0
  6
CONTINUOUS
 62
     7
 10
11.0
 20
152.5
 30
0.0
 11
0.0000000000000017
 21
148.5
 31
0.0
  0
LINE
  5
1DF
  8
0
  6
CONTINUOUS
 62
     7
 10
0.0
 20
148.5
 30
0.0
 11
11.0
 21
144.5
 31
0.0
  0
LINE
  5
1E0
  8
0
  6
CONTINUOUS
 62
     7
 10
11.0
 20
144.5
 30
0.0
 11
11.0
 21
152.5
 31
0.0
  0
INSERT
  5
1E1
  8
0
 62
     7
  2
*U2
 10
0.0
 20
0.0
 30
0.0
  0
LINE
  5
1E2
  8
0
  6
CONTINUOUS
 62
     7
 10
206.0
 20
11.0
 30
0.0
 11
210.0
 21
-0.0000000000000017
 31
0.0
  0
LINE
  5
1E3
  8
0
  6
CONTINUOUS
 62
     7
 10
210.0
 20
0.0
 30
0.0
 11
214.0
 21
11.0
 31
0.0
  0
LINE
  5
1E4
  8
0
  6
CONTINUOUS
 62
     7
 10
214.0
 20
11.0
 30
0.0
 11
206.0
 21
11.0
 31
0.0
  0
INSERT
  5
1E5
  8
0
 62
     7
  2
*U3
 10
0.0
 20
0.0
 30
0.0
  0
INSERT
  5
1E6
  8
0
 62
     7
  2
*U4
 10
0.0
 20
0.0
 30
0.0
  0
LINE
  5
1E7
  8
0
  6
CONTINUOUS
 62
     7
 10
367.5
 20
286.9999999999999
 30
0.0
 11
367.5
 21
292.0
 31
0.0
  0
TEXT
  5
1E8
  8
0
  6
CONTINUOUS
 62
     7
 10
391.2681818181818
 20
291.6648586970114
 30
0.0
 40
3.5
  1
A
 50
270.0
  0
LINE
  5
1E9
  8
0
  6
CONTINUOUS
 62
     7
 10
367.5
 20
10.0
 30
0.0
 11
367.5
 21
5.0
 31
0.0
  0
TEXT
  5
1EA
  8
0
  6
CONTINUOUS
 62
     7
 10
393.1544594848068
 20
4.236363636363635
 30
0.0
 40
3.5
  1
A
  0
LINE
  5
1EB
  8
0
  6
CONTINUOUS
 62
     7
 10
315.0
 20
286.9999999999999
 30
0.0
 11
315.0
 21
292.0
 31
0.0
  0
TEXT
  5
1EC
  8
0
  6
CONTINUOUS
 62
     7
 10
338.7681818181818
 20
291.9491215455798
 30
0.0
 40
3.5
  1
B
 50
270.0
  0
LINE
  5
1ED
  8
0
  6
CONTINUOUS
 62
     7
 10
315.0
 20
10.0
 30
0.0
 11
315.0
 21
5.0
 31
0.0
  0
TEXT
  5
1EE
  8
0
  6
CONTINUOUS
 62
     7
 10
340.3701966362385
 20
4.236363636363635
 30
0.0
 40
3.5
  1
B
  0
LINE
  5
1EF
  8
0
  6
CONTINUOUS
 62
     7
 10
262.5
 20
286.9999999999999
 30
0.0
 11
262.5
 21
292.0
 31
0.0
  0
TEXT
  5
1F0
  8
0
  6
CONTINUOUS
 62
     7
 10
286.2655558334374
 20
291.8798611979494
 30
0.0
 40
3.5
  1
C
 50
270.0
  0
LINE
  5
1F1
  8
0
  6
CONTINUOUS
 62
     7
 10
262.5
 20
10.0
 30
0.0
 11
262.5
 21
5.0
 31
0.0
  0
TEXT
  5
1F2
  8
0
  6
CONTINUOUS
 62
     7
 10
287.9394569838688
 20
4.233737651619357
 30
0.0
 40
3.5
  1
C
  0
LINE
  5
1F3
  8
0
  6
CONTINUOUS
 62
     7
 10
210.0
 20
286.9999999999999
 30
0.0
 11
210.0
 21
292.0
 31
0.0
  0
TEXT
  5
1F4
  8
0
  6
CONTINUOUS
 62
     7
 10
233.7681818181818
 20
291.9491215455796
 30
0.0
 40
3.5
  1
D
 50
270.0
  0
LINE
  5
1F5
  8
0
  6
CONTINUOUS
 62
     7
 10
157.5
 20
286.9999999999999
 30
0.0
 11
157.5
 21
292.0
 31
0.0
  0
TEXT
  5
1F6
  8
0
  6
CONTINUOUS
 62
     7
 10
181.2655558334376
 20
292.0549268475679
 30
0.0
 40
3.5
  1
E
 50
270.0
  0
LINE
  5
1F7
  8
0
  6
CONTINUOUS
 62
     7
 10
157.5
 20
10.0
 30
0.0
 11
157.5
 21
5.0
 31
0.0
  0
LINE
  5
1F8
  8
0
  6
CONTINUOUS
 62
     7
 10
105.0
 20
286.9999999999999
 30
0.0
 11
105.0
 21
292.0
 31
0.0
  0
TEXT
  5
1F9
  8
0
  6
CONTINUOUS
 62
     7
 10
128.7655558334375
 20
291.9849005877204
 30
0.0
 40
3.5
  1
F
 50
270.0
  0
LINE
  5
1FA
  8
0
  6
CONTINUOUS
 62
     7
 10
105.0
 20
10.0
 30
0.0
 11
105.0
 21
5.0
 31
0.0
  0
TEXT
  5
1FB
  8
0
  6
CONTINUOUS
 62
     7
 10
130.3344175940978
 20
4.233737651619357
 30
0.0
 40
3.5
  1
F
  0
LINE
  5
1FC
  8
0
  6
CONTINUOUS
 62
     7
 10
52.50000000000004
 20
286.9999999999999
 30
0.0
 11
52.50000000000004
 21
292.0
 31
0.0
  0
TEXT
  5
1FD
  8
0
  6
CONTINUOUS
 62
     7
 10
76.26555583343753
 20
291.8798611979493
 30
0.0
 40
3.5
  1
G
 50
270.0
  0
LINE
  5
1FE
  8
0
  6
CONTINUOUS
 62
     7
 10
52.50000000000004
 20
10.0
 30
0.0
 11
52.50000000000004
 21
5.0
 31
0.0
  0
TEXT
  5
1FF
  8
0
  6
CONTINUOUS
 62
     7
 10
77.93945698386898
 20
4.233737651619357
 30
0.0
 40
3.5
  1
G
  0
TEXT
  5
200
  8
0
  6
CONTINUOUS
 62
     7
 10
23.76555583343753
 20
291.9498874577966
 30
0.0
 40
3.5
  1
H
 50
270.0
  0
TEXT
  5
201
  8
0
  6
CONTINUOUS
 62
     7
 10
25.36943072402154
 20
4.233737651619357
 30
0.0
 40
3.5
  1
H
  0
LINE
  5
202
  8
0
  6
CONTINUOUS
 62
     7
 10
409.9999999999999
 20
74.25
 30
0.0
 11
414.9999999999999
 21
74.25
 31
0.0
  0
TEXT
  5
203
  8
0
  6
CONTINUOUS
 62
     7
 10
412.7265755908465
 20
34.64055583343754
 30
0.0
 40
3.5
  1
1
  0
LINE
  5
204
  8
0
  6
CONTINUOUS
 62
     7
 10
10.0
 20
74.25
 30
0.0
 11
5.0
 21
74.25
 31
0.0
  0
TEXT
  5
205
  8
0
  6
CONTINUOUS
 62
     7
 10
4.23373765161935
 20
38.46774259097161
 30
0.0
 40
3.5
  1
1
 50
270.0
  0
LINE
  5
206
  8
0
  6
CONTINUOUS
 62
     7
 10
409.9999999999999
 20
148.5
 30
0.0
 11
414.9999999999999
 21
148.5
 31
0.0
  0
TEXT
  5
207
  8
0
  6
CONTINUOUS
 62
     7
 10
413.1887489058396
 20
108.8905558334376
 30
0.0
 40
3.5
  1
2
  0
LINE
  5
208
  8
0
  6
CONTINUOUS
 62
     7
 10
10.0
 20
148.5
 30
0.0
 11
5.0
 21
148.5
 31
0.0
  0
TEXT
  5
209
  8
0
  6
CONTINUOUS
 62
     7
 10
4.233737651619379
 20
112.2555692759785
 30
0.0
 40
3.5
  1
2
 50
270.0
  0
LINE
  5
20A
  8
0
  6
CONTINUOUS
 62
     7
 10
409.9999999999999
 20
222.75
 30
0.0
 11
414.9999999999999
 21
222.75
 31
0.0
  0
TEXT
  5
20B
  8
0
  6
CONTINUOUS
 62
     7
 10
413.2237620357633
 20
183.1405558334376
 30
0.0
 40
3.5
  1
3
  0
LINE
  5
20C
  8
0
  6
CONTINUOUS
 62
     7
 10
10.0
 20
222.75
 30
0.0
 11
5.0
 21
222.75
 31
0.0
  0
TEXT
  5
20D
  8
0
  6
CONTINUOUS
 62
     7
 10
4.23373765161935
 20
186.4705561460548
 30
0.0
 40
3.5
  1
3
 50
270.0
  0
TEXT
  5
20E
  8
0
  6
CONTINUOUS
 62
     7
 10
413.3316462423409
 20
257.3931818181817
 30
0.0
 40
3.5
  1
4
  0
TEXT
  5
20F
  8
0
  6
CONTINUOUS
 62
     7
 10
4.23636363636362
 20
260.6126719394773
 30
0.0
 40
3.5
  1
4
 50
270.0
  0
LINE
  5
210
  8
0
  6
CONTINUOUS
 62
     7
 10
220.0
 20
10.0
 30
0.0
 11
220.0
 21
7.0
 31
0.0
  0
LINE
  5
211
  8
0
  6
CONTINUOUS
 62
     7
 10
200.0
 20
10.0
 30
0.0
 11
200.0
 21
7.0
 31
0.0
  0
LINE
  5
212
  8
0
  6
CONTINUOUS
 62
     7
 10
230.0
 20
10.0
 30
0.0
 11
230.0
 21
7.0
 31
0.0
  0
LINE
  5
213
  8
0
  6
CONTINUOUS
 62
     7
 10
190.0
 20
10.0
 30
0.0
 11
190.0
 21
7.0
 31
0.0
  0
LINE
  5
214
  8
0
  6
CONTINUOUS
 62
     7
 10
240.0
 20
10.0
 30
0.0
 11
240.0
 21
7.0
 31
0.0
  0
LINE
  5
215
  8
0
  6
CONTINUOUS
 62
     7
 10
180.0
 20
10.0
 30
0.0
 11
180.0
 21
7.0
 31
0.0
  0
LINE
  5
216
  8
0
  6
CONTINUOUS
 62
     7
 10
250.0
 20
10.0
 30
0.0
 11
250.0
 21
7.0
 31
0.0
  0
LINE
  5
217
  8
0
  6
CONTINUOUS
 62
     7
 10
170.0
 20
10.0
 30
0.0
 11
170.0
 21
7.0
 31
0.0
  0
LINE
  5
218
  8
0
  6
CONTINUOUS
 62
     7
 10
260.0
 20
10.0
 30
0.0
 11
260.0
 21
5.0
 31
0.0
  0
LINE
  5
219
  8
0
  6
CONTINUOUS
 62
     7
 10
160.0
 20
10.0
 30
0.0
 11
160.0
 21
5.0
 31
0.0
  0
LINE
  5
21A
  8
0
  6
CONTINUOUS
 62
     7
 10
260.0
 20
10.0
 30
0.0
 11
160.0
 21
10.0
 31
0.0
  0
LINE
  5
21B
  8
0
  6
CONTINUOUS
 62
     7
 10
260.0
 20
7.0
 30
0.0
 11
160.0
 21
7.0
 31
0.0
  0
INSERT
  5
21C
  8
0
 62
     7
  2
*U5
 10
0.0
 20
0.0
 30
0.0
  0
INSERT
  5
21D
  8
0
 62
     7
  2
*U6
 10
0.0
 20
0.0
 30
0.0
  0
INSERT
  5
21E
  8
0
 62
     7
  2
*U7
 10
0.0
 20
0.0
 30
0.0
  0
INSERT
  5
21F
  8
0
 62
     7
  2
*U8
 10
0.0
 20
0.0
 30
0.0
  0
INSERT
  5
220
  8
0
 62
     7
  2
*U9
 10
0.0
 20
0.0
 30
0.0
  0
INSERT
  5
221
  8
0
 62
     7
  2
*U10
 10
0.0
 20
0.0
 30
0.0
  0
INSERT
  5
222
  8
0
 62
     7
  2
*U11
 10
0.0
 20
0.0
 30
0.0
  0
INSERT
  5
223
  8
0
 62
     7
  2
*U12
 10
0.0
 20
0.0
 30
0.0
  0
INSERT
  5
224
  8
0
 62
     7
  2
*U13
 10
0.0
 20
0.0
 30
0.0
  0
INSERT
  5
225
  8
0
 62
     7
  2
*U14
 10
0.0
 20
0.0
 30
0.0
  0
INSERT
  5
226
  8
0
 62
     7
  2
*U15
 10
0.0
 20
0.0
 30
0.0
  0
INSERT
  5
227
  8
0
 62
     7
  2
*U16
 10
0.0
 20
0.0
 30
0.0
  0
INSERT
  5
228
  8
0
 62
     7
  2
*U17
 10
0.0
 20
0.0
 30
0.0
  0
INSERT
  5
229
  8
0
 62
     7
  2
*U18
 10
0.0
 20
0.0
 30
0.0
  0
INSERT
  5
22A
  8
0
 62
     7
  2
*U19
 10
0.0
 20
0.0
 30
0.0
  0
INSERT
  5
22B
  8
0
 62
     7
  2
*U20
 10
0.0
 20
0.0
 30
0.0
  0
LINE
  5
22C
  8
1
  6
CONTINUOUS
 62
     7
 10
5780.9218632942
 20
-318.8170618552
 30
0.0
 11
5777.0324252939
 21
-318.8170618552
 31
0.0
  0
LINE
  5
22D
  8
1
  6
CONTINUOUS
 62
     7
 10
5786.3623662939
 20
-202.3173990971
 30
0.0
 11
5789.8623662939
 21
-202.3174070971
 31
0.0
  0
LINE
  5
22E
  8
1
  6
CONTINUOUS
 62
     7
 10
5711.3624592939
 20
-321.3169330971
 30
0.0
 11
5716.3623662939
 21
-202.3173990971
 31
0.0
  0
LINE
  5
22F
  8
1
  6
CONTINUOUS
 62
     7
 10
5710.9218632942
 20
-318.8170618552
 30
0.0
 11
5711.3624592939
 21
-321.3169330971
 31
0.0
  0
LINE
  5
230
  8
1
  6
CONTINUOUS
 62
     7
 10
5720.921863294201
 20
-318.8170618552
 30
0.0
 11
5715.428079294201
 21
-318.8170618552
 31
0.0
  0
LINE
  5
231
  8
1
  6
CONTINUOUS
 62
     7
 10
5716.3623662939
 20
-202.3173990971
 30
0.0
 11
5719.8623662939
 21
-202.3174070971
 31
0.0
  0
LINE
  5
232
  8
1
  6
CONTINUOUS
 62
     7
 10
5781.3624592939
 20
-321.3169330971
 30
0.0
 11
5786.3623662939
 21
-202.3173990971
 31
0.0
  0
LINE
  5
233
  8
1
  6
CONTINUOUS
 62
     7
 10
5520.723080334701
 20
-211.8040491266
 30
0.0
 11
5520.723040701201
 21
-186.8172030618
 31
0.0
  0
LINE
  5
234
  8
1
  6
CONTINUOUS
 62
     7
 10
5520.723050598901
 20
-330.5772032842
 30
0.0
 11
5512.323050510001
 21
-330.6332032848
 31
0.0
  0
LINE
  5
235
  8
1
  6
CONTINUOUS
 62
     7
 10
5789.8623662939
 20
-202.3174070971
 30
0.0
 11
5784.8624592939
 21
-321.3169250971
 31
0.0
  0
LINE
  5
236
  8
1
  6
CONTINUOUS
 62
     7
 10
5721.3624592939
 20
-321.3169330971
 30
0.0
 11
5724.2231552939
 21
-253.2313685225
 31
0.0
  0
LINE
  5
237
  8
1
  6
CONTINUOUS
 62
     7
 10
5780.9218632942
 20
-318.8170618552
 30
0.0
 11
5781.3624592939
 21
-321.3169330971
 31
0.0
  0
LINE
  5
238
  8
1
  6
CONTINUOUS
 62
     7
 10
5512.323040701101
 20
-336.8172031324
 30
0.0
 11
5512.323087046101
 21
-307.5991370546
 31
0.0
  0
LINE
  5
239
  8
1
  6
CONTINUOUS
 62
     7
 10
5790.3029612939
 20
-204.8172030971
 30
0.0
 11
5789.8623662939
 21
-202.3174070971
 31
0.0
  0
LINE
  5
23A
  8
1
  6
CONTINUOUS
 62
     7
 10
5715.7967892939
 20
-204.8172030971
 30
0.0
 11
5716.3623662939
 21
-202.3173990971
 31
0.0
  0
ARC
  5
23B
  8
1
  6
CONTINUOUS
 62
     7
 10
5517.123080334701
 20
-311.8303513574
 30
0.0
 40
3.599999999999604
 50
0.0
 51
75.0
  0
LINE
  5
23C
  8
1
  6
CONTINUOUS
 62
     7
 10
5520.723080334701
 20
-311.8303570676
 30
0.0
 11
5520.723040701201
 21
-336.8172031324
 31
0.0
  0
LINE
  5
23D
  8
1
  6
CONTINUOUS
 62
     7
 10
5785.7967892939
 20
-204.8172030971
 30
0.0
 11
5786.3623662939
 21
-202.3173990971
 31
0.0
  0
LINE
  5
23E
  8
1
  6
CONTINUOUS
 62
     7
 10
5720.302961293901
 20
-204.8172030971
 30
0.0
 11
5719.8623662939
 21
-202.3174070971
 31
0.0
  0
LINE
  5
23F
  8
1
  6
CONTINUOUS
 62
     7
 10
5795.7967892939
 20
-204.8172030971
 30
0.0
 11
5796.3623662939
 21
-202.3173990971
 31
0.0
  0
LINE
  5
240
  8
1
  6
CONTINUOUS
 62
     7
 10
5520.723050598901
 20
-193.05720291
 30
0.0
 11
5512.323050510001
 21
-193.0012029094
 31
0.0
  0
LINE
  5
241
  8
1
  6
CONTINUOUS
 62
     7
 10
5513.078378473201
 20
-216.6148236837
 30
0.0
 11
5518.054828897001
 21
-215.2813878115
 31
0.0
  0
LINE
  5
242
  8
1
  6
CONTINUOUS
 62
     7
 10
5790.9218632942
 20
-318.8170618552
 30
0.0
 11
5791.3624592939
 21
-321.3169330971
 31
0.0
  0
LINE
  5
243
  8
1
  6
CONTINUOUS
 62
     7
 10
5724.2231552939
 20
-321.3169265584
 30
0.0
 11
5721.3624592939
 21
-321.3169330971
 31
0.0
  0
LINE
  5
244
  8
1
  6
CONTINUOUS
 62
     7
 10
5719.8623662939
 20
-202.3174070971
 30
0.0
 11
5714.8624592939
 21
-321.3169250971
 31
0.0
  0
LINE
  5
245
  8
1
  6
CONTINUOUS
 62
     7
 10
5720.302907293901
 20
-204.8172030971
 30
0.0
 11
5724.2231552939
 21
-204.8172030971
 31
0.0
  0
LINE
  5
246
  8
1
  6
CONTINUOUS
 62
     7
 10
5512.323040701101
 20
-186.8172030618
 30
0.0
 11
5512.323087046101
 21
-216.0352691397
 31
0.0
  0
LINE
  5
247
  8
1
  6
CONTINUOUS
 62
     7
 10
5780.3029072939
 20
-204.8172030971
 30
0.0
 11
5785.7967892939
 21
-204.8172030971
 31
0.0
  0
LINE
  5
248
  8
1
  6
CONTINUOUS
 62
     7
 10
5759.8623662939
 20
-202.3174070971
 30
0.0
 11
5757.0324252939
 21
-269.6709828673
 31
0.0
  0
LINE
  5
249
  8
1
  6
CONTINUOUS
 62
     7
 10
5790.9218632942
 20
-318.8170618552
 30
0.0
 11
5785.4280792942
 21
-318.8170618552
 31
0.0
  0
LINE
  5
24A
  8
1
  6
CONTINUOUS
 62
     7
 10
5830.9218632942
 20
-318.8170618552
 30
0.0
 11
5825.4280792942
 21
-318.8170618552
 31
0.0
  0
LINE
  5
24B
  8
1
  6
CONTINUOUS
 62
     7
 10
5785.4275972939
 20
-318.8172030971
 30
0.0
 11
5784.8624592939
 21
-321.3169250971
 31
0.0
  0
LINE
  5
24C
  8
1
  6
CONTINUOUS
 62
     7
 10
5784.8624592939
 20
-321.3169250971
 30
0.0
 11
5781.3624592939
 21
-321.3169330971
 31
0.0
  0
LINE
  5
24D
  8
1
  6
CONTINUOUS
 62
     7
 10
5720.921863294201
 20
-318.8170618552
 30
0.0
 11
5721.3624592939
 21
-321.3169330971
 31
0.0
  0
LINE
  5
24E
  8
1
  6
CONTINUOUS
 62
     7
 10
5806.3623662939
 20
-202.3173990971
 30
0.0
 11
5809.8623662939
 21
-202.3174070971
 31
0.0
  0
LINE
  5
24F
  8
1
  6
CONTINUOUS
 62
     7
 10
5760.302961293901
 20
-204.8172030971
 30
0.0
 11
5759.8623662939
 21
-202.3174070971
 31
0.0
  0
LINE
  5
250
  8
1
  6
CONTINUOUS
 62
     7
 10
5715.4275972939
 20
-318.8172030971
 30
0.0
 11
5714.8624592939
 21
-321.3169250971
 31
0.0
  0
LINE
  5
251
  8
1
  6
CONTINUOUS
 62
     7
 10
5795.4275972939
 20
-318.8172030971
 30
0.0
 11
5794.8624592939
 21
-321.3169250971
 31
0.0
  0
LINE
  5
252
  8
1
  6
CONTINUOUS
 62
     7
 10
5756.3623662939
 20
-202.3173990971
 30
0.0
 11
5759.8623662939
 21
-202.3174070971
 31
0.0
  0
ARC
  5
253
  8
1
  6
CONTINUOUS
 62
     7
 10
5517.123080334701
 20
-211.8040548369
 30
0.0
 40
3.599999999999604
 50
285.0
 51
0.0000908810999931
  0
ARC
  5
254
  8
1
  6
CONTINUOUS
 62
     7
 10
5512.923087046101
 20
-307.5991380063
 30
0.0
 40
0.600000000000378
 50
75.0
 51
179.9999091189
  0
TEXT
  5
255
  8
1
  6
CONTINUOUS
 62
     7
 10
6048.050942536951
 20
-345.2180001426784
 30
0.0
 40
6.0
  1
KFEKH-100
 41
1.373232
  0
ENDSEC
  0
EOF
