  0
SECTION
  2
HEADER
  9
$ACADVER
  1
AC1006
  9
$DWGCODEPAGE
  3
ansi_932
  9
$INSBASE
 10
0.0
 20
0.0
 30
0.0
  9
$EXTMIN
 10
-10.0
 20
-0.0000000000000017
  9
$EXTMAX
 10
617.1251275215
 20
1080.5413239291
  9
$LIMMIN
 10
0.0
 20
0.0
  9
$LIMMAX
 10
12.0
 20
9.0
  9
$ORTHOMODE
 70
     0
  9
$REGENMODE
 70
     1
  9
$FILLMODE
 70
     1
  9
$QTEXTMODE
 70
     0
  9
$MIRRTEXT
 70
     1
  9
$DRAGMODE
 70
     2
  9
$LTSCALE
 40
1.0
  9
$OSMODE
 70
    37
  9
$ATTMODE
 70
     1
  9
$TEXTSIZE
 40
0.2
  9
$TRACEWID
 40
0.05
  9
$TEXTSTYLE
  7
STANDARD
  9
$CLAYER
  8
0
  9
$CELTYPE
  6
BYLAYER
  9
$CECOLOR
 62
   256
  9
$DIMSCALE
 40
1.0
  9
$DIMASZ
 40
3.0
  9
$DIMEXO
 40
0.0625
  9
$DIMDLI
 40
0.38
  9
$DIMRND
 40
0.0
  9
$DIMDLE
 40
0.0
  9
$DIMEXE
 40
1.5
  9
$DIMTP
 40
0.0
  9
$DIMTM
 40
0.0
  9
$DIMTXT
 40
3.5
  9
$DIMCEN
 40
0.09
  9
$DIMTSZ
 40
0.0
  9
$DIMTOL
 70
     0
  9
$DIMLIM
 70
     0
  9
$DIMTIH
 70
     1
  9
$DIMTOH
 70
     1
  9
$DIMSE1
 70
     0
  9
$DIMSE2
 70
     0
  9
$DIMTAD
 70
     1
  9
$DIMZIN
 70
     0
  9
$DIMBLK
  1

  9
$DIMASO
 70
     1
  9
$DIMSHO
 70
     1
  9
$DIMPOST
  1

  9
$DIMAPOST
  1

  9
$DIMALT
 70
     0
  9
$DIMALTD
 70
     2
  9
$DIMALTF
 40
25.4
  9
$DIMLFAC
 40
1.0
  9
$DIMTOFL
 70
     0
  9
$DIMTVP
 40
0.0
  9
$DIMTIX
 70
     0
  9
$DIMSOXD
 70
     0
  9
$DIMSAH
 70
     0
  9
$DIMBLK1
  1

  9
$DIMBLK2
  1

  9
$LUNITS
 70
     2
  9
$LUPREC
 70
     4
  9
$SKETCHINC
 40
0.1
  9
$FILLETRAD
 40
0.5
  9
$AUNITS
 70
     0
  9
$AUPREC
 70
     0
  9
$MENU
  1
.
  9
$ELEVATION
 40
0.0
  9
$THICKNESS
 40
0.0
  9
$LIMCHECK
 70
     0
  9
$CHAMFERA
 40
0.0
  9
$CHAMFERB
 40
0.0
  9
$SKPOLY
 70
     0
  9
$TDCREATE
 40
2460027.681864005
  9
$TDUPDATE
 40
2460027.68186441
  9
$TDINDWG
 40
0.0000000116
  9
$TDUSRTIMER
 40
0.0000000116
  9
$USRTIMER
 70
     1
  9
$ANGBASE
 50
0.0
  9
$ANGDIR
 70
     0
  9
$PDMODE
 70
     0
  9
$PDSIZE
 40
0.0
  9
$PLINEWID
 40
0.0
  9
$COORDS
 70
     1
  9
$SPLFRAME
 70
     0
  9
$SPLINETYPE
 70
     6
  9
$SPLINESEGS
 70
     8
  9
$ATTDIA
 70
     0
  9
$ATTREQ
 70
     1
  9
$HANDLING
 70
     1
  9
$HANDSEED
  5
2D7
  9
$SURFTAB1
 70
     6
  9
$SURFTAB2
 70
     6
  9
$SURFTYPE
 70
     6
  9
$SURFU
 70
     6
  9
$SURFV
 70
     6
  9
$UCSNAME
  2

  9
$UCSORG
 10
0.0
 20
0.0
 30
0.0
  9
$UCSXDIR
 10
1.0
 20
0.0
 30
0.0
  9
$UCSYDIR
 10
0.0
 20
1.0
 30
0.0
  9
$USERI1
 70
     0
  9
$USERI2
 70
     0
  9
$USERI3
 70
     0
  9
$USERI4
 70
     0
  9
$USERI5
 70
     0
  9
$USERR1
 40
0.0
  9
$USERR2
 40
0.0
  9
$USERR3
 40
0.0
  9
$USERR4
 40
0.0
  9
$USERR5
 40
0.0
  9
$WORLDVIEW
 70
     1
  0
ENDSEC
  0
SECTION
  2
TABLES
  0
TABLE
  2
VPORT
 70
     1
  0
VPORT
  2
*ACTIVE
 70
     0
 10
0.0
 20
0.0
 11
1.0
 21
1.0
 12
303.56256376075
 22
540.27066196455
 13
0.0
 23
0.0
 14
0.5
 24
0.5
 15
0.5
 25
0.5
 16
0.0
 26
0.0
 36
1.0
 17
0.0
 27
0.0
 37
0.0
 40
1080.5413239291
 41
1.6
 42
50.0
 43
0.0
 44
0.0
 50
0.0
 51
0.0
 71
     0
 72
   100
 73
     1
 74
     3
 75
     0
 76
     0
 77
     0
 78
     0
  0
ENDTAB
  0
TABLE
  2
LTYPE
 70
     2
  0
LTYPE
  2
CONTINUOUS
 70
     0
  3
Solid line
 72
    65
 73
     0
 40
0.0
  0
LTYPE
  2
CENTER
 70
     0
  3

 72
    65
 73
     0
 40
0.0
  0
ENDTAB
  0
TABLE
  2
LAYER
 70
     2
  0
LAYER
  2
0
 70
     0
 62
     7
  6
CONTINUOUS
  0
LAYER
  2
1
 70
     0
 62
     7
  6
CONTINUOUS
  0
ENDTAB
  0
TABLE
  2
STYLE
 70
     2
  0
STYLE
  2
STANDARD
 70
     0
 40
0.0
 41
1.0
 50
0.0
 71
     0
 42
0.2
  3
txt
  4

  0
STYLE
  2
ＭＳ_ゴシック
 70
     0
 40
0.0
 41
1.0
 50
0.0
 71
     0
 42
0.2
  3
ＭＳ ゴシック.shx
  4

  0
ENDTAB
  0
TABLE
  2
VIEW
 70
     0
  0
ENDTAB
  0
TABLE
  2
UCS
 70
     0
  0
ENDTAB
  0
ENDSEC
  0
SECTION
  2
BLOCKS
  0
BLOCK
  8
0
  2
D_FRAME_DRAWING_21
 70
     0
 10
0.0
 20
0.0
 30
0.0
  0
LINE
  5
72
  8
0
  6
CONTINUOUS
 62
     7
 10
0.0
 20
0.0
 30
0.0
 11
420.0
 21
0.0
 31
0.0
  0
LINE
  5
73
  8
0
  6
CONTINUOUS
 62
     7
 10
420.0
 20
0.0
 30
0.0
 11
420.0
 21
297.0
 31
0.0
  0
LINE
  5
74
  8
0
  6
CONTINUOUS
 62
     7
 10
420.0
 20
297.0
 30
0.0
 11
0.0
 21
297.0
 31
0.0
  0
LINE
  5
75
  8
0
  6
CONTINUOUS
 62
     7
 10
0.0
 20
297.0
 30
0.0
 11
0.0
 21
0.0
 31
0.0
  0
LINE
  5
76
  8
0
  6
CONTINUOUS
 62
     7
 10
10.0
 20
10.0
 30
0.0
 11
409.9999999999999
 21
10.0
 31
0.0
  0
LINE
  5
77
  8
0
  6
CONTINUOUS
 62
     7
 10
409.9999999999999
 20
10.0
 30
0.0
 11
409.9999999999999
 21
286.9999999999999
 31
0.0
  0
LINE
  5
78
  8
0
  6
CONTINUOUS
 62
     7
 10
409.9999999999999
 20
286.9999999999999
 30
0.0
 11
10.00000000000006
 21
286.9999999999999
 31
0.0
  0
LINE
  5
79
  8
0
  6
CONTINUOUS
 62
     7
 10
10.0
 20
286.9999999999999
 30
0.0
 11
10.0
 21
10.00000000000001
 31
0.0
  0
LINE
  5
7A
  8
0
  6
CONTINUOUS
 62
     7
 10
210.0
 20
0.0
 30
0.0
 11
210.0
 21
10.0
 31
0.0
  0
LINE
  5
7B
  8
0
  6
CONTINUOUS
 62
     7
 10
420.0
 20
148.5
 30
0.0
 11
409.9999999999999
 21
148.5
 31
0.0
  0
LINE
  5
7C
  8
0
  6
CONTINUOUS
 62
     7
 10
210.0
 20
297.0
 30
0.0
 11
210.0
 21
286.9999999999999
 31
0.0
  0
LINE
  5
7D
  8
0
  6
CONTINUOUS
 62
     7
 10
0.0
 20
148.5
 30
0.0
 11
10.0
 21
148.5
 31
0.0
  0
POLYLINE
  5
7E
  8
0
  6
CONTINUOUS
 62
     7
 66
     1
 10
0.0
 20
0.0
 30
0.0
 70
     1
  0
VERTEX
  5
282
  8
0
  6
CONTINUOUS
 62
     7
 10
11.0
 20
152.5
 30
0.0
  0
VERTEX
  5
283
  8
0
  6
CONTINUOUS
 62
     7
 10
0.0
 20
148.5
 30
0.0
  0
VERTEX
  5
284
  8
0
  6
CONTINUOUS
 62
     7
 10
11.0
 20
144.5
 30
0.0
  0
VERTEX
  5
285
  8
0
  6
CONTINUOUS
 62
     7
 10
11.0
 20
152.5
 30
0.0
  0
SEQEND
  5
2D5
  8
0
  6
CONTINUOUS
 62
     7
  0
INSERT
  5
7F
  8
0
 62
     7
  2
*U21
 10
0.0
 20
0.0
 30
0.0
  0
POLYLINE
  5
80
  8
0
  6
CONTINUOUS
 62
     7
 66
     1
 10
0.0
 20
0.0
 30
0.0
 70
     1
  0
VERTEX
  5
288
  8
0
  6
CONTINUOUS
 62
     7
 10
206.0
 20
11.0
 30
0.0
  0
VERTEX
  5
289
  8
0
  6
CONTINUOUS
 62
     7
 10
210.0
 20
0.0
 30
0.0
  0
VERTEX
  5
28A
  8
0
  6
CONTINUOUS
 62
     7
 10
214.0
 20
11.0
 30
0.0
  0
VERTEX
  5
28B
  8
0
  6
CONTINUOUS
 62
     7
 10
206.0
 20
11.0
 30
0.0
  0
SEQEND
  5
2D6
  8
0
  6
CONTINUOUS
 62
     7
  0
INSERT
  5
81
  8
0
 62
     7
  2
*U22
 10
0.0
 20
0.0
 30
0.0
  0
LINE
  5
82
  8
0
  6
CONTINUOUS
 62
     7
 10
367.5
 20
286.9999999999999
 30
0.0
 11
367.5
 21
292.0
 31
0.0
  0
TEXT
  5
83
  8
0
  6
CONTINUOUS
 62
     7
 10
391.6340909090909
 20
291.8324293485057
 30
0.0
 40
3.5
  1
A
 50
270.0
  0
LINE
  5
84
  8
0
  6
CONTINUOUS
 62
     7
 10
367.5
 20
10.0
 30
0.0
 11
367.5
 21
5.0
 31
0.0
  0
TEXT
  5
85
  8
0
  6
CONTINUOUS
 62
     7
 10
392.9868888333125
 20
4.602272727272727
 30
0.0
 40
3.5
  1
A
  0
LINE
  5
86
  8
0
  6
CONTINUOUS
 62
     7
 10
315.0
 20
286.9999999999999
 30
0.0
 11
315.0
 21
292.0
 31
0.0
  0
TEXT
  5
87
  8
0
  6
CONTINUOUS
 62
     7
 10
339.1340909090909
 20
291.9745607727899
 30
0.0
 40
3.5
  1
B
 50
270.0
  0
LINE
  5
88
  8
0
  6
CONTINUOUS
 62
     7
 10
315.0
 20
10.0
 30
0.0
 11
315.0
 21
5.0
 31
0.0
  0
TEXT
  5
89
  8
0
  6
CONTINUOUS
 62
     7
 10
340.3447574090284
 20
4.602272727272727
 30
0.0
 40
3.5
  1
B
  0
LINE
  5
8A
  8
0
  6
CONTINUOUS
 62
     7
 10
262.5
 20
286.9999999999999
 30
0.0
 11
262.5
 21
292.0
 31
0.0
  0
TEXT
  5
8B
  8
0
  6
CONTINUOUS
 62
     7
 10
286.6327779167187
 20
291.9399305989747
 30
0.0
 40
3.5
  1
C
 50
270.0
  0
LINE
  5
8C
  8
0
  6
CONTINUOUS
 62
     7
 10
262.5
 20
10.0
 30
0.0
 11
262.5
 21
5.0
 31
0.0
  0
TEXT
  5
8D
  8
0
  6
CONTINUOUS
 62
     7
 10
287.8793875828435
 20
4.600959734900587
 30
0.0
 40
3.5
  1
C
  0
LINE
  5
8E
  8
0
  6
CONTINUOUS
 62
     7
 10
210.0
 20
286.9999999999999
 30
0.0
 11
210.0
 21
292.0
 31
0.0
  0
TEXT
  5
8F
  8
0
  6
CONTINUOUS
 62
     7
 10
234.1340909090909
 20
291.9745607727898
 30
0.0
 40
3.5
  1
D
 50
270.0
  0
LINE
  5
90
  8
0
  6
CONTINUOUS
 62
     7
 10
157.5
 20
286.9999999999999
 30
0.0
 11
157.5
 21
292.0
 31
0.0
  0
TEXT
  5
91
  8
0
  6
CONTINUOUS
 62
     7
 10
181.6327779167188
 20
292.027463423784
 30
0.0
 40
3.5
  1
E
 50
270.0
  0
LINE
  5
92
  8
0
  6
CONTINUOUS
 62
     7
 10
157.5
 20
10.0
 30
0.0
 11
157.5
 21
5.0
 31
0.0
  0
LINE
  5
93
  8
0
  6
CONTINUOUS
 62
     7
 10
105.0
 20
286.9999999999999
 30
0.0
 11
105.0
 21
292.0
 31
0.0
  0
TEXT
  5
94
  8
0
  6
CONTINUOUS
 62
     7
 10
129.1327779167188
 20
291.9924502938602
 30
0.0
 40
3.5
  1
F
 50
270.0
  0
LINE
  5
95
  8
0
  6
CONTINUOUS
 62
     7
 10
105.0
 20
10.0
 30
0.0
 11
105.0
 21
5.0
 31
0.0
  0
TEXT
  5
96
  8
0
  6
CONTINUOUS
 62
     7
 10
130.326867887958
 20
4.600959734900587
 30
0.0
 40
3.5
  1
F
  0
LINE
  5
97
  8
0
  6
CONTINUOUS
 62
     7
 10
52.50000000000004
 20
286.9999999999999
 30
0.0
 11
52.50000000000004
 21
292.0
 31
0.0
  0
TEXT
  5
98
  8
0
  6
CONTINUOUS
 62
     7
 10
76.6327779167188
 20
291.9399305989746
 30
0.0
 40
3.5
  1
G
 50
270.0
  0
LINE
  5
99
  8
0
  6
CONTINUOUS
 62
     7
 10
52.50000000000004
 20
10.0
 30
0.0
 11
52.50000000000004
 21
5.0
 31
0.0
  0
TEXT
  5
9A
  8
0
  6
CONTINUOUS
 62
     7
 10
77.8793875828436
 20
4.600959734900587
 30
0.0
 40
3.5
  1
G
  0
TEXT
  5
9B
  8
0
  6
CONTINUOUS
 62
     7
 10
24.13277791671879
 20
291.9749437288983
 30
0.0
 40
3.5
  1
H
 50
270.0
  0
TEXT
  5
9C
  8
0
  6
CONTINUOUS
 62
     7
 10
25.34437445291988
 20
4.600959734900587
 30
0.0
 40
3.5
  1
H
  0
LINE
  5
9D
  8
0
  6
CONTINUOUS
 62
     7
 10
409.9999999999999
 20
74.25
 30
0.0
 11
414.9999999999999
 21
74.25
 31
0.0
  0
TEXT
  5
9E
  8
0
  6
CONTINUOUS
 62
     7
 10
412.9326059772414
 20
35.00777791671877
 30
0.0
 40
3.5
  1
1
  0
LINE
  5
9F
  8
0
  6
CONTINUOUS
 62
     7
 10
10.0
 20
74.25
 30
0.0
 11
5.0
 21
74.25
 31
0.0
  0
TEXT
  5
A0
  8
0
  6
CONTINUOUS
 62
     7
 10
4.600959734900584
 20
38.26171220457671
 30
0.0
 40
3.5
  1
1
 50
270.0
  0
LINE
  5
A1
  8
0
  6
CONTINUOUS
 62
     7
 10
409.9999999999999
 20
148.5
 30
0.0
 11
414.9999999999999
 21
148.5
 31
0.0
  0
TEXT
  5
A2
  8
0
  6
CONTINUOUS
 62
     7
 10
413.163692634738
 20
109.2577779167188
 30
0.0
 40
3.5
  1
2
  0
LINE
  5
A3
  8
0
  6
CONTINUOUS
 62
     7
 10
10.0
 20
148.5
 30
0.0
 11
5.0
 21
148.5
 31
0.0
  0
TEXT
  5
A4
  8
0
  6
CONTINUOUS
 62
     7
 10
4.600959734900599
 20
112.2806255470802
 30
0.0
 40
3.5
  1
2
 50
270.0
  0
LINE
  5
A5
  8
0
  6
CONTINUOUS
 62
     7
 10
409.9999999999999
 20
222.75
 30
0.0
 11
414.9999999999999
 21
222.75
 31
0.0
  0
TEXT
  5
A6
  8
0
  6
CONTINUOUS
 62
     7
 10
413.1811991996998
 20
183.5077779167188
 30
0.0
 40
3.5
  1
3
  0
LINE
  5
A7
  8
0
  6
CONTINUOUS
 62
     7
 10
10.0
 20
222.75
 30
0.0
 11
5.0
 21
222.75
 31
0.0
  0
TEXT
  5
A8
  8
0
  6
CONTINUOUS
 62
     7
 10
4.600959734900584
 20
186.5131189821183
 30
0.0
 40
3.5
  1
3
 50
270.0
  0
TEXT
  5
A9
  8
0
  6
CONTINUOUS
 62
     7
 10
413.2351413029886
 20
257.7590909090909
 30
0.0
 40
3.5
  1
4
  0
TEXT
  5
AA
  8
0
  6
CONTINUOUS
 62
     7
 10
4.60227272727272
 20
260.7091768788295
 30
0.0
 40
3.5
  1
4
 50
270.0
  0
LINE
  5
AB
  8
0
  6
CONTINUOUS
 62
     7
 10
220.0
 20
10.0
 30
0.0
 11
220.0
 21
7.0
 31
0.0
  0
LINE
  5
AC
  8
0
  6
CONTINUOUS
 62
     7
 10
200.0
 20
10.0
 30
0.0
 11
200.0
 21
7.0
 31
0.0
  0
LINE
  5
AD
  8
0
  6
CONTINUOUS
 62
     7
 10
230.0
 20
10.0
 30
0.0
 11
230.0
 21
7.0
 31
0.0
  0
LINE
  5
AE
  8
0
  6
CONTINUOUS
 62
     7
 10
190.0
 20
10.0
 30
0.0
 11
190.0
 21
7.0
 31
0.0
  0
LINE
  5
AF
  8
0
  6
CONTINUOUS
 62
     7
 10
240.0
 20
10.0
 30
0.0
 11
240.0
 21
7.0
 31
0.0
  0
LINE
  5
B0
  8
0
  6
CONTINUOUS
 62
     7
 10
180.0
 20
10.0
 30
0.0
 11
180.0
 21
7.0
 31
0.0
  0
LINE
  5
B1
  8
0
  6
CONTINUOUS
 62
     7
 10
250.0
 20
10.0
 30
0.0
 11
250.0
 21
7.0
 31
0.0
  0
LINE
  5
B2
  8
0
  6
CONTINUOUS
 62
     7
 10
170.0
 20
10.0
 30
0.0
 11
170.0
 21
7.0
 31
0.0
  0
LINE
  5
B3
  8
0
  6
CONTINUOUS
 62
     7
 10
260.0
 20
10.0
 30
0.0
 11
260.0
 21
5.0
 31
0.0
  0
LINE
  5
B4
  8
0
  6
CONTINUOUS
 62
     7
 10
160.0
 20
10.0
 30
0.0
 11
160.0
 21
5.0
 31
0.0
  0
LINE
  5
B5
  8
0
  6
CONTINUOUS
 62
     7
 10
260.0
 20
10.0
 30
0.0
 11
160.0
 21
10.0
 31
0.0
  0
LINE
  5
B6
  8
0
  6
CONTINUOUS
 62
     7
 10
260.0
 20
7.0
 30
0.0
 11
160.0
 21
7.0
 31
0.0
  0
INSERT
  5
B7
  8
0
 62
     7
  2
*U23
 10
0.0
 20
0.0
 30
0.0
  0
INSERT
  5
B8
  8
0
 62
     7
  2
*U24
 10
0.0
 20
0.0
 30
0.0
  0
INSERT
  5
B9
  8
0
 62
     7
  2
*U25
 10
0.0
 20
0.0
 30
0.0
  0
INSERT
  5
BA
  8
0
 62
     7
  2
*U26
 10
0.0
 20
0.0
 30
0.0
  0
ENDBLK
  8
0
  0
BLOCK
  8
0
  2
*U2
 70
     1
 10
0.0
 20
0.0
 30
0.0
  0
SOLID
  5
25B
  8
0
  6
CONTINUOUS
 62
     7
 10
11.0
 20
144.5
 30
0.0
 11
6.999999999999999
 21
148.5
 31
0.0
 12
11.0
 22
152.5
 32
0.0
 13
11.0
 23
152.5
 33
0.0
  0
ENDBLK
  8
0
  0
BLOCK
  8
0
  2
*U3
 70
     1
 10
0.0
 20
0.0
 30
0.0
  0
SOLID
  5
25D
  8
0
  6
CONTINUOUS
 62
     7
 10
210.0
 20
6.999999999999999
 30
0.0
 11
206.0
 21
11.0
 31
0.0
 12
210.0
 22
11.0
 32
0.0
 13
210.0
 23
11.0
 33
0.0
  0
ENDBLK
  8
0
  0
BLOCK
  8
0
  2
*U4
 70
     1
 10
0.0
 20
0.0
 30
0.0
  0
SOLID
  5
25F
  8
0
  6
CONTINUOUS
 62
     7
 10
210.0
 20
6.999999999999999
 30
0.0
 11
210.0
 21
11.0
 31
0.0
 12
214.0
 22
11.0
 32
0.0
 13
214.0
 23
11.0
 33
0.0
  0
ENDBLK
  8
0
  0
BLOCK
  8
0
  2
*U5
 70
     1
 10
0.0
 20
0.0
 30
0.0
  0
SOLID
  5
261
  8
0
  6
CONTINUOUS
 62
     7
 10
0.0
 20
0.0
 30
0.0
 11
0.0
 21
10.0
 31
0.0
 12
2.0
 22
0.0
 32
0.0
 13
2.0
 23
0.0
 33
0.0
  0
ENDBLK
  8
0
  0
BLOCK
  8
0
  2
*U6
 70
     1
 10
0.0
 20
0.0
 30
0.0
  0
SOLID
  5
263
  8
0
  6
CONTINUOUS
 62
     7
 10
2.0
 20
0.0
 30
0.0
 11
0.0
 21
10.0
 31
0.0
 12
2.0
 22
10.0
 32
0.0
 13
2.0
 23
10.0
 33
0.0
  0
ENDBLK
  8
0
  0
BLOCK
  8
0
  2
*U7
 70
     1
 10
0.0
 20
0.0
 30
0.0
  0
SOLID
  5
265
  8
0
  6
CONTINUOUS
 62
     7
 10
2.0
 20
0.0
 30
0.0
 11
2.0
 21
2.0
 31
0.0
 12
10.0
 22
0.0
 32
0.0
 13
10.0
 23
0.0
 33
0.0
  0
ENDBLK
  8
0
  0
BLOCK
  8
0
  2
*U8
 70
     1
 10
0.0
 20
0.0
 30
0.0
  0
SOLID
  5
267
  8
0
  6
CONTINUOUS
 62
     7
 10
10.0
 20
0.0
 30
0.0
 11
2.0
 21
2.0
 31
0.0
 12
10.0
 22
2.0
 32
0.0
 13
10.0
 23
2.0
 33
0.0
  0
ENDBLK
  8
0
  0
BLOCK
  8
0
  2
*U9
 70
     1
 10
0.0
 20
0.0
 30
0.0
  0
SOLID
  5
269
  8
0
  6
CONTINUOUS
 62
     7
 10
409.9999999999999
 20
0.0
 30
0.0
 11
409.9999999999999
 21
2.0
 31
0.0
 12
418.0
 22
0.0
 32
0.0
 13
418.0
 23
0.0
 33
0.0
  0
ENDBLK
  8
0
  0
BLOCK
  8
0
  2
*U10
 70
     1
 10
0.0
 20
0.0
 30
0.0
  0
SOLID
  5
26B
  8
0
  6
CONTINUOUS
 62
     7
 10
418.0
 20
0.0
 30
0.0
 11
409.9999999999999
 21
2.0
 31
0.0
 12
418.0
 22
2.0
 32
0.0
 13
418.0
 23
2.0
 33
0.0
  0
ENDBLK
  8
0
  0
BLOCK
  8
0
  2
*U11
 70
     1
 10
0.0
 20
0.0
 30
0.0
  0
SOLID
  5
26D
  8
0
  6
CONTINUOUS
 62
     7
 10
418.0
 20
0.0
 30
0.0
 11
418.0
 21
10.0
 31
0.0
 12
420.0
 22
0.0
 32
0.0
 13
420.0
 23
0.0
 33
0.0
  0
ENDBLK
  8
0
  0
BLOCK
  8
0
  2
*U12
 70
     1
 10
0.0
 20
0.0
 30
0.0
  0
SOLID
  5
26F
  8
0
  6
CONTINUOUS
 62
     7
 10
420.0
 20
0.0
 30
0.0
 11
418.0
 21
10.0
 31
0.0
 12
420.0
 22
10.0
 32
0.0
 13
420.0
 23
10.0
 33
0.0
  0
ENDBLK
  8
0
  0
BLOCK
  8
0
  2
*U13
 70
     1
 10
0.0
 20
0.0
 30
0.0
  0
SOLID
  5
271
  8
0
  6
CONTINUOUS
 62
     7
 10
409.9999999999999
 20
295.0
 30
0.0
 11
409.9999999999999
 21
297.0
 31
0.0
 12
418.0
 22
295.0
 32
0.0
 13
418.0
 23
295.0
 33
0.0
  0
ENDBLK
  8
0
  0
BLOCK
  8
0
  2
*U14
 70
     1
 10
0.0
 20
0.0
 30
0.0
  0
SOLID
  5
273
  8
0
  6
CONTINUOUS
 62
     7
 10
418.0
 20
295.0
 30
0.0
 11
409.9999999999999
 21
297.0
 31
0.0
 12
418.0
 22
297.0
 32
0.0
 13
418.0
 23
297.0
 33
0.0
  0
ENDBLK
  8
0
  0
BLOCK
  8
0
  2
*U15
 70
     1
 10
0.0
 20
0.0
 30
0.0
  0
SOLID
  5
275
  8
0
  6
CONTINUOUS
 62
     7
 10
418.0
 20
286.9999999999999
 30
0.0
 11
418.0
 21
297.0
 31
0.0
 12
420.0
 22
286.9999999999999
 32
0.0
 13
420.0
 23
286.9999999999999
 33
0.0
  0
ENDBLK
  8
0
  0
BLOCK
  8
0
  2
*U16
 70
     1
 10
0.0
 20
0.0
 30
0.0
  0
SOLID
  5
277
  8
0
  6
CONTINUOUS
 62
     7
 10
420.0
 20
286.9999999999999
 30
0.0
 11
418.0
 21
297.0
 31
0.0
 12
420.0
 22
297.0
 32
0.0
 13
420.0
 23
297.0
 33
0.0
  0
ENDBLK
  8
0
  0
BLOCK
  8
0
  2
*U17
 70
     1
 10
0.0
 20
0.0
 30
0.0
  0
SOLID
  5
279
  8
0
  6
CONTINUOUS
 62
     7
 10
0.0
 20
286.9999999999999
 30
0.0
 11
0.0
 21
297.0
 31
0.0
 12
2.0
 22
286.9999999999999
 32
0.0
 13
2.0
 23
286.9999999999999
 33
0.0
  0
ENDBLK
  8
0
  0
BLOCK
  8
0
  2
*U18
 70
     1
 10
0.0
 20
0.0
 30
0.0
  0
SOLID
  5
27B
  8
0
  6
CONTINUOUS
 62
     7
 10
2.0
 20
286.9999999999999
 30
0.0
 11
0.0
 21
297.0
 31
0.0
 12
2.0
 22
297.0
 32
0.0
 13
2.0
 23
297.0
 33
0.0
  0
ENDBLK
  8
0
  0
BLOCK
  8
0
  2
*U19
 70
     1
 10
0.0
 20
0.0
 30
0.0
  0
SOLID
  5
27D
  8
0
  6
CONTINUOUS
 62
     7
 10
2.0
 20
295.0
 30
0.0
 11
2.0
 21
297.0
 31
0.0
 12
10.0
 22
295.0
 32
0.0
 13
10.0
 23
295.0
 33
0.0
  0
ENDBLK
  8
0
  0
BLOCK
  8
0
  2
*U20
 70
     1
 10
0.0
 20
0.0
 30
0.0
  0
SOLID
  5
27F
  8
0
  6
CONTINUOUS
 62
     7
 10
10.0
 20
295.0
 30
0.0
 11
2.0
 21
297.0
 31
0.0
 12
10.0
 22
297.0
 32
0.0
 13
10.0
 23
297.0
 33
0.0
  0
ENDBLK
  8
0
  0
BLOCK
  8
0
  2
*U21
 70
     1
 10
0.0
 20
0.0
 30
0.0
  0
SOLID
  5
287
  8
0
  6
CONTINUOUS
 62
     7
 10
11.0
 20
144.5
 30
0.0
 11
6.999999999999999
 21
148.5
 31
0.0
 12
11.0
 22
152.5
 32
0.0
 13
11.0
 23
152.5
 33
0.0
  0
ENDBLK
  8
0
  0
BLOCK
  8
0
  2
*U22
 70
     1
 10
0.0
 20
0.0
 30
0.0
  0
SOLID
  5
28D
  8
0
  6
CONTINUOUS
 62
     7
 10
210.0
 20
6.999999999999999
 30
0.0
 11
206.0
 21
11.0
 31
0.0
 12
210.0
 22
11.0
 32
0.0
 13
210.0
 23
11.0
 33
0.0
  0
SOLID
  5
28E
  8
0
  6
CONTINUOUS
 62
     7
 10
210.0
 20
6.999999999999999
 30
0.0
 11
210.0
 21
11.0
 31
0.0
 12
214.0
 22
11.0
 32
0.0
 13
214.0
 23
11.0
 33
0.0
  0
ENDBLK
  8
0
  0
BLOCK
  8
0
  2
*U23
 70
     1
 10
0.0
 20
0.0
 30
0.0
  0
SOLID
  5
290
  8
0
  6
CONTINUOUS
 62
     7
 10
0.0
 20
0.0
 30
0.0
 11
0.0
 21
10.0
 31
0.0
 12
2.0
 22
0.0
 32
0.0
 13
2.0
 23
0.0
 33
0.0
  0
SOLID
  5
291
  8
0
  6
CONTINUOUS
 62
     7
 10
2.0
 20
0.0
 30
0.0
 11
0.0
 21
10.0
 31
0.0
 12
2.0
 22
10.0
 32
0.0
 13
2.0
 23
10.0
 33
0.0
  0
SOLID
  5
292
  8
0
  6
CONTINUOUS
 62
     7
 10
2.0
 20
0.0
 30
0.0
 11
2.0
 21
2.0
 31
0.0
 12
10.0
 22
0.0
 32
0.0
 13
10.0
 23
0.0
 33
0.0
  0
SOLID
  5
293
  8
0
  6
CONTINUOUS
 62
     7
 10
10.0
 20
0.0
 30
0.0
 11
2.0
 21
2.0
 31
0.0
 12
10.0
 22
2.0
 32
0.0
 13
10.0
 23
2.0
 33
0.0
  0
ENDBLK
  8
0
  0
BLOCK
  8
0
  2
*U24
 70
     1
 10
0.0
 20
0.0
 30
0.0
  0
SOLID
  5
295
  8
0
  6
CONTINUOUS
 62
     7
 10
409.9999999999999
 20
0.0
 30
0.0
 11
409.9999999999999
 21
2.0
 31
0.0
 12
418.0
 22
0.0
 32
0.0
 13
418.0
 23
0.0
 33
0.0
  0
SOLID
  5
296
  8
0
  6
CONTINUOUS
 62
     7
 10
418.0
 20
0.0
 30
0.0
 11
409.9999999999999
 21
2.0
 31
0.0
 12
418.0
 22
2.0
 32
0.0
 13
418.0
 23
2.0
 33
0.0
  0
SOLID
  5
297
  8
0
  6
CONTINUOUS
 62
     7
 10
418.0
 20
0.0
 30
0.0
 11
418.0
 21
10.0
 31
0.0
 12
420.0
 22
0.0
 32
0.0
 13
420.0
 23
0.0
 33
0.0
  0
SOLID
  5
298
  8
0
  6
CONTINUOUS
 62
     7
 10
420.0
 20
0.0
 30
0.0
 11
418.0
 21
10.0
 31
0.0
 12
420.0
 22
10.0
 32
0.0
 13
420.0
 23
10.0
 33
0.0
  0
ENDBLK
  8
0
  0
BLOCK
  8
0
  2
*U25
 70
     1
 10
0.0
 20
0.0
 30
0.0
  0
SOLID
  5
29A
  8
0
  6
CONTINUOUS
 62
     7
 10
409.9999999999999
 20
295.0
 30
0.0
 11
409.9999999999999
 21
297.0
 31
0.0
 12
418.0
 22
295.0
 32
0.0
 13
418.0
 23
295.0
 33
0.0
  0
SOLID
  5
29B
  8
0
  6
CONTINUOUS
 62
     7
 10
418.0
 20
295.0
 30
0.0
 11
409.9999999999999
 21
297.0
 31
0.0
 12
418.0
 22
297.0
 32
0.0
 13
418.0
 23
297.0
 33
0.0
  0
SOLID
  5
29C
  8
0
  6
CONTINUOUS
 62
     7
 10
418.0
 20
286.9999999999999
 30
0.0
 11
418.0
 21
297.0
 31
0.0
 12
420.0
 22
286.9999999999999
 32
0.0
 13
420.0
 23
286.9999999999999
 33
0.0
  0
SOLID
  5
29D
  8
0
  6
CONTINUOUS
 62
     7
 10
420.0
 20
286.9999999999999
 30
0.0
 11
418.0
 21
297.0
 31
0.0
 12
420.0
 22
297.0
 32
0.0
 13
420.0
 23
297.0
 33
0.0
  0
ENDBLK
  8
0
  0
BLOCK
  8
0
  2
*U26
 70
     1
 10
0.0
 20
0.0
 30
0.0
  0
SOLID
  5
29F
  8
0
  6
CONTINUOUS
 62
     7
 10
0.0
 20
286.9999999999999
 30
0.0
 11
0.0
 21
297.0
 31
0.0
 12
2.0
 22
286.9999999999999
 32
0.0
 13
2.0
 23
286.9999999999999
 33
0.0
  0
SOLID
  5
2A0
  8
0
  6
CONTINUOUS
 62
     7
 10
2.0
 20
286.9999999999999
 30
0.0
 11
0.0
 21
297.0
 31
0.0
 12
2.0
 22
297.0
 32
0.0
 13
2.0
 23
297.0
 33
0.0
  0
SOLID
  5
2A1
  8
0
  6
CONTINUOUS
 62
     7
 10
2.0
 20
295.0
 30
0.0
 11
2.0
 21
297.0
 31
0.0
 12
10.0
 22
295.0
 32
0.0
 13
10.0
 23
295.0
 33
0.0
  0
SOLID
  5
2A2
  8
0
  6
CONTINUOUS
 62
     7
 10
10.0
 20
295.0
 30
0.0
 11
2.0
 21
297.0
 31
0.0
 12
10.0
 22
297.0
 32
0.0
 13
10.0
 23
297.0
 33
0.0
  0
ENDBLK
  8
0
  0
ENDSEC
  0
SECTION
  2
ENTITIES
  0
INSERT
  5
71
  8
0
 62
     7
  2
D_FRAME_DRAWING_21
 10
0.0
 20
0.0
 30
0.0
  0
ARC
  5
BB
  8
1
  6
CONTINUOUS
 62
     7
 10
249.3370353217
 20
1068.9416691985
 30
0.0
 40
0.1499860620000071
 50
142.0859335003
 51
168.6832820549
  0
LINE
  5
BC
  8
1
  6
CONTINUOUS
 62
     7
 10
209.6131335215
 20
1067.566925557
 30
0.0
 11
209.6131335215
 21
942.066925557
 31
0.0
  0
LINE
  5
BD
  8
1
  6
CONTINUOUS
 62
     7
 10
346.6131335215
 20
945.316925557
 30
0.0
 11
351.6131335215
 21
945.316925557
 31
0.0
  0
ARC
  5
BE
  8
1
  6
CONTINUOUS
 62
     7
 10
391.9882854467
 20
950.0497443169
 30
0.0
 40
0.6248680535
 50
326.2032337258
 51
359.5418291854
  0
LINE
  5
BF
  8
1
  6
CONTINUOUS
 62
     7
 10
261.6131335215
 20
1058.356737557
 30
0.0
 11
261.6131335215
 21
1077.242170557
 31
0.0
  0
ARC
  5
C0
  8
1
  6
CONTINUOUS
 62
     7
 10
249.8223071909
 20
1047.3830581236
 30
0.0
 40
0.7603207028999692
 50
123.1961091913
 51
142.5492817904
  0
LINE
  5
C1
  8
1
  6
CONTINUOUS
 62
     7
 10
224.7521595215
 20
945.317521557
 30
0.0
 11
221.2521595215
 21
945.317513557
 31
0.0
  0
LINE
  5
C2
  8
1
  6
CONTINUOUS
 62
     7
 10
249.1131335215
 20
1008.585023557
 30
0.0
 11
249.1131335215
 21
1047.489005557
 31
0.0
  0
ARC
  5
C3
  8
1
  6
CONTINUOUS
 62
     7
 10
391.8310075169
 20
950.1510526616
 30
0.0
 40
0.8119278381
 50
307.0532481588
 51
326.4358818713
  0
ARC
  5
C4
  8
1
  6
CONTINUOUS
 62
     7
 10
391.6149865874
 20
941.3202577823
 30
0.0
 40
1.1013067843
 50
269.9035937083
 51
293.8530822054
  0
ARC
  5
C5
  8
1
  6
CONTINUOUS
 62
     7
 10
249.26699981
 20
1047.7815286984
 30
0.0
 40
0.080068183299975
 50
127.096152824
 51
164.1773903186
  0
ARC
  5
C6
  8
1
  6
CONTINUOUS
 62
     7
 10
250.1125965099
 20
941.0480690779
 30
0.0
 40
0.9999605005999723
 50
225.0412368681
 51
243.46821396
  0
LINE
  5
C7
  8
1
  6
CONTINUOUS
 62
     7
 10
261.6131335215
 20
1008.108408557
 30
0.0
 11
261.6131335215
 21
1053.701877557
 31
0.0
  0
ARC
  5
C8
  8
1
  6
CONTINUOUS
 62
     7
 10
250.0054562806
 20
1047.1085057765
 30
0.0
 40
1.090345780600022
 50
108.1437693768
 51
123.3506152024
  0
ARC
  5
C9
  8
1
  6
CONTINUOUS
 62
     7
 10
250.0054562806
 20
962.5253463374
 30
0.0
 40
1.090345780600022
 50
236.6493847976
 51
251.8562306231999
  0
LINE
  5
CA
  8
1
  6
CONTINUOUS
 62
     7
 10
261.6131335215
 20
1048.891060557
 30
0.0
 11
250.0259775215
 21
1048.212732557
 31
0.0
  0
ARC
  5
CB
  8
1
  6
CONTINUOUS
 62
     7
 10
249.8223071912001
 20
962.2507939903
 30
0.0
 40
0.7603207030999759
 50
217.450718193
 51
236.8038907925
  0
ARC
  5
CC
  8
1
  6
CONTINUOUS
 62
     7
 10
391.6131335215
 20
1076.306148557
 30
0.0
 40
1.0
 50
0.0
 51
90.0
  0
ARC
  5
CD
  8
1
  6
CONTINUOUS
 62
     7
 10
391.8003860589
 20
1068.5217787875
 30
0.0
 40
0.8127502087
 50
0.1489423357
 51
29.5296380852
  0
ARC
  5
CE
  8
1
  6
CONTINUOUS
 62
     7
 10
391.6534794332
 20
1068.4014836082
 30
0.0
 40
1.005357447
 50
48.45502321200001
 51
66.1277006375
  0
LINE
  5
CF
  8
1
  6
CONTINUOUS
 62
     7
 10
261.6131335215
 20
939.039434557
 30
0.0
 11
250.0259775215
 21
940.051790557
 31
0.0
  0
LINE
  5
D0
  8
1
  6
CONTINUOUS
 62
     7
 10
261.6131335215
 20
960.742791557
 30
0.0
 11
250.0259775215
 21
961.421118557
 31
0.0
  0
LINE
  5
D1
  8
1
  6
CONTINUOUS
 62
     7
 10
261.6131335215
 20
955.931973557
 30
0.0
 11
261.6131335215
 21
1001.525442557
 31
0.0
  0
ARC
  5
D2
  8
1
  6
CONTINUOUS
 62
     7
 10
391.8003860589
 20
941.1120723265
 30
0.0
 40
0.8127502087
 50
330.4703619149
 51
359.8510576643
  0
ARC
  5
D3
  8
1
  6
CONTINUOUS
 62
     7
 10
250.0567682401
 20
962.5698783704
 30
0.0
 40
1.149172135800014
 50
250.116244839
 51
268.4646559182
  0
LINE
  5
D4
  8
1
  6
CONTINUOUS
 62
     7
 10
249.1131335215
 20
962.144845557
 30
0.0
 11
249.1131335215
 21
1001.048827557
 31
0.0
  0
ARC
  5
D5
  8
1
  6
CONTINUOUS
 62
     7
 10
391.7219763241
 20
941.1554216328
 30
0.0
 40
0.9023407967
 50
311.5300935806
 51
330.5292761026
  0
ARC
  5
D6
  8
1
  6
CONTINUOUS
 62
     7
 10
250.1124501787
 20
1068.5870606402
 30
0.0
 40
0.9987512822999811
 50
94.96691679469997
 51
116.5570405842
  0
ARC
  5
D7
  8
1
  6
CONTINUOUS
 62
     7
 10
250.1116860277
 20
941.0471573347
 30
0.0
 40
0.998671992400002
 50
206.5983465353
 51
225.0412389146
  0
ARC
  5
D8
  8
1
  6
CONTINUOUS
 62
     7
 10
250.1125965101999
 20
1068.5857820361
 30
0.0
 40
0.999960500799979
 50
116.5317860543
 51
134.9587631466
  0
LINE
  5
D9
  8
1
  6
CONTINUOUS
 62
     7
 10
234.1131335215
 20
935.316925557
 30
0.0
 11
234.1131335215
 21
1074.316925557
 31
0.0
  0
ARC
  5
DA
  8
1
  6
CONTINUOUS
 62
     7
 10
249.8568090452
 20
962.255618474
 30
0.0
 40
0.7908305615999811
 50
212.5183416048
 51
216.2081153794
  0
LINE
  5
DB
  8
1
  6
CONTINUOUS
 62
     7
 10
261.6131335215
 20
1070.594416557
 30
0.0
 11
250.0259775215
 21
1069.582061557
 31
0.0
  0
LINE
  5
DC
  8
1
  6
CONTINUOUS
 62
     7
 10
249.1131335215
 20
1047.489005557
 30
0.0
 11
249.1899645215
 21
1047.803359557
 31
0.0
  0
LINE
  5
DD
  8
1
  6
CONTINUOUS
 62
     7
 10
249.1899645215
 20
961.830491557
 30
0.0
 11
249.1131335215
 21
962.144845557
 31
0.0
  0
ARC
  5
DE
  8
1
  6
CONTINUOUS
 62
     7
 10
249.9666687638
 20
1047.5403765015
 30
0.0
 40
0.6749675837999514
 50
84.95895141160001
 51
116.4601478312
  0
LINE
  5
DF
  8
1
  6
CONTINUOUS
 62
     7
 10
266.9224035215
 20
932.316925557
 30
0.0
 11
266.9224035215
 21
1077.316925557
 31
0.0
  0
LINE
  5
E0
  8
1
  6
CONTINUOUS
 62
     7
 10
237.1131335215
 20
1001.048142557
 30
0.0
 11
237.1131335215
 21
1001.055041557
 31
0.0
  0
ARC
  5
E1
  8
1
  6
CONTINUOUS
 62
     7
 10
391.6149865874
 20
1068.3135933317
 30
0.0
 40
1.1013067843
 50
66.1469177946
 51
90.0964062917
  0
ARC
  5
E2
  8
1
  6
CONTINUOUS
 62
     7
 10
391.7219763241
 20
1068.4784294812
 30
0.0
 40
0.9023407967
 50
29.47072389740001
 51
48.4699064194
  0
LINE
  5
E3
  8
1
  6
CONTINUOUS
 62
     7
 10
249.1899645215
 20
940.662750557
 30
0.0
 11
249.1131335215
 21
941.050687557
 31
0.0
  0
LINE
  5
E4
  8
1
  6
CONTINUOUS
 62
     7
 10
237.1131335215
 20
1008.578810557
 30
0.0
 11
237.1131335215
 21
1008.585709557
 31
0.0
  0
ARC
  5
E5
  8
1
  6
CONTINUOUS
 62
     7
 10
391.6534794332
 20
941.2323675058
 30
0.0
 40
1.005357447
 50
293.8722993625
 51
311.544976788
  0
ARC
  5
E6
  8
1
  6
CONTINUOUS
 62
     7
 10
250.1116860273
 20
1068.5866937793
 30
0.0
 40
0.9986719921000198
 50
134.9587610747
 51
153.4016534544
  0
LINE
  5
E7
  8
1
  6
CONTINUOUS
 62
     7
 10
261.6131335215
 20
932.391680557
 30
0.0
 11
261.6131335215
 21
951.277113557
 31
0.0
  0
ARC
  5
E8
  8
1
  6
CONTINUOUS
 62
     7
 10
250.1127013081999
 20
941.0475616199
 30
0.0
 40
0.9997608391000279
 50
202.6377720665
 51
206.5930123781
  0
ARC
  5
E9
  8
1
  6
CONTINUOUS
 62
     7
 10
250.0614719942
 20
940.8661800092
 30
0.0
 40
0.8151634827999743
 50
240.9716302332
 51
267.5044123586
  0
LINE
  5
EA
  8
1
  6
CONTINUOUS
 62
     7
 10
500.2121025215002
 20
954.271051557
 30
0.0
 11
496.023025507
 21
949.2787035691
 31
0.0
  0
LINE
  5
EB
  8
1
  6
CONTINUOUS
 62
     7
 10
354.6131335215
 20
946.316925557
 30
0.0
 11
357.6131335215
 21
946.316925557
 31
0.0
  0
ARC
  5
EC
  8
1
  6
CONTINUOUS
 62
     7
 10
600.7353825215
 20
973.524782557
 30
0.0
 40
1.5
 50
62.99999999999999
 51
151.697711
  0
ARC
  5
ED
  8
1
  6
CONTINUOUS
 62
     7
 10
594.1351825215
 20
963.552968557
 30
0.0
 40
1.5
 50
141.302289
 51
230.0
  0
LINE
  5
EE
  8
1
  6
CONTINUOUS
 62
     7
 10
113.6131336083
 20
1079.8169255923
 30
0.0
 11
116.6131336083
 21
1067.566925557
 31
0.0
  0
ARC
  5
EF
  8
1
  6
CONTINUOUS
 62
     7
 10
484.5148715215
 20
1036.109069557
 30
0.0
 40
1.5
 50
243.0000000000001
 51
331.6977110000001
  0
ARC
  5
F0
  8
1
  6
CONTINUOUS
 62
     7
 10
573.9172705215
 20
1062.927181557
 30
0.0
 40
1.5
 50
153.0
 51
241.6977109999999
  0
LINE
  5
F1
  8
1
  6
CONTINUOUS
 62
     7
 10
575.5394378404
 20
1069.414898904
 30
0.0
 11
572.5807605215
 21
1063.608166557
 31
0.0
  0
LINE
  5
F2
  8
1
  6
CONTINUOUS
 62
     7
 10
492.0792535215
 20
1047.229949557
 30
0.0
 11
487.0869051348
 21
1051.4190270962
 31
0.0
  0
LINE
  5
F3
  8
1
  6
CONTINUOUS
 62
     7
 10
351.6131335215
 20
1064.316925557
 30
0.0
 11
346.6131335215
 21
1064.316925557
 31
0.0
  0
ARC
  5
F4
  8
1
  6
CONTINUOUS
 62
     7
 10
542.6251275215
 20
1004.816925557
 30
0.0
 40
72.5
 50
180.987907
 51
179.012093
  0
ARC
  5
F5
  8
1
  6
CONTINUOUS
 62
     7
 10
484.5148715215
 20
973.524782557
 30
0.0
 40
1.5
 50
28.302289
 51
117.0
  0
LINE
  5
F6
  8
1
  6
CONTINUOUS
 62
     7
 10
585.0381515215
 20
1055.362799557
 30
0.0
 11
589.2272286475
 21
1060.3551474512
 31
0.0
  0
LINE
  5
F7
  8
1
  6
CONTINUOUS
 62
     7
 10
471.1251275215
 20
1003.566925557
 30
0.0
 11
470.1359041845
 21
1003.566925557
 31
0.0
  0
LINE
  5
F8
  8
1
  6
CONTINUOUS
 62
     7
 10
483.8338846068
 20
974.8612963147
 30
0.0
 11
478.0271545215
 21
971.902614557
 31
0.0
  0
LINE
  5
F9
  8
1
  6
CONTINUOUS
 62
     7
 10
500.2121025215002
 20
1055.362799557
 30
0.0
 11
496.0230260886
 21
1060.3551480329
 31
0.0
  0
ARC
  5
FA
  8
1
  6
CONTINUOUS
 62
     7
 10
358.1131335215
 20
947.816925557
 30
0.0
 40
0.5
 50
90.0
 51
180.0
  0
LINE
  5
FB
  8
1
  6
CONTINUOUS
 62
     7
 10
354.6131335215
 20
1063.316925557
 30
0.0
 11
354.6131335215
 21
946.316925557
 31
0.0
  0
LINE
  5
FC
  8
1
  6
CONTINUOUS
 62
     7
 10
113.6131336083
 20
929.8169255217
 30
0.0
 11
116.6131336083
 21
942.066925557
 31
0.0
  0
ARC
  5
FD
  8
1
  6
CONTINUOUS
 62
     7
 10
352.1131335215
 20
1061.816925557
 30
0.0
 40
0.5
 50
180.0
 51
270.0
  0
CIRCLE
  5
FE
  8
1
  6
CONTINUOUS
 62
     7
 10
542.6251275215
 20
1004.816925557
 30
0.0
 40
51.920049
  0
CIRCLE
  5
FF
  8
1
  6
CONTINUOUS
 62
     7
 10
542.6251275215
 20
1004.816925557
 30
0.0
 40
40.0
  0
LINE
  5
100
  8
1
  6
CONTINUOUS
 62
     7
 10
-5.386866391699999
 20
929.8169255217
 30
0.0
 11
113.6131336083
 21
929.8169255217
 31
0.0
  0
ARC
  5
101
  8
1
  6
CONTINUOUS
 62
     7
 10
542.6251275215
 20
1004.816925557
 30
0.0
 40
64.5
 50
51.30228900000001
 51
61.697711
  0
LINE
  5
102
  8
1
  6
CENTER
 62
     5
 10
542.6251275215
 20
1079.316925557
 30
0.0
 11
542.6251275215
 21
930.316925557
 31
0.0
  0
ARC
  5
104
  8
1
  6
CONTINUOUS
 62
     7
 10
501.3611695215
 20
1056.326981557
 30
0.0
 40
1.5
 50
220.0
 51
308.697711
  0
LINE
  5
105
  8
1
  6
CONTINUOUS
 62
     7
 10
116.6131336083
 20
1067.566925557
 30
0.0
 11
116.6131336083
 21
942.066925557
 31
0.0
  0
LINE
  5
106
  8
1
  6
CONTINUOUS
 62
     7
 10
471.1251275215
 20
1003.566925557
 30
0.0
 11
471.1251275215
 21
1006.066925557
 31
0.0
  0
LINE
  5
107
  8
1
  6
CONTINUOUS
 62
     7
 10
352.1131335215
 20
1061.316925557
 30
0.0
 11
354.1131335215
 21
1061.316925557
 31
0.0
  0
LINE
  5
108
  8
1
  6
CONTINUOUS
 62
     7
 10
-5.3868649633
 20
1079.8169255923
 30
0.0
 11
113.6131336083
 21
1079.8169255923
 31
0.0
  0
ARC
  5
109
  8
1
  6
CONTINUOUS
 62
     7
 10
354.1131335215
 20
1061.816925557
 30
0.0
 40
0.5
 50
270.0
 51
0.0
  0
LINE
  5
10A
  8
1
  6
CONTINUOUS
 62
     7
 10
483.8338868385
 20
1034.7725601792
 30
0.0
 11
478.0271545215
 21
1037.731236557
 31
0.0
  0
ARC
  5
10B
  8
1
  6
CONTINUOUS
 62
     7
 10
501.3611695215
 20
953.306870557
 30
0.0
 40
1.5
 50
51.30228900000001
 51
140.0
  0
ARC
  5
10C
  8
1
  6
CONTINUOUS
 62
     7
 10
511.3329835215
 20
946.706670557
 30
0.0
 40
1.5
 50
333.0
 51
61.69771100000003
  0
ARC
  5
10D
  8
1
  6
CONTINUOUS
 62
     7
 10
352.1131335215
 20
947.816925557
 30
0.0
 40
0.5
 50
90.0
 51
180.0
  0
ARC
  5
10E
  8
1
  6
CONTINUOUS
 62
     7
 10
491.1150715215
 20
963.552968557
 30
0.0
 40
1.5
 50
310.0
 51
38.69771100000003
  0
LINE
  5
10F
  8
1
  6
CONTINUOUS
 62
     7
 10
492.0792535215
 20
962.403901557
 30
0.0
 11
487.0869056272
 21
958.214824431
 31
0.0
  0
LINE
  5
110
  8
1
  6
CONTINUOUS
 62
     7
 10
354.1131335215
 20
948.316925557
 30
0.0
 11
352.1131335215
 21
948.316925557
 31
0.0
  0
ARC
  5
111
  8
1
  6
CONTINUOUS
 62
     7
 10
542.6251275215
 20
1004.816925557
 30
0.0
 40
64.5
 50
208.302289
 51
218.697711
  0
LINE
  5
112
  8
1
  6
CONTINUOUS
 62
     7
 10
351.6131335215
 20
1064.316925557
 30
0.0
 11
351.6131335215
 21
945.316925557
 31
0.0
  0
LINE
  5
113
  8
1
  6
CONTINUOUS
 62
     7
 10
360.1131335215
 20
1061.316925557
 30
0.0
 11
358.1131335215
 21
1061.316925557
 31
0.0
  0
ARC
  5
114
  8
1
  6
CONTINUOUS
 62
     7
 10
354.1131335215
 20
947.816925557
 30
0.0
 40
0.5
 50
0.0
 51
90.0
  0
LINE
  5
115
  8
1
  6
CONTINUOUS
 62
     7
 10
386.6131335215
 20
1077.306148557
 30
0.0
 11
386.6131335215
 21
932.316925557
 31
0.0
  0
LINE
  5
116
  8
1
  6
CONTINUOUS
 62
     7
 10
386.6131335215
 20
932.316925557
 30
0.0
 11
391.6131335215
 21
932.316925557
 31
0.0
  0
ARC
  5
117
  8
1
  6
CONTINUOUS
 62
     7
 10
542.6251275215
 20
1004.816925557
 30
0.0
 40
64.5
 50
298.302289
 51
308.697711
  0
ARC
  5
118
  8
1
  6
CONTINUOUS
 62
     7
 10
542.6251275215
 20
1004.816925557
 30
0.0
 40
64.5
 50
28.302289
 51
38.697711
  0
LINE
  5
119
  8
1
  6
CONTINUOUS
 62
     7
 10
471.1251275215
 20
1006.066925557
 30
0.0
 11
470.1359041845
 21
1006.066925557
 31
0.0
  0
LINE
  5
11A
  8
1
  6
CONTINUOUS
 62
     7
 10
585.0381515215
 20
954.271051557
 30
0.0
 11
589.2272292291
 21
949.2787041508
 31
0.0
  0
ARC
  5
11B
  8
1
  6
CONTINUOUS
 62
     7
 10
27.0130585623
 20
954.8037772967
 30
0.0
 40
3.600000000000006
 50
0.0
 51
75.0
  0
LINE
  5
11C
  8
1
  6
CONTINUOUS
 62
     7
 10
22.9683567008
 20
959.6145461436
 30
0.0
 11
27.94480712459999
 21
958.2811102714
 31
0.0
  0
ARC
  5
11D
  8
1
  6
CONTINUOUS
 62
     7
 10
22.81306527369999
 20
1050.5988604661
 30
0.0
 40
0.6000000000000033
 50
180.0000908811
 51
285.0
  0
LINE
  5
11E
  8
1
  6
CONTINUOUS
 62
     7
 10
22.2130189287
 20
1079.8169255923
 30
0.0
 11
22.2130652737
 21
1050.5988595144
 31
0.0
  0
LINE
  5
11F
  8
1
  6
CONTINUOUS
 62
     7
 10
369.9719962647
 20
1080.5413239291
 30
0.0
 11
369.9719962647
 21
929.0925271849
 31
0.0
  0
LINE
  5
120
  8
1
  6
CONTINUOUS
 62
     7
 10
30.61302882649998
 20
936.0569253699
 30
0.0
 11
22.21302873759999
 21
936.0009253693
 31
0.0
  0
LINE
  5
121
  8
1
  6
CONTINUOUS
 62
     7
 10
386.6131335215
 20
1077.306149557
 30
0.0
 11
369.9719962647
 21
1080.5413239291
 31
0.0
  0
LINE
  5
122
  8
1
  6
CONTINUOUS
 62
     7
 10
30.61305856229999
 20
954.8037715865
 30
0.0
 11
30.6130189288
 21
929.8169255217
 31
0.0
  0
ARC
  5
123
  8
1
  6
CONTINUOUS
 62
     7
 10
22.81306527369999
 20
959.0349906478
 30
0.0
 40
0.6000000000000033
 50
75.0
 51
179.9999091189
  0
ARC
  5
124
  8
1
  6
CONTINUOUS
 62
     7
 10
27.0130585623
 20
1054.8300738172
 30
0.0
 40
3.600000000000006
 50
285.0
 51
0.0000908810999931
  0
LINE
  5
125
  8
1
  6
CONTINUOUS
 62
     7
 10
30.61302882649998
 20
1073.5769257441
 30
0.0
 11
22.21302873759999
 21
1073.6329257447
 31
0.0
  0
LINE
  5
126
  8
1
  6
CONTINUOUS
 62
     7
 10
386.6131335215
 20
932.327701557
 30
0.0
 11
369.9719962647
 21
929.0925271849
 31
0.0
  0
LINE
  5
127
  8
1
  6
CONTINUOUS
 62
     7
 10
22.9683567008
 20
1050.0193049704
 30
0.0
 11
27.94480712459999
 21
1051.3527408426
 31
0.0
  0
LINE
  5
128
  8
1
  6
CONTINUOUS
 62
     7
 10
30.61305856229999
 20
1054.8300795275
 30
0.0
 11
30.6130189288
 21
1079.8169255923
 31
0.0
  0
LINE
  5
129
  8
1
  6
CONTINUOUS
 62
     7
 10
22.2130189287
 20
929.8169255217
 30
0.0
 11
22.2130652737
 21
959.0349915995
 31
0.0
  0
ARC
  5
12A
  8
1
  6
CONTINUOUS
 62
     7
 10
391.6201209778
 20
1035.6860507598
 30
0.0
 40
2.0451977336
 50
77.5698820156
 51
90.1957524822
  0
LINE
  5
12B
  8
1
  6
CONTINUOUS
 62
     7
 10
249.1131335215
 20
941.050687557
 30
0.0
 11
249.1131335215
 21
951.146353557
 31
0.0
  0
ARC
  5
12C
  8
1
  6
CONTINUOUS
 62
     7
 10
391.9220372291
 20
959.0381470002
 30
0.0
 40
0.7495737395
 50
302.0892316855
 51
321.3652493771
  0
ARC
  5
12D
  8
1
  6
CONTINUOUS
 62
     7
 10
391.6168212504
 20
950.5352481196
 30
0.0
 40
1.256549974
 50
269.8318478283
 51
290.6691508718
  0
ARC
  5
12E
  8
1
  6
CONTINUOUS
 62
     7
 10
391.9220372291
 20
1050.5957041138
 30
0.0
 40
0.7495737395
 50
38.6347506229
 51
57.9107683145
  0
ARC
  5
12F
  8
1
  6
CONTINUOUS
 62
     7
 10
392.0297231675
 20
1036.929347592
 30
0.0
 40
0.7292818351
 50
49.0639262668
 51
66.5242696161
  0
ARC
  5
130
  8
1
  6
CONTINUOUS
 62
     7
 10
392.0297231675
 20
972.704503522
 30
0.0
 40
0.7292818351
 50
293.4757303839
 51
310.9360737330999
  0
ARC
  5
131
  8
1
  6
CONTINUOUS
 62
     7
 10
391.6201209778
 20
973.9478003542
 30
0.0
 40
2.0451977336
 50
269.8042475178
 51
282.4301179844
  0
LINE
  5
132
  8
1
  6
CONTINUOUS
 62
     7
 10
391.6131335215
 20
940.218952557
 30
0.0
 11
388.6131335215
 21
940.218952557
 31
0.0
  0
LINE
  5
133
  8
1
  6
CONTINUOUS
 62
     7
 10
388.6131335215
 20
1069.414898557
 30
0.0
 11
388.6131335215
 21
1060.355147557
 31
0.0
  0
ARC
  5
134
  8
1
  6
CONTINUOUS
 62
     7
 10
392.3313205279
 20
1037.2596714225
 30
0.0
 40
0.2823604943
 50
3.5686025666
 51
51.3789051515
  0
LINE
  5
135
  8
1
  6
CONTINUOUS
 62
     7
 10
391.6131335215
 20
1037.731236557
 30
0.0
 11
388.6131335215
 21
1037.731236557
 31
0.0
  0
LINE
  5
136
  8
1
  6
CENTER
 62
     5
 10
-10.0
 20
1004.816925557
 30
0.0
 11
403.0044379927
 21
1004.816925557
 31
0.0
  0
LINE
  5
137
  8
1
  6
CONTINUOUS
 62
     7
 10
391.6131335215
 20
971.902614557
 30
0.0
 11
388.6131335215
 21
971.902614557
 31
0.0
  0
LINE
  5
138
  8
1
  6
CONTINUOUS
 62
     7
 10
388.6131335215
 20
971.902614557
 30
0.0
 11
388.6131335215
 21
958.214823557
 31
0.0
  0
LINE
  5
139
  8
1
  6
CONTINUOUS
 62
     7
 10
360.6131335215
 20
1063.316925557
 30
0.0
 11
360.6131335215
 21
946.316925557
 31
0.0
  0
LINE
  5
13A
  8
1
  6
CONTINUOUS
 62
     7
 10
363.6131335215
 20
1063.316925557
 30
0.0
 11
363.6131335215
 21
946.316925557
 31
0.0
  0
LINE
  5
13B
  8
1
  6
CONTINUOUS
 62
     7
 10
388.6131335215
 20
949.278703557
 30
0.0
 11
391.6131335215
 21
949.278703557
 31
0.0
  0
ARC
  5
13C
  8
1
  6
CONTINUOUS
 62
     7
 10
391.8310075169
 20
1059.4827984524
 30
0.0
 40
0.8119278381
 50
33.5641181287
 51
52.9467518412
  0
ARC
  5
13D
  8
1
  6
CONTINUOUS
 62
     7
 10
391.6938321162
 20
1059.3033564543
 30
0.0
 40
1.0377930422
 50
52.8720896848
 51
69.31881021340001
  0
ARC
  5
13E
  8
1
  6
CONTINUOUS
 62
     7
 10
391.6183382884
 20
1049.9457954074
 30
0.0
 40
1.4732413435
 50
72.5409118446
 51
90.20241883619998
  0
ARC
  5
13F
  8
1
  6
CONTINUOUS
 62
     7
 10
391.6183382884
 20
959.6880557066
 30
0.0
 40
1.4732413435
 50
269.7975811637
 51
287.4590881554
  0
LINE
  5
140
  8
1
  6
CONTINUOUS
 62
     7
 10
366.6131335215
 20
1063.316925557
 30
0.0
 11
366.6131335215
 21
946.316925557
 31
0.0
  0
ARC
  5
141
  8
1
  6
CONTINUOUS
 62
     7
 10
391.7274961132
 20
1050.2920374019
 30
0.0
 40
1.1102002055
 50
57.73015057909999
 51
72.5537066434
  0
ARC
  5
142
  8
1
  6
CONTINUOUS
 62
     7
 10
391.76737381
 20
1036.3483133218
 30
0.0
 40
1.366763684
 50
66.139716553
 51
77.6222815906
  0
LINE
  5
143
  8
1
  6
CONTINUOUS
 62
     7
 10
391.6131335215
 20
1069.414898557
 30
0.0
 11
388.6131335215
 21
1069.414898557
 31
0.0
  0
LINE
  5
144
  8
1
  6
CONTINUOUS
 62
     7
 10
388.6131335215
 20
940.218952557
 30
0.0
 11
388.6131335215
 21
949.278703557
 31
0.0
  0
LINE
  5
145
  8
1
  6
CONTINUOUS
 62
     7
 10
388.6131335215
 20
1037.731236557
 30
0.0
 11
388.6131335215
 21
1051.419027557
 31
0.0
  0
ARC
  5
146
  8
1
  6
CONTINUOUS
 62
     7
 10
391.76737381
 20
973.2855377922
 30
0.0
 40
1.366763684
 50
282.3777184094
 51
293.860283447
  0
LINE
  5
147
  8
1
  6
CONTINUOUS
 62
     7
 10
388.6131335215
 20
958.214823557
 30
0.0
 11
391.6131335215
 21
958.214823557
 31
0.0
  0
ARC
  5
148
  8
1
  6
CONTINUOUS
 62
     7
 10
392.3313205279
 20
972.3741796915
 30
0.0
 40
0.2823604943
 50
308.6210948484
 51
356.4313974334
  0
LINE
  5
149
  8
1
  6
CONTINUOUS
 62
     7
 10
388.6131335215
 20
1060.355147557
 30
0.0
 11
391.6131335215
 21
1060.355147557
 31
0.0
  0
LINE
  5
14A
  8
1
  6
CONTINUOUS
 62
     7
 10
369.6131335215
 20
1063.316925557
 30
0.0
 11
369.6131335215
 21
946.316925557
 31
0.0
  0
ARC
  5
14B
  8
1
  6
CONTINUOUS
 62
     7
 10
391.9882854467
 20
1059.5841067971
 30
0.0
 40
0.6248680535
 50
0.4581708146
 51
33.7967662743
  0
ARC
  5
14C
  8
1
  6
CONTINUOUS
 62
     7
 10
391.7274961132
 20
959.3418137121
 30
0.0
 40
1.1102002055
 50
287.4462933566
 51
302.2698494209
  0
ARC
  5
14D
  8
1
  6
CONTINUOUS
 62
     7
 10
392.1454561579
 20
958.8662511318
 30
0.0
 40
0.4677571578
 50
320.7261649415
 51
358.9416745129
  0
LINE
  5
14E
  8
1
  6
CONTINUOUS
 62
     7
 10
388.6131335215
 20
1051.419027557
 30
0.0
 11
391.6131335215
 21
1051.419027557
 31
0.0
  0
ARC
  5
14F
  8
1
  6
CONTINUOUS
 62
     7
 10
391.6938321162
 20
950.3304946597
 30
0.0
 40
1.0377930422
 50
290.6811897865999
 51
307.1279103152
  0
LINE
  5
150
  8
1
  6
CONTINUOUS
 62
     7
 10
391.6131335215
 20
1077.306148557
 30
0.0
 11
386.6131335215
 21
1077.306148557
 31
0.0
  0
ARC
  5
151
  8
1
  6
CONTINUOUS
 62
     7
 10
391.6168212504
 20
1059.0986029944
 30
0.0
 40
1.256549974
 50
69.3308491282
 51
90.16815217170003
  0
ARC
  5
152
  8
1
  6
CONTINUOUS
 62
     7
 10
392.1454561579
 20
1050.7675999822
 30
0.0
 40
0.4677571578
 50
1.0583254872
 51
39.2738350585
  0
ARC
  5
153
  8
1
  6
CONTINUOUS
 62
     7
 10
360.1131335215
 20
1061.816925557
 30
0.0
 40
0.5
 50
270.0
 51
0.0
  0
ARC
  5
154
  8
1
  6
CONTINUOUS
 62
     7
 10
583.8890845215
 20
1056.326981557
 30
0.0
 40
1.5
 50
231.302289
 51
320.0
  0
ARC
  5
155
  8
1
  6
CONTINUOUS
 62
     7
 10
511.3329835215
 20
1062.927181557
 30
0.0
 40
1.5
 50
298.302289
 51
27.0
  0
LINE
  5
156
  8
1
  6
CONTINUOUS
 62
     7
 10
360.6131335215
 20
946.316925557
 30
0.0
 11
363.6131335215
 21
946.316925557
 31
0.0
  0
LINE
  5
157
  8
1
  6
CONTINUOUS
 62
     7
 10
392.6131335215
 20
1076.316925557
 30
0.0
 11
392.6131335215
 21
933.316925557
 31
0.0
  0
ARC
  5
158
  8
1
  6
CONTINUOUS
 62
     7
 10
583.8890845215
 20
953.306870557
 30
0.0
 40
1.5
 50
40.0
 51
128.697711
  0
LINE
  5
159
  8
1
  6
CONTINUOUS
 62
     7
 10
357.6131335215
 20
1063.316925557
 30
0.0
 11
357.6131335215
 21
946.316925557
 31
0.0
  0
LINE
  5
15A
  8
1
  6
CONTINUOUS
 62
     7
 10
366.6131335215
 20
946.316925557
 30
0.0
 11
369.6131335215
 21
946.316925557
 31
0.0
  0
ARC
  5
15B
  8
1
  6
CONTINUOUS
 62
     7
 10
360.1131335215
 20
947.816925557
 30
0.0
 40
0.5
 50
0.0
 51
90.0
  0
ARC
  5
15C
  8
1
  6
CONTINUOUS
 62
     7
 10
364.1131335215
 20
1061.816925557
 30
0.0
 40
0.5
 50
180.0
 51
270.0
  0
ARC
  5
15D
  8
1
  6
CONTINUOUS
 62
     7
 10
491.1150715215
 20
1046.080883557
 30
0.0
 40
1.5
 50
321.302289
 51
50.0
  0
ARC
  5
15E
  8
1
  6
CONTINUOUS
 62
     7
 10
366.1131335215
 20
1061.816925557
 30
0.0
 40
0.5
 50
270.0
 51
0.0
  0
LINE
  5
15F
  8
1
  6
CONTINUOUS
 62
     7
 10
509.7108162025999
 20
1069.414898904
 30
0.0
 11
512.6694935215
 21
1063.608166557
 31
0.0
  0
LINE
  5
160
  8
1
  6
CENTER
 62
     5
 10
617.1251275215
 20
1004.816925557
 30
0.0
 11
468.1251275215
 21
1004.816925557
 31
0.0
  0
LINE
  5
161
  8
1
  6
CONTINUOUS
 62
     7
 10
363.6131335215
 20
1063.316925557
 30
0.0
 11
360.6131335215
 21
1063.316925557
 31
0.0
  0
ARC
  5
162
  8
1
  6
CONTINUOUS
 62
     7
 10
542.6251275215
 20
1004.816925557
 30
0.0
 40
64.5
 50
231.302289
 51
241.6977109999999
  0
LINE
  5
163
  8
1
  6
CONTINUOUS
 62
     7
 10
575.5394383182
 20
940.2189524534
 30
0.0
 11
572.5807605215
 21
946.025684557
 31
0.0
  0
ARC
  5
164
  8
1
  6
CONTINUOUS
 62
     7
 10
366.1131335215
 20
947.816925557
 30
0.0
 40
0.5
 50
0.0
 51
90.0
  0
LINE
  5
165
  8
1
  6
CONTINUOUS
 62
     7
 10
364.1131335215
 20
948.316925557
 30
0.0
 11
366.1131335215
 21
948.316925557
 31
0.0
  0
LINE
  5
166
  8
1
  6
CONTINUOUS
 62
     7
 10
-5.386866390600001
 20
1079.8169255923
 30
0.0
 11
-5.386866391699999
 21
929.8169255217
 31
0.0
  0
LINE
  5
167
  8
1
  6
CONTINUOUS
 62
     7
 10
593.1710015215
 20
962.403901557
 30
0.0
 11
598.1633489277
 21
958.2148238493
 31
0.0
  0
ARC
  5
168
  8
1
  6
CONTINUOUS
 62
     7
 10
542.6251275215
 20
1004.816925557
 30
0.0
 40
64.5
 50
118.302289
 51
128.697711
  0
LINE
  5
169
  8
1
  6
CONTINUOUS
 62
     7
 10
113.6131336083
 20
929.8169255217
 30
0.0
 11
113.6131336083
 21
1079.8169255923
 31
0.0
  0
ARC
  5
16A
  8
1
  6
CONTINUOUS
 62
     7
 10
594.1351825215
 20
1046.080883557
 30
0.0
 40
1.5
 50
130.0
 51
218.697711
  0
ARC
  5
16B
  8
1
  6
CONTINUOUS
 62
     7
 10
573.9172705215
 20
946.706670557
 30
0.0
 40
1.5
 50
118.302289
 51
207.0
  0
LINE
  5
16C
  8
1
  6
CONTINUOUS
 62
     7
 10
509.7108157247
 20
940.2189524534
 30
0.0
 11
512.6694935215
 21
946.025684557
 31
0.0
  0
LINE
  5
16D
  8
1
  6
CONTINUOUS
 62
     7
 10
607.2231002205
 20
1037.7312371476
 30
0.0
 11
601.4163685215
 21
1034.772559557
 31
0.0
  0
LINE
  5
16E
  8
1
  6
CONTINUOUS
 62
     7
 10
366.1131335215
 20
1061.316925557
 30
0.0
 11
364.1131335215
 21
1061.316925557
 31
0.0
  0
ARC
  5
16F
  8
1
  6
CONTINUOUS
 62
     7
 10
391.6131335215
 20
933.316925557
 30
0.0
 40
1.0
 50
270.0
 51
0.0
  0
ARC
  5
170
  8
1
  6
CONTINUOUS
 62
     7
 10
600.7353825215
 20
1036.109069557
 30
0.0
 40
1.5
 50
208.302289
 51
297.0
  0
ARC
  5
171
  8
1
  6
CONTINUOUS
 62
     7
 10
358.1131335215
 20
1061.816925557
 30
0.0
 40
0.5
 50
180.0
 51
270.0
  0
ARC
  5
172
  8
1
  6
CONTINUOUS
 62
     7
 10
542.6251275215
 20
1004.816925557
 30
0.0
 40
64.5
 50
321.302289
 51
331.6977110000001
  0
ARC
  5
173
  8
1
  6
CONTINUOUS
 62
     7
 10
542.6251275215
 20
1004.816925557
 30
0.0
 40
64.5
 50
141.302289
 51
151.697711
  0
LINE
  5
174
  8
1
  6
CONTINUOUS
 62
     7
 10
357.6131335215
 20
1063.316925557
 30
0.0
 11
354.6131335215
 21
1063.316925557
 31
0.0
  0
LINE
  5
175
  8
1
  6
CONTINUOUS
 62
     7
 10
607.223100625
 20
971.9026147603
 30
0.0
 11
601.4163685215
 21
974.861292557
 31
0.0
  0
ARC
  5
176
  8
1
  6
CONTINUOUS
 62
     7
 10
370.1131335215
 20
1061.816925557
 30
0.0
 40
0.5
 50
180.0
 51
253.6039981966
  0
LINE
  5
177
  8
1
  6
CONTINUOUS
 62
     7
 10
593.1710015215
 20
1047.229949557
 30
0.0
 11
598.1633494201
 21
1051.4190276778
 31
0.0
  0
ARC
  5
178
  8
1
  6
CONTINUOUS
 62
     7
 10
364.1131335215
 20
947.816925557
 30
0.0
 40
0.5
 50
90.0
 51
180.0
  0
LINE
  5
179
  8
1
  6
CONTINUOUS
 62
     7
 10
369.6131335215
 20
1063.316925557
 30
0.0
 11
366.6131335215
 21
1063.316925557
 31
0.0
  0
ARC
  5
17A
  8
1
  6
CONTINUOUS
 62
     7
 10
370.1131335215
 20
947.816925557
 30
0.0
 40
0.5
 50
106.3960018034
 51
180.0
  0
LINE
  5
17B
  8
1
  6
CONTINUOUS
 62
     7
 10
358.1131335215
 20
948.316925557
 30
0.0
 11
360.1131335215
 21
948.316925557
 31
0.0
  0
LINE
  5
17C
  8
0
  6
CONTINUOUS
 62
     7
 10
0.0
 20
0.0
 30
0.0
 11
420.0
 21
0.0
 31
0.0
  0
LINE
  5
17D
  8
0
  6
CONTINUOUS
 62
     7
 10
420.0
 20
0.0
 30
0.0
 11
420.0
 21
297.0
 31
0.0
  0
LINE
  5
17E
  8
0
  6
CONTINUOUS
 62
     7
 10
420.0
 20
297.0
 30
0.0
 11
0.0
 21
297.0
 31
0.0
  0
LINE
  5
17F
  8
0
  6
CONTINUOUS
 62
     7
 10
0.0
 20
297.0
 30
0.0
 11
0.0
 21
0.0
 31
0.0
  0
LINE
  5
180
  8
0
  6
CONTINUOUS
 62
     7
 10
10.0
 20
10.0
 30
0.0
 11
409.9999999999999
 21
10.0
 31
0.0
  0
LINE
  5
181
  8
0
  6
CONTINUOUS
 62
     7
 10
409.9999999999999
 20
10.0
 30
0.0
 11
409.9999999999999
 21
286.9999999999999
 31
0.0
  0
LINE
  5
182
  8
0
  6
CONTINUOUS
 62
     7
 10
409.9999999999999
 20
286.9999999999999
 30
0.0
 11
10.00000000000006
 21
286.9999999999999
 31
0.0
  0
LINE
  5
183
  8
0
  6
CONTINUOUS
 62
     7
 10
10.0
 20
286.9999999999999
 30
0.0
 11
10.0
 21
10.00000000000001
 31
0.0
  0
LINE
  5
184
  8
0
  6
CONTINUOUS
 62
     7
 10
210.0
 20
0.0
 30
0.0
 11
210.0
 21
10.0
 31
0.0
  0
LINE
  5
185
  8
0
  6
CONTINUOUS
 62
     7
 10
420.0
 20
148.5
 30
0.0
 11
409.9999999999999
 21
148.5
 31
0.0
  0
LINE
  5
186
  8
0
  6
CONTINUOUS
 62
     7
 10
210.0
 20
297.0
 30
0.0
 11
210.0
 21
286.9999999999999
 31
0.0
  0
LINE
  5
187
  8
0
  6
CONTINUOUS
 62
     7
 10
0.0
 20
148.5
 30
0.0
 11
10.0
 21
148.5
 31
0.0
  0
LINE
  5
188
  8
0
  6
CONTINUOUS
 62
     7
 10
11.0
 20
152.5
 30
0.0
 11
0.0000000000000017
 21
148.5
 31
0.0
  0
LINE
  5
189
  8
0
  6
CONTINUOUS
 62
     7
 10
0.0
 20
148.5
 30
0.0
 11
11.0
 21
144.5
 31
0.0
  0
LINE
  5
18A
  8
0
  6
CONTINUOUS
 62
     7
 10
11.0
 20
144.5
 30
0.0
 11
11.0
 21
152.5
 31
0.0
  0
INSERT
  5
18B
  8
0
 62
     7
  2
*U2
 10
0.0
 20
0.0
 30
0.0
  0
LINE
  5
18C
  8
0
  6
CONTINUOUS
 62
     7
 10
206.0
 20
11.0
 30
0.0
 11
210.0
 21
-0.0000000000000017
 31
0.0
  0
LINE
  5
18D
  8
0
  6
CONTINUOUS
 62
     7
 10
210.0
 20
0.0
 30
0.0
 11
214.0
 21
11.0
 31
0.0
  0
LINE
  5
18E
  8
0
  6
CONTINUOUS
 62
     7
 10
214.0
 20
11.0
 30
0.0
 11
206.0
 21
11.0
 31
0.0
  0
INSERT
  5
18F
  8
0
 62
     7
  2
*U3
 10
0.0
 20
0.0
 30
0.0
  0
INSERT
  5
190
  8
0
 62
     7
  2
*U4
 10
0.0
 20
0.0
 30
0.0
  0
LINE
  5
191
  8
0
  6
CONTINUOUS
 62
     7
 10
367.5
 20
286.9999999999999
 30
0.0
 11
367.5
 21
292.0
 31
0.0
  0
TEXT
  5
192
  8
0
  6
CONTINUOUS
 62
     7
 10
391.2681818181818
 20
291.6648586970114
 30
0.0
 40
3.5
  1
A
 50
270.0
  0
LINE
  5
193
  8
0
  6
CONTINUOUS
 62
     7
 10
367.5
 20
10.0
 30
0.0
 11
367.5
 21
5.0
 31
0.0
  0
TEXT
  5
194
  8
0
  6
CONTINUOUS
 62
     7
 10
393.1544594848068
 20
4.236363636363635
 30
0.0
 40
3.5
  1
A
  0
LINE
  5
195
  8
0
  6
CONTINUOUS
 62
     7
 10
315.0
 20
286.9999999999999
 30
0.0
 11
315.0
 21
292.0
 31
0.0
  0
TEXT
  5
196
  8
0
  6
CONTINUOUS
 62
     7
 10
338.7681818181818
 20
291.9491215455798
 30
0.0
 40
3.5
  1
B
 50
270.0
  0
LINE
  5
197
  8
0
  6
CONTINUOUS
 62
     7
 10
315.0
 20
10.0
 30
0.0
 11
315.0
 21
5.0
 31
0.0
  0
TEXT
  5
198
  8
0
  6
CONTINUOUS
 62
     7
 10
340.3701966362385
 20
4.236363636363635
 30
0.0
 40
3.5
  1
B
  0
LINE
  5
199
  8
0
  6
CONTINUOUS
 62
     7
 10
262.5
 20
286.9999999999999
 30
0.0
 11
262.5
 21
292.0
 31
0.0
  0
TEXT
  5
19A
  8
0
  6
CONTINUOUS
 62
     7
 10
286.2655558334374
 20
291.8798611979494
 30
0.0
 40
3.5
  1
C
 50
270.0
  0
LINE
  5
19B
  8
0
  6
CONTINUOUS
 62
     7
 10
262.5
 20
10.0
 30
0.0
 11
262.5
 21
5.0
 31
0.0
  0
TEXT
  5
19C
  8
0
  6
CONTINUOUS
 62
     7
 10
287.9394569838688
 20
4.233737651619357
 30
0.0
 40
3.5
  1
C
  0
LINE
  5
19D
  8
0
  6
CONTINUOUS
 62
     7
 10
210.0
 20
286.9999999999999
 30
0.0
 11
210.0
 21
292.0
 31
0.0
  0
TEXT
  5
19E
  8
0
  6
CONTINUOUS
 62
     7
 10
233.7681818181818
 20
291.9491215455796
 30
0.0
 40
3.5
  1
D
 50
270.0
  0
LINE
  5
19F
  8
0
  6
CONTINUOUS
 62
     7
 10
157.5
 20
286.9999999999999
 30
0.0
 11
157.5
 21
292.0
 31
0.0
  0
TEXT
  5
1A0
  8
0
  6
CONTINUOUS
 62
     7
 10
181.2655558334376
 20
292.0549268475679
 30
0.0
 40
3.5
  1
E
 50
270.0
  0
LINE
  5
1A1
  8
0
  6
CONTINUOUS
 62
     7
 10
157.5
 20
10.0
 30
0.0
 11
157.5
 21
5.0
 31
0.0
  0
LINE
  5
1A2
  8
0
  6
CONTINUOUS
 62
     7
 10
105.0
 20
286.9999999999999
 30
0.0
 11
105.0
 21
292.0
 31
0.0
  0
TEXT
  5
1A3
  8
0
  6
CONTINUOUS
 62
     7
 10
128.7655558334375
 20
291.9849005877204
 30
0.0
 40
3.5
  1
F
 50
270.0
  0
LINE
  5
1A4
  8
0
  6
CONTINUOUS
 62
     7
 10
105.0
 20
10.0
 30
0.0
 11
105.0
 21
5.0
 31
0.0
  0
TEXT
  5
1A5
  8
0
  6
CONTINUOUS
 62
     7
 10
130.3344175940978
 20
4.233737651619357
 30
0.0
 40
3.5
  1
F
  0
LINE
  5
1A6
  8
0
  6
CONTINUOUS
 62
     7
 10
52.50000000000004
 20
286.9999999999999
 30
0.0
 11
52.50000000000004
 21
292.0
 31
0.0
  0
TEXT
  5
1A7
  8
0
  6
CONTINUOUS
 62
     7
 10
76.26555583343753
 20
291.8798611979493
 30
0.0
 40
3.5
  1
G
 50
270.0
  0
LINE
  5
1A8
  8
0
  6
CONTINUOUS
 62
     7
 10
52.50000000000004
 20
10.0
 30
0.0
 11
52.50000000000004
 21
5.0
 31
0.0
  0
TEXT
  5
1A9
  8
0
  6
CONTINUOUS
 62
     7
 10
77.93945698386898
 20
4.233737651619357
 30
0.0
 40
3.5
  1
G
  0
TEXT
  5
1AA
  8
0
  6
CONTINUOUS
 62
     7
 10
23.76555583343753
 20
291.9498874577966
 30
0.0
 40
3.5
  1
H
 50
270.0
  0
TEXT
  5
1AB
  8
0
  6
CONTINUOUS
 62
     7
 10
25.36943072402154
 20
4.233737651619357
 30
0.0
 40
3.5
  1
H
  0
LINE
  5
1AC
  8
0
  6
CONTINUOUS
 62
     7
 10
409.9999999999999
 20
74.25
 30
0.0
 11
414.9999999999999
 21
74.25
 31
0.0
  0
TEXT
  5
1AD
  8
0
  6
CONTINUOUS
 62
     7
 10
412.7265755908465
 20
34.64055583343754
 30
0.0
 40
3.5
  1
1
  0
LINE
  5
1AE
  8
0
  6
CONTINUOUS
 62
     7
 10
10.0
 20
74.25
 30
0.0
 11
5.0
 21
74.25
 31
0.0
  0
TEXT
  5
1AF
  8
0
  6
CONTINUOUS
 62
     7
 10
4.23373765161935
 20
38.46774259097161
 30
0.0
 40
3.5
  1
1
 50
270.0
  0
LINE
  5
1B0
  8
0
  6
CONTINUOUS
 62
     7
 10
409.9999999999999
 20
148.5
 30
0.0
 11
414.9999999999999
 21
148.5
 31
0.0
  0
TEXT
  5
1B1
  8
0
  6
CONTINUOUS
 62
     7
 10
413.1887489058396
 20
108.8905558334376
 30
0.0
 40
3.5
  1
2
  0
LINE
  5
1B2
  8
0
  6
CONTINUOUS
 62
     7
 10
10.0
 20
148.5
 30
0.0
 11
5.0
 21
148.5
 31
0.0
  0
TEXT
  5
1B3
  8
0
  6
CONTINUOUS
 62
     7
 10
4.233737651619379
 20
112.2555692759785
 30
0.0
 40
3.5
  1
2
 50
270.0
  0
LINE
  5
1B4
  8
0
  6
CONTINUOUS
 62
     7
 10
409.9999999999999
 20
222.75
 30
0.0
 11
414.9999999999999
 21
222.75
 31
0.0
  0
TEXT
  5
1B5
  8
0
  6
CONTINUOUS
 62
     7
 10
413.2237620357633
 20
183.1405558334376
 30
0.0
 40
3.5
  1
3
  0
LINE
  5
1B6
  8
0
  6
CONTINUOUS
 62
     7
 10
10.0
 20
222.75
 30
0.0
 11
5.0
 21
222.75
 31
0.0
  0
TEXT
  5
1B7
  8
0
  6
CONTINUOUS
 62
     7
 10
4.23373765161935
 20
186.4705561460548
 30
0.0
 40
3.5
  1
3
 50
270.0
  0
TEXT
  5
1B8
  8
0
  6
CONTINUOUS
 62
     7
 10
413.3316462423409
 20
257.3931818181817
 30
0.0
 40
3.5
  1
4
  0
TEXT
  5
1B9
  8
0
  6
CONTINUOUS
 62
     7
 10
4.23636363636362
 20
260.6126719394773
 30
0.0
 40
3.5
  1
4
 50
270.0
  0
LINE
  5
1BA
  8
0
  6
CONTINUOUS
 62
     7
 10
220.0
 20
10.0
 30
0.0
 11
220.0
 21
7.0
 31
0.0
  0
LINE
  5
1BB
  8
0
  6
CONTINUOUS
 62
     7
 10
200.0
 20
10.0
 30
0.0
 11
200.0
 21
7.0
 31
0.0
  0
LINE
  5
1BC
  8
0
  6
CONTINUOUS
 62
     7
 10
230.0
 20
10.0
 30
0.0
 11
230.0
 21
7.0
 31
0.0
  0
LINE
  5
1BD
  8
0
  6
CONTINUOUS
 62
     7
 10
190.0
 20
10.0
 30
0.0
 11
190.0
 21
7.0
 31
0.0
  0
LINE
  5
1BE
  8
0
  6
CONTINUOUS
 62
     7
 10
240.0
 20
10.0
 30
0.0
 11
240.0
 21
7.0
 31
0.0
  0
LINE
  5
1BF
  8
0
  6
CONTINUOUS
 62
     7
 10
180.0
 20
10.0
 30
0.0
 11
180.0
 21
7.0
 31
0.0
  0
LINE
  5
1C0
  8
0
  6
CONTINUOUS
 62
     7
 10
250.0
 20
10.0
 30
0.0
 11
250.0
 21
7.0
 31
0.0
  0
LINE
  5
1C1
  8
0
  6
CONTINUOUS
 62
     7
 10
170.0
 20
10.0
 30
0.0
 11
170.0
 21
7.0
 31
0.0
  0
LINE
  5
1C2
  8
0
  6
CONTINUOUS
 62
     7
 10
260.0
 20
10.0
 30
0.0
 11
260.0
 21
5.0
 31
0.0
  0
LINE
  5
1C3
  8
0
  6
CONTINUOUS
 62
     7
 10
160.0
 20
10.0
 30
0.0
 11
160.0
 21
5.0
 31
0.0
  0
LINE
  5
1C4
  8
0
  6
CONTINUOUS
 62
     7
 10
260.0
 20
10.0
 30
0.0
 11
160.0
 21
10.0
 31
0.0
  0
LINE
  5
1C5
  8
0
  6
CONTINUOUS
 62
     7
 10
260.0
 20
7.0
 30
0.0
 11
160.0
 21
7.0
 31
0.0
  0
INSERT
  5
1C6
  8
0
 62
     7
  2
*U5
 10
0.0
 20
0.0
 30
0.0
  0
INSERT
  5
1C7
  8
0
 62
     7
  2
*U6
 10
0.0
 20
0.0
 30
0.0
  0
INSERT
  5
1C8
  8
0
 62
     7
  2
*U7
 10
0.0
 20
0.0
 30
0.0
  0
INSERT
  5
1C9
  8
0
 62
     7
  2
*U8
 10
0.0
 20
0.0
 30
0.0
  0
INSERT
  5
1CA
  8
0
 62
     7
  2
*U9
 10
0.0
 20
0.0
 30
0.0
  0
INSERT
  5
1CB
  8
0
 62
     7
  2
*U10
 10
0.0
 20
0.0
 30
0.0
  0
INSERT
  5
1CC
  8
0
 62
     7
  2
*U11
 10
0.0
 20
0.0
 30
0.0
  0
INSERT
  5
1CD
  8
0
 62
     7
  2
*U12
 10
0.0
 20
0.0
 30
0.0
  0
INSERT
  5
1CE
  8
0
 62
     7
  2
*U13
 10
0.0
 20
0.0
 30
0.0
  0
INSERT
  5
1CF
  8
0
 62
     7
  2
*U14
 10
0.0
 20
0.0
 30
0.0
  0
INSERT
  5
1D0
  8
0
 62
     7
  2
*U15
 10
0.0
 20
0.0
 30
0.0
  0
INSERT
  5
1D1
  8
0
 62
     7
  2
*U16
 10
0.0
 20
0.0
 30
0.0
  0
INSERT
  5
1D2
  8
0
 62
     7
  2
*U17
 10
0.0
 20
0.0
 30
0.0
  0
INSERT
  5
1D3
  8
0
 62
     7
  2
*U18
 10
0.0
 20
0.0
 30
0.0
  0
INSERT
  5
1D4
  8
0
 62
     7
  2
*U19
 10
0.0
 20
0.0
 30
0.0
  0
INSERT
  5
1D5
  8
0
 62
     7
  2
*U20
 10
0.0
 20
0.0
 30
0.0
  0
TEXT
  5
1D6
  8
1
  6
CONTINUOUS
 62
     7
 10
555.5730308094285
 20
921.4206305454545
 30
0.0
 40
6.0
  1
ＫＦＥＫＨ－１００Ｐ
 41
0.868327
  0
LINE
  5
1D7
  8
1
  6
CONTINUOUS
 62
     7
 10
219.7523445215
 20
1064.316721557
 30
0.0
 11
214.7524375215
 21
945.317203557
 31
0.0
  0
LINE
  5
1D8
  8
1
  6
CONTINUOUS
 62
     7
 10
214.7524375215
 20
945.317203557
 30
0.0
 11
211.2524375215
 21
945.317195557
 31
0.0
  0
LINE
  5
1D9
  8
1
  6
CONTINUOUS
 62
     7
 10
216.2523445215
 20
1064.316729557
 30
0.0
 11
219.7523445215
 21
1064.316721557
 31
0.0
  0
LINE
  5
1DA
  8
1
  6
CONTINUOUS
 62
     7
 10
211.2524375215
 20
945.317195557
 30
0.0
 11
216.2523445215
 21
1064.316729557
 31
0.0
  0
LINE
  5
1DB
  8
1
  6
CONTINUOUS
 62
     7
 10
220.1929395215
 20
1061.816925557
 30
0.0
 11
219.7523445215
 21
1064.316721557
 31
0.0
  0
LINE
  5
1DC
  8
1
  6
CONTINUOUS
 62
     7
 10
215.3175755215
 20
947.816925557
 30
0.0
 11
214.7524375215
 21
945.317203557
 31
0.0
  0
LINE
  5
1DD
  8
1
  6
CONTINUOUS
 62
     7
 10
210.8118415218
 20
947.8170667989
 30
0.0
 11
211.2524375215
 21
945.317195557
 31
0.0
  0
LINE
  5
1DE
  8
1
  6
CONTINUOUS
 62
     7
 10
215.6867675215
 20
1061.816925557
 30
0.0
 11
216.2523445215
 21
1064.316729557
 31
0.0
  0
LINE
  5
1DF
  8
1
  6
CONTINUOUS
 62
     7
 10
210.8118664153285
 20
947.816925557
 30
0.0
 11
209.6131335215
 21
947.816925557
 31
0.0
  0
LINE
  5
1E0
  8
1
  6
CONTINUOUS
 62
     7
 10
215.6867675215
 20
1061.816925557
 30
0.0
 11
209.6131335215
 21
1061.816925557
 31
0.0
  0
LINE
  5
1E1
  8
1
  6
CONTINUOUS
 62
     7
 10
220.8118664153286
 20
947.816925557
 30
0.0
 11
215.3175755215
 21
947.816925557
 31
0.0
  0
LINE
  5
1E2
  8
1
  6
CONTINUOUS
 62
     7
 10
225.6867675215
 20
1061.816925557
 30
0.0
 11
220.1929395215
 21
1061.816925557
 31
0.0
  0
LINE
  5
1E3
  8
1
  6
CONTINUOUS
 62
     7
 10
116.6131336083
 20
1067.566925557
 30
0.0
 11
209.6131335215
 21
1067.566925557
 31
0.0
  0
LINE
  5
1E4
  8
1
  6
CONTINUOUS
 62
     7
 10
116.6131336083
 20
942.066925557
 30
0.0
 11
209.6131335215
 21
942.066925557
 31
0.0
  0
LINE
  5
1E5
  8
1
  6
CONTINUOUS
 62
     7
 10
296.2523445215
 20
1064.316729557
 30
0.0
 11
299.7523445215
 21
1064.316721557
 31
0.0
  0
LINE
  5
1E6
  8
1
  6
CONTINUOUS
 62
     7
 10
230.8118415218
 20
947.8170667989
 30
0.0
 11
225.3180575218
 21
947.8170667989
 31
0.0
  0
LINE
  5
1E7
  8
1
  6
CONTINUOUS
 62
     7
 10
220.8118415218
 20
947.8170667989
 30
0.0
 11
221.2524375215
 21
945.317195557
 31
0.0
  0
LINE
  5
1E8
  8
1
  6
CONTINUOUS
 62
     7
 10
295.3175755215
 20
947.816925557
 30
0.0
 11
294.7524375215
 21
945.317203557
 31
0.0
  0
LINE
  5
1E9
  8
1
  6
CONTINUOUS
 62
     7
 10
346.6131335215
 20
989.6024126908
 30
0.0
 11
344.7524375215
 21
945.317203557
 31
0.0
  0
LINE
  5
1EA
  8
1
  6
CONTINUOUS
 62
     7
 10
345.6867675215
 20
1061.816925557
 30
0.0
 11
346.2523445215
 21
1064.316729557
 31
0.0
  0
LINE
  5
1EB
  8
1
  6
CONTINUOUS
 62
     7
 10
311.2524375215
 20
945.317195557
 30
0.0
 11
316.2523445215
 21
1064.316729557
 31
0.0
  0
ARC
  5
1EC
  8
1
  6
CONTINUOUS
 62
     7
 10
236.8906925215
 20
953.993034557
 30
0.0
 40
2.855357999999975
 50
194.91117
 51
274.468023
  0
LINE
  5
1ED
  8
1
  6
CONTINUOUS
 62
     7
 10
290.8118415218
 20
947.8170667989
 30
0.0
 11
291.2524375215
 21
945.317195557
 31
0.0
  0
LINE
  5
1EE
  8
1
  6
CONTINUOUS
 62
     7
 10
237.1131335215
 20
1058.487497557
 30
0.0
 11
261.6131335215001
 21
1058.487497557
 31
0.0
  0
LINE
  5
1EF
  8
1
  6
CONTINUOUS
 62
     7
 10
266.2523445215
 20
1064.316729557
 30
0.0
 11
269.7523445215
 21
1064.316721557
 31
0.0
  0
LINE
  5
1F0
  8
1
  6
CONTINUOUS
 62
     7
 10
341.2524375215
 20
945.317195557
 30
0.0
 11
346.2523445215
 21
1064.316729557
 31
0.0
  0
LINE
  5
1F1
  8
1
  6
CONTINUOUS
 62
     7
 10
291.2524375215
 20
945.317195557
 30
0.0
 11
296.2523445215
 21
1064.316729557
 31
0.0
  0
LINE
  5
1F2
  8
1
  6
CONTINUOUS
 62
     7
 10
306.2523445215
 20
1064.316729557
 30
0.0
 11
309.7523445215
 21
1064.316721557
 31
0.0
  0
LINE
  5
1F3
  8
1
  6
CONTINUOUS
 62
     7
 10
225.3175755215
 20
947.816925557
 30
0.0
 11
224.7524375215
 21
945.317203557
 31
0.0
  0
LINE
  5
1F4
  8
1
  6
CONTINUOUS
 62
     7
 10
294.7524375215
 20
945.317203557
 30
0.0
 11
291.2524375215
 21
945.317195557
 31
0.0
  0
LINE
  5
1F5
  8
1
  6
CONTINUOUS
 62
     7
 10
230.8118415218
 20
947.8170667989
 30
0.0
 11
231.2524375215
 21
945.317195557
 31
0.0
  0
LINE
  5
1F6
  8
1
  6
CONTINUOUS
 62
     7
 10
310.1928855215
 20
1061.816925557
 30
0.0
 11
315.6867675215
 21
1061.816925557
 31
0.0
  0
LINE
  5
1F7
  8
1
  6
CONTINUOUS
 62
     7
 10
230.1928855215
 20
1061.816925557
 30
0.0
 11
234.1131335215
 21
1061.816925557
 31
0.0
  0
LINE
  5
1F8
  8
1
  6
CONTINUOUS
 62
     7
 10
301.2524375215
 20
945.317195557
 30
0.0
 11
306.2523445215
 21
1064.316729557
 31
0.0
  0
LINE
  5
1F9
  8
1
  6
CONTINUOUS
 62
     7
 10
309.7523445215
 20
1064.316721557
 30
0.0
 11
304.7524375215
 21
945.317203557
 31
0.0
  0
ARC
  5
1FA
  8
1
  6
CONTINUOUS
 62
     7
 10
236.8944165215
 20
1055.635561557
 30
0.0
 40
2.860311000000004
 50
85.614532
 51
165.006275
  0
LINE
  5
1FB
  8
1
  6
CONTINUOUS
 62
     7
 10
329.7523445215
 20
1064.316721557
 30
0.0
 11
324.7524375215
 21
945.317203557
 31
0.0
  0
LINE
  5
1FC
  8
1
  6
CONTINUOUS
 62
     7
 10
314.7524375215
 20
945.317203557
 30
0.0
 11
311.2524375215
 21
945.317195557
 31
0.0
  0
LINE
  5
1FD
  8
1
  6
CONTINUOUS
 62
     7
 10
316.2523445215
 20
1064.316729557
 30
0.0
 11
319.7523445215
 21
1064.316721557
 31
0.0
  0
LINE
  5
1FE
  8
1
  6
CONTINUOUS
 62
     7
 10
345.3175755215
 20
947.816925557
 30
0.0
 11
344.7524375215
 21
945.317203557
 31
0.0
  0
LINE
  5
1FF
  8
1
  6
CONTINUOUS
 62
     7
 10
344.7524375215
 20
945.317203557
 30
0.0
 11
341.2524375215
 21
945.317195557
 31
0.0
  0
LINE
  5
200
  8
1
  6
CONTINUOUS
 62
     7
 10
319.7523445215
 20
1064.316721557
 30
0.0
 11
314.7524375215
 21
945.317203557
 31
0.0
  0
LINE
  5
201
  8
1
  6
CONTINUOUS
 62
     7
 10
300.1928855215
 20
1061.816925557
 30
0.0
 11
305.6867675215
 21
1061.816925557
 31
0.0
  0
LINE
  5
202
  8
1
  6
CONTINUOUS
 62
     7
 10
300.1929395215
 20
1061.816925557
 30
0.0
 11
299.7523445215
 21
1064.316721557
 31
0.0
  0
LINE
  5
203
  8
1
  6
CONTINUOUS
 62
     7
 10
269.7523445215
 20
1064.316721557
 30
0.0
 11
266.9224035215
 21
996.9631457868
 31
0.0
  0
LINE
  5
204
  8
1
  6
CONTINUOUS
 62
     7
 10
230.1929395215
 20
1061.816925557
 30
0.0
 11
229.7523445215
 21
1064.316721557
 31
0.0
  0
LINE
  5
205
  8
1
  6
CONTINUOUS
 62
     7
 10
325.6867675215
 20
1061.816925557
 30
0.0
 11
326.2523445215
 21
1064.316729557
 31
0.0
  0
LINE
  5
206
  8
1
  6
CONTINUOUS
 62
     7
 10
340.8118415218
 20
947.8170667989
 30
0.0
 11
341.2524375215
 21
945.317195557
 31
0.0
  0
LINE
  5
207
  8
1
  6
CONTINUOUS
 62
     7
 10
310.1929395215
 20
1061.816925557
 30
0.0
 11
309.7523445215
 21
1064.316721557
 31
0.0
  0
LINE
  5
208
  8
1
  6
CONTINUOUS
 62
     7
 10
310.8118415218
 20
947.8170667989
 30
0.0
 11
305.3180575218
 21
947.8170667989
 31
0.0
  0
LINE
  5
209
  8
1
  6
CONTINUOUS
 62
     7
 10
226.2523445215
 20
1064.316729557
 30
0.0
 11
229.7523445215
 21
1064.316721557
 31
0.0
  0
LINE
  5
20A
  8
1
  6
CONTINUOUS
 62
     7
 10
320.8118415218
 20
947.8170667989
 30
0.0
 11
321.2524375215
 21
945.317195557
 31
0.0
  0
LINE
  5
20B
  8
1
  6
CONTINUOUS
 62
     7
 10
330.1928855215
 20
1061.816925557
 30
0.0
 11
335.6867675215
 21
1061.816925557
 31
0.0
  0
ARC
  5
20C
  8
1
  6
CONTINUOUS
 62
     7
 10
237.1131335215
 20
1074.316925557
 30
0.0
 40
3.000000000000003
 50
90.0
 51
180.0
  0
LINE
  5
20D
  8
1
  6
CONTINUOUS
 62
     7
 10
315.6867675215
 20
1061.816925557
 30
0.0
 11
316.2523445215
 21
1064.316729557
 31
0.0
  0
LINE
  5
20E
  8
1
  6
CONTINUOUS
 62
     7
 10
231.2524375215
 20
945.317195557
 30
0.0
 11
234.1131335215
 21
1013.4027601316
 31
0.0
  0
LINE
  5
20F
  8
1
  6
CONTINUOUS
 62
     7
 10
320.8118415218
 20
947.8170667989
 30
0.0
 11
315.3180575218
 21
947.8170667989
 31
0.0
  0
LINE
  5
210
  8
1
  6
CONTINUOUS
 62
     7
 10
290.1928855215
 20
1061.816925557
 30
0.0
 11
295.6867675215
 21
1061.816925557
 31
0.0
  0
LINE
  5
211
  8
1
  6
CONTINUOUS
 62
     7
 10
266.9224035215
 20
932.316925557
 30
0.0
 11
237.1131335215
 21
932.316925557
 31
0.0
  0
LINE
  5
212
  8
1
  6
CONTINUOUS
 62
     7
 10
320.1929395215
 20
1061.816925557
 30
0.0
 11
319.7523445215
 21
1064.316721557
 31
0.0
  0
LINE
  5
213
  8
1
  6
CONTINUOUS
 62
     7
 10
295.6867675215
 20
1061.816925557
 30
0.0
 11
296.2523445215
 21
1064.316729557
 31
0.0
  0
LINE
  5
214
  8
1
  6
CONTINUOUS
 62
     7
 10
304.7524375215
 20
945.317203557
 30
0.0
 11
301.2524375215
 21
945.317195557
 31
0.0
  0
LINE
  5
215
  8
1
  6
CONTINUOUS
 62
     7
 10
300.8118415218
 20
947.8170667989
 30
0.0
 11
295.3180575218
 21
947.8170667989
 31
0.0
  0
LINE
  5
216
  8
1
  6
CONTINUOUS
 62
     7
 10
305.3175755215
 20
947.816925557
 30
0.0
 11
304.7524375215
 21
945.317203557
 31
0.0
  0
LINE
  5
217
  8
1
  6
CONTINUOUS
 62
     7
 10
336.2523445215
 20
1064.316729557
 30
0.0
 11
339.7523445215
 21
1064.316721557
 31
0.0
  0
LINE
  5
218
  8
1
  6
CONTINUOUS
 62
     7
 10
305.6867675215
 20
1061.816925557
 30
0.0
 11
306.2523445215
 21
1064.316729557
 31
0.0
  0
LINE
  5
219
  8
1
  6
CONTINUOUS
 62
     7
 10
221.2524375215
 20
945.317195557
 30
0.0
 11
226.2523445215
 21
1064.316729557
 31
0.0
  0
LINE
  5
21A
  8
1
  6
CONTINUOUS
 62
     7
 10
300.8118415218
 20
947.8170667989
 30
0.0
 11
301.2524375215
 21
945.317195557
 31
0.0
  0
LINE
  5
21B
  8
1
  6
CONTINUOUS
 62
     7
 10
299.7523445215
 20
1064.316721557
 30
0.0
 11
294.7524375215
 21
945.317203557
 31
0.0
  0
LINE
  5
21C
  8
1
  6
CONTINUOUS
 62
     7
 10
224.7524375215
 20
945.317203557
 30
0.0
 11
221.2524375215
 21
945.317195557
 31
0.0
  0
LINE
  5
21D
  8
1
  6
CONTINUOUS
 62
     7
 10
340.8118415218
 20
947.8170667989
 30
0.0
 11
335.3180575218
 21
947.8170667989
 31
0.0
  0
LINE
  5
21E
  8
1
  6
CONTINUOUS
 62
     7
 10
270.8118415218
 20
947.8170667989
 30
0.0
 11
266.9224035215
 21
947.8170667989
 31
0.0
  0
LINE
  5
21F
  8
1
  6
CONTINUOUS
 62
     7
 10
270.1929395215
 20
1061.816925557
 30
0.0
 11
269.7523445215
 21
1064.316721557
 31
0.0
  0
LINE
  5
220
  8
1
  6
CONTINUOUS
 62
     7
 10
315.3175755215
 20
947.816925557
 30
0.0
 11
314.7524375215
 21
945.317203557
 31
0.0
  0
LINE
  5
221
  8
1
  6
CONTINUOUS
 62
     7
 10
234.1131335215
 20
945.3172020957
 30
0.0
 11
231.2524375215
 21
945.317195557
 31
0.0
  0
LINE
  5
222
  8
1
  6
CONTINUOUS
 62
     7
 10
310.8118415218
 20
947.8170667989
 30
0.0
 11
311.2524375215
 21
945.317195557
 31
0.0
  0
LINE
  5
223
  8
1
  6
CONTINUOUS
 62
     7
 10
229.7523445215
 20
1064.316721557
 30
0.0
 11
224.7524375215
 21
945.317203557
 31
0.0
  0
LINE
  5
224
  8
1
  6
CONTINUOUS
 62
     7
 10
225.6867675215
 20
1061.816925557
 30
0.0
 11
226.2523445215
 21
1064.316729557
 31
0.0
  0
LINE
  5
225
  8
1
  6
CONTINUOUS
 62
     7
 10
280.1928855214999
 20
1061.816925557
 30
0.0
 11
285.6867675215
 21
1061.816925557
 31
0.0
  0
LINE
  5
226
  8
1
  6
CONTINUOUS
 62
     7
 10
331.2524375215
 20
945.317195557
 30
0.0
 11
336.2523445215
 21
1064.316729557
 31
0.0
  0
ARC
  5
227
  8
1
  6
CONTINUOUS
 62
     7
 10
236.7924795215
 20
1023.105572557
 30
0.0
 40
22.05286299999995
 50
264.199779
 51
270.833124
  0
LINE
  5
228
  8
1
  6
CONTINUOUS
 62
     7
 10
280.8118415217999
 20
947.8170667989
 30
0.0
 11
275.3180575217999
 21
947.8170667989
 31
0.0
  0
LINE
  5
229
  8
1
  6
CONTINUOUS
 62
     7
 10
275.3175755215
 20
947.816925557
 30
0.0
 11
274.7524375215
 21
945.317203557
 31
0.0
  0
LINE
  5
22A
  8
1
  6
CONTINUOUS
 62
     7
 10
280.8118415217999
 20
947.8170667989
 30
0.0
 11
281.2524375215
 21
945.317195557
 31
0.0
  0
LINE
  5
22B
  8
1
  6
CONTINUOUS
 62
     7
 10
330.8118415218
 20
947.8170667989
 30
0.0
 11
331.2524375215
 21
945.317195557
 31
0.0
  0
LINE
  5
22C
  8
1
  6
CONTINUOUS
 62
     7
 10
290.8118415217999
 20
947.8170667989
 30
0.0
 11
285.3180575218
 21
947.8170667989
 31
0.0
  0
ARC
  5
22D
  8
1
  6
CONTINUOUS
 62
     7
 10
236.8123055215
 20
985.317682557
 30
0.0
 40
23.26307399999997
 50
89.25905599999999
 51
95.475783
  0
LINE
  5
22E
  8
1
  6
CONTINUOUS
 62
     7
 10
270.8118415218
 20
947.8170667989
 30
0.0
 11
271.2524375215
 21
945.317195557
 31
0.0
  0
ARC
  5
22F
  8
1
  6
CONTINUOUS
 62
     7
 10
237.1131335215
 20
935.316925557
 30
0.0
 40
3.000000000000003
 50
180.0
 51
270.0
  0
LINE
  5
230
  8
1
  6
CONTINUOUS
 62
     7
 10
249.1131335215
 20
1068.583163557
 30
0.0
 11
249.1899645215
 21
1068.971101557
 31
0.0
  0
LINE
  5
231
  8
1
  6
CONTINUOUS
 62
     7
 10
340.8113595215
 20
947.816925557
 30
0.0
 11
335.3175755215
 21
947.816925557
 31
0.0
  0
LINE
  5
232
  8
1
  6
CONTINUOUS
 62
     7
 10
275.6867675215
 20
1061.816925557
 30
0.0
 11
276.2523445215
 21
1064.316729557
 31
0.0
  0
LINE
  5
233
  8
1
  6
CONTINUOUS
 62
     7
 10
286.2523445215
 20
1064.316729557
 30
0.0
 11
289.7523445215
 21
1064.316721557
 31
0.0
  0
LINE
  5
234
  8
1
  6
CONTINUOUS
 62
     7
 10
281.2524375215
 20
945.317195557
 30
0.0
 11
286.2523445215
 21
1064.316729557
 31
0.0
  0
LINE
  5
235
  8
1
  6
CONTINUOUS
 62
     7
 10
271.2524375215
 20
945.317195557
 30
0.0
 11
276.2523445215
 21
1064.316729557
 31
0.0
  0
LINE
  5
236
  8
1
  6
CONTINUOUS
 62
     7
 10
279.7523445215
 20
1064.316721557
 30
0.0
 11
274.7524375215
 21
945.317203557
 31
0.0
  0
LINE
  5
237
  8
1
  6
CONTINUOUS
 62
     7
 10
335.3175755215
 20
947.816925557
 30
0.0
 11
334.7524375215
 21
945.317203557
 31
0.0
  0
LINE
  5
238
  8
1
  6
CONTINUOUS
 62
     7
 10
324.7524375215
 20
945.317203557
 30
0.0
 11
321.2524375215
 21
945.317195557
 31
0.0
  0
LINE
  5
239
  8
1
  6
CONTINUOUS
 62
     7
 10
237.1131335215
 20
1008.585709557
 30
0.0
 11
261.6131335215001
 21
1008.585709557
 31
0.0
  0
LINE
  5
23A
  8
1
  6
CONTINUOUS
 62
     7
 10
321.2524375215
 20
945.317195557
 30
0.0
 11
326.2523445215
 21
1064.316729557
 31
0.0
  0
LINE
  5
23B
  8
1
  6
CONTINUOUS
 62
     7
 10
346.6131335215
 20
945.316925557
 30
0.0
 11
346.6131335215
 21
994.881644557
 31
0.0
  0
LINE
  5
23C
  8
1
  6
CONTINUOUS
 62
     7
 10
270.1928855215
 20
1061.816925557
 30
0.0
 11
275.6867675215
 21
1061.816925557
 31
0.0
  0
LINE
  5
23D
  8
1
  6
CONTINUOUS
 62
     7
 10
340.1929395215
 20
1061.816925557
 30
0.0
 11
339.7523445215
 21
1064.316721557
 31
0.0
  0
LINE
  5
23E
  8
1
  6
CONTINUOUS
 62
     7
 10
334.7524375215
 20
945.317203557
 30
0.0
 11
331.2524375215
 21
945.317195557
 31
0.0
  0
LINE
  5
23F
  8
1
  6
CONTINUOUS
 62
     7
 10
276.2523445215
 20
1064.316729557
 30
0.0
 11
279.7523445215
 21
1064.316721557
 31
0.0
  0
LINE
  5
240
  8
1
  6
CONTINUOUS
 62
     7
 10
280.1929395215
 20
1061.816925557
 30
0.0
 11
279.7523445215
 21
1064.316721557
 31
0.0
  0
LINE
  5
241
  8
1
  6
CONTINUOUS
 62
     7
 10
274.7524375215
 20
945.317203557
 30
0.0
 11
271.2524375215
 21
945.317195557
 31
0.0
  0
LINE
  5
242
  8
1
  6
CONTINUOUS
 62
     7
 10
261.6131335215
 20
1001.048142557
 30
0.0
 11
237.1131335215
 21
1001.048142557
 31
0.0
  0
LINE
  5
243
  8
1
  6
CONTINUOUS
 62
     7
 10
289.7523445215
 20
1064.316721557
 30
0.0
 11
284.7524375215
 21
945.317203557
 31
0.0
  0
LINE
  5
244
  8
1
  6
CONTINUOUS
 62
     7
 10
261.6131335215
 20
951.146353557
 30
0.0
 11
237.1131335215
 21
951.146353557
 31
0.0
  0
LINE
  5
245
  8
1
  6
CONTINUOUS
 62
     7
 10
237.1131335215
 20
1077.316925557
 30
0.0
 11
266.9224035215
 21
1077.316925557
 31
0.0
  0
LINE
  5
246
  8
1
  6
CONTINUOUS
 62
     7
 10
290.1929395215
 20
1061.816925557
 30
0.0
 11
289.7523445215
 21
1064.316721557
 31
0.0
  0
LINE
  5
247
  8
1
  6
CONTINUOUS
 62
     7
 10
285.6867675215
 20
1061.816925557
 30
0.0
 11
286.2523445215
 21
1064.316729557
 31
0.0
  0
LINE
  5
248
  8
1
  6
CONTINUOUS
 62
     7
 10
335.6867675215
 20
1061.816925557
 30
0.0
 11
336.2523445215
 21
1064.316729557
 31
0.0
  0
LINE
  5
249
  8
1
  6
CONTINUOUS
 62
     7
 10
285.3175755214999
 20
947.816925557
 30
0.0
 11
284.7524375215
 21
945.317203557
 31
0.0
  0
LINE
  5
24A
  8
1
  6
CONTINUOUS
 62
     7
 10
330.8118415218
 20
947.8170667989
 30
0.0
 11
325.3180575218
 21
947.8170667989
 31
0.0
  0
LINE
  5
24B
  8
1
  6
CONTINUOUS
 62
     7
 10
326.2523445215
 20
1064.316729557
 30
0.0
 11
329.7523445215
 21
1064.316721557
 31
0.0
  0
LINE
  5
24C
  8
1
  6
CONTINUOUS
 62
     7
 10
320.1928855215
 20
1061.816925557
 30
0.0
 11
325.6867675215
 21
1061.816925557
 31
0.0
  0
LINE
  5
24D
  8
1
  6
CONTINUOUS
 62
     7
 10
325.3175755215
 20
947.816925557
 30
0.0
 11
324.7524375215
 21
945.317203557
 31
0.0
  0
LINE
  5
24E
  8
1
  6
CONTINUOUS
 62
     7
 10
330.1929395215
 20
1061.816925557
 30
0.0
 11
329.7523445215
 21
1064.316721557
 31
0.0
  0
LINE
  5
24F
  8
1
  6
CONTINUOUS
 62
     7
 10
339.7523445215
 20
1064.316721557
 30
0.0
 11
334.7524375215
 21
945.317203557
 31
0.0
  0
LINE
  5
250
  8
1
  6
CONTINUOUS
 62
     7
 10
284.7524375215
 20
945.317203557
 30
0.0
 11
281.2524375215
 21
945.317195557
 31
0.0
  0
LINE
  5
251
  8
1
  6
CONTINUOUS
 62
     7
 10
249.1131335215
 20
1058.487497557
 30
0.0
 11
249.1131335215
 21
1068.583163557
 31
0.0
  0
LINE
  5
252
  8
1
  6
CONTINUOUS
 62
     7
 10
340.1928855215
 20
1061.816925557
 30
0.0
 11
345.6867765215
 21
1061.816925557
 31
0.0
  0
ENDSEC
  0
EOF
