  0
SECTION
  2
HEADER
  9
$ACADVER
  1
AC1006
  9
$DWGCODEPAGE
  3
ansi_932
  9
$INSBASE
 10
0.0
 20
0.0
 30
0.0
  9
$EXTMIN
 10
0.0
 20
-613.1969961167939
  9
$EXTMAX
 10
6124.1004422939
 20
297.0
  9
$LIMMIN
 10
0.0
 20
0.0
  9
$LIMMAX
 10
12.0
 20
9.0
  9
$ORTHOMODE
 70
     0
  9
$REGENMODE
 70
     1
  9
$FILLMODE
 70
     1
  9
$QTEXTMODE
 70
     0
  9
$MIRRTEXT
 70
     1
  9
$DRAGMODE
 70
     2
  9
$LTSCALE
 40
1.0
  9
$OSMODE
 70
    37
  9
$ATTMODE
 70
     1
  9
$TEXTSIZE
 40
0.2
  9
$TRACEWID
 40
0.05
  9
$TEXTSTYLE
  7
STANDARD
  9
$CLAYER
  8
0
  9
$CELTYPE
  6
BYLAYER
  9
$CECOLOR
 62
   256
  9
$DIMSCALE
 40
1.0
  9
$DIMASZ
 40
0.9
  9
$DIMEXO
 40
0.0625
  9
$DIMDLI
 40
0.38
  9
$DIMRND
 40
0.0
  9
$DIMDLE
 40
0.0
  9
$DIMEXE
 40
0.45
  9
$DIMTP
 40
0.0
  9
$DIMTM
 40
0.0
  9
$DIMTXT
 40
3.0
  9
$DIMCEN
 40
0.09
  9
$DIMTSZ
 40
0.0
  9
$DIMTOL
 70
     0
  9
$DIMLIM
 70
     0
  9
$DIMTIH
 70
     1
  9
$DIMTOH
 70
     1
  9
$DIMSE1
 70
     0
  9
$DIMSE2
 70
     0
  9
$DIMTAD
 70
     1
  9
$DIMZIN
 70
     0
  9
$DIMBLK
  1

  9
$DIMASO
 70
     1
  9
$DIMSHO
 70
     1
  9
$DIMPOST
  1

  9
$DIMAPOST
  1

  9
$DIMALT
 70
     0
  9
$DIMALTD
 70
     2
  9
$DIMALTF
 40
25.4
  9
$DIMLFAC
 40
1.0
  9
$DIMTOFL
 70
     0
  9
$DIMTVP
 40
0.0
  9
$DIMTIX
 70
     0
  9
$DIMSOXD
 70
     0
  9
$DIMSAH
 70
     0
  9
$DIMBLK1
  1

  9
$DIMBLK2
  1

  9
$LUNITS
 70
     2
  9
$LUPREC
 70
     4
  9
$SKETCHINC
 40
0.1
  9
$FILLETRAD
 40
0.5
  9
$AUNITS
 70
     0
  9
$AUPREC
 70
     0
  9
$MENU
  1
.
  9
$ELEVATION
 40
0.0
  9
$THICKNESS
 40
0.0
  9
$LIMCHECK
 70
     0
  9
$CHAMFERA
 40
0.0
  9
$CHAMFERB
 40
0.0
  9
$SKPOLY
 70
     0
  9
$TDCREATE
 40
2460027.686895035
  9
$TDUPDATE
 40
2460027.686895417
  9
$TDINDWG
 40
0.0000000116
  9
$TDUSRTIMER
 40
0.0000000116
  9
$USRTIMER
 70
     1
  9
$ANGBASE
 50
0.0
  9
$ANGDIR
 70
     0
  9
$PDMODE
 70
     0
  9
$PDSIZE
 40
0.0
  9
$PLINEWID
 40
0.0
  9
$COORDS
 70
     1
  9
$SPLFRAME
 70
     0
  9
$SPLINETYPE
 70
     6
  9
$SPLINESEGS
 70
     8
  9
$ATTDIA
 70
     0
  9
$ATTREQ
 70
     1
  9
$HANDLING
 70
     1
  9
$HANDSEED
  5
2CE
  9
$SURFTAB1
 70
     6
  9
$SURFTAB2
 70
     6
  9
$SURFTYPE
 70
     6
  9
$SURFU
 70
     6
  9
$SURFV
 70
     6
  9
$UCSNAME
  2

  9
$UCSORG
 10
0.0
 20
0.0
 30
0.0
  9
$UCSXDIR
 10
1.0
 20
0.0
 30
0.0
  9
$UCSYDIR
 10
0.0
 20
1.0
 30
0.0
  9
$USERI1
 70
     0
  9
$USERI2
 70
     0
  9
$USERI3
 70
     0
  9
$USERI4
 70
     0
  9
$USERI5
 70
     0
  9
$USERR1
 40
0.0
  9
$USERR2
 40
0.0
  9
$USERR3
 40
0.0
  9
$USERR4
 40
0.0
  9
$USERR5
 40
0.0
  9
$WORLDVIEW
 70
     1
  0
ENDSEC
  0
SECTION
  2
TABLES
  0
TABLE
  2
VPORT
 70
     1
  0
VPORT
  2
*ACTIVE
 70
     0
 10
0.0
 20
0.0
 11
1.0
 21
1.0
 12
3062.05022114695
 22
-158.098498058397
 13
0.0
 23
0.0
 14
0.5
 24
0.5
 15
0.5
 25
0.5
 16
0.0
 26
0.0
 36
1.0
 17
0.0
 27
0.0
 37
0.0
 40
910.1969961167939
 41
1.6
 42
50.0
 43
0.0
 44
0.0
 50
0.0
 51
0.0
 71
     0
 72
   100
 73
     1
 74
     3
 75
     0
 76
     0
 77
     0
 78
     0
  0
ENDTAB
  0
TABLE
  2
LTYPE
 70
     2
  0
LTYPE
  2
CONTINUOUS
 70
     0
  3
Solid line
 72
    65
 73
     0
 40
0.0
  0
LTYPE
  2
CENTER
 70
     0
  3

 72
    65
 73
     0
 40
0.0
  0
ENDTAB
  0
TABLE
  2
LAYER
 70
     2
  0
LAYER
  2
0
 70
     0
 62
     7
  6
CONTINUOUS
  0
LAYER
  2
1
 70
     0
 62
     7
  6
CONTINUOUS
  0
ENDTAB
  0
TABLE
  2
STYLE
 70
     2
  0
STYLE
  2
STANDARD
 70
     0
 40
0.0
 41
1.0
 50
0.0
 71
     0
 42
0.2
  3
txt
  4

  0
STYLE
  2
ＭＳ_ゴシック
 70
     0
 40
0.0
 41
1.0
 50
0.0
 71
     0
 42
0.2
  3
ＭＳ ゴシック.shx
  4

  0
ENDTAB
  0
TABLE
  2
VIEW
 70
     0
  0
ENDTAB
  0
TABLE
  2
UCS
 70
     0
  0
ENDTAB
  0
ENDSEC
  0
SECTION
  2
BLOCKS
  0
BLOCK
  8
0
  2
D_FRAME_DRAWING_21
 70
     0
 10
0.0
 20
0.0
 30
0.0
  0
LINE
  5
72
  8
0
  6
CONTINUOUS
 62
     7
 10
0.0
 20
0.0
 30
0.0
 11
420.0
 21
0.0
 31
0.0
  0
LINE
  5
73
  8
0
  6
CONTINUOUS
 62
     7
 10
420.0
 20
0.0
 30
0.0
 11
420.0
 21
297.0
 31
0.0
  0
LINE
  5
74
  8
0
  6
CONTINUOUS
 62
     7
 10
420.0
 20
297.0
 30
0.0
 11
0.0
 21
297.0
 31
0.0
  0
LINE
  5
75
  8
0
  6
CONTINUOUS
 62
     7
 10
0.0
 20
297.0
 30
0.0
 11
0.0
 21
0.0
 31
0.0
  0
LINE
  5
76
  8
0
  6
CONTINUOUS
 62
     7
 10
10.0
 20
10.0
 30
0.0
 11
409.9999999999999
 21
10.0
 31
0.0
  0
LINE
  5
77
  8
0
  6
CONTINUOUS
 62
     7
 10
409.9999999999999
 20
10.0
 30
0.0
 11
409.9999999999999
 21
286.9999999999999
 31
0.0
  0
LINE
  5
78
  8
0
  6
CONTINUOUS
 62
     7
 10
409.9999999999999
 20
286.9999999999999
 30
0.0
 11
10.00000000000006
 21
286.9999999999999
 31
0.0
  0
LINE
  5
79
  8
0
  6
CONTINUOUS
 62
     7
 10
10.0
 20
286.9999999999999
 30
0.0
 11
10.0
 21
10.00000000000001
 31
0.0
  0
LINE
  5
7A
  8
0
  6
CONTINUOUS
 62
     7
 10
210.0
 20
0.0
 30
0.0
 11
210.0
 21
10.0
 31
0.0
  0
LINE
  5
7B
  8
0
  6
CONTINUOUS
 62
     7
 10
420.0
 20
148.5
 30
0.0
 11
409.9999999999999
 21
148.5
 31
0.0
  0
LINE
  5
7C
  8
0
  6
CONTINUOUS
 62
     7
 10
210.0
 20
297.0
 30
0.0
 11
210.0
 21
286.9999999999999
 31
0.0
  0
LINE
  5
7D
  8
0
  6
CONTINUOUS
 62
     7
 10
0.0
 20
148.5
 30
0.0
 11
10.0
 21
148.5
 31
0.0
  0
POLYLINE
  5
7E
  8
0
  6
CONTINUOUS
 62
     7
 66
     1
 10
0.0
 20
0.0
 30
0.0
 70
     1
  0
VERTEX
  5
279
  8
0
  6
CONTINUOUS
 62
     7
 10
11.0
 20
152.5
 30
0.0
  0
VERTEX
  5
27A
  8
0
  6
CONTINUOUS
 62
     7
 10
0.0
 20
148.5
 30
0.0
  0
VERTEX
  5
27B
  8
0
  6
CONTINUOUS
 62
     7
 10
11.0
 20
144.5
 30
0.0
  0
VERTEX
  5
27C
  8
0
  6
CONTINUOUS
 62
     7
 10
11.0
 20
152.5
 30
0.0
  0
SEQEND
  5
2CC
  8
0
  6
CONTINUOUS
 62
     7
  0
INSERT
  5
7F
  8
0
 62
     7
  2
*U21
 10
0.0
 20
0.0
 30
0.0
  0
POLYLINE
  5
80
  8
0
  6
CONTINUOUS
 62
     7
 66
     1
 10
0.0
 20
0.0
 30
0.0
 70
     1
  0
VERTEX
  5
27F
  8
0
  6
CONTINUOUS
 62
     7
 10
206.0
 20
11.0
 30
0.0
  0
VERTEX
  5
280
  8
0
  6
CONTINUOUS
 62
     7
 10
210.0
 20
0.0
 30
0.0
  0
VERTEX
  5
281
  8
0
  6
CONTINUOUS
 62
     7
 10
214.0
 20
11.0
 30
0.0
  0
VERTEX
  5
282
  8
0
  6
CONTINUOUS
 62
     7
 10
206.0
 20
11.0
 30
0.0
  0
SEQEND
  5
2CD
  8
0
  6
CONTINUOUS
 62
     7
  0
INSERT
  5
81
  8
0
 62
     7
  2
*U22
 10
0.0
 20
0.0
 30
0.0
  0
LINE
  5
82
  8
0
  6
CONTINUOUS
 62
     7
 10
367.5
 20
286.9999999999999
 30
0.0
 11
367.5
 21
292.0
 31
0.0
  0
TEXT
  5
83
  8
0
  6
CONTINUOUS
 62
     7
 10
391.6340909090909
 20
291.8324293485057
 30
0.0
 40
3.5
  1
A
 50
270.0
  0
LINE
  5
84
  8
0
  6
CONTINUOUS
 62
     7
 10
367.5
 20
10.0
 30
0.0
 11
367.5
 21
5.0
 31
0.0
  0
TEXT
  5
85
  8
0
  6
CONTINUOUS
 62
     7
 10
392.9868888333125
 20
4.602272727272727
 30
0.0
 40
3.5
  1
A
  0
LINE
  5
86
  8
0
  6
CONTINUOUS
 62
     7
 10
315.0
 20
286.9999999999999
 30
0.0
 11
315.0
 21
292.0
 31
0.0
  0
TEXT
  5
87
  8
0
  6
CONTINUOUS
 62
     7
 10
339.1340909090909
 20
291.9745607727899
 30
0.0
 40
3.5
  1
B
 50
270.0
  0
LINE
  5
88
  8
0
  6
CONTINUOUS
 62
     7
 10
315.0
 20
10.0
 30
0.0
 11
315.0
 21
5.0
 31
0.0
  0
TEXT
  5
89
  8
0
  6
CONTINUOUS
 62
     7
 10
340.3447574090284
 20
4.602272727272727
 30
0.0
 40
3.5
  1
B
  0
LINE
  5
8A
  8
0
  6
CONTINUOUS
 62
     7
 10
262.5
 20
286.9999999999999
 30
0.0
 11
262.5
 21
292.0
 31
0.0
  0
TEXT
  5
8B
  8
0
  6
CONTINUOUS
 62
     7
 10
286.6327779167187
 20
291.9399305989747
 30
0.0
 40
3.5
  1
C
 50
270.0
  0
LINE
  5
8C
  8
0
  6
CONTINUOUS
 62
     7
 10
262.5
 20
10.0
 30
0.0
 11
262.5
 21
5.0
 31
0.0
  0
TEXT
  5
8D
  8
0
  6
CONTINUOUS
 62
     7
 10
287.8793875828435
 20
4.600959734900587
 30
0.0
 40
3.5
  1
C
  0
LINE
  5
8E
  8
0
  6
CONTINUOUS
 62
     7
 10
210.0
 20
286.9999999999999
 30
0.0
 11
210.0
 21
292.0
 31
0.0
  0
TEXT
  5
8F
  8
0
  6
CONTINUOUS
 62
     7
 10
234.1340909090909
 20
291.9745607727898
 30
0.0
 40
3.5
  1
D
 50
270.0
  0
LINE
  5
90
  8
0
  6
CONTINUOUS
 62
     7
 10
157.5
 20
286.9999999999999
 30
0.0
 11
157.5
 21
292.0
 31
0.0
  0
TEXT
  5
91
  8
0
  6
CONTINUOUS
 62
     7
 10
181.6327779167188
 20
292.027463423784
 30
0.0
 40
3.5
  1
E
 50
270.0
  0
LINE
  5
92
  8
0
  6
CONTINUOUS
 62
     7
 10
157.5
 20
10.0
 30
0.0
 11
157.5
 21
5.0
 31
0.0
  0
LINE
  5
93
  8
0
  6
CONTINUOUS
 62
     7
 10
105.0
 20
286.9999999999999
 30
0.0
 11
105.0
 21
292.0
 31
0.0
  0
TEXT
  5
94
  8
0
  6
CONTINUOUS
 62
     7
 10
129.1327779167188
 20
291.9924502938602
 30
0.0
 40
3.5
  1
F
 50
270.0
  0
LINE
  5
95
  8
0
  6
CONTINUOUS
 62
     7
 10
105.0
 20
10.0
 30
0.0
 11
105.0
 21
5.0
 31
0.0
  0
TEXT
  5
96
  8
0
  6
CONTINUOUS
 62
     7
 10
130.326867887958
 20
4.600959734900587
 30
0.0
 40
3.5
  1
F
  0
LINE
  5
97
  8
0
  6
CONTINUOUS
 62
     7
 10
52.50000000000004
 20
286.9999999999999
 30
0.0
 11
52.50000000000004
 21
292.0
 31
0.0
  0
TEXT
  5
98
  8
0
  6
CONTINUOUS
 62
     7
 10
76.6327779167188
 20
291.9399305989746
 30
0.0
 40
3.5
  1
G
 50
270.0
  0
LINE
  5
99
  8
0
  6
CONTINUOUS
 62
     7
 10
52.50000000000004
 20
10.0
 30
0.0
 11
52.50000000000004
 21
5.0
 31
0.0
  0
TEXT
  5
9A
  8
0
  6
CONTINUOUS
 62
     7
 10
77.8793875828436
 20
4.600959734900587
 30
0.0
 40
3.5
  1
G
  0
TEXT
  5
9B
  8
0
  6
CONTINUOUS
 62
     7
 10
24.13277791671879
 20
291.9749437288983
 30
0.0
 40
3.5
  1
H
 50
270.0
  0
TEXT
  5
9C
  8
0
  6
CONTINUOUS
 62
     7
 10
25.34437445291988
 20
4.600959734900587
 30
0.0
 40
3.5
  1
H
  0
LINE
  5
9D
  8
0
  6
CONTINUOUS
 62
     7
 10
409.9999999999999
 20
74.25
 30
0.0
 11
414.9999999999999
 21
74.25
 31
0.0
  0
TEXT
  5
9E
  8
0
  6
CONTINUOUS
 62
     7
 10
412.9326059772414
 20
35.00777791671877
 30
0.0
 40
3.5
  1
1
  0
LINE
  5
9F
  8
0
  6
CONTINUOUS
 62
     7
 10
10.0
 20
74.25
 30
0.0
 11
5.0
 21
74.25
 31
0.0
  0
TEXT
  5
A0
  8
0
  6
CONTINUOUS
 62
     7
 10
4.600959734900584
 20
38.26171220457671
 30
0.0
 40
3.5
  1
1
 50
270.0
  0
LINE
  5
A1
  8
0
  6
CONTINUOUS
 62
     7
 10
409.9999999999999
 20
148.5
 30
0.0
 11
414.9999999999999
 21
148.5
 31
0.0
  0
TEXT
  5
A2
  8
0
  6
CONTINUOUS
 62
     7
 10
413.163692634738
 20
109.2577779167188
 30
0.0
 40
3.5
  1
2
  0
LINE
  5
A3
  8
0
  6
CONTINUOUS
 62
     7
 10
10.0
 20
148.5
 30
0.0
 11
5.0
 21
148.5
 31
0.0
  0
TEXT
  5
A4
  8
0
  6
CONTINUOUS
 62
     7
 10
4.600959734900599
 20
112.2806255470802
 30
0.0
 40
3.5
  1
2
 50
270.0
  0
LINE
  5
A5
  8
0
  6
CONTINUOUS
 62
     7
 10
409.9999999999999
 20
222.75
 30
0.0
 11
414.9999999999999
 21
222.75
 31
0.0
  0
TEXT
  5
A6
  8
0
  6
CONTINUOUS
 62
     7
 10
413.1811991996998
 20
183.5077779167188
 30
0.0
 40
3.5
  1
3
  0
LINE
  5
A7
  8
0
  6
CONTINUOUS
 62
     7
 10
10.0
 20
222.75
 30
0.0
 11
5.0
 21
222.75
 31
0.0
  0
TEXT
  5
A8
  8
0
  6
CONTINUOUS
 62
     7
 10
4.600959734900584
 20
186.5131189821183
 30
0.0
 40
3.5
  1
3
 50
270.0
  0
TEXT
  5
A9
  8
0
  6
CONTINUOUS
 62
     7
 10
413.2351413029886
 20
257.7590909090909
 30
0.0
 40
3.5
  1
4
  0
TEXT
  5
AA
  8
0
  6
CONTINUOUS
 62
     7
 10
4.60227272727272
 20
260.7091768788295
 30
0.0
 40
3.5
  1
4
 50
270.0
  0
LINE
  5
AB
  8
0
  6
CONTINUOUS
 62
     7
 10
220.0
 20
10.0
 30
0.0
 11
220.0
 21
7.0
 31
0.0
  0
LINE
  5
AC
  8
0
  6
CONTINUOUS
 62
     7
 10
200.0
 20
10.0
 30
0.0
 11
200.0
 21
7.0
 31
0.0
  0
LINE
  5
AD
  8
0
  6
CONTINUOUS
 62
     7
 10
230.0
 20
10.0
 30
0.0
 11
230.0
 21
7.0
 31
0.0
  0
LINE
  5
AE
  8
0
  6
CONTINUOUS
 62
     7
 10
190.0
 20
10.0
 30
0.0
 11
190.0
 21
7.0
 31
0.0
  0
LINE
  5
AF
  8
0
  6
CONTINUOUS
 62
     7
 10
240.0
 20
10.0
 30
0.0
 11
240.0
 21
7.0
 31
0.0
  0
LINE
  5
B0
  8
0
  6
CONTINUOUS
 62
     7
 10
180.0
 20
10.0
 30
0.0
 11
180.0
 21
7.0
 31
0.0
  0
LINE
  5
B1
  8
0
  6
CONTINUOUS
 62
     7
 10
250.0
 20
10.0
 30
0.0
 11
250.0
 21
7.0
 31
0.0
  0
LINE
  5
B2
  8
0
  6
CONTINUOUS
 62
     7
 10
170.0
 20
10.0
 30
0.0
 11
170.0
 21
7.0
 31
0.0
  0
LINE
  5
B3
  8
0
  6
CONTINUOUS
 62
     7
 10
260.0
 20
10.0
 30
0.0
 11
260.0
 21
5.0
 31
0.0
  0
LINE
  5
B4
  8
0
  6
CONTINUOUS
 62
     7
 10
160.0
 20
10.0
 30
0.0
 11
160.0
 21
5.0
 31
0.0
  0
LINE
  5
B5
  8
0
  6
CONTINUOUS
 62
     7
 10
260.0
 20
10.0
 30
0.0
 11
160.0
 21
10.0
 31
0.0
  0
LINE
  5
B6
  8
0
  6
CONTINUOUS
 62
     7
 10
260.0
 20
7.0
 30
0.0
 11
160.0
 21
7.0
 31
0.0
  0
INSERT
  5
B7
  8
0
 62
     7
  2
*U23
 10
0.0
 20
0.0
 30
0.0
  0
INSERT
  5
B8
  8
0
 62
     7
  2
*U24
 10
0.0
 20
0.0
 30
0.0
  0
INSERT
  5
B9
  8
0
 62
     7
  2
*U25
 10
0.0
 20
0.0
 30
0.0
  0
INSERT
  5
BA
  8
0
 62
     7
  2
*U26
 10
0.0
 20
0.0
 30
0.0
  0
ENDBLK
  8
0
  0
BLOCK
  8
0
  2
*U2
 70
     1
 10
0.0
 20
0.0
 30
0.0
  0
SOLID
  5
252
  8
0
  6
CONTINUOUS
 62
     7
 10
11.0
 20
144.5
 30
0.0
 11
6.999999999999999
 21
148.5
 31
0.0
 12
11.0
 22
152.5
 32
0.0
 13
11.0
 23
152.5
 33
0.0
  0
ENDBLK
  8
0
  0
BLOCK
  8
0
  2
*U3
 70
     1
 10
0.0
 20
0.0
 30
0.0
  0
SOLID
  5
254
  8
0
  6
CONTINUOUS
 62
     7
 10
210.0
 20
6.999999999999999
 30
0.0
 11
206.0
 21
11.0
 31
0.0
 12
210.0
 22
11.0
 32
0.0
 13
210.0
 23
11.0
 33
0.0
  0
ENDBLK
  8
0
  0
BLOCK
  8
0
  2
*U4
 70
     1
 10
0.0
 20
0.0
 30
0.0
  0
SOLID
  5
256
  8
0
  6
CONTINUOUS
 62
     7
 10
210.0
 20
6.999999999999999
 30
0.0
 11
210.0
 21
11.0
 31
0.0
 12
214.0
 22
11.0
 32
0.0
 13
214.0
 23
11.0
 33
0.0
  0
ENDBLK
  8
0
  0
BLOCK
  8
0
  2
*U5
 70
     1
 10
0.0
 20
0.0
 30
0.0
  0
SOLID
  5
258
  8
0
  6
CONTINUOUS
 62
     7
 10
0.0
 20
0.0
 30
0.0
 11
0.0
 21
10.0
 31
0.0
 12
2.0
 22
0.0
 32
0.0
 13
2.0
 23
0.0
 33
0.0
  0
ENDBLK
  8
0
  0
BLOCK
  8
0
  2
*U6
 70
     1
 10
0.0
 20
0.0
 30
0.0
  0
SOLID
  5
25A
  8
0
  6
CONTINUOUS
 62
     7
 10
2.0
 20
0.0
 30
0.0
 11
0.0
 21
10.0
 31
0.0
 12
2.0
 22
10.0
 32
0.0
 13
2.0
 23
10.0
 33
0.0
  0
ENDBLK
  8
0
  0
BLOCK
  8
0
  2
*U7
 70
     1
 10
0.0
 20
0.0
 30
0.0
  0
SOLID
  5
25C
  8
0
  6
CONTINUOUS
 62
     7
 10
2.0
 20
0.0
 30
0.0
 11
2.0
 21
2.0
 31
0.0
 12
10.0
 22
0.0
 32
0.0
 13
10.0
 23
0.0
 33
0.0
  0
ENDBLK
  8
0
  0
BLOCK
  8
0
  2
*U8
 70
     1
 10
0.0
 20
0.0
 30
0.0
  0
SOLID
  5
25E
  8
0
  6
CONTINUOUS
 62
     7
 10
10.0
 20
0.0
 30
0.0
 11
2.0
 21
2.0
 31
0.0
 12
10.0
 22
2.0
 32
0.0
 13
10.0
 23
2.0
 33
0.0
  0
ENDBLK
  8
0
  0
BLOCK
  8
0
  2
*U9
 70
     1
 10
0.0
 20
0.0
 30
0.0
  0
SOLID
  5
260
  8
0
  6
CONTINUOUS
 62
     7
 10
409.9999999999999
 20
0.0
 30
0.0
 11
409.9999999999999
 21
2.0
 31
0.0
 12
418.0
 22
0.0
 32
0.0
 13
418.0
 23
0.0
 33
0.0
  0
ENDBLK
  8
0
  0
BLOCK
  8
0
  2
*U10
 70
     1
 10
0.0
 20
0.0
 30
0.0
  0
SOLID
  5
262
  8
0
  6
CONTINUOUS
 62
     7
 10
418.0
 20
0.0
 30
0.0
 11
409.9999999999999
 21
2.0
 31
0.0
 12
418.0
 22
2.0
 32
0.0
 13
418.0
 23
2.0
 33
0.0
  0
ENDBLK
  8
0
  0
BLOCK
  8
0
  2
*U11
 70
     1
 10
0.0
 20
0.0
 30
0.0
  0
SOLID
  5
264
  8
0
  6
CONTINUOUS
 62
     7
 10
418.0
 20
0.0
 30
0.0
 11
418.0
 21
10.0
 31
0.0
 12
420.0
 22
0.0
 32
0.0
 13
420.0
 23
0.0
 33
0.0
  0
ENDBLK
  8
0
  0
BLOCK
  8
0
  2
*U12
 70
     1
 10
0.0
 20
0.0
 30
0.0
  0
SOLID
  5
266
  8
0
  6
CONTINUOUS
 62
     7
 10
420.0
 20
0.0
 30
0.0
 11
418.0
 21
10.0
 31
0.0
 12
420.0
 22
10.0
 32
0.0
 13
420.0
 23
10.0
 33
0.0
  0
ENDBLK
  8
0
  0
BLOCK
  8
0
  2
*U13
 70
     1
 10
0.0
 20
0.0
 30
0.0
  0
SOLID
  5
268
  8
0
  6
CONTINUOUS
 62
     7
 10
409.9999999999999
 20
295.0
 30
0.0
 11
409.9999999999999
 21
297.0
 31
0.0
 12
418.0
 22
295.0
 32
0.0
 13
418.0
 23
295.0
 33
0.0
  0
ENDBLK
  8
0
  0
BLOCK
  8
0
  2
*U14
 70
     1
 10
0.0
 20
0.0
 30
0.0
  0
SOLID
  5
26A
  8
0
  6
CONTINUOUS
 62
     7
 10
418.0
 20
295.0
 30
0.0
 11
409.9999999999999
 21
297.0
 31
0.0
 12
418.0
 22
297.0
 32
0.0
 13
418.0
 23
297.0
 33
0.0
  0
ENDBLK
  8
0
  0
BLOCK
  8
0
  2
*U15
 70
     1
 10
0.0
 20
0.0
 30
0.0
  0
SOLID
  5
26C
  8
0
  6
CONTINUOUS
 62
     7
 10
418.0
 20
286.9999999999999
 30
0.0
 11
418.0
 21
297.0
 31
0.0
 12
420.0
 22
286.9999999999999
 32
0.0
 13
420.0
 23
286.9999999999999
 33
0.0
  0
ENDBLK
  8
0
  0
BLOCK
  8
0
  2
*U16
 70
     1
 10
0.0
 20
0.0
 30
0.0
  0
SOLID
  5
26E
  8
0
  6
CONTINUOUS
 62
     7
 10
420.0
 20
286.9999999999999
 30
0.0
 11
418.0
 21
297.0
 31
0.0
 12
420.0
 22
297.0
 32
0.0
 13
420.0
 23
297.0
 33
0.0
  0
ENDBLK
  8
0
  0
BLOCK
  8
0
  2
*U17
 70
     1
 10
0.0
 20
0.0
 30
0.0
  0
SOLID
  5
270
  8
0
  6
CONTINUOUS
 62
     7
 10
0.0
 20
286.9999999999999
 30
0.0
 11
0.0
 21
297.0
 31
0.0
 12
2.0
 22
286.9999999999999
 32
0.0
 13
2.0
 23
286.9999999999999
 33
0.0
  0
ENDBLK
  8
0
  0
BLOCK
  8
0
  2
*U18
 70
     1
 10
0.0
 20
0.0
 30
0.0
  0
SOLID
  5
272
  8
0
  6
CONTINUOUS
 62
     7
 10
2.0
 20
286.9999999999999
 30
0.0
 11
0.0
 21
297.0
 31
0.0
 12
2.0
 22
297.0
 32
0.0
 13
2.0
 23
297.0
 33
0.0
  0
ENDBLK
  8
0
  0
BLOCK
  8
0
  2
*U19
 70
     1
 10
0.0
 20
0.0
 30
0.0
  0
SOLID
  5
274
  8
0
  6
CONTINUOUS
 62
     7
 10
2.0
 20
295.0
 30
0.0
 11
2.0
 21
297.0
 31
0.0
 12
10.0
 22
295.0
 32
0.0
 13
10.0
 23
295.0
 33
0.0
  0
ENDBLK
  8
0
  0
BLOCK
  8
0
  2
*U20
 70
     1
 10
0.0
 20
0.0
 30
0.0
  0
SOLID
  5
276
  8
0
  6
CONTINUOUS
 62
     7
 10
10.0
 20
295.0
 30
0.0
 11
2.0
 21
297.0
 31
0.0
 12
10.0
 22
297.0
 32
0.0
 13
10.0
 23
297.0
 33
0.0
  0
ENDBLK
  8
0
  0
BLOCK
  8
0
  2
*U21
 70
     1
 10
0.0
 20
0.0
 30
0.0
  0
SOLID
  5
27E
  8
0
  6
CONTINUOUS
 62
     7
 10
11.0
 20
144.5
 30
0.0
 11
6.999999999999999
 21
148.5
 31
0.0
 12
11.0
 22
152.5
 32
0.0
 13
11.0
 23
152.5
 33
0.0
  0
ENDBLK
  8
0
  0
BLOCK
  8
0
  2
*U22
 70
     1
 10
0.0
 20
0.0
 30
0.0
  0
SOLID
  5
284
  8
0
  6
CONTINUOUS
 62
     7
 10
210.0
 20
6.999999999999999
 30
0.0
 11
206.0
 21
11.0
 31
0.0
 12
210.0
 22
11.0
 32
0.0
 13
210.0
 23
11.0
 33
0.0
  0
SOLID
  5
285
  8
0
  6
CONTINUOUS
 62
     7
 10
210.0
 20
6.999999999999999
 30
0.0
 11
210.0
 21
11.0
 31
0.0
 12
214.0
 22
11.0
 32
0.0
 13
214.0
 23
11.0
 33
0.0
  0
ENDBLK
  8
0
  0
BLOCK
  8
0
  2
*U23
 70
     1
 10
0.0
 20
0.0
 30
0.0
  0
SOLID
  5
287
  8
0
  6
CONTINUOUS
 62
     7
 10
0.0
 20
0.0
 30
0.0
 11
0.0
 21
10.0
 31
0.0
 12
2.0
 22
0.0
 32
0.0
 13
2.0
 23
0.0
 33
0.0
  0
SOLID
  5
288
  8
0
  6
CONTINUOUS
 62
     7
 10
2.0
 20
0.0
 30
0.0
 11
0.0
 21
10.0
 31
0.0
 12
2.0
 22
10.0
 32
0.0
 13
2.0
 23
10.0
 33
0.0
  0
SOLID
  5
289
  8
0
  6
CONTINUOUS
 62
     7
 10
2.0
 20
0.0
 30
0.0
 11
2.0
 21
2.0
 31
0.0
 12
10.0
 22
0.0
 32
0.0
 13
10.0
 23
0.0
 33
0.0
  0
SOLID
  5
28A
  8
0
  6
CONTINUOUS
 62
     7
 10
10.0
 20
0.0
 30
0.0
 11
2.0
 21
2.0
 31
0.0
 12
10.0
 22
2.0
 32
0.0
 13
10.0
 23
2.0
 33
0.0
  0
ENDBLK
  8
0
  0
BLOCK
  8
0
  2
*U24
 70
     1
 10
0.0
 20
0.0
 30
0.0
  0
SOLID
  5
28C
  8
0
  6
CONTINUOUS
 62
     7
 10
409.9999999999999
 20
0.0
 30
0.0
 11
409.9999999999999
 21
2.0
 31
0.0
 12
418.0
 22
0.0
 32
0.0
 13
418.0
 23
0.0
 33
0.0
  0
SOLID
  5
28D
  8
0
  6
CONTINUOUS
 62
     7
 10
418.0
 20
0.0
 30
0.0
 11
409.9999999999999
 21
2.0
 31
0.0
 12
418.0
 22
2.0
 32
0.0
 13
418.0
 23
2.0
 33
0.0
  0
SOLID
  5
28E
  8
0
  6
CONTINUOUS
 62
     7
 10
418.0
 20
0.0
 30
0.0
 11
418.0
 21
10.0
 31
0.0
 12
420.0
 22
0.0
 32
0.0
 13
420.0
 23
0.0
 33
0.0
  0
SOLID
  5
28F
  8
0
  6
CONTINUOUS
 62
     7
 10
420.0
 20
0.0
 30
0.0
 11
418.0
 21
10.0
 31
0.0
 12
420.0
 22
10.0
 32
0.0
 13
420.0
 23
10.0
 33
0.0
  0
ENDBLK
  8
0
  0
BLOCK
  8
0
  2
*U25
 70
     1
 10
0.0
 20
0.0
 30
0.0
  0
SOLID
  5
291
  8
0
  6
CONTINUOUS
 62
     7
 10
409.9999999999999
 20
295.0
 30
0.0
 11
409.9999999999999
 21
297.0
 31
0.0
 12
418.0
 22
295.0
 32
0.0
 13
418.0
 23
295.0
 33
0.0
  0
SOLID
  5
292
  8
0
  6
CONTINUOUS
 62
     7
 10
418.0
 20
295.0
 30
0.0
 11
409.9999999999999
 21
297.0
 31
0.0
 12
418.0
 22
297.0
 32
0.0
 13
418.0
 23
297.0
 33
0.0
  0
SOLID
  5
293
  8
0
  6
CONTINUOUS
 62
     7
 10
418.0
 20
286.9999999999999
 30
0.0
 11
418.0
 21
297.0
 31
0.0
 12
420.0
 22
286.9999999999999
 32
0.0
 13
420.0
 23
286.9999999999999
 33
0.0
  0
SOLID
  5
294
  8
0
  6
CONTINUOUS
 62
     7
 10
420.0
 20
286.9999999999999
 30
0.0
 11
418.0
 21
297.0
 31
0.0
 12
420.0
 22
297.0
 32
0.0
 13
420.0
 23
297.0
 33
0.0
  0
ENDBLK
  8
0
  0
BLOCK
  8
0
  2
*U26
 70
     1
 10
0.0
 20
0.0
 30
0.0
  0
SOLID
  5
296
  8
0
  6
CONTINUOUS
 62
     7
 10
0.0
 20
286.9999999999999
 30
0.0
 11
0.0
 21
297.0
 31
0.0
 12
2.0
 22
286.9999999999999
 32
0.0
 13
2.0
 23
286.9999999999999
 33
0.0
  0
SOLID
  5
297
  8
0
  6
CONTINUOUS
 62
     7
 10
2.0
 20
286.9999999999999
 30
0.0
 11
0.0
 21
297.0
 31
0.0
 12
2.0
 22
297.0
 32
0.0
 13
2.0
 23
297.0
 33
0.0
  0
SOLID
  5
298
  8
0
  6
CONTINUOUS
 62
     7
 10
2.0
 20
295.0
 30
0.0
 11
2.0
 21
297.0
 31
0.0
 12
10.0
 22
295.0
 32
0.0
 13
10.0
 23
295.0
 33
0.0
  0
SOLID
  5
299
  8
0
  6
CONTINUOUS
 62
     7
 10
10.0
 20
295.0
 30
0.0
 11
2.0
 21
297.0
 31
0.0
 12
10.0
 22
297.0
 32
0.0
 13
10.0
 23
297.0
 33
0.0
  0
ENDBLK
  8
0
  0
ENDSEC
  0
SECTION
  2
ENTITIES
  0
INSERT
  5
71
  8
0
 62
     7
  2
D_FRAME_DRAWING_21
 10
0.0
 20
0.0
 30
0.0
  0
LINE
  5
BB
  8
0
  6
CONTINUOUS
 62
     7
 10
0.0
 20
0.0
 30
0.0
 11
420.0
 21
0.0
 31
0.0
  0
LINE
  5
BC
  8
0
  6
CONTINUOUS
 62
     7
 10
420.0
 20
0.0
 30
0.0
 11
420.0
 21
297.0
 31
0.0
  0
LINE
  5
BD
  8
0
  6
CONTINUOUS
 62
     7
 10
420.0
 20
297.0
 30
0.0
 11
0.0
 21
297.0
 31
0.0
  0
LINE
  5
BE
  8
0
  6
CONTINUOUS
 62
     7
 10
0.0
 20
297.0
 30
0.0
 11
0.0
 21
0.0
 31
0.0
  0
LINE
  5
BF
  8
0
  6
CONTINUOUS
 62
     7
 10
10.0
 20
10.0
 30
0.0
 11
409.9999999999999
 21
10.0
 31
0.0
  0
LINE
  5
C0
  8
0
  6
CONTINUOUS
 62
     7
 10
409.9999999999999
 20
10.0
 30
0.0
 11
409.9999999999999
 21
286.9999999999999
 31
0.0
  0
LINE
  5
C1
  8
0
  6
CONTINUOUS
 62
     7
 10
409.9999999999999
 20
286.9999999999999
 30
0.0
 11
10.00000000000006
 21
286.9999999999999
 31
0.0
  0
LINE
  5
C2
  8
0
  6
CONTINUOUS
 62
     7
 10
10.0
 20
286.9999999999999
 30
0.0
 11
10.0
 21
10.00000000000001
 31
0.0
  0
LINE
  5
C3
  8
0
  6
CONTINUOUS
 62
     7
 10
210.0
 20
0.0
 30
0.0
 11
210.0
 21
10.0
 31
0.0
  0
LINE
  5
C4
  8
0
  6
CONTINUOUS
 62
     7
 10
420.0
 20
148.5
 30
0.0
 11
409.9999999999999
 21
148.5
 31
0.0
  0
LINE
  5
C5
  8
0
  6
CONTINUOUS
 62
     7
 10
210.0
 20
297.0
 30
0.0
 11
210.0
 21
286.9999999999999
 31
0.0
  0
LINE
  5
C6
  8
0
  6
CONTINUOUS
 62
     7
 10
0.0
 20
148.5
 30
0.0
 11
10.0
 21
148.5
 31
0.0
  0
LINE
  5
C7
  8
0
  6
CONTINUOUS
 62
     7
 10
11.0
 20
152.5
 30
0.0
 11
0.0000000000000017
 21
148.5
 31
0.0
  0
LINE
  5
C8
  8
0
  6
CONTINUOUS
 62
     7
 10
0.0
 20
148.5
 30
0.0
 11
11.0
 21
144.5
 31
0.0
  0
LINE
  5
C9
  8
0
  6
CONTINUOUS
 62
     7
 10
11.0
 20
144.5
 30
0.0
 11
11.0
 21
152.5
 31
0.0
  0
INSERT
  5
CA
  8
0
 62
     7
  2
*U2
 10
0.0
 20
0.0
 30
0.0
  0
LINE
  5
CB
  8
0
  6
CONTINUOUS
 62
     7
 10
206.0
 20
11.0
 30
0.0
 11
210.0
 21
-0.0000000000000017
 31
0.0
  0
LINE
  5
CC
  8
0
  6
CONTINUOUS
 62
     7
 10
210.0
 20
0.0
 30
0.0
 11
214.0
 21
11.0
 31
0.0
  0
LINE
  5
CD
  8
0
  6
CONTINUOUS
 62
     7
 10
214.0
 20
11.0
 30
0.0
 11
206.0
 21
11.0
 31
0.0
  0
INSERT
  5
CE
  8
0
 62
     7
  2
*U3
 10
0.0
 20
0.0
 30
0.0
  0
INSERT
  5
CF
  8
0
 62
     7
  2
*U4
 10
0.0
 20
0.0
 30
0.0
  0
LINE
  5
D0
  8
0
  6
CONTINUOUS
 62
     7
 10
367.5
 20
286.9999999999999
 30
0.0
 11
367.5
 21
292.0
 31
0.0
  0
TEXT
  5
D1
  8
0
  6
CONTINUOUS
 62
     7
 10
391.2681818181818
 20
291.6648586970114
 30
0.0
 40
3.5
  1
A
 50
270.0
  0
LINE
  5
D2
  8
0
  6
CONTINUOUS
 62
     7
 10
367.5
 20
10.0
 30
0.0
 11
367.5
 21
5.0
 31
0.0
  0
TEXT
  5
D3
  8
0
  6
CONTINUOUS
 62
     7
 10
393.1544594848068
 20
4.236363636363635
 30
0.0
 40
3.5
  1
A
  0
LINE
  5
D4
  8
0
  6
CONTINUOUS
 62
     7
 10
315.0
 20
286.9999999999999
 30
0.0
 11
315.0
 21
292.0
 31
0.0
  0
TEXT
  5
D5
  8
0
  6
CONTINUOUS
 62
     7
 10
338.7681818181818
 20
291.9491215455798
 30
0.0
 40
3.5
  1
B
 50
270.0
  0
LINE
  5
D6
  8
0
  6
CONTINUOUS
 62
     7
 10
315.0
 20
10.0
 30
0.0
 11
315.0
 21
5.0
 31
0.0
  0
TEXT
  5
D7
  8
0
  6
CONTINUOUS
 62
     7
 10
340.3701966362385
 20
4.236363636363635
 30
0.0
 40
3.5
  1
B
  0
LINE
  5
D8
  8
0
  6
CONTINUOUS
 62
     7
 10
262.5
 20
286.9999999999999
 30
0.0
 11
262.5
 21
292.0
 31
0.0
  0
TEXT
  5
D9
  8
0
  6
CONTINUOUS
 62
     7
 10
286.2655558334374
 20
291.8798611979494
 30
0.0
 40
3.5
  1
C
 50
270.0
  0
LINE
  5
DA
  8
0
  6
CONTINUOUS
 62
     7
 10
262.5
 20
10.0
 30
0.0
 11
262.5
 21
5.0
 31
0.0
  0
TEXT
  5
DB
  8
0
  6
CONTINUOUS
 62
     7
 10
287.9394569838688
 20
4.233737651619357
 30
0.0
 40
3.5
  1
C
  0
LINE
  5
DC
  8
0
  6
CONTINUOUS
 62
     7
 10
210.0
 20
286.9999999999999
 30
0.0
 11
210.0
 21
292.0
 31
0.0
  0
TEXT
  5
DD
  8
0
  6
CONTINUOUS
 62
     7
 10
233.7681818181818
 20
291.9491215455796
 30
0.0
 40
3.5
  1
D
 50
270.0
  0
LINE
  5
DE
  8
0
  6
CONTINUOUS
 62
     7
 10
157.5
 20
286.9999999999999
 30
0.0
 11
157.5
 21
292.0
 31
0.0
  0
TEXT
  5
DF
  8
0
  6
CONTINUOUS
 62
     7
 10
181.2655558334376
 20
292.0549268475679
 30
0.0
 40
3.5
  1
E
 50
270.0
  0
LINE
  5
E0
  8
0
  6
CONTINUOUS
 62
     7
 10
157.5
 20
10.0
 30
0.0
 11
157.5
 21
5.0
 31
0.0
  0
LINE
  5
E1
  8
0
  6
CONTINUOUS
 62
     7
 10
105.0
 20
286.9999999999999
 30
0.0
 11
105.0
 21
292.0
 31
0.0
  0
TEXT
  5
E2
  8
0
  6
CONTINUOUS
 62
     7
 10
128.7655558334375
 20
291.9849005877204
 30
0.0
 40
3.5
  1
F
 50
270.0
  0
LINE
  5
E3
  8
0
  6
CONTINUOUS
 62
     7
 10
105.0
 20
10.0
 30
0.0
 11
105.0
 21
5.0
 31
0.0
  0
TEXT
  5
E4
  8
0
  6
CONTINUOUS
 62
     7
 10
130.3344175940978
 20
4.233737651619357
 30
0.0
 40
3.5
  1
F
  0
LINE
  5
E5
  8
0
  6
CONTINUOUS
 62
     7
 10
52.50000000000004
 20
286.9999999999999
 30
0.0
 11
52.50000000000004
 21
292.0
 31
0.0
  0
TEXT
  5
E6
  8
0
  6
CONTINUOUS
 62
     7
 10
76.26555583343753
 20
291.8798611979493
 30
0.0
 40
3.5
  1
G
 50
270.0
  0
LINE
  5
E7
  8
0
  6
CONTINUOUS
 62
     7
 10
52.50000000000004
 20
10.0
 30
0.0
 11
52.50000000000004
 21
5.0
 31
0.0
  0
TEXT
  5
E8
  8
0
  6
CONTINUOUS
 62
     7
 10
77.93945698386898
 20
4.233737651619357
 30
0.0
 40
3.5
  1
G
  0
TEXT
  5
E9
  8
0
  6
CONTINUOUS
 62
     7
 10
23.76555583343753
 20
291.9498874577966
 30
0.0
 40
3.5
  1
H
 50
270.0
  0
TEXT
  5
EA
  8
0
  6
CONTINUOUS
 62
     7
 10
25.36943072402154
 20
4.233737651619357
 30
0.0
 40
3.5
  1
H
  0
LINE
  5
EB
  8
0
  6
CONTINUOUS
 62
     7
 10
409.9999999999999
 20
74.25
 30
0.0
 11
414.9999999999999
 21
74.25
 31
0.0
  0
TEXT
  5
EC
  8
0
  6
CONTINUOUS
 62
     7
 10
412.7265755908465
 20
34.64055583343754
 30
0.0
 40
3.5
  1
1
  0
LINE
  5
ED
  8
0
  6
CONTINUOUS
 62
     7
 10
10.0
 20
74.25
 30
0.0
 11
5.0
 21
74.25
 31
0.0
  0
TEXT
  5
EE
  8
0
  6
CONTINUOUS
 62
     7
 10
4.23373765161935
 20
38.46774259097161
 30
0.0
 40
3.5
  1
1
 50
270.0
  0
LINE
  5
EF
  8
0
  6
CONTINUOUS
 62
     7
 10
409.9999999999999
 20
148.5
 30
0.0
 11
414.9999999999999
 21
148.5
 31
0.0
  0
TEXT
  5
F0
  8
0
  6
CONTINUOUS
 62
     7
 10
413.1887489058396
 20
108.8905558334376
 30
0.0
 40
3.5
  1
2
  0
LINE
  5
F1
  8
0
  6
CONTINUOUS
 62
     7
 10
10.0
 20
148.5
 30
0.0
 11
5.0
 21
148.5
 31
0.0
  0
TEXT
  5
F2
  8
0
  6
CONTINUOUS
 62
     7
 10
4.233737651619379
 20
112.2555692759785
 30
0.0
 40
3.5
  1
2
 50
270.0
  0
LINE
  5
F3
  8
0
  6
CONTINUOUS
 62
     7
 10
409.9999999999999
 20
222.75
 30
0.0
 11
414.9999999999999
 21
222.75
 31
0.0
  0
TEXT
  5
F4
  8
0
  6
CONTINUOUS
 62
     7
 10
413.2237620357633
 20
183.1405558334376
 30
0.0
 40
3.5
  1
3
  0
LINE
  5
F5
  8
0
  6
CONTINUOUS
 62
     7
 10
10.0
 20
222.75
 30
0.0
 11
5.0
 21
222.75
 31
0.0
  0
TEXT
  5
F6
  8
0
  6
CONTINUOUS
 62
     7
 10
4.23373765161935
 20
186.4705561460548
 30
0.0
 40
3.5
  1
3
 50
270.0
  0
TEXT
  5
F7
  8
0
  6
CONTINUOUS
 62
     7
 10
413.3316462423409
 20
257.3931818181817
 30
0.0
 40
3.5
  1
4
  0
TEXT
  5
F8
  8
0
  6
CONTINUOUS
 62
     7
 10
4.23636363636362
 20
260.6126719394773
 30
0.0
 40
3.5
  1
4
 50
270.0
  0
LINE
  5
F9
  8
0
  6
CONTINUOUS
 62
     7
 10
220.0
 20
10.0
 30
0.0
 11
220.0
 21
7.0
 31
0.0
  0
LINE
  5
FA
  8
0
  6
CONTINUOUS
 62
     7
 10
200.0
 20
10.0
 30
0.0
 11
200.0
 21
7.0
 31
0.0
  0
LINE
  5
FB
  8
0
  6
CONTINUOUS
 62
     7
 10
230.0
 20
10.0
 30
0.0
 11
230.0
 21
7.0
 31
0.0
  0
LINE
  5
FC
  8
0
  6
CONTINUOUS
 62
     7
 10
190.0
 20
10.0
 30
0.0
 11
190.0
 21
7.0
 31
0.0
  0
LINE
  5
FD
  8
0
  6
CONTINUOUS
 62
     7
 10
240.0
 20
10.0
 30
0.0
 11
240.0
 21
7.0
 31
0.0
  0
LINE
  5
FE
  8
0
  6
CONTINUOUS
 62
     7
 10
180.0
 20
10.0
 30
0.0
 11
180.0
 21
7.0
 31
0.0
  0
LINE
  5
FF
  8
0
  6
CONTINUOUS
 62
     7
 10
250.0
 20
10.0
 30
0.0
 11
250.0
 21
7.0
 31
0.0
  0
LINE
  5
100
  8
0
  6
CONTINUOUS
 62
     7
 10
170.0
 20
10.0
 30
0.0
 11
170.0
 21
7.0
 31
0.0
  0
LINE
  5
101
  8
0
  6
CONTINUOUS
 62
     7
 10
260.0
 20
10.0
 30
0.0
 11
260.0
 21
5.0
 31
0.0
  0
LINE
  5
102
  8
0
  6
CONTINUOUS
 62
     7
 10
160.0
 20
10.0
 30
0.0
 11
160.0
 21
5.0
 31
0.0
  0
LINE
  5
103
  8
0
  6
CONTINUOUS
 62
     7
 10
260.0
 20
10.0
 30
0.0
 11
160.0
 21
10.0
 31
0.0
  0
LINE
  5
104
  8
0
  6
CONTINUOUS
 62
     7
 10
260.0
 20
7.0
 30
0.0
 11
160.0
 21
7.0
 31
0.0
  0
INSERT
  5
105
  8
0
 62
     7
  2
*U5
 10
0.0
 20
0.0
 30
0.0
  0
INSERT
  5
106
  8
0
 62
     7
  2
*U6
 10
0.0
 20
0.0
 30
0.0
  0
INSERT
  5
107
  8
0
 62
     7
  2
*U7
 10
0.0
 20
0.0
 30
0.0
  0
INSERT
  5
108
  8
0
 62
     7
  2
*U8
 10
0.0
 20
0.0
 30
0.0
  0
INSERT
  5
109
  8
0
 62
     7
  2
*U9
 10
0.0
 20
0.0
 30
0.0
  0
INSERT
  5
10A
  8
0
 62
     7
  2
*U10
 10
0.0
 20
0.0
 30
0.0
  0
INSERT
  5
10B
  8
0
 62
     7
  2
*U11
 10
0.0
 20
0.0
 30
0.0
  0
INSERT
  5
10C
  8
0
 62
     7
  2
*U12
 10
0.0
 20
0.0
 30
0.0
  0
INSERT
  5
10D
  8
0
 62
     7
  2
*U13
 10
0.0
 20
0.0
 30
0.0
  0
INSERT
  5
10E
  8
0
 62
     7
  2
*U14
 10
0.0
 20
0.0
 30
0.0
  0
INSERT
  5
10F
  8
0
 62
     7
  2
*U15
 10
0.0
 20
0.0
 30
0.0
  0
INSERT
  5
110
  8
0
 62
     7
  2
*U16
 10
0.0
 20
0.0
 30
0.0
  0
INSERT
  5
111
  8
0
 62
     7
  2
*U17
 10
0.0
 20
0.0
 30
0.0
  0
INSERT
  5
112
  8
0
 62
     7
  2
*U18
 10
0.0
 20
0.0
 30
0.0
  0
INSERT
  5
113
  8
0
 62
     7
  2
*U19
 10
0.0
 20
0.0
 30
0.0
  0
INSERT
  5
114
  8
0
 62
     7
  2
*U20
 10
0.0
 20
0.0
 30
0.0
  0
LINE
  5
115
  8
1
  6
CONTINUOUS
 62
     7
 10
5836.2231552939
 20
-585.3172030971
 30
0.0
 11
5836.2231552939
 21
-438.3172030971
 31
0.0
  0
LINE
  5
116
  8
1
  6
CENTER
 62
     7
 10
5427.5
 20
-511.8172030971
 30
0.0
 11
5897.7153583934
 21
-511.8172030971
 31
0.0
  0
LINE
  5
118
  8
1
  6
CONTINUOUS
 62
     7
 10
5756.0542972939
 20
-599.3172030971
 30
0.0
 11
5727.223155293901
 21
-599.3172030971
 31
0.0
  0
LINE
  5
119
  8
1
  6
CONTINUOUS
 62
     7
 10
5727.223155293901
 20
-424.3172030971
 30
0.0
 11
5756.0542972939
 21
-424.3172030971
 31
0.0
  0
ARC
  5
11A
  8
1
  6
CONTINUOUS
 62
     7
 10
5750.716392558501
 20
-567.2770402209
 30
0.0
 40
0.5068191845998271
 50
0.8551540106
 51
37.6662196378
  0
ARC
  5
11B
  8
1
  6
CONTINUOUS
 62
     7
 10
5737.72278205
 20
-432.9148821423
 30
0.0
 40
0.9999722903000219
 50
116.5419372066
 51
134.9713506456
  0
ARC
  5
11C
  8
1
  6
CONTINUOUS
 62
     7
 10
5750.279447695001
 20
-567.735269582
 30
0.0
 40
1.139230803000046
 50
69.9314078091
 51
88.447587976
  0
ARC
  5
11D
  8
1
  6
CONTINUOUS
 62
     7
 10
5750.274809533801
 20
-593.6376997378
 30
0.0
 40
0.8148916564998387
 50
60.96043711150001
 51
87.50306650609997
  0
ARC
  5
11E
  8
1
  6
CONTINUOUS
 62
     7
 10
5750.224884928501
 20
-429.8155618474
 30
0.0
 40
0.9982703656001846
 50
333.4115233321
 51
0.0
  0
LINE
  5
11F
  8
1
  6
CONTINUOUS
 62
     7
 10
5736.723155293901
 20
-565.1743030971
 30
0.0
 11
5736.723155293901
 21
-515.6125030971
 31
0.0
  0
ARC
  5
120
  8
1
  6
CONTINUOUS
 62
     7
 10
5750.223528537701
 20
-429.814572052
 30
0.0
 40
0.9999722903000219
 50
296.5419372069
 51
314.9713506456001
  0
ARC
  5
121
  8
1
  6
CONTINUOUS
 62
     7
 10
5737.7221492304
 20
-590.7201574811
 30
0.0
 40
0.9990769171004388
 50
206.5881797755
 51
225.0286503122
  0
ARC
  5
122
  8
1
  6
CONTINUOUS
 62
     7
 10
5726.997122293901
 20
-573.2753880971
 30
0.0
 40
2.855051000000053
 50
195.165993
 51
274.540817
  0
ARC
  5
123
  8
1
  6
CONTINUOUS
 62
     7
 10
5726.999979293901
 20
-450.3630770971
 30
0.0
 40
2.85887099999993
 50
85.52269
 51
164.7705
  0
ARC
  5
124
  8
1
  6
CONTINUOUS
 62
     7
 10
5737.72278205
 20
-590.719524052
 30
0.0
 40
0.9999722903000219
 50
225.0286493544
 51
243.4580627934
  0
LINE
  5
125
  8
1
  6
CONTINUOUS
 62
     7
 10
5727.223155293901
 20
-508.0219030971002
 30
0.0
 11
5751.223155293901
 21
-508.0219030971002
 31
0.0
  0
ARC
  5
126
  8
1
  6
CONTINUOUS
 62
     7
 10
5737.7214256592
 20
-590.7205138476
 30
0.0
 40
0.9982703654998204
 50
180.0009900366
 51
206.5884766558
  0
LINE
  5
127
  8
1
  6
CONTINUOUS
 62
     7
 10
5750.3103102939
 20
-592.8235810971
 30
0.0
 11
5737.6359992939
 21
-591.7157780971
 31
0.0
  0
LINE
  5
128
  8
1
  6
CONTINUOUS
 62
     7
 10
5750.3103102939
 20
-457.0379500971
 30
0.0
 11
5737.6359992939
 21
-457.7870840971
 31
0.0
  0
ARC
  5
129
  8
1
  6
CONTINUOUS
 62
     7
 10
5750.2231890147
 20
-429.8138977865
 30
0.0
 40
1.000727210099583
 50
274.9944193337
 51
296.5420770487
  0
ARC
  5
12A
  8
1
  6
CONTINUOUS
 62
     7
 10
5737.6668628927
 20
-564.7085096122
 30
0.0
 40
1.139230803000046
 50
249.9314078091
 51
268.4475879759
  0
LINE
  5
12B
  8
1
  6
CONTINUOUS
 62
     7
 10
5824.8911022939
 20
-441.3172030971
 30
0.0
 11
5830.7603807898
 21
-441.3172030971
 31
0.0
  0
LINE
  5
12C
  8
1
  6
CONTINUOUS
 62
     7
 10
5820.8628342939
 20
-438.3175450971
 30
0.0
 11
5824.3628342939
 21
-438.3175530971
 31
0.0
  0
ARC
  5
12D
  8
1
  6
CONTINUOUS
 62
     7
 10
5727.223155293901
 20
-596.3172030971
 30
0.0
 40
3.000000000000114
 50
180.0
 51
270.0
  0
ARC
  5
12E
  8
1
  6
CONTINUOUS
 62
     7
 10
5737.4368756641
 20
-565.015341322
 30
0.0
 40
0.7631853498999419
 50
217.1692444019
 51
236.5362806713
  0
LINE
  5
12F
  8
1
  6
CONTINUOUS
 62
     7
 10
5750.3103102939
 20
-566.5964570971
 30
0.0
 11
5737.6359992939
 21
-565.8473230971
 31
0.0
  0
LINE
  5
130
  8
1
  6
CONTINUOUS
 62
     7
 10
5825.3332642939
 20
-582.3172030971
 30
0.0
 11
5819.4638176574
 21
-582.3172030971
 31
0.0
  0
ARC
  5
131
  8
1
  6
CONTINUOUS
 62
     7
 10
5737.2299180292
 20
-458.4676682207
 30
0.0
 40
0.5068191845998271
 50
142.333780379
 51
179.1448460068
  0
ARC
  5
132
  8
1
  6
CONTINUOUS
 62
     7
 10
5750.329151177701
 20
-567.6960928397
 30
0.0
 40
1.085886224199584
 50
56.38792261130001
 51
71.6856817304
  0
LINE
  5
133
  8
1
  6
CONTINUOUS
 62
     7
 10
5819.3617692939
 20
-585.3167700971
 30
0.0
 11
5815.8617692939
 21
-585.3167780971
 31
0.0
  0
ARC
  5
134
  8
1
  6
CONTINUOUS
 62
     7
 10
5750.509434923601
 20
-456.205969322
 30
0.0
 40
0.7631853500003061
 50
303.4637193292
 51
322.8307555976
  0
LINE
  5
135
  8
1
  6
CONTINUOUS
 62
     7
 10
5736.723155293901
 20
-590.7205310971
 30
0.0
 11
5736.723155293901
 21
-576.1214770971
 31
0.0
  0
ARC
  5
136
  8
1
  6
CONTINUOUS
 62
     7
 10
5726.8852882939
 20
-490.7526470971
 30
0.0
 40
24.85483899999963
 50
263.8514131726
 51
270.778881
  0
ARC
  5
137
  8
1
  6
CONTINUOUS
 62
     7
 10
5750.2241613572
 20
-429.8152054811
 30
0.0
 40
0.9990769171999148
 50
314.9713496884
 51
333.4118202239
  0
LINE
  5
138
  8
1
  6
CONTINUOUS
 62
     7
 10
5727.223155293901
 20
-447.5129290971
 30
0.0
 11
5751.223155293901
 21
-447.5129290971
 31
0.0
  0
ARC
  5
139
  8
1
  6
CONTINUOUS
 62
     7
 10
5750.509434923901
 20
-567.4284378723
 30
0.0
 40
0.7631853497995778
 50
37.1692444188
 51
56.53628068690001
  0
LINE
  5
13A
  8
1
  6
CONTINUOUS
 62
     7
 10
5750.3103102939
 20
-430.8108260971
 30
0.0
 11
5737.6359992939
 21
-431.9186290971
 31
0.0
  0
ARC
  5
13B
  8
1
  6
CONTINUOUS
 62
     7
 10
5737.722680404701
 20
-432.9139940478
 30
0.0
 40
0.999132420600013
 50
94.9770163276
 51
116.5594800548
  0
ARC
  5
13C
  8
1
  6
CONTINUOUS
 62
     7
 10
5737.579083903901
 20
-458.4662018073
 30
0.0
 40
0.6814977153997148
 50
85.20933217679999
 51
116.4116720382
  0
ARC
  5
13D
  8
1
  6
CONTINUOUS
 62
     7
 10
5750.716392558501
 20
-456.3573669733
 30
0.0
 40
0.5068191845998271
 50
322.3337803622
 51
359.1448459894
  0
LINE
  5
13E
  8
1
  6
CONTINUOUS
 62
     7
 10
5815.8617692939
 20
-585.3167780971
 30
0.0
 11
5815.3333132939
 21
-582.3172030971
 31
0.0
  0
ARC
  5
13F
  8
1
  6
CONTINUOUS
 62
     7
 10
5750.3291511781
 20
-455.9383143545
 30
0.0
 40
1.085886223999744
 50
288.3143182515001
 51
303.6120773711
  0
ARC
  5
140
  8
1
  6
CONTINUOUS
 62
     7
 10
5726.8488232939
 20
-531.0235710971
 30
0.0
 40
22.99740000000039
 50
89.067347
 51
96.55589177959999
  0
ARC
  5
141
  8
1
  6
CONTINUOUS
 62
     7
 10
5737.617159409601
 20
-564.7476863546
 30
0.0
 40
1.085886223999744
 50
236.3879226288
 51
251.6856817487001
  0
ARC
  5
142
  8
1
  6
CONTINUOUS
 62
     7
 10
5750.224884928501
 20
-593.8188453468
 30
0.0
 40
0.9982703656001846
 50
0.000990049
 51
26.5884766679
  0
ARC
  5
143
  8
1
  6
CONTINUOUS
 62
     7
 10
5750.2326862756
 20
-455.6542495447
 30
0.0
 40
1.385876368799721
 50
273.2108924853
 51
288.4101117296
  0
LINE
  5
144
  8
1
  6
CONTINUOUS
 62
     7
 10
5751.223155293901
 20
-515.6125030971
 30
0.0
 11
5727.223155293901
 21
-515.6125030971
 31
0.0
  0
ARC
  5
145
  8
1
  6
CONTINUOUS
 62
     7
 10
5750.223528537701
 20
-593.8198351423
 30
0.0
 40
0.9999722903000219
 50
45.0286493544
 51
63.45806279310001
  0
ARC
  5
146
  8
1
  6
CONTINUOUS
 62
     7
 10
5737.4368756638
 20
-458.6190658723
 30
0.0
 40
0.7631853497001018
 50
123.4637193125
 51
142.8307555817
  0
LINE
  5
147
  8
1
  6
CONTINUOUS
 62
     7
 10
5724.2231552939
 20
-596.3172030971
 30
0.0
 11
5724.2231552939
 21
-427.3172030971
 31
0.0
  0
ARC
  5
148
  8
1
  6
CONTINUOUS
 62
     7
 10
5750.224161357601
 20
-593.8192017132
 30
0.0
 40
0.9990769168997105
 50
26.5881797863
 51
45.0286503223
  0
ARC
  5
149
  8
1
  6
CONTINUOUS
 62
     7
 10
5737.7214256592
 20
-432.9138923466
 30
0.0
 40
0.9982703654998204
 50
153.4115233442
 51
179.9990099634
  0
ARC
  5
14A
  8
1
  6
CONTINUOUS
 62
     7
 10
5737.61715941
 20
-458.8867208397
 30
0.0
 40
1.085886224199584
 50
108.3143182693
 51
123.6120773888
  0
ARC
  5
14B
  8
1
  6
CONTINUOUS
 62
     7
 10
5737.6715010539
 20
-590.9016594565
 30
0.0
 40
0.8148916564998387
 50
240.9604371115
 51
267.5030665061001
  0
LINE
  5
14C
  8
1
  6
CONTINUOUS
 62
     7
 10
5736.723155293901
 20
-447.5129290971
 30
0.0
 11
5736.723155293901
 21
-432.9138750971
 31
0.0
  0
LINE
  5
14D
  8
1
  6
CONTINUOUS
 62
     7
 10
5736.723155293901
 20
-508.0219030971002
 30
0.0
 11
5736.723155293901
 21
-458.4601040971
 31
0.0
  0
ARC
  5
14E
  8
1
  6
CONTINUOUS
 62
     7
 10
5737.2299180292
 20
-565.1667389735
 30
0.0
 40
0.5068191845998271
 50
180.8551539938
 51
217.6662196204
  0
ARC
  5
14F
  8
1
  6
CONTINUOUS
 62
     7
 10
5737.7221492301
 20
-432.9142487131
 30
0.0
 40
0.9990769168997105
 50
134.9713496772
 51
153.4118202142
  0
LINE
  5
150
  8
1
  6
CONTINUOUS
 62
     7
 10
5795.8617692939
 20
-585.3167780971
 30
0.0
 11
5795.3333132939
 21
-582.3172030971
 31
0.0
  0
LINE
  5
151
  8
1
  6
CONTINUOUS
 62
     7
 10
5824.3628342939
 20
-438.3175530971
 30
0.0
 11
5819.3617692939
 21
-585.3167700971
 31
0.0
  0
LINE
  5
152
  8
1
  6
CONTINUOUS
 62
     7
 10
5709.3617692939
 20
-585.3167700971
 30
0.0
 11
5706.223155293901
 21
-585.3167772711
 31
0.0
  0
LINE
  5
153
  8
1
  6
CONTINUOUS
 62
     7
 10
5475.729443972802
 20
-573.5824643203
 30
0.0
 11
5481.701184481401
 21
-575.182587367
 31
0.0
  0
LINE
  5
154
  8
1
  6
CONTINUOUS
 62
     7
 10
5790.8628342939
 20
-438.3175450971
 30
0.0
 11
5794.3628342939
 21
-438.3175530971
 31
0.0
  0
LINE
  5
155
  8
1
  6
CONTINUOUS
 62
     7
 10
5825.8617692939
 20
-585.3167780971
 30
0.0
 11
5825.3333132939
 21
-582.3172030971
 31
0.0
  0
LINE
  5
156
  8
1
  6
CONTINUOUS
 62
     7
 10
5715.3332642939
 20
-582.3172030971
 30
0.0
 11
5709.463817657401
 21
-582.3172030971
 31
0.0
  0
LINE
  5
157
  8
1
  6
CONTINUOUS
 62
     7
 10
5474.8230406081
 20
-416.1028090971
 30
0.0
 11
5474.823094260301
 21
-449.927688421
 31
0.0
  0
LINE
  5
158
  8
1
  6
CONTINUOUS
 62
     7
 10
5715.8617692939
 20
-585.3167780971
 30
0.0
 11
5715.333313293901
 21
-582.3172030971
 31
0.0
  0
LINE
  5
159
  8
1
  6
CONTINUOUS
 62
     7
 10
5804.8911022939
 20
-441.3172030971
 30
0.0
 11
5810.7603807898
 21
-441.3172030971
 31
0.0
  0
LINE
  5
15A
  8
1
  6
CONTINUOUS
 62
     7
 10
5751.223155293901
 20
-576.1214770971
 30
0.0
 11
5727.223155293901
 21
-576.1214770971
 31
0.0
  0
LINE
  5
15B
  8
1
  6
CONTINUOUS
 62
     7
 10
5824.3628342939
 20
-438.3175530971
 30
0.0
 11
5824.8911022939
 21
-441.3172030971
 31
0.0
  0
LINE
  5
15C
  8
1
  6
CONTINUOUS
 62
     7
 10
5825.8617692939
 20
-585.3167780971
 30
0.0
 11
5830.8628342939
 21
-438.3175450971
 31
0.0
  0
LINE
  5
15D
  8
1
  6
CONTINUOUS
 62
     7
 10
5814.8911022939
 20
-441.3172030971
 30
0.0
 11
5820.7603807898
 21
-441.3172030971
 31
0.0
  0
LINE
  5
15E
  8
1
  6
CONTINUOUS
 62
     7
 10
5810.8628342939
 20
-438.3175450971
 30
0.0
 11
5814.3628342939
 21
-438.3175530971
 31
0.0
  0
LINE
  5
15F
  8
1
  6
CONTINUOUS
 62
     7
 10
5804.3628342939
 20
-438.3175530971
 30
0.0
 11
5799.3617692939
 21
-585.3167700971
 31
0.0
  0
LINE
  5
160
  8
1
  6
CONTINUOUS
 62
     7
 10
5836.2231552939
 20
-582.3172030971
 30
0.0
 11
5829.4638176574
 21
-582.3172030971
 31
0.0
  0
LINE
  5
161
  8
1
  6
CONTINUOUS
 62
     7
 10
5830.8628342939
 20
-438.3175450971
 30
0.0
 11
5834.3628342939
 21
-438.3175530971
 31
0.0
  0
LINE
  5
162
  8
1
  6
CONTINUOUS
 62
     7
 10
5834.3628342939
 20
-438.3175530971
 30
0.0
 11
5834.8911022939
 21
-441.3172030971
 31
0.0
  0
LINE
  5
163
  8
1
  6
CONTINUOUS
 62
     7
 10
5805.8617692939
 20
-585.3167780971
 30
0.0
 11
5810.8628342939
 21
-438.3175450971
 31
0.0
  0
LINE
  5
164
  8
1
  6
CONTINUOUS
 62
     7
 10
5710.8628342939
 20
-438.3175450971
 30
0.0
 11
5714.362834293901
 21
-438.3175530971
 31
0.0
  0
LINE
  5
165
  8
1
  6
CONTINUOUS
 62
     7
 10
5795.8617692939
 20
-585.3167780971
 30
0.0
 11
5800.8628342939
 21
-438.3175450971
 31
0.0
  0
LINE
  5
166
  8
1
  6
CONTINUOUS
 62
     7
 10
5756.0542972939
 20
-441.3172030971
 30
0.0
 11
5760.7603807898
 21
-441.3172030971
 31
0.0
  0
LINE
  5
167
  8
1
  6
CONTINUOUS
 62
     7
 10
5804.3628342939
 20
-438.3175530971
 30
0.0
 11
5804.8911022939
 21
-441.3172030971
 31
0.0
  0
ARC
  5
168
  8
1
  6
CONTINUOUS
 62
     7
 10
5727.223155293901
 20
-427.3172030971
 30
0.0
 40
3.000000000000114
 50
90.0
 51
180.0
  0
LINE
  5
169
  8
1
  6
CONTINUOUS
 62
     7
 10
5809.3617692939
 20
-585.3167700971
 30
0.0
 11
5805.8617692939
 21
-585.3167780971
 31
0.0
  0
LINE
  5
16A
  8
1
  6
CONTINUOUS
 62
     7
 10
5805.8617692939
 20
-585.3167780971
 30
0.0
 11
5805.3333132939
 21
-582.3172030971
 31
0.0
  0
LINE
  5
16B
  8
1
  6
CONTINUOUS
 62
     7
 10
5714.8911022939
 20
-441.3172030971
 30
0.0
 11
5720.7603807898
 21
-441.3172030971
 31
0.0
  0
LINE
  5
16C
  8
1
  6
CONTINUOUS
 62
     7
 10
5784.8911022939
 20
-441.3172030971
 30
0.0
 11
5790.7603807898
 21
-441.3172030971
 31
0.0
  0
ARC
  5
16D
  8
1
  6
CONTINUOUS
 62
     7
 10
5475.543094260301
 20
-449.927687279
 30
0.0
 40
0.720000000000276
 50
180.0000908811
 51
285.0
  0
LINE
  5
16E
  8
1
  6
CONTINUOUS
 62
     7
 10
5794.8911022939
 20
-441.3172030971
 30
0.0
 11
5800.7603807898
 21
-441.3172030971
 31
0.0
  0
LINE
  5
16F
  8
1
  6
CONTINUOUS
 62
     7
 10
5484.903050523602
 20
-422.3540089455
 30
0.0
 11
5474.823050417001
 21
-422.2868089448
 31
0.0
  0
LINE
  5
170
  8
1
  6
CONTINUOUS
 62
     7
 10
5764.362834293901
 20
-438.3175530971
 30
0.0
 11
5764.891102293901
 21
-441.3172030971
 31
0.0
  0
LINE
  5
171
  8
1
  6
CONTINUOUS
 62
     7
 10
5805.3332642939
 20
-582.3172030971
 30
0.0
 11
5799.4638176574
 21
-582.3172030971
 31
0.0
  0
LINE
  5
172
  8
1
  6
CONTINUOUS
 62
     7
 10
5785.8617692939
 20
-585.3167780971
 30
0.0
 11
5790.8628342939
 21
-438.3175450971
 31
0.0
  0
ARC
  5
173
  8
1
  6
CONTINUOUS
 62
     7
 10
5480.5830862066
 20
-579.3553869366
 30
0.0
 40
4.319999999999879
 50
0.0
 51
75.0
  0
LINE
  5
174
  8
1
  6
CONTINUOUS
 62
     7
 10
5724.2231552939
 20
-442.4232193165
 30
0.0
 11
5719.3617692939
 21
-585.3167700971
 31
0.0
  0
LINE
  5
175
  8
1
  6
CONTINUOUS
 62
     7
 10
5834.3628342939
 20
-438.3175530971
 30
0.0
 11
5829.3617692939
 21
-585.3167700971
 31
0.0
  0
LINE
  5
176
  8
1
  6
CONTINUOUS
 62
     7
 10
5714.362834293901
 20
-438.3175530971
 30
0.0
 11
5709.3617692939
 21
-585.3167700971
 31
0.0
  0
LINE
  5
177
  8
1
  6
CONTINUOUS
 62
     7
 10
5484.903050523602
 20
-601.8516092488
 30
0.0
 11
5474.823050417001
 21
-601.9188092495
 31
0.0
  0
LINE
  5
178
  8
1
  6
CONTINUOUS
 62
     7
 10
5799.3617692939
 20
-585.3167700971
 30
0.0
 11
5795.8617692939
 21
-585.3167780971
 31
0.0
  0
LINE
  5
179
  8
1
  6
CONTINUOUS
 62
     7
 10
5715.8617692939
 20
-585.3167780971
 30
0.0
 11
5720.862834293901
 21
-438.3175450971
 31
0.0
  0
LINE
  5
17A
  8
1
  6
CONTINUOUS
 62
     7
 10
5815.8617692939
 20
-585.3167780971
 30
0.0
 11
5820.8628342939
 21
-438.3175450971
 31
0.0
  0
LINE
  5
17B
  8
1
  6
CONTINUOUS
 62
     7
 10
5829.3617692939
 20
-585.3167700971
 30
0.0
 11
5825.8617692939
 21
-585.3167780971
 31
0.0
  0
LINE
  5
17C
  8
1
  6
CONTINUOUS
 62
     7
 10
5814.3628342939
 20
-438.3175530971
 30
0.0
 11
5809.3617692939
 21
-585.3167700971
 31
0.0
  0
LINE
  5
17D
  8
1
  6
CONTINUOUS
 62
     7
 10
5814.3628342939
 20
-438.3175530971
 30
0.0
 11
5814.8911022939
 21
-441.3172030971
 31
0.0
  0
LINE
  5
17E
  8
1
  6
CONTINUOUS
 62
     7
 10
5815.3332642939
 20
-582.3172030971
 30
0.0
 11
5809.4638176574
 21
-582.3172030971
 31
0.0
  0
LINE
  5
17F
  8
1
  6
CONTINUOUS
 62
     7
 10
5834.8911022939
 20
-441.3172030971
 30
0.0
 11
5836.2231552939
 21
-441.3172030971
 31
0.0
  0
LINE
  5
180
  8
1
  6
CONTINUOUS
 62
     7
 10
5724.2231552939
 20
-582.3172030971
 30
0.0
 11
5719.463817657401
 21
-582.3172030971
 31
0.0
  0
LINE
  5
181
  8
1
  6
CONTINUOUS
 62
     7
 10
5760.862834293901
 20
-438.3175450971
 30
0.0
 11
5764.362834293901
 21
-438.3175530971
 31
0.0
  0
ARC
  5
182
  8
1
  6
CONTINUOUS
 62
     7
 10
5480.5830862066
 20
-444.8502312577
 30
0.0
 40
4.319999999999879
 50
285.0
 51
0.0000908810999931
  0
ARC
  5
183
  8
1
  6
CONTINUOUS
 62
     7
 10
5475.543094260301
 20
-574.2779309153
 30
0.0
 40
0.720000000000276
 50
75.0
 51
179.9999091189
  0
LINE
  5
184
  8
1
  6
CONTINUOUS
 62
     7
 10
5484.903086206601
 20
-444.8502244054
 30
0.0
 11
5484.903040608102
 21
-416.1028090971
 31
0.0
  0
LINE
  5
185
  8
1
  6
CONTINUOUS
 62
     7
 10
5475.729443972802
 20
-450.6231538739
 30
0.0
 11
5481.701184481401
 21
-449.0230308272
 31
0.0
  0
LINE
  5
186
  8
1
  6
CONTINUOUS
 62
     7
 10
5764.362834293901
 20
-438.3175530971
 30
0.0
 11
5759.3617692939
 21
-585.3167700971
 31
0.0
  0
LINE
  5
187
  8
1
  6
CONTINUOUS
 62
     7
 10
5795.3332642939
 20
-582.3172030971
 30
0.0
 11
5789.4638176574
 21
-582.3172030971
 31
0.0
  0
LINE
  5
188
  8
1
  6
CONTINUOUS
 62
     7
 10
5759.3617692939
 20
-585.3167700971
 30
0.0
 11
5756.0542972939
 21
-585.3167776571
 31
0.0
  0
LINE
  5
189
  8
1
  6
CONTINUOUS
 62
     7
 10
5794.3628342939
 20
-438.3175530971
 30
0.0
 11
5794.8911022939
 21
-441.3172030971
 31
0.0
  0
LINE
  5
18A
  8
1
  6
CONTINUOUS
 62
     7
 10
5789.3617692939
 20
-585.3167700971
 30
0.0
 11
5785.8617692939
 21
-585.3167780971
 31
0.0
  0
LINE
  5
18B
  8
1
  6
CONTINUOUS
 62
     7
 10
5720.862834293901
 20
-438.3175450971
 30
0.0
 11
5724.362834293901
 21
-438.3175530971
 31
0.0
  0
LINE
  5
18C
  8
1
  6
CONTINUOUS
 62
     7
 10
5800.8628342939
 20
-438.3175450971
 30
0.0
 11
5804.3628342939
 21
-438.3175530971
 31
0.0
  0
LINE
  5
18D
  8
1
  6
CONTINUOUS
 62
     7
 10
5719.3617692939
 20
-585.3167700971
 30
0.0
 11
5715.8617692939
 21
-585.3167780971
 31
0.0
  0
LINE
  5
18E
  8
1
  6
CONTINUOUS
 62
     7
 10
5765.3332642939
 20
-582.3172030971
 30
0.0
 11
5759.463817657401
 21
-582.3172030971
 31
0.0
  0
LINE
  5
18F
  8
1
  6
CONTINUOUS
 62
     7
 10
5484.903086206601
 20
-579.3553937889
 30
0.0
 11
5484.903041514201
 21
-607.5315970971
 31
0.0
  0
LINE
  5
190
  8
1
  6
CONTINUOUS
 62
     7
 10
5785.8617692939
 20
-585.3167780971
 30
0.0
 11
5785.3333132939
 21
-582.3172030971
 31
0.0
  0
LINE
  5
191
  8
1
  6
CONTINUOUS
 62
     7
 10
5706.223155293901
 20
-574.6943477114
 30
0.0
 11
5710.8628342939
 21
-438.3175450971
 31
0.0
  0
LINE
  5
192
  8
1
  6
CONTINUOUS
 62
     7
 10
5474.823041514201
 20
-607.5315970971
 30
0.0
 11
5474.823094260301
 21
-574.2779297732
 31
0.0
  0
LINE
  5
193
  8
1
  6
CONTINUOUS
 62
     7
 10
5714.362834293901
 20
-438.3175530971
 30
0.0
 11
5714.8911022939
 21
-441.3172030971
 31
0.0
  0
LINE
  5
194
  8
1
  6
CONTINUOUS
 62
     7
 10
5756.0542972939
 20
-579.6576898167
 30
0.0
 11
5760.862834293901
 21
-438.3175450971
 31
0.0
  0
LINE
  5
195
  8
1
  6
CONTINUOUS
 62
     7
 10
5794.3628342939
 20
-438.3175530971
 30
0.0
 11
5789.3617692939
 21
-585.3167700971
 31
0.0
  0
LINE
  5
196
  8
1
  6
CONTINUOUS
 62
     7
 10
5764.891102293901
 20
-441.3172030971
 30
0.0
 11
5770.7603807898
 21
-441.3172030971
 31
0.0
  0
CIRCLE
  5
197
  8
1
  6
CONTINUOUS
 62
     7
 10
6034.6004422939
 20
-511.8061340971001
 30
0.0
 40
63.5
  0
LINE
  5
198
  8
1
  6
CONTINUOUS
 62
     7
 10
6086.3358612939
 20
-450.1502630971
 30
0.0
 11
6090.8443587459
 21
-444.7772454765
 31
0.0
  0
ARC
  5
199
  8
1
  6
CONTINUOUS
 62
     7
 10
6034.6004422939
 20
-511.8061340971001
 30
0.0
 40
79.0
 50
208.067685
 51
218.932315
  0
ARC
  5
19A
  8
1
  6
CONTINUOUS
 62
     7
 10
5963.5678562939
 20
-473.9297340971
 30
0.0
 40
1.5
 50
243.0000000000001
 51
331.932315
  0
ARC
  5
19B
  8
1
  6
CONTINUOUS
 62
     7
 10
5971.9803902939
 20
-562.3924860971
 30
0.0
 40
1.5
 50
310.0
 51
38.93231500000002
  0
ARC
  5
19C
  8
1
  6
CONTINUOUS
 62
     7
 10
5996.7240422939
 20
-440.7735480971
 30
0.0
 40
1.5
 50
298.067685
 51
27.0
  0
LINE
  5
19D
  8
1
  6
CONTINUOUS
 62
     7
 10
5972.9445712939
 20
-563.5415530971
 30
0.0
 11
5967.57155426
 21
-568.0500500568
 31
0.0
  0
LINE
  5
19E
  8
1
  6
CONTINUOUS
 62
     7
 10
5853.2231552939
 20
-584.3172030971
 30
0.0
 11
5850.2231552939
 21
-584.3172030971
 31
0.0
  0
LINE
  5
19F
  8
1
  6
CONTINUOUS
 62
     7
 10
5779.361769293901
 20
-585.3167700971
 30
0.0
 11
5775.861769293901
 21
-585.3167780971
 31
0.0
  0
LINE
  5
1A0
  8
1
  6
CONTINUOUS
 62
     7
 10
5774.362834293901
 20
-438.3175530971
 30
0.0
 11
5769.361769293901
 21
-585.3167700971
 31
0.0
  0
LINE
  5
1A1
  8
1
  6
CONTINUOUS
 62
     7
 10
5775.861769293901
 20
-585.3167780971
 30
0.0
 11
5780.8628342939
 21
-438.3175450971
 31
0.0
  0
ARC
  5
1A2
  8
1
  6
CONTINUOUS
 62
     7
 10
5849.7231552939
 20
-441.3172030971
 30
0.0
 40
0.5
 50
270.0
 51
0.0
  0
LINE
  5
1A3
  8
1
  6
CONTINUOUS
 62
     7
 10
6096.2563142939
 20
-460.0707150971
 30
0.0
 11
6101.6293314285
 21
-455.5622182576
 31
0.0
  0
LINE
  5
1A4
  8
1
  6
CONTINUOUS
 62
     7
 10
5775.861769293901
 20
-585.3167780971
 30
0.0
 11
5775.3333132939
 21
-582.3172030971
 31
0.0
  0
LINE
  5
1A5
  8
1
  6
CONTINUOUS
 62
     7
 10
5770.862834293901
 20
-438.3175450971
 30
0.0
 11
5774.362834293901
 21
-438.3175530971
 31
0.0
  0
ARC
  5
1A6
  8
1
  6
CONTINUOUS
 62
     7
 10
5984.0140902939
 20
-449.1860820971
 30
0.0
 40
1.5
 50
220.0
 51
308.9323150000001
  0
LINE
  5
1A7
  8
1
  6
CONTINUOUS
 62
     7
 10
5785.333264293901
 20
-582.3172030971
 30
0.0
 11
5779.4638176574
 21
-582.3172030971
 31
0.0
  0
LINE
  5
1A8
  8
1
  6
CONTINUOUS
 62
     7
 10
5765.8617692939
 20
-585.3167780971
 30
0.0
 11
5765.3333132939
 21
-582.3172030971
 31
0.0
  0
LINE
  5
1A9
  8
1
  6
CONTINUOUS
 62
     7
 10
5775.333264293901
 20
-582.3172030971
 30
0.0
 11
5769.463817657401
 21
-582.3172030971
 31
0.0
  0
ARC
  5
1AA
  8
1
  6
CONTINUOUS
 62
     7
 10
6097.2204952939
 20
-461.2197820971
 30
0.0
 40
1.5
 50
130.0
 51
218.932315
  0
LINE
  5
1AB
  8
1
  6
CONTINUOUS
 62
     7
 10
6112.5635132872
 20
-472.081965084
 30
0.0
 11
6106.3140152939
 21
-475.2662440971
 31
0.0
  0
LINE
  5
1AC
  8
1
  6
CONTINUOUS
 62
     7
 10
5774.362834293901
 20
-438.3175530971
 30
0.0
 11
5774.891102293901
 21
-441.3172030971
 31
0.0
  0
ARC
  5
1AD
  8
1
  6
CONTINUOUS
 62
     7
 10
5849.7231552939
 20
-582.3172030971
 30
0.0
 40
0.5
 50
0.0
 51
90.0
  0
LINE
  5
1AE
  8
1
  6
CONTINUOUS
 62
     7
 10
5972.9445712939
 20
-460.0707150971
 30
0.0
 11
5967.5715536337
 21
-455.5622188839
 31
0.0
  0
LINE
  5
1AF
  8
1
  6
CONTINUOUS
 62
     7
 10
6074.324611197
 20
-433.8430630477
 30
0.0
 11
6071.1403322939
 21
-440.0925620971
 31
0.0
  0
ARC
  5
1B0
  8
1
  6
CONTINUOUS
 62
     7
 10
6034.6004422939
 20
-511.8061340971001
 30
0.0
 40
79.0
 50
51.067685
 51
61.932315
  0
ARC
  5
1B1
  8
1
  6
CONTINUOUS
 62
     7
 10
6072.4768422939
 20
-440.7735480971
 30
0.0
 40
1.5
 50
153.0
 51
241.932315
  0
LINE
  5
1B2
  8
1
  6
CONTINUOUS
 62
     7
 10
5780.8628342939
 20
-438.3175450971
 30
0.0
 11
5784.3628342939
 21
-438.3175530971
 31
0.0
  0
LINE
  5
1B3
  8
1
  6
CONTINUOUS
 62
     7
 10
5982.8650242939
 20
-450.1502630971
 30
0.0
 11
5978.3565268418
 21
-444.7772454765
 31
0.0
  0
LINE
  5
1B4
  8
1
  6
CONTINUOUS
 62
     7
 10
5769.361769293901
 20
-585.3167700971
 30
0.0
 11
5765.8617692939
 21
-585.3167780971
 31
0.0
  0
LINE
  5
1B5
  8
1
  6
CONTINUOUS
 62
     7
 10
5784.3628342939
 20
-438.3175530971
 30
0.0
 11
5784.8911022939
 21
-441.3172030971
 31
0.0
  0
ARC
  5
1B6
  8
1
  6
CONTINUOUS
 62
     7
 10
5963.5678562939
 20
-549.6825340971
 30
0.0
 40
1.5
 50
28.067685
 51
117.0
  0
ARC
  5
1B7
  8
1
  6
CONTINUOUS
 62
     7
 10
6034.6004422939
 20
-511.8061340971001
 30
0.0
 40
79.0
 50
141.067685
 51
151.932315
  0
LINE
  5
1B8
  8
1
  6
CENTER
 62
     1
 10
6124.1004422939
 20
-511.8061340971001
 30
0.0
 11
5945.1004422939
 21
-511.8061340971001
 31
0.0
  0
LINE
  5
1B9
  8
1
  6
CONTINUOUS
 62
     7
 10
5774.891102293901
 20
-441.3172030971
 30
0.0
 11
5780.7603807898
 21
-441.3172030971
 31
0.0
  0
LINE
  5
1BA
  8
1
  6
CONTINUOUS
 62
     7
 10
5765.8617692939
 20
-585.3167780971
 30
0.0
 11
5770.862834293901
 21
-438.3175450971
 31
0.0
  0
ARC
  5
1BB
  8
1
  6
CONTINUOUS
 62
     7
 10
6034.6004422939
 20
-511.8061340971001
 30
0.0
 40
79.0
 50
28.067685
 51
38.932315
  0
LINE
  5
1BC
  8
1
  6
CONTINUOUS
 62
     7
 10
5994.8762735969
 20
-433.8430634523
 30
0.0
 11
5998.0605522939
 21
-440.0925620971
 31
0.0
  0
ARC
  5
1BD
  8
1
  6
CONTINUOUS
 62
     7
 10
5971.9803902939
 20
-461.2197820971
 30
0.0
 40
1.5
 50
321.0676849999999
 51
50.0
  0
ARC
  5
1BE
  8
1
  6
CONTINUOUS
 62
     7
 10
6085.1867942939
 20
-449.1860820971
 30
0.0
 40
1.5
 50
231.067685
 51
320.0
  0
LINE
  5
1BF
  8
1
  6
CONTINUOUS
 62
     7
 10
5850.2231552939
 20
-584.3172030971
 30
0.0
 11
5850.2231552939
 21
-439.3172030971
 31
0.0
  0
ARC
  5
1C0
  8
1
  6
CONTINUOUS
 62
     7
 10
6034.6004422939
 20
-511.8061340971001
 30
0.0
 40
79.0
 50
118.067685
 51
128.932315
  0
LINE
  5
1C1
  8
1
  6
CENTER
 62
     1
 10
6034.6004422939
 20
-422.3061340971
 30
0.0
 11
6034.6004422939
 21
-601.3061340971
 31
0.0
  0
LINE
  5
1C2
  8
1
  6
CONTINUOUS
 62
     7
 10
5784.3628342939
 20
-438.3175530971
 30
0.0
 11
5779.361769293901
 21
-585.3167700971
 31
0.0
  0
LINE
  5
1C3
  8
1
  6
CONTINUOUS
 62
     7
 10
5878.7231552939
 20
-568.0611190971
 30
0.0
 11
5881.2231552939
 21
-568.0611190971
 31
0.0
  0
ARC
  5
1C4
  8
1
  6
CONTINUOUS
 62
     7
 10
5881.454515727
 20
-474.1674199502
 30
0.0
 40
2.0501455262
 50
66.1397165617
 51
77.62228159959999
  0
LINE
  5
1C5
  8
1
  6
CONTINUOUS
 62
     7
 10
5447.223155288801
 20
-415.8172030971
 30
0.0
 11
5447.223155287701
 21
-607.8172030971
 31
0.0
  0
ARC
  5
1C6
  8
1
  6
CONTINUOUS
 62
     7
 10
6105.6330292939
 20
-473.9297340971
 30
0.0
 40
1.5
 50
208.067685
 51
297.0
  0
LINE
  5
1C7
  8
1
  6
CONTINUOUS
 62
     7
 10
5861.2231552939
 20
-420.0282780971
 30
0.0
 11
5861.2231552939
 21
-420.0160230971
 31
0.0
  0
LINE
  5
1C8
  8
1
  6
CONTINUOUS
 62
     7
 10
5602.223155293902
 20
-434.8172030971
 30
0.0
 11
5602.223155293902
 21
-588.817214199
 31
0.0
  0
LINE
  5
1C9
  8
1
  6
CONTINUOUS
 62
     7
 10
5878.7231552939
 20
-578.8460920971
 30
0.0
 11
5881.2231552939
 21
-578.8460920971
 31
0.0
  0
LINE
  5
1CA
  8
1
  6
CONTINUOUS
 62
     7
 10
5878.7231552939
 20
-589.7802740971
 30
0.0
 11
5878.7231552939
 21
-578.8460920971
 31
0.0
  0
LINE
  5
1CB
  8
1
  6
CONTINUOUS
 62
     7
 10
5849.7231552939
 20
-581.8172030971
 30
0.0
 11
5847.7231552939
 21
-581.8172030971
 31
0.0
  0
LINE
  5
1CC
  8
1
  6
CONTINUOUS
 62
     7
 10
5847.2231552939
 20
-584.3172030971
 30
0.0
 11
5847.2231552939
 21
-439.3172030971
 31
0.0
  0
ARC
  5
1CD
  8
1
  6
CONTINUOUS
 62
     7
 10
5881.454515727
 20
-549.466986244
 30
0.0
 40
2.0501455262
 50
282.3777184004
 51
293.8602834383
  0
ARC
  5
1CE
  8
1
  6
CONTINUOUS
 62
     7
 10
5847.7231552939
 20
-441.3172030971
 30
0.0
 40
0.5
 50
180.0
 51
270.0
  0
ARC
  5
1CF
  8
1
  6
CONTINUOUS
 62
     7
 10
5882.3004358034
 20
-550.8340233954
 30
0.0
 40
0.4235407415
 50
308.6210948563
 51
356.4313974408
  0
ARC
  5
1D0
  8
1
  6
CONTINUOUS
 62
     7
 10
5881.2336364781
 20
-548.4735924015
 30
0.0
 40
3.0677966002
 50
269.8042475223
 51
282.4301179892001
  0
ARC
  5
1D1
  8
1
  6
CONTINUOUS
 62
     7
 10
5847.7231552939
 20
-582.3172030971
 30
0.0
 40
0.5
 50
90.0
 51
180.0
  0
LINE
  5
1D2
  8
1
  6
CONTINUOUS
 62
     7
 10
5878.7231552939
 20
-455.5732880971
 30
0.0
 11
5881.2231552939
 21
-455.5732880971
 31
0.0
  0
ARC
  5
1D3
  8
1
  6
CONTINUOUS
 62
     7
 10
5881.2336364781
 20
-475.1608137927
 30
0.0
 40
3.0677966002
 50
77.5698820108
 51
90.19575247769997
  0
ARC
  5
1D4
  8
1
  6
CONTINUOUS
 62
     7
 10
5882.3004358035
 20
-472.8003827988
 30
0.0
 40
0.4235407414
 50
3.568602567
 51
51.3789051512
  0
LINE
  5
1D5
  8
1
  6
CONTINUOUS
 62
     7
 10
5882.7231552939
 20
-597.8172030971
 30
0.0
 11
5882.7231552939
 21
-425.8172030971
 31
0.0
  0
LINE
  5
1D6
  8
1
  6
CONTINUOUS
 62
     7
 10
5881.2231552939
 20
-472.0930350971
 30
0.0
 11
5878.7231552939
 21
-472.0930350971
 31
0.0
  0
LINE
  5
1D7
  8
1
  6
CONTINUOUS
 62
     7
 10
5447.223156716101
 20
-415.8172030971
 30
0.0
 11
5597.223155293902
 21
-415.8172030971
 31
0.0
  0
LINE
  5
1D8
  8
1
  6
CONTINUOUS
 62
     7
 10
5876.2231552939
 20
-599.3172030971
 30
0.0
 11
5876.2231552939
 21
-424.3300610971
 31
0.0
  0
LINE
  5
1D9
  8
1
  6
CONTINUOUS
 62
     7
 10
5850.2231552939
 20
-439.3172030971
 30
0.0
 11
5853.2231552939
 21
-439.3172030971
 31
0.0
  0
POINT
  5
1DA
  8
1
 62
     1
 10
5746.223155293901
 20
-511.8172030971
 30
0.0
  0
LINE
  5
1DB
  8
1
  6
CONTINUOUS
 62
     7
 10
5706.223155293901
 20
-581.7172030971
 30
0.0
 11
5700.2231552939
 21
-581.7172030971
 31
0.0
  0
LINE
  5
1DC
  8
1
  6
CONTINUOUS
 62
     7
 10
5700.2231552939
 20
-441.9172030971
 30
0.0
 11
5706.223155293901
 21
-441.9172030971
 31
0.0
  0
LINE
  5
1DD
  8
1
  6
CONTINUOUS
 62
     7
 10
5700.2231552939
 20
-434.8172030971
 30
0.0
 11
5602.223155293902
 21
-434.8172030971
 31
0.0
  0
LINE
  5
1DE
  8
1
  6
CONTINUOUS
 62
     7
 10
5700.2231552939
 20
-588.817214199
 30
0.0
 11
5602.223155293902
 21
-588.817214199
 31
0.0
  0
TEXT
  5
1DF
  8
1
  6
CONTINUOUS
 62
     7
 10
6064.750292536953
 20
-613.8810651426786
 30
0.0
 40
6.0
  1
KFEKH-130
 41
1.373232
  0
LINE
  5
1E0
  8
1
  6
CONTINUOUS
 62
     7
 10
5847.2231552939
 20
-584.3172030971
 30
0.0
 11
5844.2231552939
 21
-584.3172030971
 31
0.0
  0
ARC
  5
1E1
  8
1
  6
CONTINUOUS
 62
     7
 10
5841.7231552939
 20
-441.3172030971
 30
0.0
 40
0.5
 50
180.0
 51
270.0
  0
LINE
  5
1E2
  8
1
  6
CONTINUOUS
 62
     7
 10
5841.2231552939
 20
-585.3172030971
 30
0.0
 11
5841.2231552939
 21
-438.3172030971
 31
0.0
  0
LINE
  5
1E3
  8
1
  6
CONTINUOUS
 62
     7
 10
5838.2231552939
 20
-523.5566200971
 30
0.0
 11
5838.1069242939
 21
-523.5563900971
 31
0.0
  0
LINE
  5
1E4
  8
1
  6
CONTINUOUS
 62
     7
 10
5841.7231552939
 20
-441.8172030971
 30
0.0
 11
5843.7231552939
 21
-441.8172030971
 31
0.0
  0
LINE
  5
1E5
  8
1
  6
CONTINUOUS
 62
     7
 10
5709.361935293901
 20
-585.3160410971
 30
0.0
 11
5706.223155293901
 21
-585.3160480971
 31
0.0
  0
LINE
  5
1E6
  8
1
  6
CONTINUOUS
 62
     7
 10
5948.3004422939
 20
-513.3061340971
 30
0.0
 11
5948.3004422939
 21
-510.3061340971
 31
0.0
  0
LINE
  5
1E7
  8
1
  6
CONTINUOUS
 62
     7
 10
5948.3004422939
 20
-510.3061340971
 30
0.0
 11
5947.1133003815
 21
-510.3061340971
 31
0.0
  0
LINE
  5
1E8
  8
1
  6
CONTINUOUS
 62
     7
 10
5700.2231552939
 20
-588.8172030971
 30
0.0
 11
5700.2231552939
 21
-434.8172030971
 31
0.0
  0
LINE
  5
1E9
  8
1
  6
CONTINUOUS
 62
     7
 10
5844.2231552939
 20
-584.3172030971
 30
0.0
 11
5844.2231552939
 21
-439.3172030971
 31
0.0
  0
ARC
  5
1EA
  8
1
  6
CONTINUOUS
 62
     7
 10
5881.386419498
 20
-588.3755709834
 30
0.0
 40
1.353511195
 50
311.5300935766
 51
330.5292760986001
  0
LINE
  5
1EB
  8
1
  6
CONTINUOUS
 62
     7
 10
5859.2231552939
 20
-584.3172030971
 30
0.0
 11
5859.2231552939
 21
-439.3172030971
 31
0.0
  0
ARC
  5
1EC
  8
1
  6
CONTINUOUS
 62
     7
 10
5881.2259348927
 20
-435.5060894349
 30
0.0
 40
1.6519601763
 50
66.1469177938
 51
90.09640629069997
  0
ARC
  5
1ED
  8
1
  6
CONTINUOUS
 62
     7
 10
6085.1867942939
 20
-574.4261870971
 30
0.0
 40
1.5
 50
40.0
 51
128.932315
  0
LINE
  5
1EE
  8
1
  6
CONTINUOUS
 62
     7
 10
5844.2231552939
 20
-439.3172030971
 30
0.0
 11
5847.2231552939
 21
-439.3172030971
 31
0.0
  0
LINE
  5
1EF
  8
1
  6
CONTINUOUS
 62
     7
 10
5843.7231552939
 20
-581.8172030971
 30
0.0
 11
5841.7231552939
 21
-581.8172030971
 31
0.0
  0
ARC
  5
1F0
  8
1
  6
CONTINUOUS
 62
     7
 10
5859.7231552939
 20
-441.3172030971
 30
0.0
 40
0.5
 50
180.0
 51
270.0
  0
LINE
  5
1F1
  8
1
  6
CONTINUOUS
 62
     7
 10
5855.7231552939
 20
-581.8172030971
 30
0.0
 11
5853.7231552939
 21
-581.8172030971
 31
0.0
  0
ARC
  5
1F2
  8
1
  6
CONTINUOUS
 62
     7
 10
5874.2231552939
 20
-439.8172030971
 30
0.0
 40
2.0
 50
270.0
 51
0.0
  0
ARC
  5
1F3
  8
1
  6
CONTINUOUS
 62
     7
 10
5881.2231552939
 20
-425.8172030971
 30
0.0
 40
1.5
 50
0.0
 51
11.537021
  0
ARC
  5
1F4
  8
1
  6
CONTINUOUS
 62
     7
 10
5859.7231552939
 20
-582.3172030971
 30
0.0
 40
0.5
 50
90.0
 51
180.0
  0
LINE
  5
1F5
  8
1
  6
CONTINUOUS
 62
     7
 10
6071.1403319376
 20
-583.5197062786
 30
0.0
 11
6074.3246112939
 21
-589.7692050971
 31
0.0
  0
ARC
  5
1F6
  8
1
  6
CONTINUOUS
 62
     7
 10
5881.2231552939
 20
-597.8172030971
 30
0.0
 40
1.5
 50
270.0
 51
0.0
  0
ARC
  5
1F7
  8
1
  6
CONTINUOUS
 62
     7
 10
6072.4768422939
 20
-582.8387210971
 30
0.0
 40
1.5
 50
118.067685
 51
207.0
  0
LINE
  5
1F8
  8
1
  6
CONTINUOUS
 62
     7
 10
5841.2231552939
 20
-585.3172030971
 30
0.0
 11
5836.2231552939
 21
-585.3172030971
 31
0.0
  0
ARC
  5
1F9
  8
1
  6
CONTINUOUS
 62
     7
 10
5881.2836741614
 20
-588.2601521737
 30
0.0
 40
1.5080361706
 50
293.8722993589
 51
311.5449767848
  0
LINE
  5
1FA
  8
1
  6
CONTINUOUS
 62
     7
 10
5948.3004422939
 20
-513.3061340971
 30
0.0
 11
5947.1133003815
 21
-513.3061340971
 31
0.0
  0
ARC
  5
1FB
  8
1
  6
CONTINUOUS
 62
     7
 10
5841.7231552939
 20
-582.3172030971
 30
0.0
 40
0.5
 50
90.0
 51
180.0
  0
ARC
  5
1FC
  8
1
  6
CONTINUOUS
 62
     7
 10
5881.2227912939
 20
-425.8304640971
 30
0.0
 40
1.500402
 50
12.051115
 51
89.986128
  0
ARC
  5
1FD
  8
1
  6
CONTINUOUS
 62
     7
 10
6034.6004422939
 20
-511.8061340971001
 30
0.0
 40
87.5
 50
180.982261
 51
179.017739
  0
ARC
  5
1FE
  8
1
  6
CONTINUOUS
 62
     7
 10
5881.2259348927
 20
-588.1283167593
 30
0.0
 40
1.6519601763
 50
269.9035937094
 51
293.8530822061
  0
LINE
  5
1FF
  8
1
  6
CONTINUOUS
 62
     7
 10
5962.8868693547
 20
-475.2662459403
 30
0.0
 11
5956.6373722939
 21
-472.0819650971
 31
0.0
  0
ARC
  5
200
  8
1
  6
CONTINUOUS
 62
     7
 10
5984.0140902939
 20
-574.4261870971
 30
0.0
 40
1.5
 50
51.067685
 51
140.0
  0
LINE
  5
201
  8
1
  6
CONTINUOUS
 62
     7
 10
5998.0605497318
 20
-583.5197047917
 30
0.0
 11
5994.8762742939
 21
-589.7692050971
 31
0.0
  0
ARC
  5
202
  8
1
  6
CONTINUOUS
 62
     7
 10
6034.6004422939
 20
-511.8061340971001
 30
0.0
 40
79.0
 50
231.067685
 51
241.932315
  0
LINE
  5
203
  8
1
  6
CONTINUOUS
 62
     7
 10
6096.2563142939
 20
-563.5415530971
 30
0.0
 11
6101.6293308021
 21
-568.0500506832
 31
0.0
  0
ARC
  5
204
  8
1
  6
CONTINUOUS
 62
     7
 10
6097.2204952939
 20
-562.3924860971
 30
0.0
 40
1.5
 50
141.067685
 51
230.0
  0
ARC
  5
205
  8
1
  6
CONTINUOUS
 62
     7
 10
5843.7231552939
 20
-441.3172030971
 30
0.0
 40
0.5
 50
270.0
 51
0.0
  0
LINE
  5
206
  8
1
  6
CONTINUOUS
 62
     7
 10
5727.223155293901
 20
-515.6125030971
 30
0.0
 11
5727.223155293901
 21
-515.6051890971
 31
0.0
  0
ARC
  5
207
  8
1
  6
CONTINUOUS
 62
     7
 10
5881.3442031856
 20
-446.3660017513
 30
0.0
 40
1.5566895635
 50
52.8720896763
 51
69.3188102056
  0
LINE
  5
208
  8
1
  6
CONTINUOUS
 62
     7
 10
5856.2231552939
 20
-584.3172030971
 30
0.0
 11
5856.2231552939
 21
-439.3172030971
 31
0.0
  0
LINE
  5
209
  8
1
  6
CONTINUOUS
 62
     7
 10
5853.7231552939
 20
-441.8172030971
 30
0.0
 11
5855.7231552939
 21
-441.8172030971
 31
0.0
  0
ARC
  5
20A
  8
1
  6
CONTINUOUS
 62
     7
 10
5855.7231552939
 20
-582.3172030971
 30
0.0
 40
0.5
 50
0.0
 51
90.0
  0
ARC
  5
20B
  8
1
  6
CONTINUOUS
 62
     7
 10
5996.7240422939
 20
-582.8387210971
 30
0.0
 40
1.5
 50
333.0
 51
61.93231500000002
  0
ARC
  5
20C
  8
1
  6
CONTINUOUS
 62
     7
 10
6034.6004422939
 20
-511.8061340971001
 30
0.0
 40
79.0
 50
298.067685
 51
308.9323150000001
  0
ARC
  5
20D
  8
1
  6
CONTINUOUS
 62
     7
 10
5881.2286868874
 20
-446.6731319409
 30
0.0
 40
1.8848249609
 50
69.3308491315
 51
90.1681521752
  0
LINE
  5
20E
  8
1
  6
CONTINUOUS
 62
     7
 10
5982.8650242939
 20
-573.4620050971
 30
0.0
 11
5978.3565268418
 21
-578.8350227178
 31
0.0
  0
LINE
  5
20F
  8
1
  6
CONTINUOUS
 62
     7
 10
6086.3358612939
 20
-573.4620050971
 30
0.0
 11
6090.8443587459
 21
-578.8350227178
 31
0.0
  0
ARC
  5
210
  8
1
  6
CONTINUOUS
 62
     7
 10
6034.6004422939
 20
-511.8061340971001
 30
0.0
 40
79.0
 50
321.0676849999999
 51
331.932315
  0
LINE
  5
211
  8
1
  6
CONTINUOUS
 62
     7
 10
6112.5635132872
 20
-551.5303031103
 30
0.0
 11
6106.3140152939
 21
-548.3460240971
 31
0.0
  0
LINE
  5
212
  8
1
  6
CONTINUOUS
 62
     7
 10
5859.2231552939
 20
-584.3172030971
 30
0.0
 11
5856.2231552939
 21
-584.3172030971
 31
0.0
  0
ARC
  5
213
  8
1
  6
CONTINUOUS
 62
     7
 10
5881.5040340999
 20
-588.4405949428
 30
0.0
 40
1.2191253131
 50
330.4703619161999
 51
359.8510576652
  0
ARC
  5
214
  8
1
  6
CONTINUOUS
 62
     7
 10
6105.6330292939
 20
-549.6825340971
 30
0.0
 40
1.5
 50
62.99999999999999
 51
151.932315
  0
ARC
  5
215
  8
1
  6
CONTINUOUS
 62
     7
 10
5881.3864194977
 20
-435.2588352108
 30
0.0
 40
1.3535111952
 50
29.4707238932
 51
48.46990641549999
  0
ARC
  5
216
  8
1
  6
CONTINUOUS
 62
     7
 10
5853.7231552939
 20
-582.3172030971
 30
0.0
 40
0.5
 50
90.0
 51
180.0
  0
LINE
  5
217
  8
1
  6
CONTINUOUS
 62
     7
 10
5962.8868693547
 20
-548.3460222539
 30
0.0
 11
5956.6373722939
 21
-551.5303030971
 31
0.0
  0
ARC
  5
218
  8
1
  6
CONTINUOUS
 62
     7
 10
5843.7231552939
 20
-582.3172030971
 30
0.0
 40
0.5
 50
0.0
 51
90.0
  0
LINE
  5
219
  8
1
  6
CONTINUOUS
 62
     7
 10
5836.2231552939
 20
-438.3172030971
 30
0.0
 11
5841.2231552939
 21
-438.3172030971
 31
0.0
  0
ARC
  5
21A
  8
1
  6
CONTINUOUS
 62
     7
 10
5881.2836741614
 20
-435.3742540205
 30
0.0
 40
1.5080361706
 50
48.45502321520001
 51
66.1277006411
  0
LINE
  5
21B
  8
1
  6
CONTINUOUS
 62
     7
 10
5706.223155293901
 20
-441.3172030971
 30
0.0
 11
5706.223155293901
 21
-585.3160480971
 31
0.0
  0
ARC
  5
21C
  8
1
  6
CONTINUOUS
 62
     7
 10
5874.2231552939
 20
-583.8172030971
 30
0.0
 40
2.0
 50
0.0
 51
90.0
  0
LINE
  5
21D
  8
1
  6
CONTINUOUS
 62
     7
 10
5847.7231552939
 20
-441.8172030971
 30
0.0
 11
5849.7231552939
 21
-441.8172030971
 31
0.0
  0
LINE
  5
21E
  8
1
  6
CONTINUOUS
 62
     7
 10
5751.223155293901
 20
-508.5029650971
 30
0.0
 11
5751.223155293901
 21
-452.3332790971
 31
0.0
  0
ARC
  5
21F
  8
1
  6
CONTINUOUS
 62
     7
 10
5882.0216392486
 20
-456.5504284593
 30
0.0
 40
0.7016357366
 50
1.0583254874
 51
39.27383505820001
  0
ARC
  5
220
  8
1
  6
CONTINUOUS
 62
     7
 10
5881.2309624441
 20
-457.7831353213
 30
0.0
 40
2.2098620151
 50
72.5409118397
 51
90.20241883150001
  0
ARC
  5
221
  8
1
  6
CONTINUOUS
 62
     7
 10
5881.6865108555
 20
-456.808272262
 30
0.0
 40
1.1243606092
 50
38.6347506286
 51
57.9107683201
  0
LINE
  5
222
  8
1
  6
CONTINUOUS
 62
     7
 10
5751.223155293901
 20
-571.3011280971
 30
0.0
 11
5751.223155293901
 21
-515.1314420971
 31
0.0
  0
LINE
  5
223
  8
1
  6
CONTINUOUS
 62
     7
 10
5751.223155293901
 20
-599.2544140971
 30
0.0
 11
5751.223155293901
 21
-575.9881680971
 31
0.0
  0
ARC
  5
224
  8
1
  6
CONTINUOUS
 62
     7
 10
5881.344203186
 20
-577.268404443
 30
0.0
 40
1.5566895634
 50
290.6811897831
 51
307.1279103124
  0
LINE
  5
225
  8
1
  6
CONTINUOUS
 62
     7
 10
5853.2231552939
 20
-584.3172030971
 30
0.0
 11
5853.2231552939
 21
-439.3172030971
 31
0.0
  0
ARC
  5
226
  8
1
  6
CONTINUOUS
 62
     7
 10
5881.2309624441
 20
-565.8512718729
 30
0.0
 40
2.2098620151
 50
269.7975811685
 51
287.4590881603
  0
ARC
  5
227
  8
1
  6
CONTINUOUS
 62
     7
 10
5882.0216392484
 20
-567.083978735
 30
0.0
 40
0.7016357368
 50
320.7261649458
 51
358.9416745172
  0
LINE
  5
228
  8
1
  6
CONTINUOUS
 62
     7
 10
5597.223155293902
 20
-607.8172030971
 30
0.0
 11
5602.223155293902
 21
-588.817214199
 31
0.0
  0
ARC
  5
229
  8
1
  6
CONTINUOUS
 62
     7
 10
5881.7858831816
 20
-577.6895299572
 30
0.0
 40
0.9373020802
 50
326.2032337257
 51
359.5418291854
  0
LINE
  5
22A
  8
1
  6
CONTINUOUS
 62
     7
 10
5878.7231552939
 20
-551.5413720971
 30
0.0
 11
5878.7231552939
 21
-568.0611190971
 31
0.0
  0
LINE
  5
22B
  8
1
  6
CONTINUOUS
 62
     7
 10
5878.7231552939
 20
-472.0930350971
 30
0.0
 11
5878.7231552939
 21
-455.5732880971
 31
0.0
  0
LINE
  5
22C
  8
1
  6
CONTINUOUS
 62
     7
 10
5597.223155293902
 20
-415.8172030971
 30
0.0
 11
5602.223155293902
 21
-434.8172030971
 31
0.0
  0
ARC
  5
22D
  8
1
  6
CONTINUOUS
 62
     7
 10
5881.5499662869
 20
-577.5375674402
 30
0.0
 40
1.2178917572
 50
307.0532481638
 51
326.435881876
  0
ARC
  5
22E
  8
1
  6
CONTINUOUS
 62
     7
 10
5881.8480397632
 20
-550.3385376497
 30
0.0
 40
1.0939227525
 50
293.4757303691
 51
310.9360737188
  0
ARC
  5
22F
  8
1
  6
CONTINUOUS
 62
     7
 10
5881.7858831818
 20
-445.944876237
 30
0.0
 40
0.93730208
 50
0.4581708177
 51
33.7967662775
  0
ARC
  5
230
  8
1
  6
CONTINUOUS
 62
     7
 10
5881.5499662869
 20
-446.0968387541
 30
0.0
 40
1.2178917572
 50
33.5641181241
 51
52.94675183619997
  0
ARC
  5
231
  8
1
  6
CONTINUOUS
 62
     7
 10
5881.3946991815
 20
-457.26377233
 30
0.0
 40
1.6653003083
 50
57.73015058179998
 51
72.55370664639999
  0
LINE
  5
232
  8
1
  6
CONTINUOUS
 62
     7
 10
5706.223155293901
 20
-441.3172030971
 30
0.0
 11
5710.760380789801
 21
-441.3172030971
 31
0.0
  0
LINE
  5
233
  8
1
  6
CONTINUOUS
 62
     7
 10
5881.2231552939
 20
-551.5413720971
 30
0.0
 11
5878.7231552939
 21
-551.5413720971
 31
0.0
  0
LINE
  5
234
  8
1
  6
CONTINUOUS
 62
     7
 10
5881.2231552939
 20
-589.7802740971
 30
0.0
 11
5878.7231552939
 21
-589.7802740971
 31
0.0
  0
ARC
  5
235
  8
1
  6
CONTINUOUS
 62
     7
 10
5881.6865108555
 20
-566.8261349323
 30
0.0
 40
1.1243606092
 50
302.0892316799
 51
321.3652493715
  0
ARC
  5
236
  8
1
  6
CONTINUOUS
 62
     7
 10
5881.3946991818
 20
-566.3706348643
 30
0.0
 40
1.6653003082
 50
287.4462933416
 51
302.2698494059
  0
ARC
  5
237
  8
1
  6
CONTINUOUS
 62
     7
 10
5853.7231552939
 20
-441.3172030971
 30
0.0
 40
0.5
 50
180.0
 51
270.0
  0
LINE
  5
238
  8
1
  6
CONTINUOUS
 62
     7
 10
5447.223155287701
 20
-607.8172030971
 30
0.0
 11
5597.223155293902
 21
-607.8172030971
 31
0.0
  0
LINE
  5
239
  8
1
  6
CONTINUOUS
 62
     7
 10
5881.2231552939
 20
-433.8541330971
 30
0.0
 11
5878.7231552939
 21
-433.8541330971
 31
0.0
  0
ARC
  5
23A
  8
1
  6
CONTINUOUS
 62
     7
 10
5881.8480397629
 20
-473.2958685446
 30
0.0
 40
1.0939227527
 50
49.0639262667
 51
66.5242696163
  0
ARC
  5
23B
  8
1
  6
CONTINUOUS
 62
     7
 10
5881.2286868874
 20
-576.9612742533
 30
0.0
 40
1.8848249609
 50
269.8318478249
 51
290.6691508685
  0
ARC
  5
23C
  8
1
  6
CONTINUOUS
 62
     7
 10
5855.7231552939
 20
-441.3172030971
 30
0.0
 40
0.5
 50
270.0
 51
0.0
  0
LINE
  5
23D
  8
1
  6
CONTINUOUS
 62
     7
 10
5597.223155293902
 20
-607.8172030971
 30
0.0
 11
5597.223155293902
 21
-415.8172030971
 31
0.0
  0
LINE
  5
23E
  8
1
  6
CONTINUOUS
 62
     7
 10
5874.2231552939
 20
-581.8172030971
 30
0.0
 11
5859.7231552939
 21
-581.8172030971
 31
0.0
  0
LINE
  5
23F
  8
1
  6
CONTINUOUS
 62
     7
 10
5878.7231552939
 20
-433.8541330971
 30
0.0
 11
5878.7231552939
 21
-444.7883150971
 31
0.0
  0
LINE
  5
240
  8
1
  6
CONTINUOUS
 62
     7
 10
5876.2231552939
 20
-424.3300610971
 30
0.0
 11
5881.2231552939
 21
-424.3300610971
 31
0.0
  0
LINE
  5
241
  8
1
  6
CONTINUOUS
 62
     7
 10
5881.2231552939
 20
-599.3172030971
 30
0.0
 11
5876.2231552939
 21
-599.3172030971
 31
0.0
  0
ARC
  5
242
  8
1
  6
CONTINUOUS
 62
     7
 10
5881.5040341001
 20
-435.1938112514
 30
0.0
 40
1.2191253129
 50
0.1489423371
 51
29.5296380862
  0
LINE
  5
243
  8
1
  6
CONTINUOUS
 62
     7
 10
5756.0542972939
 20
-599.3172030971
 30
0.0
 11
5756.0542972939
 21
-424.3172030971
 31
0.0
  0
LINE
  5
244
  8
1
  6
CONTINUOUS
 62
     7
 10
5878.7231552939
 20
-444.7883150971
 30
0.0
 11
5881.2231552939
 21
-444.7883150971
 31
0.0
  0
LINE
  5
245
  8
1
  6
CONTINUOUS
 62
     7
 10
5856.2231552939
 20
-439.3172030971
 30
0.0
 11
5859.2231552939
 21
-439.3172030971
 31
0.0
  0
LINE
  5
246
  8
1
  6
CONTINUOUS
 62
     7
 10
5859.7231552939
 20
-441.8172030971
 30
0.0
 11
5874.2231552939
 21
-441.8172030971
 31
0.0
  0
LINE
  5
247
  8
1
  6
CONTINUOUS
 62
     7
 10
5882.6901282939
 20
-425.5172030971
 30
0.0
 11
5882.6928492939
 21
-425.5172030971
 31
0.0
  0
LINE
  5
248
  8
1
  6
CONTINUOUS
 62
     7
 10
5751.223155293901
 20
-447.6462380971
 30
0.0
 11
5751.223155293901
 21
-424.3799930971
 31
0.0
  0
LINE
  5
249
  8
1
  6
CONTINUOUS
 62
     7
 10
5727.223155293901
 20
-508.0292180971
 30
0.0
 11
5727.223155293901
 21
-508.0219030971002
 31
0.0
  0
ENDSEC
  0
EOF
