  0
SECTION
  2
HEADER
  9
$ACADVER
  1
AC1006
  9
$DWGCODEPAGE
  3
ansi_932
  9
$INSBASE
 10
0.0
 20
0.0
 30
0.0
  9
$EXTMIN
 10
-32.50000000000001
 20
-0.0000000000000017
  9
$EXTMAX
 10
664.9925625598
 20
859.2499755116
  9
$LIMMIN
 10
0.0
 20
0.0
  9
$LIMMAX
 10
12.0
 20
9.0
  9
$ORTHOMODE
 70
     0
  9
$REGENMODE
 70
     1
  9
$FILLMODE
 70
     1
  9
$QTEXTMODE
 70
     0
  9
$MIRRTEXT
 70
     1
  9
$DRAGMODE
 70
     2
  9
$LTSCALE
 40
1.0
  9
$OSMODE
 70
    37
  9
$ATTMODE
 70
     1
  9
$TEXTSIZE
 40
0.2
  9
$TRACEWID
 40
0.05
  9
$TEXTSTYLE
  7
STANDARD
  9
$CLAYER
  8
0
  9
$CELTYPE
  6
BYLAYER
  9
$CECOLOR
 62
   256
  9
$DIMSCALE
 40
1.0
  9
$DIMASZ
 40
3.0
  9
$DIMEXO
 40
0.0625
  9
$DIMDLI
 40
0.38
  9
$DIMRND
 40
0.0
  9
$DIMDLE
 40
0.0
  9
$DIMEXE
 40
1.5
  9
$DIMTP
 40
0.0
  9
$DIMTM
 40
0.0
  9
$DIMTXT
 40
3.5
  9
$DIMCEN
 40
0.09
  9
$DIMTSZ
 40
0.0
  9
$DIMTOL
 70
     0
  9
$DIMLIM
 70
     0
  9
$DIMTIH
 70
     1
  9
$DIMTOH
 70
     1
  9
$DIMSE1
 70
     0
  9
$DIMSE2
 70
     0
  9
$DIMTAD
 70
     1
  9
$DIMZIN
 70
     0
  9
$DIMBLK
  1

  9
$DIMASO
 70
     1
  9
$DIMSHO
 70
     1
  9
$DIMPOST
  1

  9
$DIMAPOST
  1

  9
$DIMALT
 70
     0
  9
$DIMALTD
 70
     2
  9
$DIMALTF
 40
25.4
  9
$DIMLFAC
 40
1.0
  9
$DIMTOFL
 70
     0
  9
$DIMTVP
 40
0.0
  9
$DIMTIX
 70
     0
  9
$DIMSOXD
 70
     0
  9
$DIMSAH
 70
     0
  9
$DIMBLK1
  1

  9
$DIMBLK2
  1

  9
$LUNITS
 70
     2
  9
$LUPREC
 70
     4
  9
$SKETCHINC
 40
0.1
  9
$FILLETRAD
 40
0.5
  9
$AUNITS
 70
     0
  9
$AUPREC
 70
     0
  9
$MENU
  1
.
  9
$ELEVATION
 40
0.0
  9
$THICKNESS
 40
0.0
  9
$LIMCHECK
 70
     0
  9
$CHAMFERA
 40
0.0
  9
$CHAMFERB
 40
0.0
  9
$SKPOLY
 70
     0
  9
$TDCREATE
 40
2460027.6947125
  9
$TDUPDATE
 40
2460027.694712894
  9
$TDINDWG
 40
0.0000000116
  9
$TDUSRTIMER
 40
0.0000000116
  9
$USRTIMER
 70
     1
  9
$ANGBASE
 50
0.0
  9
$ANGDIR
 70
     0
  9
$PDMODE
 70
     0
  9
$PDSIZE
 40
0.0
  9
$PLINEWID
 40
0.0
  9
$COORDS
 70
     1
  9
$SPLFRAME
 70
     0
  9
$SPLINETYPE
 70
     6
  9
$SPLINESEGS
 70
     8
  9
$ATTDIA
 70
     0
  9
$ATTREQ
 70
     1
  9
$HANDLING
 70
     1
  9
$HANDSEED
  5
2CC
  9
$SURFTAB1
 70
     6
  9
$SURFTAB2
 70
     6
  9
$SURFTYPE
 70
     6
  9
$SURFU
 70
     6
  9
$SURFV
 70
     6
  9
$UCSNAME
  2

  9
$UCSORG
 10
0.0
 20
0.0
 30
0.0
  9
$UCSXDIR
 10
1.0
 20
0.0
 30
0.0
  9
$UCSYDIR
 10
0.0
 20
1.0
 30
0.0
  9
$USERI1
 70
     0
  9
$USERI2
 70
     0
  9
$USERI3
 70
     0
  9
$USERI4
 70
     0
  9
$USERI5
 70
     0
  9
$USERR1
 40
0.0
  9
$USERR2
 40
0.0
  9
$USERR3
 40
0.0
  9
$USERR4
 40
0.0
  9
$USERR5
 40
0.0
  9
$WORLDVIEW
 70
     1
  0
ENDSEC
  0
SECTION
  2
TABLES
  0
TABLE
  2
VPORT
 70
     1
  0
VPORT
  2
*ACTIVE
 70
     0
 10
0.0
 20
0.0
 11
1.0
 21
1.0
 12
316.2462812799
 22
429.6249877558
 13
0.0
 23
0.0
 14
0.5
 24
0.5
 15
0.5
 25
0.5
 16
0.0
 26
0.0
 36
1.0
 17
0.0
 27
0.0
 37
0.0
 40
859.2499755116
 41
1.6
 42
50.0
 43
0.0
 44
0.0
 50
0.0
 51
0.0
 71
     0
 72
   100
 73
     1
 74
     3
 75
     0
 76
     0
 77
     0
 78
     0
  0
ENDTAB
  0
TABLE
  2
LTYPE
 70
     2
  0
LTYPE
  2
CONTINUOUS
 70
     0
  3
Solid line
 72
    65
 73
     0
 40
0.0
  0
LTYPE
  2
CENTER
 70
     0
  3

 72
    65
 73
     0
 40
0.0
  0
ENDTAB
  0
TABLE
  2
LAYER
 70
     2
  0
LAYER
  2
0
 70
     0
 62
     7
  6
CONTINUOUS
  0
LAYER
  2
1
 70
     0
 62
     7
  6
CONTINUOUS
  0
ENDTAB
  0
TABLE
  2
STYLE
 70
     2
  0
STYLE
  2
STANDARD
 70
     0
 40
0.0
 41
1.0
 50
0.0
 71
     0
 42
0.2
  3
txt
  4

  0
STYLE
  2
ＭＳ_ゴシック
 70
     0
 40
0.0
 41
1.0
 50
0.0
 71
     0
 42
0.2
  3
ＭＳ ゴシック.shx
  4

  0
ENDTAB
  0
TABLE
  2
VIEW
 70
     0
  0
ENDTAB
  0
TABLE
  2
UCS
 70
     0
  0
ENDTAB
  0
ENDSEC
  0
SECTION
  2
BLOCKS
  0
BLOCK
  8
0
  2
D_FRAME_DRAWING_21
 70
     0
 10
0.0
 20
0.0
 30
0.0
  0
LINE
  5
72
  8
0
  6
CONTINUOUS
 62
     7
 10
0.0
 20
0.0
 30
0.0
 11
420.0
 21
0.0
 31
0.0
  0
LINE
  5
73
  8
0
  6
CONTINUOUS
 62
     7
 10
420.0
 20
0.0
 30
0.0
 11
420.0
 21
297.0
 31
0.0
  0
LINE
  5
74
  8
0
  6
CONTINUOUS
 62
     7
 10
420.0
 20
297.0
 30
0.0
 11
0.0
 21
297.0
 31
0.0
  0
LINE
  5
75
  8
0
  6
CONTINUOUS
 62
     7
 10
0.0
 20
297.0
 30
0.0
 11
0.0
 21
0.0
 31
0.0
  0
LINE
  5
76
  8
0
  6
CONTINUOUS
 62
     7
 10
10.0
 20
10.0
 30
0.0
 11
409.9999999999999
 21
10.0
 31
0.0
  0
LINE
  5
77
  8
0
  6
CONTINUOUS
 62
     7
 10
409.9999999999999
 20
10.0
 30
0.0
 11
409.9999999999999
 21
286.9999999999999
 31
0.0
  0
LINE
  5
78
  8
0
  6
CONTINUOUS
 62
     7
 10
409.9999999999999
 20
286.9999999999999
 30
0.0
 11
10.00000000000006
 21
286.9999999999999
 31
0.0
  0
LINE
  5
79
  8
0
  6
CONTINUOUS
 62
     7
 10
10.0
 20
286.9999999999999
 30
0.0
 11
10.0
 21
10.00000000000001
 31
0.0
  0
LINE
  5
7A
  8
0
  6
CONTINUOUS
 62
     7
 10
210.0
 20
0.0
 30
0.0
 11
210.0
 21
10.0
 31
0.0
  0
LINE
  5
7B
  8
0
  6
CONTINUOUS
 62
     7
 10
420.0
 20
148.5
 30
0.0
 11
409.9999999999999
 21
148.5
 31
0.0
  0
LINE
  5
7C
  8
0
  6
CONTINUOUS
 62
     7
 10
210.0
 20
297.0
 30
0.0
 11
210.0
 21
286.9999999999999
 31
0.0
  0
LINE
  5
7D
  8
0
  6
CONTINUOUS
 62
     7
 10
0.0
 20
148.5
 30
0.0
 11
10.0
 21
148.5
 31
0.0
  0
POLYLINE
  5
7E
  8
0
  6
CONTINUOUS
 62
     7
 66
     1
 10
0.0
 20
0.0
 30
0.0
 70
     1
  0
VERTEX
  5
277
  8
0
  6
CONTINUOUS
 62
     7
 10
11.0
 20
152.5
 30
0.0
  0
VERTEX
  5
278
  8
0
  6
CONTINUOUS
 62
     7
 10
0.0
 20
148.5
 30
0.0
  0
VERTEX
  5
279
  8
0
  6
CONTINUOUS
 62
     7
 10
11.0
 20
144.5
 30
0.0
  0
VERTEX
  5
27A
  8
0
  6
CONTINUOUS
 62
     7
 10
11.0
 20
152.5
 30
0.0
  0
SEQEND
  5
2CA
  8
0
  6
CONTINUOUS
 62
     7
  0
INSERT
  5
7F
  8
0
 62
     7
  2
*U21
 10
0.0
 20
0.0
 30
0.0
  0
POLYLINE
  5
80
  8
0
  6
CONTINUOUS
 62
     7
 66
     1
 10
0.0
 20
0.0
 30
0.0
 70
     1
  0
VERTEX
  5
27D
  8
0
  6
CONTINUOUS
 62
     7
 10
206.0
 20
11.0
 30
0.0
  0
VERTEX
  5
27E
  8
0
  6
CONTINUOUS
 62
     7
 10
210.0
 20
0.0
 30
0.0
  0
VERTEX
  5
27F
  8
0
  6
CONTINUOUS
 62
     7
 10
214.0
 20
11.0
 30
0.0
  0
VERTEX
  5
280
  8
0
  6
CONTINUOUS
 62
     7
 10
206.0
 20
11.0
 30
0.0
  0
SEQEND
  5
2CB
  8
0
  6
CONTINUOUS
 62
     7
  0
INSERT
  5
81
  8
0
 62
     7
  2
*U22
 10
0.0
 20
0.0
 30
0.0
  0
LINE
  5
82
  8
0
  6
CONTINUOUS
 62
     7
 10
367.5
 20
286.9999999999999
 30
0.0
 11
367.5
 21
292.0
 31
0.0
  0
TEXT
  5
83
  8
0
  6
CONTINUOUS
 62
     7
 10
391.6340909090909
 20
291.8324293485057
 30
0.0
 40
3.5
  1
A
 50
270.0
  0
LINE
  5
84
  8
0
  6
CONTINUOUS
 62
     7
 10
367.5
 20
10.0
 30
0.0
 11
367.5
 21
5.0
 31
0.0
  0
TEXT
  5
85
  8
0
  6
CONTINUOUS
 62
     7
 10
392.9868888333125
 20
4.602272727272727
 30
0.0
 40
3.5
  1
A
  0
LINE
  5
86
  8
0
  6
CONTINUOUS
 62
     7
 10
315.0
 20
286.9999999999999
 30
0.0
 11
315.0
 21
292.0
 31
0.0
  0
TEXT
  5
87
  8
0
  6
CONTINUOUS
 62
     7
 10
339.1340909090909
 20
291.9745607727899
 30
0.0
 40
3.5
  1
B
 50
270.0
  0
LINE
  5
88
  8
0
  6
CONTINUOUS
 62
     7
 10
315.0
 20
10.0
 30
0.0
 11
315.0
 21
5.0
 31
0.0
  0
TEXT
  5
89
  8
0
  6
CONTINUOUS
 62
     7
 10
340.3447574090284
 20
4.602272727272727
 30
0.0
 40
3.5
  1
B
  0
LINE
  5
8A
  8
0
  6
CONTINUOUS
 62
     7
 10
262.5
 20
286.9999999999999
 30
0.0
 11
262.5
 21
292.0
 31
0.0
  0
TEXT
  5
8B
  8
0
  6
CONTINUOUS
 62
     7
 10
286.6327779167187
 20
291.9399305989747
 30
0.0
 40
3.5
  1
C
 50
270.0
  0
LINE
  5
8C
  8
0
  6
CONTINUOUS
 62
     7
 10
262.5
 20
10.0
 30
0.0
 11
262.5
 21
5.0
 31
0.0
  0
TEXT
  5
8D
  8
0
  6
CONTINUOUS
 62
     7
 10
287.8793875828435
 20
4.600959734900587
 30
0.0
 40
3.5
  1
C
  0
LINE
  5
8E
  8
0
  6
CONTINUOUS
 62
     7
 10
210.0
 20
286.9999999999999
 30
0.0
 11
210.0
 21
292.0
 31
0.0
  0
TEXT
  5
8F
  8
0
  6
CONTINUOUS
 62
     7
 10
234.1340909090909
 20
291.9745607727898
 30
0.0
 40
3.5
  1
D
 50
270.0
  0
LINE
  5
90
  8
0
  6
CONTINUOUS
 62
     7
 10
157.5
 20
286.9999999999999
 30
0.0
 11
157.5
 21
292.0
 31
0.0
  0
TEXT
  5
91
  8
0
  6
CONTINUOUS
 62
     7
 10
181.6327779167188
 20
292.027463423784
 30
0.0
 40
3.5
  1
E
 50
270.0
  0
LINE
  5
92
  8
0
  6
CONTINUOUS
 62
     7
 10
157.5
 20
10.0
 30
0.0
 11
157.5
 21
5.0
 31
0.0
  0
LINE
  5
93
  8
0
  6
CONTINUOUS
 62
     7
 10
105.0
 20
286.9999999999999
 30
0.0
 11
105.0
 21
292.0
 31
0.0
  0
TEXT
  5
94
  8
0
  6
CONTINUOUS
 62
     7
 10
129.1327779167188
 20
291.9924502938602
 30
0.0
 40
3.5
  1
F
 50
270.0
  0
LINE
  5
95
  8
0
  6
CONTINUOUS
 62
     7
 10
105.0
 20
10.0
 30
0.0
 11
105.0
 21
5.0
 31
0.0
  0
TEXT
  5
96
  8
0
  6
CONTINUOUS
 62
     7
 10
130.326867887958
 20
4.600959734900587
 30
0.0
 40
3.5
  1
F
  0
LINE
  5
97
  8
0
  6
CONTINUOUS
 62
     7
 10
52.50000000000004
 20
286.9999999999999
 30
0.0
 11
52.50000000000004
 21
292.0
 31
0.0
  0
TEXT
  5
98
  8
0
  6
CONTINUOUS
 62
     7
 10
76.6327779167188
 20
291.9399305989746
 30
0.0
 40
3.5
  1
G
 50
270.0
  0
LINE
  5
99
  8
0
  6
CONTINUOUS
 62
     7
 10
52.50000000000004
 20
10.0
 30
0.0
 11
52.50000000000004
 21
5.0
 31
0.0
  0
TEXT
  5
9A
  8
0
  6
CONTINUOUS
 62
     7
 10
77.8793875828436
 20
4.600959734900587
 30
0.0
 40
3.5
  1
G
  0
TEXT
  5
9B
  8
0
  6
CONTINUOUS
 62
     7
 10
24.13277791671879
 20
291.9749437288983
 30
0.0
 40
3.5
  1
H
 50
270.0
  0
TEXT
  5
9C
  8
0
  6
CONTINUOUS
 62
     7
 10
25.34437445291988
 20
4.600959734900587
 30
0.0
 40
3.5
  1
H
  0
LINE
  5
9D
  8
0
  6
CONTINUOUS
 62
     7
 10
409.9999999999999
 20
74.25
 30
0.0
 11
414.9999999999999
 21
74.25
 31
0.0
  0
TEXT
  5
9E
  8
0
  6
CONTINUOUS
 62
     7
 10
412.9326059772414
 20
35.00777791671877
 30
0.0
 40
3.5
  1
1
  0
LINE
  5
9F
  8
0
  6
CONTINUOUS
 62
     7
 10
10.0
 20
74.25
 30
0.0
 11
5.0
 21
74.25
 31
0.0
  0
TEXT
  5
A0
  8
0
  6
CONTINUOUS
 62
     7
 10
4.600959734900584
 20
38.26171220457671
 30
0.0
 40
3.5
  1
1
 50
270.0
  0
LINE
  5
A1
  8
0
  6
CONTINUOUS
 62
     7
 10
409.9999999999999
 20
148.5
 30
0.0
 11
414.9999999999999
 21
148.5
 31
0.0
  0
TEXT
  5
A2
  8
0
  6
CONTINUOUS
 62
     7
 10
413.163692634738
 20
109.2577779167188
 30
0.0
 40
3.5
  1
2
  0
LINE
  5
A3
  8
0
  6
CONTINUOUS
 62
     7
 10
10.0
 20
148.5
 30
0.0
 11
5.0
 21
148.5
 31
0.0
  0
TEXT
  5
A4
  8
0
  6
CONTINUOUS
 62
     7
 10
4.600959734900599
 20
112.2806255470802
 30
0.0
 40
3.5
  1
2
 50
270.0
  0
LINE
  5
A5
  8
0
  6
CONTINUOUS
 62
     7
 10
409.9999999999999
 20
222.75
 30
0.0
 11
414.9999999999999
 21
222.75
 31
0.0
  0
TEXT
  5
A6
  8
0
  6
CONTINUOUS
 62
     7
 10
413.1811991996998
 20
183.5077779167188
 30
0.0
 40
3.5
  1
3
  0
LINE
  5
A7
  8
0
  6
CONTINUOUS
 62
     7
 10
10.0
 20
222.75
 30
0.0
 11
5.0
 21
222.75
 31
0.0
  0
TEXT
  5
A8
  8
0
  6
CONTINUOUS
 62
     7
 10
4.600959734900584
 20
186.5131189821183
 30
0.0
 40
3.5
  1
3
 50
270.0
  0
TEXT
  5
A9
  8
0
  6
CONTINUOUS
 62
     7
 10
413.2351413029886
 20
257.7590909090909
 30
0.0
 40
3.5
  1
4
  0
TEXT
  5
AA
  8
0
  6
CONTINUOUS
 62
     7
 10
4.60227272727272
 20
260.7091768788295
 30
0.0
 40
3.5
  1
4
 50
270.0
  0
LINE
  5
AB
  8
0
  6
CONTINUOUS
 62
     7
 10
220.0
 20
10.0
 30
0.0
 11
220.0
 21
7.0
 31
0.0
  0
LINE
  5
AC
  8
0
  6
CONTINUOUS
 62
     7
 10
200.0
 20
10.0
 30
0.0
 11
200.0
 21
7.0
 31
0.0
  0
LINE
  5
AD
  8
0
  6
CONTINUOUS
 62
     7
 10
230.0
 20
10.0
 30
0.0
 11
230.0
 21
7.0
 31
0.0
  0
LINE
  5
AE
  8
0
  6
CONTINUOUS
 62
     7
 10
190.0
 20
10.0
 30
0.0
 11
190.0
 21
7.0
 31
0.0
  0
LINE
  5
AF
  8
0
  6
CONTINUOUS
 62
     7
 10
240.0
 20
10.0
 30
0.0
 11
240.0
 21
7.0
 31
0.0
  0
LINE
  5
B0
  8
0
  6
CONTINUOUS
 62
     7
 10
180.0
 20
10.0
 30
0.0
 11
180.0
 21
7.0
 31
0.0
  0
LINE
  5
B1
  8
0
  6
CONTINUOUS
 62
     7
 10
250.0
 20
10.0
 30
0.0
 11
250.0
 21
7.0
 31
0.0
  0
LINE
  5
B2
  8
0
  6
CONTINUOUS
 62
     7
 10
170.0
 20
10.0
 30
0.0
 11
170.0
 21
7.0
 31
0.0
  0
LINE
  5
B3
  8
0
  6
CONTINUOUS
 62
     7
 10
260.0
 20
10.0
 30
0.0
 11
260.0
 21
5.0
 31
0.0
  0
LINE
  5
B4
  8
0
  6
CONTINUOUS
 62
     7
 10
160.0
 20
10.0
 30
0.0
 11
160.0
 21
5.0
 31
0.0
  0
LINE
  5
B5
  8
0
  6
CONTINUOUS
 62
     7
 10
260.0
 20
10.0
 30
0.0
 11
160.0
 21
10.0
 31
0.0
  0
LINE
  5
B6
  8
0
  6
CONTINUOUS
 62
     7
 10
260.0
 20
7.0
 30
0.0
 11
160.0
 21
7.0
 31
0.0
  0
INSERT
  5
B7
  8
0
 62
     7
  2
*U23
 10
0.0
 20
0.0
 30
0.0
  0
INSERT
  5
B8
  8
0
 62
     7
  2
*U24
 10
0.0
 20
0.0
 30
0.0
  0
INSERT
  5
B9
  8
0
 62
     7
  2
*U25
 10
0.0
 20
0.0
 30
0.0
  0
INSERT
  5
BA
  8
0
 62
     7
  2
*U26
 10
0.0
 20
0.0
 30
0.0
  0
ENDBLK
  8
0
  0
BLOCK
  8
0
  2
*U2
 70
     1
 10
0.0
 20
0.0
 30
0.0
  0
SOLID
  5
250
  8
0
  6
CONTINUOUS
 62
     7
 10
11.0
 20
144.5
 30
0.0
 11
6.999999999999999
 21
148.5
 31
0.0
 12
11.0
 22
152.5
 32
0.0
 13
11.0
 23
152.5
 33
0.0
  0
ENDBLK
  8
0
  0
BLOCK
  8
0
  2
*U3
 70
     1
 10
0.0
 20
0.0
 30
0.0
  0
SOLID
  5
252
  8
0
  6
CONTINUOUS
 62
     7
 10
210.0
 20
6.999999999999999
 30
0.0
 11
206.0
 21
11.0
 31
0.0
 12
210.0
 22
11.0
 32
0.0
 13
210.0
 23
11.0
 33
0.0
  0
ENDBLK
  8
0
  0
BLOCK
  8
0
  2
*U4
 70
     1
 10
0.0
 20
0.0
 30
0.0
  0
SOLID
  5
254
  8
0
  6
CONTINUOUS
 62
     7
 10
210.0
 20
6.999999999999999
 30
0.0
 11
210.0
 21
11.0
 31
0.0
 12
214.0
 22
11.0
 32
0.0
 13
214.0
 23
11.0
 33
0.0
  0
ENDBLK
  8
0
  0
BLOCK
  8
0
  2
*U5
 70
     1
 10
0.0
 20
0.0
 30
0.0
  0
SOLID
  5
256
  8
0
  6
CONTINUOUS
 62
     7
 10
0.0
 20
0.0
 30
0.0
 11
0.0
 21
10.0
 31
0.0
 12
2.0
 22
0.0
 32
0.0
 13
2.0
 23
0.0
 33
0.0
  0
ENDBLK
  8
0
  0
BLOCK
  8
0
  2
*U6
 70
     1
 10
0.0
 20
0.0
 30
0.0
  0
SOLID
  5
258
  8
0
  6
CONTINUOUS
 62
     7
 10
2.0
 20
0.0
 30
0.0
 11
0.0
 21
10.0
 31
0.0
 12
2.0
 22
10.0
 32
0.0
 13
2.0
 23
10.0
 33
0.0
  0
ENDBLK
  8
0
  0
BLOCK
  8
0
  2
*U7
 70
     1
 10
0.0
 20
0.0
 30
0.0
  0
SOLID
  5
25A
  8
0
  6
CONTINUOUS
 62
     7
 10
2.0
 20
0.0
 30
0.0
 11
2.0
 21
2.0
 31
0.0
 12
10.0
 22
0.0
 32
0.0
 13
10.0
 23
0.0
 33
0.0
  0
ENDBLK
  8
0
  0
BLOCK
  8
0
  2
*U8
 70
     1
 10
0.0
 20
0.0
 30
0.0
  0
SOLID
  5
25C
  8
0
  6
CONTINUOUS
 62
     7
 10
10.0
 20
0.0
 30
0.0
 11
2.0
 21
2.0
 31
0.0
 12
10.0
 22
2.0
 32
0.0
 13
10.0
 23
2.0
 33
0.0
  0
ENDBLK
  8
0
  0
BLOCK
  8
0
  2
*U9
 70
     1
 10
0.0
 20
0.0
 30
0.0
  0
SOLID
  5
25E
  8
0
  6
CONTINUOUS
 62
     7
 10
409.9999999999999
 20
0.0
 30
0.0
 11
409.9999999999999
 21
2.0
 31
0.0
 12
418.0
 22
0.0
 32
0.0
 13
418.0
 23
0.0
 33
0.0
  0
ENDBLK
  8
0
  0
BLOCK
  8
0
  2
*U10
 70
     1
 10
0.0
 20
0.0
 30
0.0
  0
SOLID
  5
260
  8
0
  6
CONTINUOUS
 62
     7
 10
418.0
 20
0.0
 30
0.0
 11
409.9999999999999
 21
2.0
 31
0.0
 12
418.0
 22
2.0
 32
0.0
 13
418.0
 23
2.0
 33
0.0
  0
ENDBLK
  8
0
  0
BLOCK
  8
0
  2
*U11
 70
     1
 10
0.0
 20
0.0
 30
0.0
  0
SOLID
  5
262
  8
0
  6
CONTINUOUS
 62
     7
 10
418.0
 20
0.0
 30
0.0
 11
418.0
 21
10.0
 31
0.0
 12
420.0
 22
0.0
 32
0.0
 13
420.0
 23
0.0
 33
0.0
  0
ENDBLK
  8
0
  0
BLOCK
  8
0
  2
*U12
 70
     1
 10
0.0
 20
0.0
 30
0.0
  0
SOLID
  5
264
  8
0
  6
CONTINUOUS
 62
     7
 10
420.0
 20
0.0
 30
0.0
 11
418.0
 21
10.0
 31
0.0
 12
420.0
 22
10.0
 32
0.0
 13
420.0
 23
10.0
 33
0.0
  0
ENDBLK
  8
0
  0
BLOCK
  8
0
  2
*U13
 70
     1
 10
0.0
 20
0.0
 30
0.0
  0
SOLID
  5
266
  8
0
  6
CONTINUOUS
 62
     7
 10
409.9999999999999
 20
295.0
 30
0.0
 11
409.9999999999999
 21
297.0
 31
0.0
 12
418.0
 22
295.0
 32
0.0
 13
418.0
 23
295.0
 33
0.0
  0
ENDBLK
  8
0
  0
BLOCK
  8
0
  2
*U14
 70
     1
 10
0.0
 20
0.0
 30
0.0
  0
SOLID
  5
268
  8
0
  6
CONTINUOUS
 62
     7
 10
418.0
 20
295.0
 30
0.0
 11
409.9999999999999
 21
297.0
 31
0.0
 12
418.0
 22
297.0
 32
0.0
 13
418.0
 23
297.0
 33
0.0
  0
ENDBLK
  8
0
  0
BLOCK
  8
0
  2
*U15
 70
     1
 10
0.0
 20
0.0
 30
0.0
  0
SOLID
  5
26A
  8
0
  6
CONTINUOUS
 62
     7
 10
418.0
 20
286.9999999999999
 30
0.0
 11
418.0
 21
297.0
 31
0.0
 12
420.0
 22
286.9999999999999
 32
0.0
 13
420.0
 23
286.9999999999999
 33
0.0
  0
ENDBLK
  8
0
  0
BLOCK
  8
0
  2
*U16
 70
     1
 10
0.0
 20
0.0
 30
0.0
  0
SOLID
  5
26C
  8
0
  6
CONTINUOUS
 62
     7
 10
420.0
 20
286.9999999999999
 30
0.0
 11
418.0
 21
297.0
 31
0.0
 12
420.0
 22
297.0
 32
0.0
 13
420.0
 23
297.0
 33
0.0
  0
ENDBLK
  8
0
  0
BLOCK
  8
0
  2
*U17
 70
     1
 10
0.0
 20
0.0
 30
0.0
  0
SOLID
  5
26E
  8
0
  6
CONTINUOUS
 62
     7
 10
0.0
 20
286.9999999999999
 30
0.0
 11
0.0
 21
297.0
 31
0.0
 12
2.0
 22
286.9999999999999
 32
0.0
 13
2.0
 23
286.9999999999999
 33
0.0
  0
ENDBLK
  8
0
  0
BLOCK
  8
0
  2
*U18
 70
     1
 10
0.0
 20
0.0
 30
0.0
  0
SOLID
  5
270
  8
0
  6
CONTINUOUS
 62
     7
 10
2.0
 20
286.9999999999999
 30
0.0
 11
0.0
 21
297.0
 31
0.0
 12
2.0
 22
297.0
 32
0.0
 13
2.0
 23
297.0
 33
0.0
  0
ENDBLK
  8
0
  0
BLOCK
  8
0
  2
*U19
 70
     1
 10
0.0
 20
0.0
 30
0.0
  0
SOLID
  5
272
  8
0
  6
CONTINUOUS
 62
     7
 10
2.0
 20
295.0
 30
0.0
 11
2.0
 21
297.0
 31
0.0
 12
10.0
 22
295.0
 32
0.0
 13
10.0
 23
295.0
 33
0.0
  0
ENDBLK
  8
0
  0
BLOCK
  8
0
  2
*U20
 70
     1
 10
0.0
 20
0.0
 30
0.0
  0
SOLID
  5
274
  8
0
  6
CONTINUOUS
 62
     7
 10
10.0
 20
295.0
 30
0.0
 11
2.0
 21
297.0
 31
0.0
 12
10.0
 22
297.0
 32
0.0
 13
10.0
 23
297.0
 33
0.0
  0
ENDBLK
  8
0
  0
BLOCK
  8
0
  2
*U21
 70
     1
 10
0.0
 20
0.0
 30
0.0
  0
SOLID
  5
27C
  8
0
  6
CONTINUOUS
 62
     7
 10
11.0
 20
144.5
 30
0.0
 11
6.999999999999999
 21
148.5
 31
0.0
 12
11.0
 22
152.5
 32
0.0
 13
11.0
 23
152.5
 33
0.0
  0
ENDBLK
  8
0
  0
BLOCK
  8
0
  2
*U22
 70
     1
 10
0.0
 20
0.0
 30
0.0
  0
SOLID
  5
282
  8
0
  6
CONTINUOUS
 62
     7
 10
210.0
 20
6.999999999999999
 30
0.0
 11
206.0
 21
11.0
 31
0.0
 12
210.0
 22
11.0
 32
0.0
 13
210.0
 23
11.0
 33
0.0
  0
SOLID
  5
283
  8
0
  6
CONTINUOUS
 62
     7
 10
210.0
 20
6.999999999999999
 30
0.0
 11
210.0
 21
11.0
 31
0.0
 12
214.0
 22
11.0
 32
0.0
 13
214.0
 23
11.0
 33
0.0
  0
ENDBLK
  8
0
  0
BLOCK
  8
0
  2
*U23
 70
     1
 10
0.0
 20
0.0
 30
0.0
  0
SOLID
  5
285
  8
0
  6
CONTINUOUS
 62
     7
 10
0.0
 20
0.0
 30
0.0
 11
0.0
 21
10.0
 31
0.0
 12
2.0
 22
0.0
 32
0.0
 13
2.0
 23
0.0
 33
0.0
  0
SOLID
  5
286
  8
0
  6
CONTINUOUS
 62
     7
 10
2.0
 20
0.0
 30
0.0
 11
0.0
 21
10.0
 31
0.0
 12
2.0
 22
10.0
 32
0.0
 13
2.0
 23
10.0
 33
0.0
  0
SOLID
  5
287
  8
0
  6
CONTINUOUS
 62
     7
 10
2.0
 20
0.0
 30
0.0
 11
2.0
 21
2.0
 31
0.0
 12
10.0
 22
0.0
 32
0.0
 13
10.0
 23
0.0
 33
0.0
  0
SOLID
  5
288
  8
0
  6
CONTINUOUS
 62
     7
 10
10.0
 20
0.0
 30
0.0
 11
2.0
 21
2.0
 31
0.0
 12
10.0
 22
2.0
 32
0.0
 13
10.0
 23
2.0
 33
0.0
  0
ENDBLK
  8
0
  0
BLOCK
  8
0
  2
*U24
 70
     1
 10
0.0
 20
0.0
 30
0.0
  0
SOLID
  5
28A
  8
0
  6
CONTINUOUS
 62
     7
 10
409.9999999999999
 20
0.0
 30
0.0
 11
409.9999999999999
 21
2.0
 31
0.0
 12
418.0
 22
0.0
 32
0.0
 13
418.0
 23
0.0
 33
0.0
  0
SOLID
  5
28B
  8
0
  6
CONTINUOUS
 62
     7
 10
418.0
 20
0.0
 30
0.0
 11
409.9999999999999
 21
2.0
 31
0.0
 12
418.0
 22
2.0
 32
0.0
 13
418.0
 23
2.0
 33
0.0
  0
SOLID
  5
28C
  8
0
  6
CONTINUOUS
 62
     7
 10
418.0
 20
0.0
 30
0.0
 11
418.0
 21
10.0
 31
0.0
 12
420.0
 22
0.0
 32
0.0
 13
420.0
 23
0.0
 33
0.0
  0
SOLID
  5
28D
  8
0
  6
CONTINUOUS
 62
     7
 10
420.0
 20
0.0
 30
0.0
 11
418.0
 21
10.0
 31
0.0
 12
420.0
 22
10.0
 32
0.0
 13
420.0
 23
10.0
 33
0.0
  0
ENDBLK
  8
0
  0
BLOCK
  8
0
  2
*U25
 70
     1
 10
0.0
 20
0.0
 30
0.0
  0
SOLID
  5
28F
  8
0
  6
CONTINUOUS
 62
     7
 10
409.9999999999999
 20
295.0
 30
0.0
 11
409.9999999999999
 21
297.0
 31
0.0
 12
418.0
 22
295.0
 32
0.0
 13
418.0
 23
295.0
 33
0.0
  0
SOLID
  5
290
  8
0
  6
CONTINUOUS
 62
     7
 10
418.0
 20
295.0
 30
0.0
 11
409.9999999999999
 21
297.0
 31
0.0
 12
418.0
 22
297.0
 32
0.0
 13
418.0
 23
297.0
 33
0.0
  0
SOLID
  5
291
  8
0
  6
CONTINUOUS
 62
     7
 10
418.0
 20
286.9999999999999
 30
0.0
 11
418.0
 21
297.0
 31
0.0
 12
420.0
 22
286.9999999999999
 32
0.0
 13
420.0
 23
286.9999999999999
 33
0.0
  0
SOLID
  5
292
  8
0
  6
CONTINUOUS
 62
     7
 10
420.0
 20
286.9999999999999
 30
0.0
 11
418.0
 21
297.0
 31
0.0
 12
420.0
 22
297.0
 32
0.0
 13
420.0
 23
297.0
 33
0.0
  0
ENDBLK
  8
0
  0
BLOCK
  8
0
  2
*U26
 70
     1
 10
0.0
 20
0.0
 30
0.0
  0
SOLID
  5
294
  8
0
  6
CONTINUOUS
 62
     7
 10
0.0
 20
286.9999999999999
 30
0.0
 11
0.0
 21
297.0
 31
0.0
 12
2.0
 22
286.9999999999999
 32
0.0
 13
2.0
 23
286.9999999999999
 33
0.0
  0
SOLID
  5
295
  8
0
  6
CONTINUOUS
 62
     7
 10
2.0
 20
286.9999999999999
 30
0.0
 11
0.0
 21
297.0
 31
0.0
 12
2.0
 22
297.0
 32
0.0
 13
2.0
 23
297.0
 33
0.0
  0
SOLID
  5
296
  8
0
  6
CONTINUOUS
 62
     7
 10
2.0
 20
295.0
 30
0.0
 11
2.0
 21
297.0
 31
0.0
 12
10.0
 22
295.0
 32
0.0
 13
10.0
 23
295.0
 33
0.0
  0
SOLID
  5
297
  8
0
  6
CONTINUOUS
 62
     7
 10
10.0
 20
295.0
 30
0.0
 11
2.0
 21
297.0
 31
0.0
 12
10.0
 22
297.0
 32
0.0
 13
10.0
 23
297.0
 33
0.0
  0
ENDBLK
  8
0
  0
ENDSEC
  0
SECTION
  2
ENTITIES
  0
INSERT
  5
71
  8
0
 62
     7
  2
D_FRAME_DRAWING_21
 10
0.0
 20
0.0
 30
0.0
  0
LINE
  5
BB
  8
0
  6
CONTINUOUS
 62
     7
 10
0.0
 20
0.0
 30
0.0
 11
420.0
 21
0.0
 31
0.0
  0
LINE
  5
BC
  8
0
  6
CONTINUOUS
 62
     7
 10
420.0
 20
0.0
 30
0.0
 11
420.0
 21
297.0
 31
0.0
  0
LINE
  5
BD
  8
0
  6
CONTINUOUS
 62
     7
 10
420.0
 20
297.0
 30
0.0
 11
0.0
 21
297.0
 31
0.0
  0
LINE
  5
BE
  8
0
  6
CONTINUOUS
 62
     7
 10
0.0
 20
297.0
 30
0.0
 11
0.0
 21
0.0
 31
0.0
  0
LINE
  5
BF
  8
0
  6
CONTINUOUS
 62
     7
 10
10.0
 20
10.0
 30
0.0
 11
409.9999999999999
 21
10.0
 31
0.0
  0
LINE
  5
C0
  8
0
  6
CONTINUOUS
 62
     7
 10
409.9999999999999
 20
10.0
 30
0.0
 11
409.9999999999999
 21
286.9999999999999
 31
0.0
  0
LINE
  5
C1
  8
0
  6
CONTINUOUS
 62
     7
 10
409.9999999999999
 20
286.9999999999999
 30
0.0
 11
10.00000000000006
 21
286.9999999999999
 31
0.0
  0
LINE
  5
C2
  8
0
  6
CONTINUOUS
 62
     7
 10
10.0
 20
286.9999999999999
 30
0.0
 11
10.0
 21
10.00000000000001
 31
0.0
  0
LINE
  5
C3
  8
0
  6
CONTINUOUS
 62
     7
 10
210.0
 20
0.0
 30
0.0
 11
210.0
 21
10.0
 31
0.0
  0
LINE
  5
C4
  8
0
  6
CONTINUOUS
 62
     7
 10
420.0
 20
148.5
 30
0.0
 11
409.9999999999999
 21
148.5
 31
0.0
  0
LINE
  5
C5
  8
0
  6
CONTINUOUS
 62
     7
 10
210.0
 20
297.0
 30
0.0
 11
210.0
 21
286.9999999999999
 31
0.0
  0
LINE
  5
C6
  8
0
  6
CONTINUOUS
 62
     7
 10
0.0
 20
148.5
 30
0.0
 11
10.0
 21
148.5
 31
0.0
  0
LINE
  5
C7
  8
0
  6
CONTINUOUS
 62
     7
 10
11.0
 20
152.5
 30
0.0
 11
0.0000000000000017
 21
148.5
 31
0.0
  0
LINE
  5
C8
  8
0
  6
CONTINUOUS
 62
     7
 10
0.0
 20
148.5
 30
0.0
 11
11.0
 21
144.5
 31
0.0
  0
LINE
  5
C9
  8
0
  6
CONTINUOUS
 62
     7
 10
11.0
 20
144.5
 30
0.0
 11
11.0
 21
152.5
 31
0.0
  0
INSERT
  5
CA
  8
0
 62
     7
  2
*U2
 10
0.0
 20
0.0
 30
0.0
  0
LINE
  5
CB
  8
0
  6
CONTINUOUS
 62
     7
 10
206.0
 20
11.0
 30
0.0
 11
210.0
 21
-0.0000000000000017
 31
0.0
  0
LINE
  5
CC
  8
0
  6
CONTINUOUS
 62
     7
 10
210.0
 20
0.0
 30
0.0
 11
214.0
 21
11.0
 31
0.0
  0
LINE
  5
CD
  8
0
  6
CONTINUOUS
 62
     7
 10
214.0
 20
11.0
 30
0.0
 11
206.0
 21
11.0
 31
0.0
  0
INSERT
  5
CE
  8
0
 62
     7
  2
*U3
 10
0.0
 20
0.0
 30
0.0
  0
INSERT
  5
CF
  8
0
 62
     7
  2
*U4
 10
0.0
 20
0.0
 30
0.0
  0
LINE
  5
D0
  8
0
  6
CONTINUOUS
 62
     7
 10
367.5
 20
286.9999999999999
 30
0.0
 11
367.5
 21
292.0
 31
0.0
  0
TEXT
  5
D1
  8
0
  6
CONTINUOUS
 62
     7
 10
391.2681818181818
 20
291.6648586970114
 30
0.0
 40
3.5
  1
A
 50
270.0
  0
LINE
  5
D2
  8
0
  6
CONTINUOUS
 62
     7
 10
367.5
 20
10.0
 30
0.0
 11
367.5
 21
5.0
 31
0.0
  0
TEXT
  5
D3
  8
0
  6
CONTINUOUS
 62
     7
 10
393.1544594848068
 20
4.236363636363635
 30
0.0
 40
3.5
  1
A
  0
LINE
  5
D4
  8
0
  6
CONTINUOUS
 62
     7
 10
315.0
 20
286.9999999999999
 30
0.0
 11
315.0
 21
292.0
 31
0.0
  0
TEXT
  5
D5
  8
0
  6
CONTINUOUS
 62
     7
 10
338.7681818181818
 20
291.9491215455798
 30
0.0
 40
3.5
  1
B
 50
270.0
  0
LINE
  5
D6
  8
0
  6
CONTINUOUS
 62
     7
 10
315.0
 20
10.0
 30
0.0
 11
315.0
 21
5.0
 31
0.0
  0
TEXT
  5
D7
  8
0
  6
CONTINUOUS
 62
     7
 10
340.3701966362385
 20
4.236363636363635
 30
0.0
 40
3.5
  1
B
  0
LINE
  5
D8
  8
0
  6
CONTINUOUS
 62
     7
 10
262.5
 20
286.9999999999999
 30
0.0
 11
262.5
 21
292.0
 31
0.0
  0
TEXT
  5
D9
  8
0
  6
CONTINUOUS
 62
     7
 10
286.2655558334374
 20
291.8798611979494
 30
0.0
 40
3.5
  1
C
 50
270.0
  0
LINE
  5
DA
  8
0
  6
CONTINUOUS
 62
     7
 10
262.5
 20
10.0
 30
0.0
 11
262.5
 21
5.0
 31
0.0
  0
TEXT
  5
DB
  8
0
  6
CONTINUOUS
 62
     7
 10
287.9394569838688
 20
4.233737651619357
 30
0.0
 40
3.5
  1
C
  0
LINE
  5
DC
  8
0
  6
CONTINUOUS
 62
     7
 10
210.0
 20
286.9999999999999
 30
0.0
 11
210.0
 21
292.0
 31
0.0
  0
TEXT
  5
DD
  8
0
  6
CONTINUOUS
 62
     7
 10
233.7681818181818
 20
291.9491215455796
 30
0.0
 40
3.5
  1
D
 50
270.0
  0
LINE
  5
DE
  8
0
  6
CONTINUOUS
 62
     7
 10
157.5
 20
286.9999999999999
 30
0.0
 11
157.5
 21
292.0
 31
0.0
  0
TEXT
  5
DF
  8
0
  6
CONTINUOUS
 62
     7
 10
181.2655558334376
 20
292.0549268475679
 30
0.0
 40
3.5
  1
E
 50
270.0
  0
LINE
  5
E0
  8
0
  6
CONTINUOUS
 62
     7
 10
157.5
 20
10.0
 30
0.0
 11
157.5
 21
5.0
 31
0.0
  0
LINE
  5
E1
  8
0
  6
CONTINUOUS
 62
     7
 10
105.0
 20
286.9999999999999
 30
0.0
 11
105.0
 21
292.0
 31
0.0
  0
TEXT
  5
E2
  8
0
  6
CONTINUOUS
 62
     7
 10
128.7655558334375
 20
291.9849005877204
 30
0.0
 40
3.5
  1
F
 50
270.0
  0
LINE
  5
E3
  8
0
  6
CONTINUOUS
 62
     7
 10
105.0
 20
10.0
 30
0.0
 11
105.0
 21
5.0
 31
0.0
  0
TEXT
  5
E4
  8
0
  6
CONTINUOUS
 62
     7
 10
130.3344175940978
 20
4.233737651619357
 30
0.0
 40
3.5
  1
F
  0
LINE
  5
E5
  8
0
  6
CONTINUOUS
 62
     7
 10
52.50000000000004
 20
286.9999999999999
 30
0.0
 11
52.50000000000004
 21
292.0
 31
0.0
  0
TEXT
  5
E6
  8
0
  6
CONTINUOUS
 62
     7
 10
76.26555583343753
 20
291.8798611979493
 30
0.0
 40
3.5
  1
G
 50
270.0
  0
LINE
  5
E7
  8
0
  6
CONTINUOUS
 62
     7
 10
52.50000000000004
 20
10.0
 30
0.0
 11
52.50000000000004
 21
5.0
 31
0.0
  0
TEXT
  5
E8
  8
0
  6
CONTINUOUS
 62
     7
 10
77.93945698386898
 20
4.233737651619357
 30
0.0
 40
3.5
  1
G
  0
TEXT
  5
E9
  8
0
  6
CONTINUOUS
 62
     7
 10
23.76555583343753
 20
291.9498874577966
 30
0.0
 40
3.5
  1
H
 50
270.0
  0
TEXT
  5
EA
  8
0
  6
CONTINUOUS
 62
     7
 10
25.36943072402154
 20
4.233737651619357
 30
0.0
 40
3.5
  1
H
  0
LINE
  5
EB
  8
0
  6
CONTINUOUS
 62
     7
 10
409.9999999999999
 20
74.25
 30
0.0
 11
414.9999999999999
 21
74.25
 31
0.0
  0
TEXT
  5
EC
  8
0
  6
CONTINUOUS
 62
     7
 10
412.7265755908465
 20
34.64055583343754
 30
0.0
 40
3.5
  1
1
  0
LINE
  5
ED
  8
0
  6
CONTINUOUS
 62
     7
 10
10.0
 20
74.25
 30
0.0
 11
5.0
 21
74.25
 31
0.0
  0
TEXT
  5
EE
  8
0
  6
CONTINUOUS
 62
     7
 10
4.23373765161935
 20
38.46774259097161
 30
0.0
 40
3.5
  1
1
 50
270.0
  0
LINE
  5
EF
  8
0
  6
CONTINUOUS
 62
     7
 10
409.9999999999999
 20
148.5
 30
0.0
 11
414.9999999999999
 21
148.5
 31
0.0
  0
TEXT
  5
F0
  8
0
  6
CONTINUOUS
 62
     7
 10
413.1887489058396
 20
108.8905558334376
 30
0.0
 40
3.5
  1
2
  0
LINE
  5
F1
  8
0
  6
CONTINUOUS
 62
     7
 10
10.0
 20
148.5
 30
0.0
 11
5.0
 21
148.5
 31
0.0
  0
TEXT
  5
F2
  8
0
  6
CONTINUOUS
 62
     7
 10
4.233737651619379
 20
112.2555692759785
 30
0.0
 40
3.5
  1
2
 50
270.0
  0
LINE
  5
F3
  8
0
  6
CONTINUOUS
 62
     7
 10
409.9999999999999
 20
222.75
 30
0.0
 11
414.9999999999999
 21
222.75
 31
0.0
  0
TEXT
  5
F4
  8
0
  6
CONTINUOUS
 62
     7
 10
413.2237620357633
 20
183.1405558334376
 30
0.0
 40
3.5
  1
3
  0
LINE
  5
F5
  8
0
  6
CONTINUOUS
 62
     7
 10
10.0
 20
222.75
 30
0.0
 11
5.0
 21
222.75
 31
0.0
  0
TEXT
  5
F6
  8
0
  6
CONTINUOUS
 62
     7
 10
4.23373765161935
 20
186.4705561460548
 30
0.0
 40
3.5
  1
3
 50
270.0
  0
TEXT
  5
F7
  8
0
  6
CONTINUOUS
 62
     7
 10
413.3316462423409
 20
257.3931818181817
 30
0.0
 40
3.5
  1
4
  0
TEXT
  5
F8
  8
0
  6
CONTINUOUS
 62
     7
 10
4.23636363636362
 20
260.6126719394773
 30
0.0
 40
3.5
  1
4
 50
270.0
  0
LINE
  5
F9
  8
0
  6
CONTINUOUS
 62
     7
 10
220.0
 20
10.0
 30
0.0
 11
220.0
 21
7.0
 31
0.0
  0
LINE
  5
FA
  8
0
  6
CONTINUOUS
 62
     7
 10
200.0
 20
10.0
 30
0.0
 11
200.0
 21
7.0
 31
0.0
  0
LINE
  5
FB
  8
0
  6
CONTINUOUS
 62
     7
 10
230.0
 20
10.0
 30
0.0
 11
230.0
 21
7.0
 31
0.0
  0
LINE
  5
FC
  8
0
  6
CONTINUOUS
 62
     7
 10
190.0
 20
10.0
 30
0.0
 11
190.0
 21
7.0
 31
0.0
  0
LINE
  5
FD
  8
0
  6
CONTINUOUS
 62
     7
 10
240.0
 20
10.0
 30
0.0
 11
240.0
 21
7.0
 31
0.0
  0
LINE
  5
FE
  8
0
  6
CONTINUOUS
 62
     7
 10
180.0
 20
10.0
 30
0.0
 11
180.0
 21
7.0
 31
0.0
  0
LINE
  5
FF
  8
0
  6
CONTINUOUS
 62
     7
 10
250.0
 20
10.0
 30
0.0
 11
250.0
 21
7.0
 31
0.0
  0
LINE
  5
100
  8
0
  6
CONTINUOUS
 62
     7
 10
170.0
 20
10.0
 30
0.0
 11
170.0
 21
7.0
 31
0.0
  0
LINE
  5
101
  8
0
  6
CONTINUOUS
 62
     7
 10
260.0
 20
10.0
 30
0.0
 11
260.0
 21
5.0
 31
0.0
  0
LINE
  5
102
  8
0
  6
CONTINUOUS
 62
     7
 10
160.0
 20
10.0
 30
0.0
 11
160.0
 21
5.0
 31
0.0
  0
LINE
  5
103
  8
0
  6
CONTINUOUS
 62
     7
 10
260.0
 20
10.0
 30
0.0
 11
160.0
 21
10.0
 31
0.0
  0
LINE
  5
104
  8
0
  6
CONTINUOUS
 62
     7
 10
260.0
 20
7.0
 30
0.0
 11
160.0
 21
7.0
 31
0.0
  0
INSERT
  5
105
  8
0
 62
     7
  2
*U5
 10
0.0
 20
0.0
 30
0.0
  0
INSERT
  5
106
  8
0
 62
     7
  2
*U6
 10
0.0
 20
0.0
 30
0.0
  0
INSERT
  5
107
  8
0
 62
     7
  2
*U7
 10
0.0
 20
0.0
 30
0.0
  0
INSERT
  5
108
  8
0
 62
     7
  2
*U8
 10
0.0
 20
0.0
 30
0.0
  0
INSERT
  5
109
  8
0
 62
     7
  2
*U9
 10
0.0
 20
0.0
 30
0.0
  0
INSERT
  5
10A
  8
0
 62
     7
  2
*U10
 10
0.0
 20
0.0
 30
0.0
  0
INSERT
  5
10B
  8
0
 62
     7
  2
*U11
 10
0.0
 20
0.0
 30
0.0
  0
INSERT
  5
10C
  8
0
 62
     7
  2
*U12
 10
0.0
 20
0.0
 30
0.0
  0
INSERT
  5
10D
  8
0
 62
     7
  2
*U13
 10
0.0
 20
0.0
 30
0.0
  0
INSERT
  5
10E
  8
0
 62
     7
  2
*U14
 10
0.0
 20
0.0
 30
0.0
  0
INSERT
  5
10F
  8
0
 62
     7
  2
*U15
 10
0.0
 20
0.0
 30
0.0
  0
INSERT
  5
110
  8
0
 62
     7
  2
*U16
 10
0.0
 20
0.0
 30
0.0
  0
INSERT
  5
111
  8
0
 62
     7
  2
*U17
 10
0.0
 20
0.0
 30
0.0
  0
INSERT
  5
112
  8
0
 62
     7
  2
*U18
 10
0.0
 20
0.0
 30
0.0
  0
INSERT
  5
113
  8
0
 62
     7
  2
*U19
 10
0.0
 20
0.0
 30
0.0
  0
INSERT
  5
114
  8
0
 62
     7
  2
*U20
 10
0.0
 20
0.0
 30
0.0
  0
ARC
  5
115
  8
1
  6
CONTINUOUS
 62
     7
 10
278.5589831585999
 20
710.3586689965
 30
0.0
 40
1.139230802999991
 50
249.9314078091
 51
268.4475879759
  0
ARC
  5
116
  8
1
  6
CONTINUOUS
 62
     7
 10
267.7774085598
 20
784.3145315116
 30
0.0
 40
24.85483900000002
 50
263.8514131726
 51
270.778881
  0
ARC
  5
117
  8
1
  6
CONTINUOUS
 62
     7
 10
291.1248065414999
 20
819.412929064
 30
0.0
 40
1.385876368799999
 50
273.2108924853
 51
288.4101117296
  0
ARC
  5
118
  8
1
  6
CONTINUOUS
 62
     7
 10
267.8920995598
 20
824.7041015116
 30
0.0
 40
2.858870999999985
 50
85.52269
 51
164.7705
  0
LINE
  5
119
  8
1
  6
CONTINUOUS
 62
     7
 10
371.7549545598
 20
836.7496335116
 30
0.0
 11
375.2549545598
 21
836.7496255116
 31
0.0
  0
ARC
  5
11A
  8
1
  6
CONTINUOUS
 62
     7
 10
291.1162816235
 20
681.2479768955
 30
0.0
 40
0.999076916899988
 50
26.5881797863
 51
45.0286503223
  0
ARC
  5
11B
  8
1
  6
CONTINUOUS
 62
     7
 10
278.6142694963
 20
684.3470211276
 30
0.0
 40
0.9990769170999947
 50
206.5881797755
 51
225.0286503122
  0
ARC
  5
11C
  8
1
  6
CONTINUOUS
 62
     7
 10
278.5636213198
 20
684.1655191522
 30
0.0
 40
0.8148916565000053
 50
240.9604371115
 51
267.5030665061001
  0
LINE
  5
11D
  8
1
  6
CONTINUOUS
 62
     7
 10
375.7832225598
 20
833.7499755116
 30
0.0
 11
377.1152755598
 21
833.7499755116
 31
0.0
  0
ARC
  5
11E
  8
1
  6
CONTINUOUS
 62
     7
 10
278.6148006706
 20
842.1531845609
 30
0.0
 40
0.999132420600013
 50
94.9770163276
 51
116.5594800548
  0
LINE
  5
11F
  8
1
  6
CONTINUOUS
 62
     7
 10
365.2549545598
 20
836.7496255116
 30
0.0
 11
365.7832225598
 21
833.7499755116
 31
0.0
  0
LINE
  5
120
  8
1
  6
CONTINUOUS
 62
     7
 10
350.2538895598
 20
689.7504085116
 30
0.0
 11
346.7538895598
 21
689.7504005116
 31
0.0
  0
LINE
  5
121
  8
1
  6
CONTINUOUS
 62
     7
 10
377.1152755598
 20
689.7499755116
 30
0.0
 11
377.1152755598
 21
836.7499755116
 31
0.0
  0
LINE
  5
122
  8
1
  6
CONTINUOUS
 62
     7
 10
292.1152755598
 20
759.4546755116
 30
0.0
 11
268.1152755598
 21
759.4546755116
 31
0.0
  0
LINE
  5
123
  8
1
  6
CONTINUOUS
 62
     7
 10
292.1152755598
 20
698.9457015116
 30
0.0
 11
268.1152755598
 21
698.9457015116
 31
0.0
  0
ARC
  5
124
  8
1
  6
CONTINUOUS
 62
     7
 10
268.1152755598
 20
678.7499755116
 30
0.0
 40
3.000000000000003
 50
180.0
 51
270.0
  0
LINE
  5
125
  8
1
  6
CONTINUOUS
 62
     7
 10
268.1152755598
 20
827.5542495116
 30
0.0
 11
292.1152755598
 21
827.5542495116
 31
0.0
  0
LINE
  5
126
  8
1
  6
CONTINUOUS
 62
     7
 10
365.2549545598
 20
836.7496255116
 30
0.0
 11
360.2538895598
 21
689.7504085116
 31
0.0
  0
ARC
  5
127
  8
1
  6
CONTINUOUS
 62
     7
 10
278.6135459251
 20
842.1532862621
 30
0.0
 40
0.9982703654999869
 50
153.4115233442
 51
179.9990099634
  0
LINE
  5
128
  8
1
  6
CONTINUOUS
 62
     7
 10
361.7549545598
 20
836.7496335116
 30
0.0
 11
365.2549545598
 21
836.7496255116
 31
0.0
  0
LINE
  5
129
  8
1
  6
CONTINUOUS
 62
     7
 10
277.6152755598
 20
709.8928755116
 30
0.0
 11
277.6152755598
 21
759.4546755116
 31
0.0
  0
ARC
  5
12A
  8
1
  6
CONTINUOUS
 62
     7
 10
291.1715679609
 20
707.3319090267
 30
0.0
 40
1.139230802999991
 50
69.9314078091
 51
88.447587976
  0
ARC
  5
12B
  8
1
  6
CONTINUOUS
 62
     7
 10
291.1156488036
 20
845.2526065567
 30
0.0
 40
0.9999722903000219
 50
296.5419372069
 51
314.9713506456001
  0
ARC
  5
12C
  8
1
  6
CONTINUOUS
 62
     7
 10
278.5092796755
 20
710.3194922541
 30
0.0
 40
1.085886224000021
 50
236.3879226288
 51
251.6856817487001
  0
ARC
  5
12D
  8
1
  6
CONTINUOUS
 62
     7
 10
278.6149023158999
 20
684.3476545567
 30
0.0
 40
0.9999722903000219
 50
225.0286493544
 51
243.4580627934
  0
ARC
  5
12E
  8
1
  6
CONTINUOUS
 62
     7
 10
291.1170051944
 20
845.2516167613
 30
0.0
 40
0.998270365600018
 50
333.4115233321
 51
0.0
  0
LINE
  5
12F
  8
1
  6
CONTINUOUS
 62
     7
 10
370.2538895598
 20
689.7504085116
 30
0.0
 11
366.7538895598
 21
689.7504005116
 31
0.0
  0
ARC
  5
130
  8
1
  6
CONTINUOUS
 62
     7
 10
267.8892425597999
 20
701.7917905116
 30
0.0
 40
2.855050999999997
 50
195.165993
 51
274.540817
  0
LINE
  5
131
  8
1
  6
CONTINUOUS
 62
     7
 10
268.1152755598
 20
767.0452755116
 30
0.0
 11
292.1152755598
 21
767.0452755116
 31
0.0
  0
ARC
  5
132
  8
1
  6
CONTINUOUS
 62
     7
 10
278.6149023158999
 20
842.1522964664
 30
0.0
 40
0.9999722903000219
 50
116.5419372066
 51
134.9713506456
  0
LINE
  5
133
  8
1
  6
CONTINUOUS
 62
     7
 10
296.9464175598
 20
675.7499755116
 30
0.0
 11
268.1152755598
 21
675.7499755116
 31
0.0
  0
ARC
  5
134
  8
1
  6
CONTINUOUS
 62
     7
 10
267.7409435597999
 20
744.0436075116
 30
0.0
 40
22.9974
 50
89.067347
 51
96.55589177959999
  0
LINE
  5
135
  8
1
  6
CONTINUOUS
 62
     7
 10
291.2024305598
 20
818.0292285116
 30
0.0
 11
278.5281195598
 21
817.2800945116
 31
0.0
  0
ARC
  5
136
  8
1
  6
CONTINUOUS
 62
     7
 10
291.1162816231
 20
845.2519731276
 30
0.0
 40
0.9990769172000258
 50
314.9713496884
 51
333.4118202239
  0
LINE
  5
137
  8
1
  6
CONTINUOUS
 62
     7
 10
356.7538895598
 20
689.7504005116
 30
0.0
 11
361.7549545598
 21
836.7496335116
 31
0.0
  0
LINE
  5
138
  8
1
  6
CONTINUOUS
 62
     7
 10
265.1152755598
 20
678.7499755116
 30
0.0
 11
265.1152755598
 21
847.7499755116
 31
0.0
  0
LINE
  5
139
  8
1
  6
CONTINUOUS
 62
     7
 10
377.1152755598
 20
692.7499755116
 30
0.0
 11
370.3559379233
 21
692.7499755116
 31
0.0
  0
LINE
  5
13A
  8
1
  6
CONTINUOUS
 62
     7
 10
366.7538895598
 20
689.7504005116
 30
0.0
 11
371.7549545598
 21
836.7496335116
 31
0.0
  0
ARC
  5
13B
  8
1
  6
CONTINUOUS
 62
     7
 10
278.5092796759
 20
816.180457769
 30
0.0
 40
1.085886224200028
 50
108.3143182693
 51
123.6120773888
  0
ARC
  5
13C
  8
1
  6
CONTINUOUS
 62
     7
 10
291.1170051944
 20
681.2483332619
 30
0.0
 40
0.998270365600018
 50
0.000990049
 51
26.5884766679
  0
LINE
  5
13D
  8
1
  6
CONTINUOUS
 62
     7
 10
356.7538895598
 20
689.7504005116
 30
0.0
 11
356.2254335598
 21
692.7499755116
 31
0.0
  0
LINE
  5
13E
  8
1
  6
CONTINUOUS
 62
     7
 10
375.2549545598
 20
836.7496255116
 30
0.0
 11
375.7832225598
 21
833.7499755116
 31
0.0
  0
ARC
  5
13F
  8
1
  6
CONTINUOUS
 62
     7
 10
278.6135459251
 20
684.3466647611
 30
0.0
 40
0.9982703654999869
 50
180.0009900366
 51
206.5884766558
  0
ARC
  5
140
  8
1
  6
CONTINUOUS
 62
     7
 10
291.1669297996999
 20
681.4294788709
 30
0.0
 40
0.8148916565000053
 50
60.96043711150001
 51
87.50306650609997
  0
LINE
  5
141
  8
1
  6
CONTINUOUS
 62
     7
 10
268.1152755598
 20
850.7499755116
 30
0.0
 11
296.9464175598
 21
850.7499755116
 31
0.0
  0
LINE
  5
142
  8
1
  6
CONTINUOUS
 62
     7
 10
375.2549545598
 20
836.7496255116
 30
0.0
 11
370.2538895598
 21
689.7504085116
 31
0.0
  0
LINE
  5
143
  8
1
  6
CONTINUOUS
 62
     7
 10
366.2253845598
 20
692.7499755116
 30
0.0
 11
360.3559379233
 21
692.7499755116
 31
0.0
  0
ARC
  5
144
  8
1
  6
CONTINUOUS
 62
     7
 10
278.614269496
 20
842.1529298956
 30
0.0
 40
0.999076916899988
 50
134.9713496772
 51
153.4118202142
  0
LINE
  5
145
  8
1
  6
CONTINUOUS
 62
     7
 10
366.7538895598
 20
689.7504005116
 30
0.0
 11
366.2254335598
 21
692.7499755116
 31
0.0
  0
LINE
  5
146
  8
1
  6
CONTINUOUS
 62
     7
 10
360.2538895598
 20
689.7504085116
 30
0.0
 11
356.7538895598
 21
689.7504005116
 31
0.0
  0
ARC
  5
147
  8
1
  6
CONTINUOUS
 62
     7
 10
291.6085128244
 20
818.7098116354
 30
0.0
 40
0.5068191845999936
 50
322.3337803622
 51
359.1448459894
  0
LINE
  5
148
  8
1
  6
CONTINUOUS
 62
     7
 10
316.7538895597999
 20
689.7504005116
 30
0.0
 11
321.7549545598
 21
836.7496335116
 31
0.0
  0
ARC
  5
149
  8
1
  6
CONTINUOUS
 62
     7
 10
291.4015551895
 20
818.8612092867
 30
0.0
 40
0.763185349999973
 50
303.4637193292
 51
322.8307555976
  0
LINE
  5
14A
  8
1
  6
CONTINUOUS
 62
     7
 10
316.7538895597999
 20
689.7504005116
 30
0.0
 11
316.2254335598
 21
692.7499755116
 31
0.0
  0
LINE
  5
14B
  8
1
  6
CONTINUOUS
 62
     7
 10
316.2253845598
 20
692.7499755116
 30
0.0
 11
310.3559379233
 21
692.7499755116
 31
0.0
  0
LINE
  5
14C
  8
1
  6
CONTINUOUS
 62
     7
 10
306.7538895598
 20
689.7504005116
 30
0.0
 11
311.7549545598
 21
836.7496335116
 31
0.0
  0
LINE
  5
14D
  8
1
  6
CONTINUOUS
 62
     7
 10
305.7832225597999
 20
833.7499755116
 30
0.0
 11
311.6525010557
 21
833.7499755116
 31
0.0
  0
LINE
  5
14E
  8
1
  6
CONTINUOUS
 62
     7
 10
315.2549545598
 20
836.7496255116
 30
0.0
 11
310.2538895598
 21
689.7504085116
 31
0.0
  0
LINE
  5
14F
  8
1
  6
CONTINUOUS
 62
     7
 10
291.2024305598
 20
682.2435975116
 30
0.0
 11
278.5281195598
 21
683.3514005116
 31
0.0
  0
LINE
  5
150
  8
1
  6
CONTINUOUS
 62
     7
 10
315.7832225597999
 20
833.7499755116
 30
0.0
 11
321.6525010557
 21
833.7499755116
 31
0.0
  0
ARC
  5
151
  8
1
  6
CONTINUOUS
 62
     7
 10
291.6085128244
 20
707.7901383878
 30
0.0
 40
0.5068191845999936
 50
0.8551540106
 51
37.6662196378
  0
LINE
  5
152
  8
1
  6
CONTINUOUS
 62
     7
 10
310.2538895598
 20
689.7504085116
 30
0.0
 11
306.7538895598
 21
689.7504005116
 31
0.0
  0
LINE
  5
153
  8
1
  6
CONTINUOUS
 62
     7
 10
325.2549545598
 20
836.7496255116
 30
0.0
 11
320.2538895597999
 21
689.7504085116
 31
0.0
  0
ARC
  5
154
  8
1
  6
CONTINUOUS
 62
     7
 10
291.4015551898
 20
707.6387407364
 30
0.0
 40
0.7631853498000218
 50
37.1692444188
 51
56.53628068690001
  0
ARC
  5
155
  8
1
  6
CONTINUOUS
 62
     7
 10
278.32899593
 20
710.0518372867
 30
0.0
 40
0.7631853498999974
 50
217.1692444019
 51
236.5362806713
  0
LINE
  5
156
  8
1
  6
CONTINUOUS
 62
     7
 10
325.2549545598
 20
836.7496255116
 30
0.0
 11
325.7832225598
 21
833.7499755116
 31
0.0
  0
ARC
  5
157
  8
1
  6
CONTINUOUS
 62
     7
 10
278.4712041698
 20
816.6009768014
 30
0.0
 40
0.6814977153999924
 50
85.20933217679999
 51
116.4116720382
  0
ARC
  5
158
  8
1
  6
CONTINUOUS
 62
     7
 10
291.1156488036
 20
681.2473434664
 30
0.0
 40
0.9999722903000219
 50
45.0286493544
 51
63.45806279310001
  0
LINE
  5
159
  8
1
  6
CONTINUOUS
 62
     7
 10
326.2253845598
 20
692.7499755116
 30
0.0
 11
320.3559379233
 21
692.7499755116
 31
0.0
  0
ARC
  5
15A
  8
1
  6
CONTINUOUS
 62
     7
 10
291.2212714436
 20
707.371085769
 30
0.0
 40
1.085886224200028
 50
56.38792261130001
 51
71.6856817304
  0
ARC
  5
15B
  8
1
  6
CONTINUOUS
 62
     7
 10
291.1153092805999
 20
845.2532808222
 30
0.0
 40
1.000727210100028
 50
274.9944193337
 51
296.5420770487
  0
LINE
  5
15C
  8
1
  6
CONTINUOUS
 62
     7
 10
277.6152755598
 20
684.3466475116
 30
0.0
 11
277.6152755598
 21
698.9457015116
 31
0.0
  0
LINE
  5
15D
  8
1
  6
CONTINUOUS
 62
     7
 10
291.2024305598
 20
844.2563525116
 30
0.0
 11
278.5281195598
 21
843.1485495116
 31
0.0
  0
ARC
  5
15E
  8
1
  6
CONTINUOUS
 62
     7
 10
278.3289959297
 20
816.4481127364
 30
0.0
 40
0.7631853496999907
 50
123.4637193125
 51
142.8307555817
  0
ARC
  5
15F
  8
1
  6
CONTINUOUS
 62
     7
 10
278.1220382951
 20
816.599510388
 30
0.0
 40
0.5068191845999936
 50
142.333780379
 51
179.1448460068
  0
LINE
  5
160
  8
1
  6
CONTINUOUS
 62
     7
 10
326.7538895597999
 20
689.7504005116
 30
0.0
 11
326.2254335598
 21
692.7499755116
 31
0.0
  0
ARC
  5
161
  8
1
  6
CONTINUOUS
 62
     7
 10
291.221271444
 20
819.1288642542
 30
0.0
 40
1.085886224000021
 50
288.3143182515001
 51
303.6120773711
  0
LINE
  5
162
  8
1
  6
CONTINUOUS
 62
     7
 10
291.2024305598
 20
708.4707215116
 30
0.0
 11
278.5281195598
 21
709.2198555116
 31
0.0
  0
LINE
  5
163
  8
1
  6
CONTINUOUS
 62
     7
 10
311.7549545598
 20
836.7496335116
 30
0.0
 11
315.2549545598
 21
836.7496255116
 31
0.0
  0
LINE
  5
164
  8
1
  6
CONTINUOUS
 62
     7
 10
277.6152755598
 20
767.0452755116
 30
0.0
 11
277.6152755598
 21
816.6070745116
 31
0.0
  0
ARC
  5
165
  8
1
  6
CONTINUOUS
 62
     7
 10
278.1220382951
 20
709.9004396352
 30
0.0
 40
0.5068191845999936
 50
180.8551539938
 51
217.6662196204
  0
LINE
  5
166
  8
1
  6
CONTINUOUS
 62
     7
 10
321.7549545598
 20
836.7496335116
 30
0.0
 11
325.2549545598
 21
836.7496255116
 31
0.0
  0
LINE
  5
167
  8
1
  6
CONTINUOUS
 62
     7
 10
315.2549545598
 20
836.7496255116
 30
0.0
 11
315.7832225597999
 21
833.7499755116
 31
0.0
  0
LINE
  5
168
  8
1
  6
CONTINUOUS
 62
     7
 10
320.2538895597999
 20
689.7504085116
 30
0.0
 11
316.7538895597999
 21
689.7504005116
 31
0.0
  0
LINE
  5
169
  8
1
  6
CONTINUOUS
 62
     7
 10
247.1152755598
 20
693.3499755116
 30
0.0
 11
241.1152755598
 21
693.3499755116
 31
0.0
  0
LINE
  5
16A
  8
1
  6
CONTINUOUS
 62
     7
 10
241.1152755598
 20
686.2499644097
 30
0.0
 11
143.1152755598
 21
686.2499644097
 31
0.0
  0
LINE
  5
16B
  8
1
  6
CONTINUOUS
 62
     7
 10
241.1152755598
 20
833.1499755116
 30
0.0
 11
247.1152755598
 21
833.1499755116
 31
0.0
  0
LINE
  5
16C
  8
1
  6
CONTINUOUS
 62
     7
 10
241.1152755598
 20
840.2499755116
 30
0.0
 11
143.1152755598
 21
840.2499755116
 31
0.0
  0
LINE
  5
16D
  8
1
  6
CONTINUOUS
 62
     7
 10
251.7549545598
 20
836.7496335116
 30
0.0
 11
255.2549545598
 21
836.7496255116
 31
0.0
  0
LINE
  5
16E
  8
1
  6
CONTINUOUS
 62
     7
 10
15.7151617801
 20
667.5355815116
 30
0.0
 11
15.7152145262
 21
700.7892488355
 31
0.0
  0
LINE
  5
16F
  8
1
  6
CONTINUOUS
 62
     7
 10
16.6215642387
 20
824.4440247348
 30
0.0
 11
22.5933047473
 21
826.0441477815
 31
0.0
  0
ARC
  5
170
  8
1
  6
CONTINUOUS
 62
     7
 10
21.47520647250001
 20
830.216947351
 30
0.0
 40
4.319999999999987
 50
285.0
 51
0.0000908810999931
  0
LINE
  5
171
  8
1
  6
CONTINUOUS
 62
     7
 10
265.1152755598
 20
692.7499755116
 30
0.0
 11
260.3559379233
 21
692.7499755116
 31
0.0
  0
LINE
  5
172
  8
1
  6
CONTINUOUS
 62
     7
 10
256.7538895597999
 20
689.7504005116
 30
0.0
 11
256.2254335598
 21
692.7499755116
 31
0.0
  0
LINE
  5
173
  8
1
  6
CONTINUOUS
 62
     7
 10
306.2253845598
 20
692.7499755116
 30
0.0
 11
300.3559379233
 21
692.7499755116
 31
0.0
  0
LINE
  5
174
  8
1
  6
CONTINUOUS
 62
     7
 10
255.2549545598
 20
836.7496255116
 30
0.0
 11
250.2538895597999
 21
689.7504085116
 31
0.0
  0
LINE
  5
175
  8
1
  6
CONTINUOUS
 62
     7
 10
345.2549545598
 20
836.7496255116
 30
0.0
 11
345.7832225598
 21
833.7499755116
 31
0.0
  0
LINE
  5
176
  8
1
  6
CONTINUOUS
 62
     7
 10
305.2549545598
 20
836.7496255116
 30
0.0
 11
305.7832225597999
 21
833.7499755116
 31
0.0
  0
LINE
  5
177
  8
1
  6
CONTINUOUS
 62
     7
 10
331.7549545598
 20
836.7496335116
 30
0.0
 11
335.2549545598
 21
836.7496255116
 31
0.0
  0
LINE
  5
178
  8
1
  6
CONTINUOUS
 62
     7
 10
16.6215642387
 20
701.4847142884
 30
0.0
 11
22.5933047473
 21
699.8845912417
 31
0.0
  0
LINE
  5
179
  8
1
  6
CONTINUOUS
 62
     7
 10
250.2538895597999
 20
689.7504085116
 30
0.0
 11
247.1152755598
 21
689.7504013376
 31
0.0
  0
LINE
  5
17A
  8
1
  6
CONTINUOUS
 62
     7
 10
336.2253845598
 20
692.7499755116
 30
0.0
 11
330.3559379233
 21
692.7499755116
 31
0.0
  0
LINE
  5
17B
  8
1
  6
CONTINUOUS
 62
     7
 10
25.79520647249999
 20
830.2169542033
 30
0.0
 11
25.79516087399998
 21
858.9643695116
 31
0.0
  0
LINE
  5
17C
  8
1
  6
CONTINUOUS
 62
     7
 10
300.2538895598
 20
689.7504085116
 30
0.0
 11
296.9464175598
 21
689.7504009516
 31
0.0
  0
ARC
  5
17D
  8
1
  6
CONTINUOUS
 62
     7
 10
21.47520647250001
 20
695.7117916721
 30
0.0
 40
4.319999999999987
 50
0.0
 51
75.0
  0
LINE
  5
17E
  8
1
  6
CONTINUOUS
 62
     7
 10
335.2549545598
 20
836.7496255116
 30
0.0
 11
330.2538895598
 21
689.7504085116
 31
0.0
  0
ARC
  5
17F
  8
1
  6
CONTINUOUS
 62
     7
 10
16.4352145262
 20
825.1394913297
 30
0.0
 40
0.7199999999999984
 50
180.0000908811
 51
285.0
  0
LINE
  5
180
  8
1
  6
CONTINUOUS
 62
     7
 10
336.7538895598
 20
689.7504005116
 30
0.0
 11
341.7549545598
 21
836.7496335116
 31
0.0
  0
LINE
  5
181
  8
1
  6
CONTINUOUS
 62
     7
 10
256.7538895597999
 20
689.7504005116
 30
0.0
 11
261.7549545598
 21
836.7496335116
 31
0.0
  0
LINE
  5
182
  8
1
  6
CONTINUOUS
 62
     7
 10
306.7538895598
 20
689.7504005116
 30
0.0
 11
306.2254335598
 21
692.7499755116
 31
0.0
  0
LINE
  5
183
  8
1
  6
CONTINUOUS
 62
     7
 10
255.7832225598
 20
833.7499755116
 30
0.0
 11
261.6525010557
 21
833.7499755116
 31
0.0
  0
LINE
  5
184
  8
1
  6
CONTINUOUS
 62
     7
 10
325.7832225598
 20
833.7499755116
 30
0.0
 11
331.6525010557
 21
833.7499755116
 31
0.0
  0
LINE
  5
185
  8
1
  6
CONTINUOUS
 62
     7
 10
255.2549545598
 20
836.7496255116
 30
0.0
 11
255.7832225598
 21
833.7499755116
 31
0.0
  0
LINE
  5
186
  8
1
  6
CONTINUOUS
 62
     7
 10
326.7538895598
 20
689.7504005116
 30
0.0
 11
331.7549545598
 21
836.7496335116
 31
0.0
  0
LINE
  5
187
  8
1
  6
CONTINUOUS
 62
     7
 10
417.1152755598
 20
850.7371185116
 30
0.0
 11
400.474138303
 21
853.9722928837
 31
0.0
  0
ARC
  5
188
  8
1
  6
CONTINUOUS
 62
     7
 10
16.4352145262
 20
700.7892476934
 30
0.0
 40
0.7199999999999984
 50
75.0
 51
179.9999091189
  0
LINE
  5
189
  8
1
  6
CONTINUOUS
 62
     7
 10
25.79517078949999
 20
673.2155693599
 30
0.0
 11
15.71517068289999
 21
673.1483693592
 31
0.0
  0
LINE
  5
18A
  8
1
  6
CONTINUOUS
 62
     7
 10
335.7832225598
 20
833.7499755116
 30
0.0
 11
341.6525010557
 21
833.7499755116
 31
0.0
  0
LINE
  5
18B
  8
1
  6
CONTINUOUS
 62
     7
 10
301.7549545598
 20
836.7496335116
 30
0.0
 11
305.2549545598
 21
836.7496255116
 31
0.0
  0
LINE
  5
18C
  8
1
  6
CONTINUOUS
 62
     7
 10
400.474138303
 20
853.9722928837
 30
0.0
 11
400.474138303
 21
672.5255771395
 31
0.0
  0
LINE
  5
18D
  8
1
  6
CONTINUOUS
 62
     7
 10
25.79520647249999
 20
695.7117848198
 30
0.0
 11
25.79516178009999
 21
667.5355815116
 31
0.0
  0
LINE
  5
18E
  8
1
  6
CONTINUOUS
 62
     7
 10
15.715160874
 20
858.9643695116
 30
0.0
 11
15.7152145262
 21
825.1394901877
 31
0.0
  0
LINE
  5
18F
  8
1
  6
CONTINUOUS
 62
     7
 10
330.2538895598
 20
689.7504085116
 30
0.0
 11
326.7538895598
 21
689.7504005116
 31
0.0
  0
LINE
  5
190
  8
1
  6
CONTINUOUS
 62
     7
 10
417.1152755598
 20
675.7607515116
 30
0.0
 11
400.474138303
 21
672.5255771395
 31
0.0
  0
LINE
  5
191
  8
1
  6
CONTINUOUS
 62
     7
 10
265.1152755598
 20
832.6439592922
 30
0.0
 11
260.2538895597999
 21
689.7504085116
 31
0.0
  0
LINE
  5
192
  8
1
  6
CONTINUOUS
 62
     7
 10
335.2549545598
 20
836.7496255116
 30
0.0
 11
335.7832225598
 21
833.7499755116
 31
0.0
  0
LINE
  5
193
  8
1
  6
CONTINUOUS
 62
     7
 10
247.1152755598
 20
700.3728308973
 30
0.0
 11
251.7549545598
 21
836.7496335116
 31
0.0
  0
LINE
  5
194
  8
1
  6
CONTINUOUS
 62
     7
 10
25.79517078949999
 20
852.7131696632
 30
0.0
 11
15.71517068289999
 21
852.7803696639
 31
0.0
  0
LINE
  5
195
  8
1
  6
CONTINUOUS
 62
     7
 10
296.9464175598
 20
695.409488792
 30
0.0
 11
301.7549545598
 21
836.7496335116
 31
0.0
  0
LINE
  5
196
  8
1
  6
CONTINUOUS
 62
     7
 10
296.9464175598
 20
833.7499755116
 30
0.0
 11
301.6525010556999
 21
833.7499755116
 31
0.0
  0
LINE
  5
197
  8
1
  6
CONTINUOUS
 62
     7
 10
261.7549545598
 20
836.7496335116
 30
0.0
 11
265.2549545598
 21
836.7496255116
 31
0.0
  0
LINE
  5
198
  8
1
  6
CONTINUOUS
 62
     7
 10
256.2253845598
 20
692.7499755116
 30
0.0
 11
250.3559379233
 21
692.7499755116
 31
0.0
  0
LINE
  5
199
  8
1
  6
CONTINUOUS
 62
     7
 10
336.7538895598
 20
689.7504005116
 30
0.0
 11
336.2254335598
 21
692.7499755116
 31
0.0
  0
LINE
  5
19A
  8
1
  6
CONTINUOUS
 62
     7
 10
260.2538895597999
 20
689.7504085116
 30
0.0
 11
256.7538895597999
 21
689.7504005116
 31
0.0
  0
LINE
  5
19B
  8
1
  6
CONTINUOUS
 62
     7
 10
305.2549545598
 20
836.7496255116
 30
0.0
 11
300.2538895598
 21
689.7504085116
 31
0.0
  0
LINE
  5
19C
  8
1
  6
CENTER
 62
     5
 10
-32.50000000000001
 20
763.2499755116
 30
0.0
 11
438.6074786593
 21
763.2499755116
 31
0.0
  0
LINE
  5
19E
  8
1
  6
CONTINUOUS
 62
     7
 10
345.2549545598
 20
836.7496255116
 30
0.0
 11
340.2538895598
 21
689.7504085116
 31
0.0
  0
ARC
  5
19F
  8
1
  6
CONTINUOUS
 62
     7
 10
388.6152755598
 20
833.7499755116
 30
0.0
 40
0.5
 50
180.0
 51
270.0
  0
ARC
  5
1A0
  8
1
  6
CONTINUOUS
 62
     7
 10
422.12308271
 20
709.2159067358
 30
0.0
 40
2.2098620151
 50
269.7975811685
 51
287.4590881603
  0
LINE
  5
1A1
  8
1
  6
CONTINUOUS
 62
     7
 10
419.6152755598
 20
696.2210865116
 30
0.0
 11
422.1152755598
 21
696.2210865116
 31
0.0
  0
LINE
  5
1A2
  8
1
  6
CONTINUOUS
 62
     7
 10
419.6152755598
 20
841.2130455116
 30
0.0
 11
419.6152755598
 21
830.2788635116
 31
0.0
  0
LINE
  5
1A3
  8
1
  6
CONTINUOUS
 62
     7
 10
417.1152755598
 20
850.7371175116
 30
0.0
 11
422.1152755598
 21
850.7371175116
 31
0.0
  0
LINE
  5
1A4
  8
1
  6
CONTINUOUS
 62
     7
 10
419.6152755598
 20
723.5258065116
 30
0.0
 11
419.6152755598
 21
707.0060595116
 31
0.0
  0
ARC
  5
1A5
  8
1
  6
CONTINUOUS
 62
     7
 10
423.1925560693
 20
724.2331552133
 30
0.0
 40
0.4235407415
 50
308.6210948563
 51
356.4313974408
  0
LINE
  5
1A6
  8
1
  6
CONTINUOUS
 62
     7
 10
-11.8847244464
 20
667.2499755116
 30
0.0
 11
138.1152755598
 21
667.2499755116
 31
0.0
  0
LINE
  5
1A7
  8
1
  6
CONTINUOUS
 62
     7
 10
423.6152755598
 20
677.2499755116
 30
0.0
 11
423.6152755598
 21
849.2499755116
 31
0.0
  0
LINE
  5
1A8
  8
1
  6
CONTINUOUS
 62
     7
 10
419.6152755598
 20
707.0060595116
 30
0.0
 11
422.1152755598
 21
707.0060595116
 31
0.0
  0
ARC
  5
1A9
  8
1
  6
CONTINUOUS
 62
     7
 10
422.3466359929
 20
725.6001923647
 30
0.0
 40
2.0501455262
 50
282.3777184004
 51
293.8602834383
  0
LINE
  5
1AA
  8
1
  6
CONTINUOUS
 62
     7
 10
394.1152755598
 20
690.7499755116
 30
0.0
 11
394.1152755598
 21
835.7499755116
 31
0.0
  0
LINE
  5
1AB
  8
1
  6
CONTINUOUS
 62
     7
 10
143.1152755598
 20
840.2499755116
 30
0.0
 11
143.1152755598
 21
686.2499644097
 31
0.0
  0
ARC
  5
1AC
  8
1
  6
CONTINUOUS
 62
     7
 10
422.4420865528
 20
828.9703398546
 30
0.0
 40
1.2178917572
 50
33.5641181241
 51
52.94675183619997
  0
ARC
  5
1AD
  8
1
  6
CONTINUOUS
 62
     7
 10
422.3961543658
 20
686.6265836659
 30
0.0
 40
1.2191253131
 50
330.4703619161999
 51
359.8510576652
  0
ARC
  5
1AE
  8
1
  6
CONTINUOUS
 62
     7
 10
422.2868194474
 20
817.8034062787
 30
0.0
 40
1.6653003083
 50
57.73015058179998
 51
72.55370664639999
  0
ARC
  5
1AF
  8
1
  6
CONTINUOUS
 62
     7
 10
422.7401600288
 20
801.7713100641
 30
0.0
 40
1.0939227527
 50
49.0639262667
 51
66.5242696163
  0
ARC
  5
1B0
  8
1
  6
CONTINUOUS
 62
     7
 10
422.1208071533
 20
828.3940466678
 30
0.0
 40
1.8848249609
 50
69.3308491315
 51
90.1681521752
  0
ARC
  5
1B1
  8
1
  6
CONTINUOUS
 62
     7
 10
422.2363234519
 20
697.7987741657
 30
0.0
 40
1.5566895634
 50
290.6811897831
 51
307.1279103124
  0
ARC
  5
1B2
  8
1
  6
CONTINUOUS
 62
     7
 10
422.1180551586
 20
839.5610891738
 30
0.0
 40
1.6519601763
 50
66.1469177938
 51
90.09640629069997
  0
LINE
  5
1B3
  8
1
  6
CONTINUOUS
 62
     7
 10
397.1152755598
 20
835.7499755116
 30
0.0
 11
400.1152755598
 21
835.7499755116
 31
0.0
  0
ARC
  5
1B4
  8
1
  6
CONTINUOUS
 62
     7
 10
396.6152755598
 20
692.7499755116
 30
0.0
 40
0.5
 50
0.0
 51
90.0
  0
ARC
  5
1B5
  8
1
  6
CONTINUOUS
 62
     7
 10
422.6780034477
 20
829.1223023717
 30
0.0
 40
0.93730208
 50
0.4581708177
 51
33.7967662775
  0
ARC
  5
1B6
  8
1
  6
CONTINUOUS
 62
     7
 10
422.2785397636
 20
839.8083433979
 30
0.0
 40
1.3535111952
 50
29.4707238932
 51
48.46990641549999
  0
LINE
  5
1B7
  8
1
  6
CONTINUOUS
 62
     7
 10
247.1152755598
 20
833.7499755116
 30
0.0
 11
251.6525010557
 21
833.7499755116
 31
0.0
  0
ARC
  5
1B8
  8
1
  6
CONTINUOUS
 62
     7
 10
422.396154366
 20
839.8733673573
 30
0.0
 40
1.2191253129
 50
0.1489423371
 51
29.5296380862
  0
LINE
  5
1B9
  8
1
  6
CONTINUOUS
 62
     7
 10
396.6152755598
 20
693.2499755116
 30
0.0
 11
394.6152755598
 21
693.2499755116
 31
0.0
  0
ARC
  5
1BA
  8
1
  6
CONTINUOUS
 62
     7
 10
394.6152755598
 20
833.7499755116
 30
0.0
 40
0.5
 50
180.0
 51
270.0
  0
LINE
  5
1BB
  8
1
  6
CONTINUOUS
 62
     7
 10
292.1152755598
 20
827.4209405116
 30
0.0
 11
292.1152755598
 21
850.6871855116
 31
0.0
  0
LINE
  5
1BC
  8
1
  6
CONTINUOUS
 62
     7
 10
268.1152755598
 20
759.4546755116
 30
0.0
 11
268.1152755598
 21
759.4619895116
 31
0.0
  0
ARC
  5
1BD
  8
1
  6
CONTINUOUS
 62
     7
 10
422.125756744
 20
726.5935862072
 30
0.0
 40
3.0677966002
 50
269.8042475223
 51
282.4301179892001
  0
LINE
  5
1BE
  8
1
  6
CONTINUOUS
 62
     7
 10
422.1152755598
 20
675.7499755116
 30
0.0
 11
417.1152755598
 21
675.7499755116
 31
0.0
  0
ARC
  5
1BF
  8
1
  6
CONTINUOUS
 62
     7
 10
422.12308271
 20
817.2840432874
 30
0.0
 40
2.2098620151
 50
72.5409118397
 51
90.20241883150001
  0
LINE
  5
1C0
  8
1
  6
CONTINUOUS
 62
     7
 10
250.2540555598
 20
689.7511375116
 30
0.0
 11
247.1152755598
 21
689.7511305116
 31
0.0
  0
LINE
  5
1C1
  8
1
  6
CONTINUOUS
 62
     7
 10
268.1152755598
 20
767.0379605116
 30
0.0
 11
268.1152755598
 21
767.0452755116
 31
0.0
  0
LINE
  5
1C2
  8
1
  6
CONTINUOUS
 62
     7
 10
247.1152755598
 20
833.7499755116
 30
0.0
 11
247.1152755598
 21
689.7511305116
 31
0.0
  0
LINE
  5
1C3
  8
1
  6
CONTINUOUS
 62
     7
 10
423.5822485598
 20
849.5499755116
 30
0.0
 11
423.5849695598
 21
849.5499755116
 31
0.0
  0
ARC
  5
1C4
  8
1
  6
CONTINUOUS
 62
     7
 10
422.1757944273
 20
839.6929245882
 30
0.0
 40
1.5080361706
 50
48.45502321520001
 51
66.1277006411
  0
LINE
  5
1C5
  8
1
  6
CONTINUOUS
 62
     7
 10
400.1152755598
 20
690.7499755116
 30
0.0
 11
397.1152755598
 21
690.7499755116
 31
0.0
  0
ARC
  5
1C6
  8
1
  6
CONTINUOUS
 62
     7
 10
394.6152755598
 20
692.7499755116
 30
0.0
 40
0.5
 50
90.0
 51
180.0
  0
ARC
  5
1C7
  8
1
  6
CONTINUOUS
 62
     7
 10
422.1757944273
 20
686.807026435
 30
0.0
 40
1.5080361706
 50
293.8722993589
 51
311.5449767848
  0
LINE
  5
1C8
  8
1
  6
CONTINUOUS
 62
     7
 10
394.6152755598
 20
833.2499755116
 30
0.0
 11
396.6152755598
 21
833.2499755116
 31
0.0
  0
ARC
  5
1C9
  8
1
  6
CONTINUOUS
 62
     7
 10
400.6152755598
 20
692.7499755116
 30
0.0
 40
0.5
 50
106.3960018034
 51
180.0
  0
LINE
  5
1CA
  8
1
  6
CONTINUOUS
 62
     7
 10
292.1152755598
 20
675.8127645116
 30
0.0
 11
292.1152755598
 21
699.0790105116
 31
0.0
  0
ARC
  5
1CB
  8
1
  6
CONTINUOUS
 62
     7
 10
422.1152755598
 20
677.2499755116
 30
0.0
 40
1.5
 50
270.0
 51
0.0
  0
LINE
  5
1CC
  8
1
  6
CONTINUOUS
 62
     7
 10
400.1152755598
 20
690.7499755116
 30
0.0
 11
400.1152755598
 21
835.7499755116
 31
0.0
  0
ARC
  5
1CD
  8
1
  6
CONTINUOUS
 62
     7
 10
422.1152755598
 20
849.2499755116
 30
0.0
 40
1.5
 50
0.0
 51
11.537021
  0
LINE
  5
1CE
  8
1
  6
CONTINUOUS
 62
     7
 10
397.1152755598
 20
690.7499755116
 30
0.0
 11
397.1152755598
 21
835.7499755116
 31
0.0
  0
LINE
  5
1CF
  8
1
  6
CONTINUOUS
 62
     7
 10
296.9464175598
 20
675.7499755116
 30
0.0
 11
296.9464175598
 21
850.7499755116
 31
0.0
  0
LINE
  5
1D0
  8
1
  6
CONTINUOUS
 62
     7
 10
489.1925625598
 20
761.7610445116
 30
0.0
 11
489.1925625598
 21
764.7610445116
 31
0.0
  0
LINE
  5
1D1
  8
1
  6
CONTINUOUS
 62
     7
 10
538.9526699977
 20
691.547473817
 30
0.0
 11
535.7683945598
 21
685.2979735116
 31
0.0
  0
LINE
  5
1D2
  8
1
  6
CONTINUOUS
 62
     7
 10
612.0324522035
 20
691.5474723301
 30
0.0
 11
615.2167315598
 21
685.2979735116
 31
0.0
  0
LINE
  5
1D3
  8
1
  6
CONTINUOUS
 62
     7
 10
292.1152755598
 20
703.7660505116
 30
0.0
 11
292.1152755598
 21
759.9357365116
 31
0.0
  0
LINE
  5
1D4
  8
1
  6
CONTINUOUS
 62
     7
 10
489.1925625598
 20
764.7610445116
 30
0.0
 11
488.0054206474
 21
764.7610445116
 31
0.0
  0
ARC
  5
1D5
  8
1
  6
CONTINUOUS
 62
     7
 10
422.1149115598
 20
849.2367145116
 30
0.0
 40
1.500402
 50
12.051115
 51
89.986128
  0
LINE
  5
1D6
  8
1
  6
CONTINUOUS
 62
     7
 10
489.1925625598
 20
761.7610445116
 30
0.0
 11
488.0054206474
 21
761.7610445116
 31
0.0
  0
LINE
  5
1D7
  8
1
  6
CONTINUOUS
 62
     7
 10
388.1152755598
 20
690.7499755116
 30
0.0
 11
385.1152755598
 21
690.7499755116
 31
0.0
  0
ARC
  5
1D8
  8
1
  6
CONTINUOUS
 62
     7
 10
422.2363234515
 20
828.7011768574
 30
0.0
 40
1.5566895635
 50
52.8720896763
 51
69.3188102056
  0
LINE
  5
1D9
  8
1
  6
CONTINUOUS
 62
     7
 10
523.7571445598
 20
701.6051735116
 30
0.0
 11
519.2486471077
 21
696.2321558909
 31
0.0
  0
ARC
  5
1DA
  8
1
  6
CONTINUOUS
 62
     7
 10
422.2785397639
 20
686.6916076253
 30
0.0
 40
1.353511195
 50
311.5300935766
 51
330.5292760986001
  0
LINE
  5
1DB
  8
1
  6
CONTINUOUS
 62
     7
 10
138.1152755598
 20
667.2499755116
 30
0.0
 11
138.1152755598
 21
859.2499755116
 31
0.0
  0
LINE
  5
1DC
  8
1
  6
CONTINUOUS
 62
     7
 10
422.1152755598
 20
841.2130455116
 30
0.0
 11
419.6152755598
 21
841.2130455116
 31
0.0
  0
LINE
  5
1DD
  8
1
  6
CONTINUOUS
 62
     7
 10
292.1152755598
 20
766.5642135116
 30
0.0
 11
292.1152755598
 21
822.7338995116
 31
0.0
  0
ARC
  5
1DE
  8
1
  6
CONTINUOUS
 62
     7
 10
422.1208071533
 20
698.1059043554
 30
0.0
 40
1.8848249609
 50
269.8318478249
 51
290.6691508685
  0
ARC
  5
1DF
  8
1
  6
CONTINUOUS
 62
     7
 10
422.1180551586
 20
686.9388618494
 30
0.0
 40
1.6519601763
 50
269.9035937094
 51
293.8530822061
  0
ARC
  5
1E0
  8
1
  6
CONTINUOUS
 62
     7
 10
400.6152755598
 20
833.7499755116
 30
0.0
 40
0.5
 50
180.0
 51
253.6039981966
  0
ARC
  5
1E1
  8
1
  6
CONTINUOUS
 62
     7
 10
396.6152755598
 20
833.7499755116
 30
0.0
 40
0.5
 50
270.0
 51
0.0
  0
LINE
  5
1E2
  8
1
  6
CONTINUOUS
 62
     7
 10
419.6152755598
 20
819.4938905116
 30
0.0
 11
422.1152755598
 21
819.4938905116
 31
0.0
  0
ARC
  5
1E3
  8
1
  6
CONTINUOUS
 62
     7
 10
422.2868194477
 20
708.6965437444
 30
0.0
 40
1.6653003082
 50
287.4462933416
 51
302.2698494059
  0
ARC
  5
1E4
  8
1
  6
CONTINUOUS
 62
     7
 10
422.9137595145
 20
818.5167501494
 30
0.0
 40
0.7016357366
 50
1.0583254874
 51
39.27383505820001
  0
ARC
  5
1E5
  8
1
  6
CONTINUOUS
 62
     7
 10
422.5786311214
 20
818.2589063467
 30
0.0
 40
1.1243606092
 50
38.6347506286
 51
57.9107683201
  0
ARC
  5
1E6
  8
1
  6
CONTINUOUS
 62
     7
 10
613.3689625598
 20
692.2284575116
 30
0.0
 40
1.5
 50
118.067685
 51
207.0
  0
LINE
  5
1E7
  8
1
  6
CONTINUOUS
 62
     7
 10
503.7789896206
 20
799.8009326684
 30
0.0
 11
497.5294925598
 21
802.9852135116
 31
0.0
  0
LINE
  5
1E8
  8
1
  6
CONTINUOUS
 62
     7
 10
513.8366915598
 20
711.5256255116
 30
0.0
 11
508.4636745259
 21
707.0171285519
 31
0.0
  0
ARC
  5
1E9
  8
1
  6
CONTINUOUS
 62
     7
 10
638.1126155598
 20
813.8473965116
 30
0.0
 40
1.5
 50
130.0
 51
218.932315
  0
ARC
  5
1EA
  8
1
  6
CONTINUOUS
 62
     7
 10
646.5251495598
 20
725.3846445116
 30
0.0
 40
1.5
 50
62.99999999999999
 51
151.932315
  0
ARC
  5
1EB
  8
1
  6
CONTINUOUS
 62
     7
 10
382.6152755598
 20
833.7499755116
 30
0.0
 40
0.5
 50
180.0
 51
270.0
  0
ARC
  5
1EC
  8
1
  6
CONTINUOUS
 62
     7
 10
575.4925625598
 20
763.2610445116
 30
0.0
 40
87.5
 50
180.982261
 51
179.017739
  0
ARC
  5
1ED
  8
1
  6
CONTINUOUS
 62
     7
 10
382.6152755598
 20
692.7499755116
 30
0.0
 40
0.5
 50
90.0
 51
180.0
  0
LINE
  5
1EE
  8
1
  6
CONTINUOUS
 62
     7
 10
503.7789896206
 20
726.7211563548
 30
0.0
 11
497.5294925598
 21
723.5368755116
 31
0.0
  0
LINE
  5
1EF
  8
1
  6
CONTINUOUS
 62
     7
 10
390.6152755598
 20
693.2499755116
 30
0.0
 11
388.6152755598
 21
693.2499755116
 31
0.0
  0
LINE
  5
1F0
  8
1
  6
CONTINUOUS
 62
     7
 10
535.7683938628
 20
841.2241151564
 30
0.0
 11
538.9526725598
 21
834.9746165116
 31
0.0
  0
LINE
  5
1F1
  8
1
  6
CONTINUOUS
 62
     7
 10
637.1484345598
 20
814.9964635116
 30
0.0
 11
642.5214516944
 21
819.5049603511
 31
0.0
  0
LINE
  5
1F2
  8
1
  6
CONTINUOUS
 62
     7
 10
382.6152755598
 20
833.2499755116
 30
0.0
 11
384.6152755598
 21
833.2499755116
 31
0.0
  0
ARC
  5
1F3
  8
1
  6
CONTINUOUS
 62
     7
 10
575.4925625598
 20
763.2610445116
 30
0.0
 40
79.0
 50
28.067685
 51
38.932315
  0
LINE
  5
1F4
  8
1
  6
CENTER
 62
     5
 10
664.9925625598
 20
763.2610445116
 30
0.0
 11
485.9925625598
 21
763.2610445116
 31
0.0
  0
LINE
  5
1F5
  8
1
  6
CONTINUOUS
 62
     7
 10
653.4556335531
 20
723.5368754984
 30
0.0
 11
647.2061355598
 21
726.7211545116
 31
0.0
  0
ARC
  5
1F6
  8
1
  6
CONTINUOUS
 62
     7
 10
390.6152755598
 20
692.7499755116
 30
0.0
 40
0.5
 50
0.0
 51
90.0
  0
ARC
  5
1F7
  8
1
  6
CONTINUOUS
 62
     7
 10
388.6152755598
 20
692.7499755116
 30
0.0
 40
0.5
 50
90.0
 51
180.0
  0
ARC
  5
1F8
  8
1
  6
CONTINUOUS
 62
     7
 10
575.4925625598
 20
763.2610445116
 30
0.0
 40
79.0
 50
231.067685
 51
241.932315
  0
ARC
  5
1F9
  8
1
  6
CONTINUOUS
 62
     7
 10
575.4925625598
 20
763.2610445116
 30
0.0
 40
79.0
 50
298.067685
 51
308.9323150000001
  0
LINE
  5
1FA
  8
1
  6
CONTINUOUS
 62
     7
 10
384.6152755598
 20
693.2499755116
 30
0.0
 11
382.6152755598
 21
693.2499755116
 31
0.0
  0
LINE
  5
1FB
  8
1
  6
CONTINUOUS
 62
     7
 10
385.1152755598
 20
835.7499755116
 30
0.0
 11
388.1152755598
 21
835.7499755116
 31
0.0
  0
ARC
  5
1FC
  8
1
  6
CONTINUOUS
 62
     7
 10
384.6152755598
 20
833.7499755116
 30
0.0
 40
0.5
 50
270.0
 51
0.0
  0
LINE
  5
1FD
  8
1
  6
CONTINUOUS
 62
     7
 10
394.1152755598
 20
690.7499755116
 30
0.0
 11
391.1152755598
 21
690.7499755116
 31
0.0
  0
ARC
  5
1FE
  8
1
  6
CONTINUOUS
 62
     7
 10
575.4925625598
 20
763.2610445116
 30
0.0
 40
79.0
 50
141.067685
 51
151.932315
  0
ARC
  5
1FF
  8
1
  6
CONTINUOUS
 62
     7
 10
638.1126155598
 20
712.6746925116
 30
0.0
 40
1.5
 50
141.067685
 51
230.0
  0
ARC
  5
200
  8
1
  6
CONTINUOUS
 62
     7
 10
504.4599765598
 20
725.3846445116
 30
0.0
 40
1.5
 50
28.067685
 51
117.0
  0
ARC
  5
201
  8
1
  6
CONTINUOUS
 62
     7
 10
613.3689625598
 20
834.2936305116
 30
0.0
 40
1.5
 50
153.0
 51
241.932315
  0
LINE
  5
202
  8
1
  6
CONTINUOUS
 62
     7
 10
653.4556335531
 20
802.9852135247
 30
0.0
 11
647.2061355598
 21
799.8009345116
 31
0.0
  0
ARC
  5
203
  8
1
  6
CONTINUOUS
 62
     7
 10
626.0789145598
 20
700.6409915116
 30
0.0
 40
1.5
 50
40.0
 51
128.932315
  0
LINE
  5
204
  8
1
  6
CONTINUOUS
 62
     7
 10
241.1152755598
 20
686.2499755116
 30
0.0
 11
241.1152755598
 21
840.2499755116
 31
0.0
  0
LINE
  5
205
  8
1
  6
CONTINUOUS
 62
     7
 10
615.2167314629
 20
841.224115561
 30
0.0
 11
612.0324525598
 21
834.9746165116
 31
0.0
  0
ARC
  5
206
  8
1
  6
CONTINUOUS
 62
     7
 10
575.4925625598
 20
763.2610445116
 30
0.0
 40
79.0
 50
118.067685
 51
128.932315
  0
LINE
  5
207
  8
1
  6
CONTINUOUS
 62
     7
 10
513.8366915598
 20
814.9964635116
 30
0.0
 11
508.4636738996
 21
819.5049597248
 31
0.0
  0
ARC
  5
208
  8
1
  6
CONTINUOUS
 62
     7
 10
537.6161625598
 20
834.2936305116
 30
0.0
 40
1.5
 50
298.067685
 51
27.0
  0
ARC
  5
209
  8
1
  6
CONTINUOUS
 62
     7
 10
575.4925625598
 20
763.2610445116
 30
0.0
 40
79.0
 50
51.067685
 51
61.932315
  0
LINE
  5
20A
  8
1
  6
CONTINUOUS
 62
     7
 10
382.1152755598
 20
689.7499755116
 30
0.0
 11
382.1152755598
 21
836.7499755116
 31
0.0
  0
ARC
  5
20B
  8
1
  6
CONTINUOUS
 62
     7
 10
575.4925625598
 20
763.2610445116
 30
0.0
 40
79.0
 50
208.067685
 51
218.932315
  0
LINE
  5
20C
  8
1
  6
CONTINUOUS
 62
     7
 10
637.1484345598
 20
711.5256255116
 30
0.0
 11
642.521451068
 21
707.0171279255
 31
0.0
  0
ARC
  5
20D
  8
1
  6
CONTINUOUS
 62
     7
 10
384.6152755598
 20
692.7499755116
 30
0.0
 40
0.5
 50
0.0
 51
90.0
  0
LINE
  5
20E
  8
1
  6
CONTINUOUS
 62
     7
 10
377.1152755598
 20
836.7499755116
 30
0.0
 11
382.1152755598
 21
836.7499755116
 31
0.0
  0
LINE
  5
20F
  8
1
  6
CONTINUOUS
 62
     7
 10
385.1152755598
 20
690.7499755116
 30
0.0
 11
385.1152755598
 21
835.7499755116
 31
0.0
  0
ARC
  5
210
  8
1
  6
CONTINUOUS
 62
     7
 10
575.4925625598
 20
763.2610445116
 30
0.0
 40
79.0
 50
321.0676849999999
 51
331.932315
  0
LINE
  5
211
  8
1
  6
CONTINUOUS
 62
     7
 10
523.7571445598
 20
824.9169155116
 30
0.0
 11
519.2486471077
 21
830.2899331322
 31
0.0
  0
ARC
  5
212
  8
1
  6
CONTINUOUS
 62
     7
 10
512.8725105598
 20
813.8473965116
 30
0.0
 40
1.5
 50
321.0676849999999
 51
50.0
  0
ARC
  5
213
  8
1
  6
CONTINUOUS
 62
     7
 10
504.4599765598
 20
801.1374445116
 30
0.0
 40
1.5
 50
243.0000000000001
 51
331.932315
  0
ARC
  5
214
  8
1
  6
CONTINUOUS
 62
     7
 10
524.9062105598
 20
825.8810965116
 30
0.0
 40
1.5
 50
220.0
 51
308.9323150000001
  0
ARC
  5
215
  8
1
  6
CONTINUOUS
 62
     7
 10
646.5251495598
 20
801.1374445116
 30
0.0
 40
1.5
 50
208.067685
 51
297.0
  0
ARC
  5
216
  8
1
  6
CONTINUOUS
 62
     7
 10
524.9062105598
 20
700.6409915116
 30
0.0
 40
1.5
 50
51.067685
 51
140.0
  0
LINE
  5
217
  8
1
  6
CONTINUOUS
 62
     7
 10
379.1152755598
 20
751.5105585116
 30
0.0
 11
378.9990445598
 21
751.5107885116
 31
0.0
  0
LINE
  5
218
  8
1
  6
CONTINUOUS
 62
     7
 10
382.1152755598
 20
689.7499755116
 30
0.0
 11
377.1152755598
 21
689.7499755116
 31
0.0
  0
LINE
  5
219
  8
1
  6
CONTINUOUS
 62
     7
 10
627.2279815598
 20
824.9169155116
 30
0.0
 11
631.7364790118
 21
830.2899331322
 31
0.0
  0
LINE
  5
21A
  8
1
  6
CENTER
 62
     5
 10
575.4925625598
 20
852.7610445116
 30
0.0
 11
575.4925625598
 21
673.7610445116
 31
0.0
  0
LINE
  5
21B
  8
1
  6
CONTINUOUS
 62
     7
 10
391.1152755598
 20
835.7499755116
 30
0.0
 11
394.1152755598
 21
835.7499755116
 31
0.0
  0
LINE
  5
21C
  8
1
  6
CONTINUOUS
 62
     7
 10
627.2279815598
 20
701.6051735116
 30
0.0
 11
631.7364790118
 21
696.2321558909
 31
0.0
  0
ARC
  5
21D
  8
1
  6
CONTINUOUS
 62
     7
 10
626.0789145598
 20
825.8810965116
 30
0.0
 40
1.5
 50
231.067685
 51
320.0
  0
ARC
  5
21E
  8
1
  6
CONTINUOUS
 62
     7
 10
537.6161625598
 20
692.2284575116
 30
0.0
 40
1.5
 50
333.0
 51
61.93231500000002
  0
ARC
  5
21F
  8
1
  6
CONTINUOUS
 62
     7
 10
512.8725105598
 20
712.6746925116
 30
0.0
 40
1.5
 50
310.0
 51
38.93231500000002
  0
CIRCLE
  5
220
  8
1
  6
CONTINUOUS
 62
     7
 10
575.4925625598
 20
763.2610445116
 30
0.0
 40
63.5
  0
LINE
  5
221
  8
1
  6
CONTINUOUS
 62
     7
 10
391.1152755598
 20
690.7499755116
 30
0.0
 11
391.1152755598
 21
835.7499755116
 31
0.0
  0
LINE
  5
222
  8
1
  6
CONTINUOUS
 62
     7
 10
388.1152755598
 20
690.7499755116
 30
0.0
 11
388.1152755598
 21
835.7499755116
 31
0.0
  0
ARC
  5
223
  8
1
  6
CONTINUOUS
 62
     7
 10
390.6152755598
 20
833.7499755116
 30
0.0
 40
0.5
 50
270.0
 51
0.0
  0
LINE
  5
224
  8
1
  6
CONTINUOUS
 62
     7
 10
422.1152755598
 20
802.9741435116
 30
0.0
 11
419.6152755598
 21
802.9741435116
 31
0.0
  0
LINE
  5
225
  8
1
  6
CONTINUOUS
 62
     7
 10
277.6152755598
 20
827.5542495116
 30
0.0
 11
277.6152755598
 21
842.1533035116
 31
0.0
  0
ARC
  5
226
  8
1
  6
CONTINUOUS
 62
     7
 10
422.9137595143
 20
707.9831998737
 30
0.0
 40
0.7016357368
 50
320.7261649458
 51
358.9416745172
  0
LINE
  5
227
  8
1
  6
CONTINUOUS
 62
     7
 10
355.7832225598
 20
833.7499755116
 30
0.0
 11
361.6525010557
 21
833.7499755116
 31
0.0
  0
ARC
  5
228
  8
1
  6
CONTINUOUS
 62
     7
 10
422.5786311214
 20
708.2410436764
 30
0.0
 40
1.1243606092
 50
302.0892316799
 51
321.3652493715
  0
LINE
  5
229
  8
1
  6
CONTINUOUS
 62
     7
 10
138.1152755598
 20
859.2499755116
 30
0.0
 11
143.1152755598
 21
840.2499755116
 31
0.0
  0
ARC
  5
22A
  8
1
  6
CONTINUOUS
 62
     7
 10
422.7401600291
 20
724.728640959
 30
0.0
 40
1.0939227525
 50
293.4757303691
 51
310.9360737188
  0
LINE
  5
22B
  8
1
  6
CONTINUOUS
 62
     7
 10
340.2538895598
 20
689.7504085116
 30
0.0
 11
336.7538895598
 21
689.7504005116
 31
0.0
  0
ARC
  5
22C
  8
1
  6
CONTINUOUS
 62
     7
 10
422.4420865528
 20
697.5296111685
 30
0.0
 40
1.2178917572
 50
307.0532481638
 51
326.435881876
  0
LINE
  5
22D
  8
1
  6
CONTINUOUS
 62
     7
 10
-11.8847244453
 20
859.2499755116
 30
0.0
 11
-11.8847244464
 21
667.2499755116
 31
0.0
  0
LINE
  5
22E
  8
1
  6
CONTINUOUS
 62
     7
 10
355.2549545598
 20
836.7496255116
 30
0.0
 11
355.7832225598
 21
833.7499755116
 31
0.0
  0
LINE
  5
22F
  8
1
  6
CONTINUOUS
 62
     7
 10
355.2549545598
 20
836.7496255116
 30
0.0
 11
350.2538895598
 21
689.7504085116
 31
0.0
  0
LINE
  5
230
  8
1
  6
CONTINUOUS
 62
     7
 10
-11.884723018
 20
859.2499755116
 30
0.0
 11
138.1152755598
 21
859.2499755116
 31
0.0
  0
LINE
  5
231
  8
1
  6
CONTINUOUS
 62
     7
 10
402.1152755598
 20
855.0389005116
 30
0.0
 11
402.1152755598
 21
855.0511555116
 31
0.0
  0
LINE
  5
232
  8
1
  6
CONTINUOUS
 62
     7
 10
351.7549545598
 20
836.7496335116
 30
0.0
 11
355.2549545598
 21
836.7496255116
 31
0.0
  0
LINE
  5
233
  8
1
  6
CONTINUOUS
 62
     7
 10
417.1152755598
 20
675.7499755116
 30
0.0
 11
417.1152755598
 21
850.7371175116
 31
0.0
  0
LINE
  5
234
  8
1
  6
CONTINUOUS
 62
     7
 10
422.1152755598
 20
685.2869045116
 30
0.0
 11
419.6152755598
 21
685.2869045116
 31
0.0
  0
ARC
  5
235
  8
1
  6
CONTINUOUS
 62
     7
 10
422.125756744
 20
799.906364816
 30
0.0
 40
3.0677966002
 50
77.5698820108
 51
90.19575247769997
  0
LINE
  5
236
  8
1
  6
CONTINUOUS
 62
     7
 10
341.7549545598
 20
836.7496335116
 30
0.0
 11
345.2549545598
 21
836.7496255116
 31
0.0
  0
ARC
  5
237
  8
1
  6
CONTINUOUS
 62
     7
 10
268.1152755598
 20
847.7499755116
 30
0.0
 40
3.000000000000003
 50
90.0
 51
180.0
  0
LINE
  5
238
  8
1
  6
CONTINUOUS
 62
     7
 10
345.7832225598
 20
833.7499755116
 30
0.0
 11
351.6525010557
 21
833.7499755116
 31
0.0
  0
ARC
  5
239
  8
1
  6
CONTINUOUS
 62
     7
 10
423.1925560694
 20
802.2667958099
 30
0.0
 40
0.4235407414
 50
3.568602567
 51
51.3789051512
  0
LINE
  5
23A
  8
1
  6
CONTINUOUS
 62
     7
 10
388.6152755598
 20
833.2499755116
 30
0.0
 11
390.6152755598
 21
833.2499755116
 31
0.0
  0
ARC
  5
23B
  8
1
  6
CONTINUOUS
 62
     7
 10
422.6780034475
 20
697.3776486515
 30
0.0
 40
0.9373020802
 50
326.2032337257
 51
359.5418291854
  0
LINE
  5
23C
  8
1
  6
CONTINUOUS
 62
     7
 10
365.7832225598
 20
833.7499755116
 30
0.0
 11
371.6525010557
 21
833.7499755116
 31
0.0
  0
LINE
  5
23D
  8
1
  6
CONTINUOUS
 62
     7
 10
346.7538895598
 20
689.7504005116
 30
0.0
 11
351.7549545598
 21
836.7496335116
 31
0.0
  0
LINE
  5
23E
  8
1
  6
CONTINUOUS
 62
     7
 10
346.2253845598
 20
692.7499755116
 30
0.0
 11
340.3559379233
 21
692.7499755116
 31
0.0
  0
LINE
  5
23F
  8
1
  6
CONTINUOUS
 62
     7
 10
346.7538895598
 20
689.7504005116
 30
0.0
 11
346.2254335598
 21
692.7499755116
 31
0.0
  0
LINE
  5
240
  8
1
  6
CONTINUOUS
 62
     7
 10
422.1152755598
 20
723.5258065116
 30
0.0
 11
419.6152755598
 21
723.5258065116
 31
0.0
  0
LINE
  5
241
  8
1
  6
CONTINUOUS
 62
     7
 10
419.6152755598
 20
830.2788635116
 30
0.0
 11
422.1152755598
 21
830.2788635116
 31
0.0
  0
LINE
  5
242
  8
1
  6
CONTINUOUS
 62
     7
 10
138.1152755598
 20
667.2499755116
 30
0.0
 11
143.1152755598
 21
686.2499644097
 31
0.0
  0
LINE
  5
243
  8
1
  6
CONTINUOUS
 62
     7
 10
419.6152755598
 20
802.9741435116
 30
0.0
 11
419.6152755598
 21
819.4938905116
 31
0.0
  0
LINE
  5
244
  8
1
  6
CONTINUOUS
 62
     7
 10
419.6152755598
 20
685.2869045116
 30
0.0
 11
419.6152755598
 21
696.2210865116
 31
0.0
  0
LINE
  5
245
  8
1
  6
CONTINUOUS
 62
     7
 10
356.2253845598
 20
692.7499755116
 30
0.0
 11
350.3559379233
 21
692.7499755116
 31
0.0
  0
ARC
  5
246
  8
1
  6
CONTINUOUS
 62
     7
 10
422.3466359929
 20
800.8997586585
 30
0.0
 40
2.0501455262
 50
66.1397165617
 51
77.62228159959999
  0
TEXT
  5
247
  8
1
  6
CONTINUOUS
 62
     7
 10
603.2745228094284
 20
661.1906155454545
 30
0.0
 40
6.0
  1
ＫＦＥＫＨ－１３０Ｐ
 41
0.868327
  0
ENDSEC
  0
EOF
