  0
SECTION
  2
HEADER
  9
$ACADVER
  1
AC1014
  9
$ACADMAINTVER
 70
     9
  9
$DWGCODEPAGE
  3
ANSI_932
  9
$INSBASE
 10
0.0
 20
0.0
 30
0.0
  9
$EXTMIN
 10
-1341.15108453152
 20
101.7818181818182
 30
0.0
  9
$EXTMAX
 10
-509.4981318364129
 20
377.9999999999999
 30
0.0
  9
$LIMMIN
 10
0.0
 20
0.0
  9
$LIMMAX
 10
12.0
 20
9.0
  9
$ORTHOMODE
 70
     0
  9
$REGENMODE
 70
     1
  9
$FILLMODE
 70
     1
  9
$QTEXTMODE
 70
     0
  9
$MIRRTEXT
 70
     1
  9
$DRAGMODE
 70
     2
  9
$LTSCALE
 40
1.0
  9
$OSMODE
 70
    37
  9
$ATTMODE
 70
     1
  9
$TEXTSIZE
 40
0.2
  9
$TRACEWID
 40
0.05
  9
$TEXTSTYLE
  7
STANDARD
  9
$CLAYER
  8
0
  9
$CELTYPE
  6
BYLAYER
  9
$CECOLOR
 62
   256
  9
$CELTSCALE
 40
1.0
  9
$DELOBJ
 70
     1
  9
$DISPSILH
 70
     0
  9
$DIMSCALE
 40
1.0
  9
$DIMASZ
 40
3.0
  9
$DIMEXO
 40
0.0625
  9
$DIMDLI
 40
0.38
  9
$DIMRND
 40
0.0
  9
$DIMDLE
 40
0.0
  9
$DIMEXE
 40
1.5
  9
$DIMTP
 40
0.0
  9
$DIMTM
 40
0.0
  9
$DIMTXT
 40
3.0
  9
$DIMCEN
 40
0.09
  9
$DIMTSZ
 40
0.0
  9
$DIMTOL
 70
     0
  9
$DIMLIM
 70
     0
  9
$DIMTIH
 70
     1
  9
$DIMTOH
 70
     1
  9
$DIMSE1
 70
     0
  9
$DIMSE2
 70
     0
  9
$DIMTAD
 70
     1
  9
$DIMZIN
 70
     0
  9
$DIMBLK
  1

  9
$DIMASO
 70
     1
  9
$DIMSHO
 70
     1
  9
$DIMPOST
  1

  9
$DIMAPOST
  1

  9
$DIMALT
 70
     0
  9
$DIMALTD
 70
     2
  9
$DIMALTF
 40
25.4
  9
$DIMLFAC
 40
1.0
  9
$DIMTOFL
 70
     0
  9
$DIMTVP
 40
0.0
  9
$DIMTIX
 70
     0
  9
$DIMSOXD
 70
     0
  9
$DIMSAH
 70
     0
  9
$DIMBLK1
  1

  9
$DIMBLK2
  1

  9
$DIMSTYLE
  2
STANDARD
  9
$DIMCLRD
 70
     0
  9
$DIMCLRE
 70
     0
  9
$DIMCLRT
 70
     0
  9
$DIMTFAC
 40
1.0
  9
$DIMGAP
 40
1.5
  9
$DIMJUST
 70
     0
  9
$DIMSD1
 70
     0
  9
$DIMSD2
 70
     0
  9
$DIMTOLJ
 70
     1
  9
$DIMTZIN
 70
     0
  9
$DIMALTZ
 70
     0
  9
$DIMALTTZ
 70
     0
  9
$DIMFIT
 70
     3
  9
$DIMUPT
 70
     0
  9
$DIMUNIT
 70
     2
  9
$DIMDEC
 70
     2
  9
$DIMTDEC
 70
     4
  9
$DIMALTU
 70
     2
  9
$DIMALTTD
 70
     2
  9
$DIMTXSTY
  7
ＭＳ_ゴシック
  9
$DIMAUNIT
 70
     0
  9
$LUNITS
 70
     2
  9
$LUPREC
 70
     4
  9
$SKETCHINC
 40
0.1
  9
$FILLETRAD
 40
0.5
  9
$AUNITS
 70
     0
  9
$AUPREC
 70
     0
  9
$MENU
  1
.
  9
$ELEVATION
 40
0.0
  9
$PELEVATION
 40
0.0
  9
$THICKNESS
 40
0.0
  9
$LIMCHECK
 70
     0
  9
$CHAMFERA
 40
0.0
  9
$CHAMFERB
 40
0.0
  9
$CHAMFERC
 40
0.0
  9
$CHAMFERD
 40
0.0
  9
$SKPOLY
 70
     0
  9
$TDCREATE
 40
2458992.62781353
  9
$TDUPDATE
 40
2458992.627814618
  9
$TDINDWG
 40
0.0000000116
  9
$TDUSRTIMER
 40
0.0000000116
  9
$USRTIMER
 70
     1
  9
$ANGBASE
 50
0.0
  9
$ANGDIR
 70
     0
  9
$PDMODE
 70
     0
  9
$PDSIZE
 40
0.0
  9
$PLINEWID
 40
0.0
  9
$COORDS
 70
     1
  9
$SPLFRAME
 70
     0
  9
$SPLINETYPE
 70
     6
  9
$SPLINESEGS
 70
     8
  9
$ATTDIA
 70
     0
  9
$ATTREQ
 70
     1
  9
$HANDLING
 70
     1
  9
$HANDSEED
  5
331
  9
$SURFTAB1
 70
     6
  9
$SURFTAB2
 70
     6
  9
$SURFTYPE
 70
     6
  9
$SURFU
 70
     6
  9
$SURFV
 70
     6
  9
$UCSNAME
  2

  9
$UCSORG
 10
0.0
 20
0.0
 30
0.0
  9
$UCSXDIR
 10
1.0
 20
0.0
 30
0.0
  9
$UCSYDIR
 10
0.0
 20
1.0
 30
0.0
  9
$PUCSNAME
  2

  9
$PUCSORG
 10
0.0
 20
0.0
 30
0.0
  9
$PUCSXDIR
 10
1.0
 20
0.0
 30
0.0
  9
$PUCSYDIR
 10
0.0
 20
1.0
 30
0.0
  9
$USERI1
 70
     0
  9
$USERI2
 70
     0
  9
$USERI3
 70
     0
  9
$USERI4
 70
     0
  9
$USERI5
 70
     0
  9
$USERR1
 40
0.0
  9
$USERR2
 40
0.0
  9
$USERR3
 40
0.0
  9
$USERR4
 40
0.0
  9
$USERR5
 40
0.0
  9
$WORLDVIEW
 70
     1
  9
$SHADEDGE
 70
     3
  9
$SHADEDIF
 70
    70
  9
$TILEMODE
 70
     1
  9
$MAXACTVP
 70
    64
  9
$PINSBASE
 10
0.0
 20
0.0
 30
0.0
  9
$PLIMCHECK
 70
     0
  9
$PEXTMIN
 10
1.000000000000000E+20
 20
1.000000000000000E+20
 30
1.000000000000000E+20
  9
$PEXTMAX
 10
-1.000000000000000E+20
 20
-1.000000000000000E+20
 30
-1.000000000000000E+20
  9
$PLIMMIN
 10
0.0
 20
0.0
  9
$PLIMMAX
 10
12.0
 20
9.0
  9
$UNITMODE
 70
     0
  9
$VISRETAIN
 70
     1
  9
$PLINEGEN
 70
     0
  9
$PSLTSCALE
 70
     1
  9
$TREEDEPTH
 70
  3020
  9
$PICKSTYLE
 70
     1
  9
$CMLSTYLE
  2
STANDARD
  9
$CMLJUST
 70
     0
  9
$CMLSCALE
 40
1.0
  9
$PROXYGRAPHICS
 70
     1
  9
$MEASUREMENT
 70
     1
  0
ENDSEC
  0
SECTION
  2
CLASSES
  0
CLASS
  1
ACDBDICTIONARYWDFLT
  2
AcDbDictionaryWithDefault
  3
ObjectDBX Classes
 90
        0
280
     0
281
     0
  0
CLASS
  1
VISUALSTYLE
  2
AcDbVisualStyle
  3
ObjectDBX Classes
 90
     4095
280
     0
281
     0
  0
CLASS
  1
MATERIAL
  2
AcDbMaterial
  3
ObjectDBX Classes
 90
     1153
280
     0
281
     0
  0
CLASS
  1
SCALE
  2
AcDbScale
  3
ObjectDBX Classes
 90
     1153
280
     0
281
     0
  0
CLASS
  1
TABLESTYLE
  2
AcDbTableStyle
  3
ObjectDBX Classes
 90
     4095
280
     0
281
     0
  0
CLASS
  1
MLEADERSTYLE
  2
AcDbMLeaderStyle
  3
ACDB_MLEADERSTYLE_CLASS
 90
     4095
280
     0
281
     0
  0
CLASS
  1
SUN
  2
AcDbSun
  3
SCENEOE
 90
     1153
280
     0
281
     0
  0
CLASS
  1
DICTIONARYVAR
  2
AcDbDictionaryVar
  3
ObjectDBX Classes
 90
        0
280
     0
281
     0
  0
CLASS
  1
XRECORD
  2
AcDbXrecord
  3
ObjectDBX Classes
 90
        0
280
     0
281
     0
  0
CLASS
  1
LWPOLYLINE
  2
AcDbPolyline
  3
ObjectDBX Classes
 90
        0
280
     0
281
     1
  0
CLASS
  1
HATCH
  2
AcDbHatch
  3
ObjectDBX Classes
 90
        0
280
     0
281
     1
  0
CLASS
  1
ACDBPLACEHOLDER
  2
AcDbPlaceHolder
  3
ObjectDBX Classes
 90
        0
280
     0
281
     0
  0
CLASS
  1
LAYOUT
  2
AcDbLayout
  3
ObjectDBX Classes
 90
        0
280
     0
281
     0
  0
ENDSEC
  0
SECTION
  2
TABLES
  0
TABLE
  2
VPORT
  5
8
102
{ACAD_XDICTIONARY
360
326
102
}
330
0
100
AcDbSymbolTable
 70
     1
  0
VPORT
  5
29
330
8
100
AcDbSymbolTableRecord
100
AcDbViewportTableRecord
  2
*ACTIVE
 70
     0
 10
0.0
 20
0.0
 11
1.0
 21
1.0
 12
-925.3246081839666
 22
239.8909090909091
 13
0.0
 23
0.0
 14
0.5
 24
0.5
 15
0.5
 25
0.5
 16
0.0
 26
0.0
 36
1.0
 17
0.0
 27
0.0
 37
0.0
 40
276.2181818181817
 41
1.6
 42
50.0
 43
0.0
 44
0.0
 50
0.0
 51
0.0
 71
     0
 72
   100
 73
     1
 74
     3
 75
     0
 76
     0
 77
     0
 78
     0
  0
ENDTAB
  0
TABLE
  2
LTYPE
  5
5
330
0
100
AcDbSymbolTable
 70
     2
  0
LTYPE
  5
14
330
5
100
AcDbSymbolTableRecord
100
AcDbLinetypeTableRecord
  2
BYBLOCK
 70
     0
  3

 72
    65
 73
     0
 40
0.0
  0
LTYPE
  5
15
330
5
100
AcDbSymbolTableRecord
100
AcDbLinetypeTableRecord
  2
BYLAYER
 70
     0
  3

 72
    65
 73
     0
 40
0.0
  0
LTYPE
  5
16
330
5
100
AcDbSymbolTableRecord
100
AcDbLinetypeTableRecord
  2
CONTINUOUS
 70
     0
  3
Solid line
 72
    65
 73
     0
 40
0.0
  0
LTYPE
  5
EB
330
5
100
AcDbSymbolTableRecord
100
AcDbLinetypeTableRecord
  2
CENTER
 70
     0
  3

 72
    65
 73
     0
 40
0.0
  0
ENDTAB
  0
TABLE
  2
LAYER
  5
2
330
0
100
AcDbSymbolTable
 70
     1
  0
LAYER
  5
10
330
2
100
AcDbSymbolTableRecord
100
AcDbLayerTableRecord
  2
0
 70
     0
 62
     7
  6
CONTINUOUS
  0
ENDTAB
  0
TABLE
  2
STYLE
  5
3
330
0
100
AcDbSymbolTable
 70
     2
  0
STYLE
  5
11
330
3
100
AcDbSymbolTableRecord
100
AcDbTextStyleTableRecord
  2
STANDARD
 70
     0
 40
0.0
 41
1.0
 50
0.0
 71
     0
 42
0.2
  3
txt
  4

  0
STYLE
  5
6E
330
3
100
AcDbSymbolTableRecord
100
AcDbTextStyleTableRecord
  2
ＭＳ_ゴシック
 70
     0
 40
0.0
 41
1.0
 50
0.0
 71
     0
 42
0.2
  3
ＭＳ ゴシック.shx
  4

  0
ENDTAB
  0
TABLE
  2
VIEW
  5
6
330
0
100
AcDbSymbolTable
 70
     0
  0
ENDTAB
  0
TABLE
  2
UCS
  5
7
330
0
100
AcDbSymbolTable
 70
     0
  0
ENDTAB
  0
TABLE
  2
APPID
  5
9
330
0
100
AcDbSymbolTable
 70
     2
  0
APPID
  5
12
330
9
100
AcDbSymbolTableRecord
100
AcDbRegAppTableRecord
  2
ACAD
 70
     0
  0
APPID
  5
330
330
9
100
AcDbSymbolTableRecord
100
AcDbRegAppTableRecord
  2
ACAD_MLEADERVER
 70
     0
  0
ENDTAB
  0
TABLE
  2
DIMSTYLE
  5
A
330
0
100
AcDbSymbolTable
 70
     1
  0
DIMSTYLE
105
27
330
A
100
AcDbSymbolTableRecord
100
AcDbDimStyleTableRecord
  2
STANDARD
 70
     0
  3

  4

  5

  6

  7

 40
1.0
 41
0.18
 42
0.0625
 43
0.38
 44
0.18
 45
0.0
 46
0.0
 47
0.0
 48
0.0
140
0.18
141
0.09
142
0.0
143
25.4
144
1.0
145
0.0
146
1.0
147
0.09
 71
     0
 72
     0
 73
     1
 74
     1
 75
     0
 76
     0
 77
     0
 78
     0
170
     0
171
     2
172
     0
173
     0
174
     0
175
     0
176
     0
177
     0
178
     0
270
     2
271
     4
272
     4
273
     2
274
     2
340
11
275
     0
280
     0
281
     0
282
     0
283
     1
284
     0
285
     0
286
     0
287
     3
288
     0
  0
ENDTAB
  0
TABLE
  2
BLOCK_RECORD
  5
1
330
0
100
AcDbSymbolTable
 70
     1
  0
BLOCK_RECORD
  5
1F
330
1
100
AcDbSymbolTableRecord
100
AcDbBlockTableRecord
  2
*MODEL_SPACE
  0
BLOCK_RECORD
  5
1B
330
1
100
AcDbSymbolTableRecord
100
AcDbBlockTableRecord
  2
*PAPER_SPACE
  0
BLOCK_RECORD
  5
6F
330
1
100
AcDbSymbolTableRecord
100
AcDbBlockTableRecord
  2
D_FRAME_VIEW_1316
  0
ENDTAB
  0
ENDSEC
  0
SECTION
  2
BLOCKS
  0
BLOCK
  5
20
330
1F
100
AcDbEntity
  8
0
100
AcDbBlockBegin
  2
*MODEL_SPACE
 70
     0
 10
0.0
 20
0.0
 30
0.0
  3
*MODEL_SPACE
  1

  0
ENDBLK
  5
21
330
1F
100
AcDbEntity
  8
0
100
AcDbBlockEnd
  0
BLOCK
  5
1C
330
1B
100
AcDbEntity
 67
     1
  8
0
100
AcDbBlockBegin
  2
*PAPER_SPACE
 70
     0
 10
0.0
 20
0.0
 30
0.0
  3
*PAPER_SPACE
  1

  0
ENDBLK
  5
1D
330
1B
100
AcDbEntity
 67
     1
  8
0
100
AcDbBlockEnd
  0
BLOCK
  5
324
330
6F
100
AcDbEntity
  8
0
100
AcDbBlockBegin
  2
D_FRAME_VIEW_1316
 70
     0
 10
0.0
 20
0.0
 30
0.0
  3
D_FRAME_VIEW_1316
  1

  0
ENDBLK
  5
325
330
6F
100
AcDbEntity
  8
0
100
AcDbBlockEnd
  0
ENDSEC
  0
SECTION
  2
ENTITIES
  0
INSERT
  5
70
330
1F
100
AcDbEntity
  8
0
  6
CONTINUOUS
 62
     7
100
AcDbBlockReference
  2
D_FRAME_VIEW_1316
 10
0.0
 20
0.0
 30
0.0
  0
ARC
  5
71
330
1F
100
AcDbEntity
  8
0
  6
CONTINUOUS
 62
     7
100
AcDbCircle
 10
673.6364198702151
 20
296.1382880338023
 30
0.0
 40
71.00000000000001
210
0.0
220
0.0
230
-1.0
100
AcDbArc
 50
0.5000000000000023
 51
89.5
  0
ARC
  5
72
330
1F
100
AcDbEntity
  8
0
  6
CONTINUOUS
 62
     7
100
AcDbCircle
 10
736.498131836413
 20
268.4999999999999
 30
0.0
 40
1.500000000000001
210
0.0
220
0.0
230
-1.0
100
AcDbArc
 50
0.0
 51
90.0
  0
LINE
  5
73
330
1F
100
AcDbEntity
  8
0
  6
CONTINUOUS
 62
     7
100
AcDbLine
 10
-1116.151084531553
 20
349.4999999999999
 30
0.0
 11
-1142.151084531553
 21
349.4999999999999
 31
0.0
  0
LINE
  5
74
330
1F
100
AcDbEntity
  8
0
  6
CONTINUOUS
 62
     7
100
AcDbLine
 10
-1142.151084531553
 20
160.5
 30
0.0
 11
-1116.151084531553
 21
160.5
 31
0.0
  0
LINE
  5
75
330
1F
100
AcDbEntity
  8
0
  6
CONTINUOUS
 62
     7
100
AcDbLine
 10
-1073.151084531553
 20
199.9364505369723
 30
0.0
 11
-1043.151084531553
 21
199.9364505369723
 31
0.0
  0
LINE
  5
76
330
1F
100
AcDbEntity
  8
0
  6
CONTINUOUS
 62
     7
100
AcDbLine
 10
-1073.151084531553
 20
251.808528694523
 30
0.0
 11
-1043.151084531553
 21
251.808528694523
 31
0.0
  0
ARC
  5
77
330
1F
100
AcDbEntity
  8
0
  6
CONTINUOUS
 62
     7
100
AcDbCircle
 10
-1073.252569776844
 20
344.3914501533509
 30
0.0
 40
2.925562545740187
100
AcDbArc
 50
88.01205992092844
 51
169.8930234174296
  0
LINE
  5
78
330
1F
100
AcDbEntity
  8
0
  6
CONTINUOUS
 62
     7
100
AcDbLine
 10
-1073.151084531553
 20
162.6846313942156
 30
0.0
 11
-1043.151084531553
 21
162.6846313942156
 31
0.0
  0
LINE
  5
79
330
1F
100
AcDbEntity
  8
0
  6
CONTINUOUS
 62
     7
100
AcDbLine
 10
-736.498131836413
 20
269.9999999999999
 30
0.0
 11
-736.4211802905456
 21
269.9999999999999
 31
0.0
  0
LINE
  5
7A
330
1F
100
AcDbEntity
  8
0
  6
CONTINUOUS
 62
     7
100
AcDbLine
 10
-526.9981318364129
 20
268.5
 30
0.0
 11
-526.9981318364129
 21
255.0
 31
0.0
  0
LINE
  5
7B
330
1F
100
AcDbEntity
  8
0
  6
CONTINUOUS
 62
     7
100
AcDbLine
 10
-1038.151084531553
 20
360.0
 30
0.0
 11
-1073.151084531553
 21
360.0
 31
0.0
  0
ARC
  5
7C
330
1F
100
AcDbEntity
  8
0
  6
CONTINUOUS
 62
     7
100
AcDbCircle
 10
-632.4981318364128
 20
255.0
 30
0.0
 40
105.0
100
AcDbArc
 50
90.81853897897308
 51
117.0
  0
LINE
  5
7D
330
1F
100
AcDbEntity
  8
0
  6
CONTINUOUS
 62
     7
100
AcDbLine
 10
-1043.151084531553
 20
347.3153686057843
 30
0.0
 11
-1073.151084531553
 21
347.3153686057843
 31
0.0
  0
LINE
  5
7E
330
1F
100
AcDbEntity
  8
0
  6
CONTINUOUS
 62
     7
100
AcDbLine
 10
-633.9981318364129
 20
358.8
 30
0.0
 11
-633.9981318364129
 21
359.9892851675826
 31
0.0
  0
LINE
  5
7F
330
1F
100
AcDbEntity
  8
0
  6
CONTINUOUS
 62
     7
100
AcDbLine
 10
-522.9982460715734
 20
255.0
 30
0.0
 11
-519.9981318364172
 21
255.0
 31
0.0
  0
LINE
  5
80
330
1F
100
AcDbEntity
  8
0
  6
CONTINUOUS
 62
     7
100
AcDbLine
 10
-1043.151084531553
 20
310.0635494630276
 30
0.0
 11
-1073.151084531553
 21
310.0635494630276
 31
0.0
  0
LINE
  5
81
330
1F
100
AcDbEntity
  8
0
  6
CONTINUOUS
 62
     7
100
AcDbLine
 10
-1073.151084531553
 20
150.0
 30
0.0
 11
-1038.151084531553
 21
150.0
 31
0.0
  0
LINE
  5
82
330
1F
100
AcDbEntity
  8
0
  6
CONTINUOUS
 62
     7
100
AcDbLine
 10
-630.9981318364129
 20
358.8
 30
0.0
 11
-633.9981318364129
 21
358.8
 31
0.0
  0
ARC
  5
83
330
1F
100
AcDbEntity
  8
0
  6
CONTINUOUS
 62
     7
100
AcDbCircle
 10
-528.4981318364128
 20
268.5
 30
0.0
 40
1.500000000000001
100
AcDbArc
 50
0.0
 51
90.0
  0
LINE
  5
84
330
1F
100
AcDbEntity
  8
0
  6
CONTINUOUS
 62
     7
100
AcDbLine
 10
-632.4981318364128
 20
142.5000000000034
 30
0.0
 11
-674.2560038905996
 21
142.8644154286436
 31
0.0
  0
LINE
  5
85
330
1F
100
AcDbEntity
  8
0
  6
CONTINUOUS
 62
     7
100
AcDbLine
 10
-1043.151084531553
 20
258.191471305477
 30
0.0
 11
-1073.151084531553
 21
258.191471305477
 31
0.0
  0
LINE
  5
86
330
1F
100
AcDbEntity
  8
0
  6
CONTINUOUS
 62
     7
100
AcDbLine
 10
-632.0699911490569
 20
142.5037363271777
 30
0.0
 11
-632.4981318364128
 21
142.5000000000034
 31
0.0
  0
LINE
  5
87
330
1F
100
AcDbEntity
  8
0
  6
CONTINUOUS
 62
     7
100
AcDbLine
 10
-520.0018681635906
 20
255.4281406873559
 30
0.0
 11
-519.9981318364162
 21
255.0
 31
0.0
  0
LINE
  5
88
330
1F
100
AcDbEntity
  8
0
  6
CONTINUOUS
 62
     7
100
AcDbLine
 10
-737.9981318364128
 20
254.9999999999999
 30
0.0
 11
-737.9981318364128
 21
268.4999999999999
 31
0.0
  0
LINE
  5
89
330
1F
100
AcDbEntity
  8
0
  6
CONTINUOUS
 62
     7
100
AcDbLine
 10
-630.9981318364129
 20
359.9892851675826
 30
0.0
 11
-630.9981318364129
 21
358.8
 31
0.0
  0
ARC
  5
8A
330
1F
100
AcDbEntity
  8
0
  6
CONTINUOUS
 62
     7
100
AcDbCircle
 10
-632.4981318364128
 20
255.0
 30
0.0
 40
105.0
100
AcDbArc
 50
63.00000000000003
 51
89.18146102102692
  0
ARC
  5
8B
330
1F
100
AcDbEntity
  8
0
  6
CONTINUOUS
 62
     7
100
AcDbCircle
 10
-1073.58227088742
 20
202.6990910766417
 30
0.0
 40
2.796015144141333
100
AcDbArc
 50
204.8300041582505
 51
278.8712484557187
  0
LWPOLYLINE
  5
8C
330
1F
100
AcDbEntity
  8
0
  6
CONTINUOUS
 62
     7
100
AcDbPolyline
 90
        3
 70
     0
 43
0.0
 10
-1073.151084531553
 20
310.0634763909111
 42
0.2524381873970579
 10
-1075.996385534271
 20
308.8394697608559
 42
0.0867957710460195
 10
-1076.132732914242
 20
308.4221162434886
  0
LINE
  5
8D
330
1F
100
AcDbEntity
  8
0
  6
CONTINUOUS
 62
     7
100
AcDbLine
 10
-737.4981318364129
 20
254.9999999999999
 30
0.0
 11
-737.9981318364129
 21
254.9999999999999
 31
0.0
  0
ARC
  5
8E
330
1F
100
AcDbEntity
  8
0
  6
CONTINUOUS
 62
     7
100
AcDbCircle
 10
591.3598438026106
 20
296.1382880338023
 30
0.0
 40
70.99999999999999
210
0.0
220
0.0
230
-1.0
100
AcDbArc
 50
90.5
 51
179.5
  0
ARC
  5
8F
330
1F
100
AcDbEntity
  8
0
  6
CONTINUOUS
 62
     7
100
AcDbCircle
 10
-1073.151084531553
 20
356.9999999999999
 30
0.0
 40
3.000000000000003
100
AcDbArc
 50
90.0
 51
179.9999999999997
  0
ARC
  5
90
330
1F
100
AcDbEntity
  8
0
  6
CONTINUOUS
 62
     7
100
AcDbCircle
 10
-1073.151084531553
 20
153.0
 30
0.0
 40
3.000000000000003
100
AcDbArc
 50
180.0000000000002
 51
270.0
  0
LWPOLYLINE
  5
91
330
1F
100
AcDbEntity
  8
0
  6
CONTINUOUS
 62
     7
100
AcDbPolyline
 90
       10
 70
     0
 43
0.0
 10
-1073.151084531553
 20
258.1834981161007
 42
0.0195734215016975
 10
-1075.73840313196
 20
258.1092252807218
 10
-1075.837899370489
 20
258.0758952970714
 10
-1075.930912964627
 20
258.0243206387235
 10
-1076.010452657724
 20
257.9570106066022
 10
-1076.081350045773
 20
257.8643108413174
 10
-1076.128617927893
 20
257.7582247951819
 10
-1076.149864116975
 20
257.641645635697
 10
-1076.150710022272
 20
257.6165330205133
 10
-1076.150710022272
 20
257.6165330205133
  0
LINE
  5
92
330
1F
100
AcDbEntity
  8
0
  6
CONTINUOUS
 62
     7
100
AcDbLine
 10
-744.6337164077692
 20
213.2421279458131
 30
0.0
 11
-744.994395509235
 21
254.5718593126441
 31
0.0
  0
ARC
  5
93
330
1F
100
AcDbEntity
  8
0
  6
CONTINUOUS
 62
     7
100
AcDbCircle
 10
-1073.264720044703
 20
165.5983237847566
 30
0.0
 40
2.915790904698308
100
AcDbArc
 50
191.7109496806522
 51
272.2335225029314
  0
LINE
  5
94
330
1F
100
AcDbEntity
  8
0
  6
CONTINUOUS
 62
     7
100
AcDbLine
 10
-632.4981318364129
 20
367.4999999999966
 30
0.0
 11
-590.7402597822261
 21
367.1355845713563
 31
0.0
  0
ARC
  5
95
330
1F
100
AcDbEntity
  8
0
  6
CONTINUOUS
 62
     7
100
AcDbCircle
 10
591.3598438026105
 20
213.8617119661977
 30
0.0
 40
70.99999999999999
210
0.0
220
0.0
230
-1.0
100
AcDbArc
 50
180.5
 51
269.5000000000001
  0
LINE
  5
96
330
1F
100
AcDbEntity
  8
0
  6
CONTINUOUS
 62
     7
100
AcDbLine
 10
-674.2560038905996
 20
367.1355845713563
 30
0.0
 11
-632.9262725237686
 21
367.4962636728222
 31
0.0
  0
LINE
  5
97
330
1F
100
AcDbEntity
  8
0
  6
CONTINUOUS
 62
     7
100
AcDbLine
 10
-632.9262725237687
 20
367.4962636728222
 30
0.0
 11
-632.4981318364129
 21
367.4999999999966
 31
0.0
  0
LWPOLYLINE
  5
98
330
1F
100
AcDbEntity
  8
0
  6
CONTINUOUS
 62
     7
100
AcDbPolyline
 90
        9
 70
     0
 43
0.0
 10
-1076.138747880086
 20
252.3767973135545
 10
-1076.125272392889
 20
252.2680398339006
 10
-1076.086838704934
 20
252.1634102592733
 10
-1076.022474987514
 20
252.0667156680719
 10
-1075.943382343037
 20
251.9926054395187
 10
-1075.855773816567
 20
251.940177289749
 10
-1075.733175951508
 20
251.9010017831327
 10
-1075.733175951508
 20
251.9010017831327
 42
0.0233848921966051
 10
-1073.151084531553
 20
251.8165018838992
  0
LINE
  5
99
330
1F
100
AcDbEntity
  8
0
  6
CONTINUOUS
 62
     7
100
AcDbLine
 10
-590.740259782226
 20
142.8644154286436
 30
0.0
 11
-632.0699911490569
 21
142.5037363271777
 31
0.0
  0
LINE
  5
9A
330
1F
100
AcDbEntity
  8
0
  6
CONTINUOUS
 62
     7
100
AcDbLine
 10
-632.4981318364128
 20
142.5000000000042
 30
0.0
 11
-632.4981318364128
 21
145.5001142351605
 31
0.0
  0
ARC
  5
9B
330
1F
100
AcDbEntity
  8
0
  6
CONTINUOUS
 62
     7
100
AcDbCircle
 10
673.6364198702151
 20
213.8617119661977
 30
0.0
 40
71.0
210
0.0
220
0.0
230
-1.0
100
AcDbArc
 50
270.5000000000001
 51
359.5000000000001
  0
LINE
  5
9C
330
1F
100
AcDbEntity
  8
0
  6
CONTINUOUS
 62
     7
100
AcDbLine
 10
-744.9981318364096
 20
255.0
 30
0.0
 11
-744.6337164077693
 21
296.7578720541868
 31
0.0
  0
LINE
  5
9D
330
1F
100
AcDbEntity
  8
0
  6
CONTINUOUS
 62
     7
100
AcDbLine
 10
-744.994395509235
 20
254.571859312644
 30
0.0
 11
-744.9981318364095
 21
254.9999999999999
 31
0.0
  0
LINE
  5
9E
330
1F
100
AcDbEntity
  8
0
  6
CONTINUOUS
 62
     7
100
AcDbLine
 10
-526.9981318364129
 20
255.0
 30
0.0
 11
-527.4981318364129
 21
255.0
 31
0.0
  0
LINE
  5
9F
330
1F
100
AcDbEntity
  8
0
  6
CONTINUOUS
 62
     7
100
AcDbLine
 10
-528.5750833822802
 20
270.0
 30
0.0
 11
-528.4981318364128
 21
270.0
 31
0.0
  0
LINE
  5
A0
330
1F
100
AcDbEntity
  8
0
  6
CONTINUOUS
 62
     7
100
AcDbLine
 10
-520.3625472650566
 20
296.7578720541868
 30
0.0
 11
-520.0018681635908
 21
255.4281406873559
 31
0.0
  0
LINE
  5
A1
330
1F
100
AcDbEntity
  8
0
  6
CONTINUOUS
 62
     7
100
AcDbLine
 10
-519.9981318364162
 20
255.0
 30
0.0
 11
-520.3625472650566
 21
213.2421279458132
 31
0.0
  0
LINE
  5
A2
330
1F
100
AcDbEntity
  8
0
  6
CONTINUOUS
 62
     7
100
AcDbLine
 10
-528.4981318364128
 20
240.0
 30
0.0
 11
-527.4981318364128
 21
240.0
 31
0.0
  0
LINE
  5
A3
330
1F
100
AcDbEntity
  8
0
  6
CONTINUOUS
 62
     7
100
AcDbLine
 10
-585.5101151133697
 20
347.2191752534961
 30
0.0
 11
-584.8291293637604
 21
348.5556850397786
 31
0.0
  0
ARC
  5
A4
330
1F
100
AcDbEntity
  8
0
  6
CONTINUOUS
 62
     7
100
AcDbCircle
 10
-1142.151084531553
 20
348.4999999999999
 30
0.0
 40
1.000000000000001
100
AcDbArc
 50
90.0
 51
180.0
  0
LINE
  5
A5
330
1F
100
AcDbEntity
  8
0
  6
CONTINUOUS
 62
     7
100
AcDbLine
 10
-744.9981318364087
 20
254.9999999999999
 30
0.0
 11
-741.9980176012526
 21
254.9999999999999
 31
0.0
  0
LINE
  5
A6
330
1F
100
AcDbEntity
  8
0
  6
CONTINUOUS
 62
     7
100
AcDbLine
 10
-679.4861485594558
 20
347.219175253496
 30
0.0
 11
-680.1671343090652
 21
348.5556850397785
 31
0.0
  0
ARC
  5
A7
330
1F
100
AcDbEntity
  8
0
  6
CONTINUOUS
 62
     7
100
AcDbCircle
 10
-1142.151084531553
 20
161.5
 30
0.0
 40
1.000000000000001
100
AcDbArc
 50
180.0
 51
270.0
  0
LINE
  5
A8
330
1F
100
AcDbEntity
  8
0
  6
CONTINUOUS
 62
     7
100
AcDbLine
 10
-632.4981318364128
 20
364.4998857648395
 30
0.0
 11
-632.4981318364128
 21
367.4999999999957
 31
0.0
  0
ARC
  5
A9
330
1F
100
AcDbEntity
  8
0
  6
CONTINUOUS
 62
     7
100
AcDbCircle
 10
-1140.306279715177
 20
170.4364239416969
 30
0.0
 40
2.860165238372911
100
AcDbArc
 50
186.7437607950066
 51
273.1104490336745
  0
LINE
  5
AA
330
1F
100
AcDbEntity
  8
0
  6
CONTINUOUS
 62
     7
100
AcDbLine
 10
-724.7173070899089
 20
208.0119832769568
 30
0.0
 11
-726.0538168761914
 21
207.3309975273475
 31
0.0
  0
LINE
  5
AB
330
1F
100
AcDbEntity
  8
0
  6
CONTINUOUS
 62
     7
100
AcDbLine
 10
-724.7173070899089
 20
301.988016723043
 30
0.0
 11
-726.0538168761914
 21
302.6690024726524
 31
0.0
  0
LINE
  5
AC
330
1F
100
AcDbEntity
  8
0
  6
CONTINUOUS
 62
     7
100
AcDbLine
 10
-699.9908308534995
 20
335.4346665274927
 30
0.0
 11
-699.0266494389696
 21
334.2855998628142
 31
0.0
  0
LINE
  5
AD
330
1F
100
AcDbEntity
  8
0
  6
CONTINUOUS
 62
     7
100
AcDbLine
 10
-699.9908308534995
 20
174.5653334725073
 30
0.0
 11
-699.0266494389696
 21
175.7144001371857
 31
0.0
  0
ARC
  5
AE
330
1F
100
AcDbEntity
  8
0
  6
CONTINUOUS
 62
     7
100
AcDbCircle
 10
-707.7597391662072
 20
316.1938760182411
 30
0.0
 40
1.500000000000028
100
AcDbArc
 50
320.8860525253855
 51
50.00000000000011
  0
ARC
  5
AF
330
1F
100
AcDbEntity
  8
0
  6
CONTINUOUS
 62
     7
100
AcDbCircle
 10
718.2344444766577
 20
209.6316774075327
 30
0.0
 40
1.50000000000001
210
0.0
220
0.0
230
-1.0
100
AcDbArc
 50
62.99999999999974
 51
152.1139474746097
  0
ARC
  5
B0
330
1F
100
AcDbEntity
  8
0
  6
CONTINUOUS
 62
     7
100
AcDbCircle
 10
-557.2365245066186
 20
193.8061239817588
 30
0.0
 40
1.499999999999989
100
AcDbArc
 50
140.8860525253856
 51
230.0000000000001
  0
ARC
  5
B1
330
1F
100
AcDbEntity
  8
0
  6
CONTINUOUS
 62
     7
100
AcDbCircle
 10
693.692007854654
 20
330.2616073297941
 30
0.0
 40
1.499999999999989
210
0.0
220
0.0
230
-1.0
100
AcDbArc
 50
230.886052525385
 51
319.9999999999997
  0
ARC
  5
B2
330
1F
100
AcDbEntity
  8
0
  6
CONTINUOUS
 62
     7
100
AcDbCircle
 10
677.8664544288802
 20
340.7363126402449
 30
0.0
 40
1.499999999999998
210
0.0
220
0.0
230
-1.0
100
AcDbArc
 50
152.9999999999997
 51
242.1139474746095
  0
ARC
  5
B3
330
1F
100
AcDbEntity
  8
0
  6
CONTINUOUS
 62
     7
100
AcDbCircle
 10
-546.7618191961678
 20
209.6316774075328
 30
0.0
 40
1.499999999999985
100
AcDbArc
 50
62.99999999999962
 51
152.1139474746097
  0
ARC
  5
B4
330
1F
100
AcDbEntity
  8
0
  6
CONTINUOUS
 62
     7
100
AcDbCircle
 10
632.4981318364128
 20
255.0
 30
0.0
 40
95.49999999999999
210
0.0
220
0.0
230
-1.0
100
AcDbArc
 50
297.8860525253869
 51
309.1139474746129
  0
LINE
  5
B5
330
1F
100
AcDbEntity
  8
0
  6
CONTINUOUS
 62
     7
100
AcDbLine
 10
-570.1551891534933
 20
329.2974259152644
 30
0.0
 11
-565.9696142338561
 21
334.2855998628143
 31
0.0
  0
ARC
  5
B6
330
1F
100
AcDbEntity
  8
0
  6
CONTINUOUS
 62
     7
100
AcDbCircle
 10
546.7618191961678
 20
300.3683225924673
 30
0.0
 40
1.500000000000011
210
0.0
220
0.0
230
-1.0
100
AcDbArc
 50
242.9999999999997
 51
332.1139474746097
  0
ARC
  5
B7
330
1F
100
AcDbEntity
  8
0
  6
CONTINUOUS
 62
     7
100
AcDbCircle
 10
632.4981318364128
 20
255.0
 30
0.0
 40
95.49999999999994
210
0.0
220
0.0
230
-1.0
100
AcDbArc
 50
117.8860525253869
 51
129.113947474613
  0
ARC
  5
B8
330
1F
100
AcDbEntity
  8
0
  6
CONTINUOUS
 62
     7
100
AcDbCircle
 10
-632.4981318364128
 20
255.0
 30
0.0
 40
95.5
100
AcDbArc
 50
207.8860525253869
 51
219.113947474613
  0
ARC
  5
B9
330
1F
100
AcDbEntity
  8
0
  6
CONTINUOUS
 62
     7
100
AcDbCircle
 10
-632.4981318364128
 20
255.0
 30
0.0
 40
105.0
100
AcDbArc
 50
153.0
 51
207.0
  0
LINE
  5
BA
330
1F
100
AcDbEntity
  8
0
  6
CONTINUOUS
 62
     7
100
AcDbLine
 10
-712.9327983639056
 20
187.5073009829133
 30
0.0
 11
-711.783731699227
 21
188.4714823974432
 31
0.0
  0
LINE
  5
BB
330
1F
100
AcDbEntity
  8
0
  6
CONTINUOUS
 62
     7
100
AcDbLine
 10
-558.2007059211485
 20
192.6570573170804
 30
0.0
 11
-553.2125319735985
 21
188.4714823974432
 31
0.0
  0
LINE
  5
BC
330
1F
100
AcDbEntity
  8
0
  6
CONTINUOUS
 62
     7
100
AcDbLine
 10
-706.7955577516773
 20
317.3429426829196
 30
0.0
 11
-711.7837316992271
 21
321.5285176025567
 31
0.0
  0
LINE
  5
BD
330
1F
100
AcDbEntity
  8
0
  6
CONTINUOUS
 62
     7
100
AcDbLine
 10
-694.8410745193323
 20
180.7025740847356
 30
0.0
 11
-699.0266494389695
 21
175.7144001371857
 31
0.0
  0
LINE
  5
BE
330
1F
100
AcDbEntity
  8
0
  6
CONTINUOUS
 62
     7
100
AcDbLine
 10
-679.4861485594558
 20
162.7808247465039
 30
0.0
 11
-680.1671343090652
 21
161.4443149602214
 31
0.0
  0
LINE
  5
BF
330
1F
100
AcDbEntity
  8
0
  6
CONTINUOUS
 62
     7
100
AcDbLine
 10
-558.2007059211485
 20
317.3429426829196
 30
0.0
 11
-553.2125319735986
 21
321.5285176025568
 31
0.0
  0
LINE
  5
C0
330
1F
100
AcDbEntity
  8
0
  6
CONTINUOUS
 62
     7
100
AcDbLine
 10
-706.7955577516772
 20
192.6570573170804
 30
0.0
 11
-711.783731699227
 21
188.4714823974431
 31
0.0
  0
LINE
  5
C1
330
1F
100
AcDbEntity
  8
0
  6
CONTINUOUS
 62
     7
100
AcDbLine
 10
-694.8410745193323
 20
329.2974259152643
 30
0.0
 11
-699.0266494389695
 21
334.2855998628141
 31
0.0
  0
ARC
  5
C2
330
1F
100
AcDbEntity
  8
0
  6
CONTINUOUS
 62
     7
100
AcDbCircle
 10
-571.3042558181717
 20
330.2616073297942
 30
0.0
 40
1.500000000000028
100
AcDbArc
 50
230.8860525253856
 51
320.0000000000001
  0
LINE
  5
C3
330
1F
100
AcDbEntity
  8
0
  6
CONTINUOUS
 62
     7
100
AcDbLine
 10
-552.0634653089202
 20
322.4926990170866
 30
0.0
 11
-553.2125319735985
 21
321.5285176025568
 31
0.0
  0
ARC
  5
C4
330
1F
100
AcDbEntity
  8
0
  6
CONTINUOUS
 62
     7
100
AcDbCircle
 10
632.4981318364128
 20
254.9999999999999
 30
0.0
 40
95.49999999999996
210
0.0
220
0.0
230
-1.0
100
AcDbArc
 50
207.8860525253869
 51
219.113947474613
  0
ARC
  5
C5
330
1F
100
AcDbEntity
  8
0
  6
CONTINUOUS
 62
     7
100
AcDbCircle
 10
-632.4981318364128
 20
254.9999999999999
 30
0.0
 40
95.49999999999994
100
AcDbArc
 50
297.8860525253869
 51
309.1139474746131
  0
LINE
  5
C6
330
1F
100
AcDbEntity
  8
0
  6
CONTINUOUS
 62
     7
100
AcDbLine
 10
-712.9327983639056
 20
322.4926990170865
 30
0.0
 11
-711.783731699227
 21
321.5285176025567
 31
0.0
  0
ARC
  5
C7
330
1F
100
AcDbEntity
  8
0
  6
CONTINUOUS
 62
     7
100
AcDbCircle
 10
587.1298092439456
 20
169.263687359755
 30
0.0
 40
1.500000000000029
210
0.0
220
0.0
230
-1.0
100
AcDbArc
 50
332.9999999999998
 51
62.11394747460969
  0
ARC
  5
C8
330
1F
100
AcDbEntity
  8
0
  6
CONTINUOUS
 62
     7
100
AcDbCircle
 10
632.4981318364128
 20
255.0
 30
0.0
 40
95.49999999999996
210
0.0
220
0.0
230
-1.0
100
AcDbArc
 50
27.88605252538688
 51
39.11394747461294
  0
ARC
  5
C9
330
1F
100
AcDbEntity
  8
0
  6
CONTINUOUS
 62
     7
100
AcDbCircle
 10
-632.4981318364128
 20
255.0
 30
0.0
 40
105.0
100
AcDbArc
 50
220.0
 51
230.0
  0
LINE
  5
CA
330
1F
100
AcDbEntity
  8
0
  6
CONTINUOUS
 62
     7
100
AcDbLine
 10
-585.5101151133697
 20
162.7808247465039
 30
0.0
 11
-584.8291293637604
 21
161.4443149602214
 31
0.0
  0
LINE
  5
CB
330
1F
100
AcDbEntity
  8
0
  6
CONTINUOUS
 62
     7
100
AcDbLine
 10
-570.1551891534932
 20
180.7025740847356
 30
0.0
 11
-565.969614233856
 21
175.7144001371857
 31
0.0
  0
ARC
  5
CC
330
1F
100
AcDbEntity
  8
0
  6
CONTINUOUS
 62
     7
100
AcDbCircle
 10
-632.4981318364128
 20
255.0
 30
0.0
 40
105.0
100
AcDbArc
 50
243.0
 51
297.0
  0
LINE
  5
CD
330
1F
100
AcDbEntity
  8
0
  6
CONTINUOUS
 62
     7
100
AcDbLine
 10
-540.2789565829166
 20
208.0119832769569
 30
0.0
 11
-546.0808334465586
 21
210.9681871938153
 31
0.0
  0
ARC
  5
CE
330
1F
100
AcDbEntity
  8
0
  6
CONTINUOUS
 62
     7
100
AcDbCircle
 10
557.2365245066186
 20
316.1938760182412
 30
0.0
 40
1.500000000000006
210
0.0
220
0.0
230
-1.0
100
AcDbArc
 50
320.886052525385
 51
49.99999999999978
  0
ARC
  5
CF
330
1F
100
AcDbEntity
  8
0
  6
CONTINUOUS
 62
     7
100
AcDbCircle
 10
-677.8664544288802
 20
169.263687359755
 30
0.0
 40
1.500000000000004
100
AcDbArc
 50
332.9999999999997
 51
62.11394747460969
  0
LINE
  5
D0
330
1F
100
AcDbEntity
  8
0
  6
CONTINUOUS
 62
     7
100
AcDbLine
 10
-679.4861485594558
 20
162.7808247465039
 30
0.0
 11
-676.5299446425975
 21
168.5827016101457
 31
0.0
  0
ARC
  5
D1
330
1F
100
AcDbEntity
  8
0
  6
CONTINUOUS
 62
     7
100
AcDbCircle
 10
571.3042558181717
 20
179.7383926702058
 30
0.0
 40
1.499999999999971
210
0.0
220
0.0
230
-1.0
100
AcDbArc
 50
50.88605252538501
 51
139.9999999999997
  0
LINE
  5
D2
330
1F
100
AcDbEntity
  8
0
  6
CONTINUOUS
 62
     7
100
AcDbLine
 10
-679.4861485594558
 20
347.219175253496
 30
0.0
 11
-676.5299446425975
 21
341.4172983898542
 31
0.0
  0
LINE
  5
D3
330
1F
100
AcDbEntity
  8
0
  6
CONTINUOUS
 62
     7
100
AcDbLine
 10
-565.0054328193262
 20
335.4346665274927
 30
0.0
 11
-565.9696142338561
 21
334.2855998628143
 31
0.0
  0
ARC
  5
D4
330
1F
100
AcDbEntity
  8
0
  6
CONTINUOUS
 62
     7
100
AcDbCircle
 10
-632.4981318364128
 20
255.0
 30
0.0
 40
105.0
100
AcDbArc
 50
40.00000000000001
 51
49.99999999999999
  0
ARC
  5
D5
330
1F
100
AcDbEntity
  8
0
  6
CONTINUOUS
 62
     7
100
AcDbCircle
 10
-587.1298092439456
 20
340.7363126402449
 30
0.0
 40
1.499999999999973
100
AcDbArc
 50
152.9999999999996
 51
242.1139474746097
  0
ARC
  5
D6
330
1F
100
AcDbEntity
  8
0
  6
CONTINUOUS
 62
     7
100
AcDbCircle
 10
-632.4981318364128
 20
255.0
 30
0.0
 40
95.49999999999997
100
AcDbArc
 50
117.8860525253869
 51
129.113947474613
  0
ARC
  5
D7
330
1F
100
AcDbEntity
  8
0
  6
CONTINUOUS
 62
     7
100
AcDbCircle
 10
-632.4981318364128
 20
255.0
 30
0.0
 40
105.0
100
AcDbArc
 50
130.0
 51
140.0
  0
LINE
  5
D8
330
1F
100
AcDbEntity
  8
0
  6
CONTINUOUS
 62
     7
100
AcDbLine
 10
-585.5101151133697
 20
162.7808247465039
 30
0.0
 11
-588.4663190302282
 21
168.5827016101457
 31
0.0
  0
ARC
  5
D9
330
1F
100
AcDbEntity
  8
0
  6
CONTINUOUS
 62
     7
100
AcDbCircle
 10
-693.692007854654
 20
179.7383926702058
 30
0.0
 40
1.500000000000017
100
AcDbArc
 50
50.88605252538554
 51
140.0000000000001
  0
LINE
  5
DA
330
1F
100
AcDbEntity
  8
0
  6
CONTINUOUS
 62
     7
100
AcDbLine
 10
-540.2789565829167
 20
301.9880167230431
 30
0.0
 11
-546.0808334465586
 21
299.0318128061847
 31
0.0
  0
LINE
  5
DB
330
1F
100
AcDbEntity
  8
0
  6
CONTINUOUS
 62
     7
100
AcDbLine
 10
-724.7173070899089
 20
208.0119832769568
 30
0.0
 11
-718.9154302262671
 21
210.9681871938153
 31
0.0
  0
ARC
  5
DC
330
1F
100
AcDbEntity
  8
0
  6
CONTINUOUS
 62
     7
100
AcDbCircle
 10
-632.4981318364128
 20
255.0
 30
0.0
 40
95.49999999999997
100
AcDbArc
 50
27.88605252538693
 51
39.11394747461306
  0
LINE
  5
DD
330
1F
100
AcDbEntity
  8
0
  6
CONTINUOUS
 62
     7
100
AcDbLine
 10
-724.7173070899089
 20
301.9880167230431
 30
0.0
 11
-718.9154302262672
 21
299.0318128061847
 31
0.0
  0
ARC
  5
DE
330
1F
100
AcDbEntity
  8
0
  6
CONTINUOUS
 62
     7
100
AcDbCircle
 10
-718.2344444766577
 20
300.3683225924672
 30
0.0
 40
1.499999999999998
100
AcDbArc
 50
242.9999999999996
 51
332.1139474746099
  0
ARC
  5
DF
330
1F
100
AcDbEntity
  8
0
  6
CONTINUOUS
 62
     7
100
AcDbCircle
 10
707.7597391662069
 20
193.8061239817588
 30
0.0
 40
1.499999999999989
210
0.0
220
0.0
230
-1.0
100
AcDbArc
 50
140.886052525385
 51
229.9999999999997
  0
LINE
  5
E0
330
1F
100
AcDbEntity
  8
0
  6
CONTINUOUS
 62
     7
100
AcDbLine
 10
-585.5101151133697
 20
347.219175253496
 30
0.0
 11
-588.4663190302282
 21
341.4172983898542
 31
0.0
  0
LINE
  5
E1
330
1F
100
AcDbEntity
  8
0
  6
CONTINUOUS
 62
     7
100
AcDbLine
 10
-527.6259963841335
 20
238.5385015318833
 30
0.0
 11
-527.4981318364129
 21
240.0
 31
0.0
  0
ARC
  5
E2
330
1F
100
AcDbEntity
  8
0
  6
CONTINUOUS
 62
     7
100
AcDbCircle
 10
-529.2199079010804
 20
238.6779507202795
 30
0.0
 40
1.599999999999996
100
AcDbArc
 50
285.4939675005224
 51
354.9999999999999
  0
ARC
  5
E3
330
1F
100
AcDbEntity
  8
0
  6
CONTINUOUS
 62
     7
100
AcDbCircle
 10
-632.4981318364128
 20
255.0
 30
0.0
 40
105.0
100
AcDbArc
 50
297.0
 51
310.0
  0
ARC
  5
E4
330
1F
100
AcDbEntity
  8
0
  6
CONTINUOUS
 62
     7
100
AcDbCircle
 10
-632.4981318364128
 20
255.0
 30
0.0
 40
105.0
100
AcDbArc
 50
0.0
 51
27.00000000000001
  0
ARC
  5
E5
330
1F
100
AcDbEntity
  8
0
  6
CONTINUOUS
 62
     7
100
AcDbCircle
 10
-632.4981318364129
 20
255.0
 30
0.0
 40
105.0
100
AcDbArc
 50
89.1814610210269
 51
90.81853897897308
  0
LINE
  5
E6
330
1F
100
AcDbEntity
  8
0
  6
CONTINUOUS
 62
     7
100
AcDbLine
 10
-526.9981318364129
 20
255.0
 30
0.0
 11
-526.9981318364129
 21
241.5
 31
0.0
  0
ARC
  5
E7
330
1F
100
AcDbEntity
  8
0
  6
CONTINUOUS
 62
     7
100
AcDbCircle
 10
-531.9981318364129
 20
248.7
 30
0.0
 40
12.00000000000002
100
AcDbArc
 50
284.2696896370727
 51
285.4939675005224
  0
ARC
  5
E8
330
1F
100
AcDbEntity
  8
0
  6
CONTINUOUS
 62
     7
100
AcDbCircle
 10
-632.4981318364128
 20
255.0
 30
0.0
 40
105.0
100
AcDbArc
 50
333.0
 51
0.0
  0
LINE
  5
E9
330
1F
100
AcDbEntity
  8
0
  6
CONTINUOUS
 62
     7
100
AcDbLine
 10
-552.0634653089202
 20
187.5073009829134
 30
0.0
 11
-553.2125319735985
 21
188.4714823974431
 31
0.0
  0
LINE
  5
EA
330
1F
100
AcDbEntity
  8
0
  6
CENTER
 62
     1
100
AcDbLine
 10
-1341.15108453152
 20
255.0
 30
0.0
 11
-880.1510845315202
 21
255.0
 31
0.0
  0
LINE
  5
EC
330
1F
100
AcDbEntity
  8
0
  6
CONTINUOUS
 62
     7
100
AcDbLine
 10
-565.0054328193261
 20
174.5653334725073
 30
0.0
 11
-565.969614233856
 21
175.7144001371858
 31
0.0
  0
ARC
  5
ED
330
1F
100
AcDbEntity
  8
0
  6
CONTINUOUS
 62
     7
100
AcDbCircle
 10
-632.4981318364128
 20
255.0
 30
0.0
 40
105.0
100
AcDbArc
 50
117.0
 51
130.0
  0
ARC
  5
EE
330
1F
100
AcDbEntity
  8
0
  6
CONTINUOUS
 62
     7
100
AcDbCircle
 10
632.4981318364128
 20
255.0
 30
0.0
 40
105.0
210
0.0
220
0.0
230
-1.0
100
AcDbArc
 50
26.99999999999999
 51
40.00000000000002
  0
ARC
  5
EF
330
1F
100
AcDbEntity
  8
0
  6
CONTINUOUS
 62
     7
100
AcDbCircle
 10
-632.4981318364129
 20
255.0
 30
0.0
 40
75.00000000000001
100
AcDbArc
 50
180.0
 51
0.0
  0
ARC
  5
F0
330
1F
100
AcDbEntity
  8
0
  6
CONTINUOUS
 62
     7
100
AcDbCircle
 10
-632.4981318364128
 20
255.0
 30
0.0
 40
105.0
100
AcDbArc
 50
310.0
 51
320.0
  0
LINE
  5
F1
330
1F
100
AcDbEntity
  8
0
  6
CONTINUOUS
 62
     7
100
AcDbLine
 10
-737.3702672886922
 20
271.4614984681167
 30
0.0
 11
-737.4981318364129
 21
270.0
 31
0.0
  0
ARC
  5
F2
330
1F
100
AcDbEntity
  8
0
  6
CONTINUOUS
 62
     7
100
AcDbCircle
 10
528.4981318364128
 20
241.5
 30
0.0
 40
1.500000000000001
210
0.0
220
0.0
230
-1.0
100
AcDbArc
 50
180.0
 51
270.0
  0
ARC
  5
F3
330
1F
100
AcDbEntity
  8
0
  6
CONTINUOUS
 62
     7
100
AcDbCircle
 10
-632.4981318364128
 20
255.0
 30
0.0
 40
105.0
100
AcDbArc
 50
27.00000000000001
 51
39.99999999999998
  0
CIRCLE
  5
F4
330
1F
100
AcDbEntity
  8
0
  6
CONTINUOUS
 62
     7
100
AcDbCircle
 10
-632.4981318364129
 20
255.0
 30
0.0
 40
80.99999999999999
  0
ARC
  5
F5
330
1F
100
AcDbEntity
  8
0
  6
CONTINUOUS
 62
     7
100
AcDbCircle
 10
-735.7763557717453
 20
271.3220492797205
 30
0.0
 40
1.599999999999992
100
AcDbArc
 50
105.4939675005224
 51
174.9999999999999
  0
LINE
  5
F6
330
1F
100
AcDbEntity
  8
0
  6
CONTINUOUS
 62
     7
100
AcDbLine
 10
-736.4211802905456
 20
240.0
 30
0.0
 11
-736.498131836413
 21
240.0
 31
0.0
  0
LINE
  5
F7
330
1F
100
AcDbEntity
  8
0
  6
CONTINUOUS
 62
     7
100
AcDbLine
 10
-528.4981318364128
 20
240.0
 30
0.0
 11
-528.5750833822802
 21
240.0
 31
0.0
  0
LINE
  5
F8
330
1F
100
AcDbEntity
  8
0
  6
CENTER
 62
     1
100
AcDbLine
 10
-755.4981318364129
 20
255.0
 30
0.0
 11
-509.4981318364129
 21
255.0
 31
0.0
  0
ARC
  5
F9
330
1F
100
AcDbEntity
  8
0
  6
CONTINUOUS
 62
     7
100
AcDbCircle
 10
-632.4981318364129
 20
255.0
 30
0.0
 40
75.00000000000001
100
AcDbArc
 50
0.0
 51
180.0
  0
LINE
  5
FA
330
1F
100
AcDbEntity
  8
0
  6
CONTINUOUS
 62
     7
100
AcDbLine
 10
-737.9981318364128
 20
255.0
 30
0.0
 11
-737.4981318364128
 21
255.0
 31
0.0
  0
LINE
  5
FB
330
1F
100
AcDbEntity
  8
0
  6
CONTINUOUS
 62
     7
100
AcDbLine
 10
-540.2789565829166
 20
208.0119832769569
 30
0.0
 11
-538.9424467966342
 21
207.3309975273476
 31
0.0
  0
ARC
  5
FC
330
1F
100
AcDbEntity
  8
0
  6
CONTINUOUS
 62
     7
100
AcDbCircle
 10
-736.498131836413
 20
241.4999999999999
 30
0.0
 40
1.500000000000001
100
AcDbArc
 50
180.0
 51
270.0
  0
LINE
  5
FD
330
1F
100
AcDbEntity
  8
0
  6
CONTINUOUS
 62
     7
100
AcDbLine
 10
-736.498131836413
 20
269.9999999999999
 30
0.0
 11
-737.498131836413
 21
269.9999999999999
 31
0.0
  0
LINE
  5
FE
330
1F
100
AcDbEntity
  8
0
  6
CENTER
 62
     1
100
AcDbLine
 10
-632.4981318364129
 20
132.0
 30
0.0
 11
-632.4981318364129
 21
377.9999999999999
 31
0.0
  0
ARC
  5
FF
330
1F
100
AcDbEntity
  8
0
  6
CONTINUOUS
 62
     7
100
AcDbCircle
 10
632.4981318364128
 20
255.0
 30
0.0
 40
105.0
210
0.0
220
0.0
230
-1.0
100
AcDbArc
 50
297.0
 51
309.9999999999999
  0
ARC
  5
100
330
1F
100
AcDbEntity
  8
0
  6
CONTINUOUS
 62
     7
100
AcDbCircle
 10
632.4981318364128
 20
255.0
 30
0.0
 40
105.0
210
0.0
220
0.0
230
-1.0
100
AcDbArc
 50
117.0
 51
130.0
  0
ARC
  5
101
330
1F
100
AcDbEntity
  8
0
  6
CONTINUOUS
 62
     7
100
AcDbCircle
 10
-632.4981318364128
 20
255.0
 30
0.0
 40
105.0
100
AcDbArc
 50
207.0
 51
220.0
  0
ARC
  5
102
330
1F
100
AcDbEntity
  8
0
  6
CONTINUOUS
 62
     7
100
AcDbCircle
 10
632.4981318364128
 20
255.0
 30
0.0
 40
105.0
210
0.0
220
0.0
230
-1.0
100
AcDbArc
 50
207.0
 51
219.9999999999999
  0
ARC
  5
103
330
1F
100
AcDbEntity
  8
0
  6
CONTINUOUS
 62
     7
100
AcDbCircle
 10
-732.9981318364127
 20
261.3
 30
0.0
 40
12.00000000000001
100
AcDbArc
 50
104.2696896370725
 51
105.4939675005224
  0
LINE
  5
104
330
1F
100
AcDbEntity
  8
0
  6
CONTINUOUS
 62
     7
100
AcDbLine
 10
-737.9981318364128
 20
241.4999999999999
 30
0.0
 11
-737.9981318364128
 21
254.9999999999999
 31
0.0
  0
LINE
  5
105
330
1F
100
AcDbEntity
  8
0
  6
CONTINUOUS
 62
     7
100
AcDbLine
 10
-540.2789565829167
 20
301.9880167230431
 30
0.0
 11
-538.9424467966342
 21
302.6690024726524
 31
0.0
  0
LINE
  5
106
330
1F
100
AcDbEntity
  8
0
  6
CONTINUOUS
 62
     7
100
AcDbLine
 10
-527.4981318364129
 20
255.0
 30
0.0
 11
-526.998131836413
 21
255.0
 31
0.0
  0
LINE
  5
107
330
1F
100
AcDbEntity
  8
0
  6
CONTINUOUS
 62
     7
100
AcDbLine
 10
-1150.396134498178
 20
269.9999999999999
 30
0.0
 11
-1148.130365030586
 21
269.9999999999999
 31
0.0
  0
LINE
  5
108
330
1F
100
AcDbEntity
  8
0
  6
CONTINUOUS
 62
     7
100
AcDbLine
 10
-1179.15108453152
 20
145.8643011978361
 30
0.0
 11
-1179.15108453152
 21
145.5001142351605
 31
0.0
  0
LINE
  5
109
330
1F
100
AcDbEntity
  8
0
  6
CONTINUOUS
 62
     7
100
AcDbLine
 10
-1319.15108453152
 20
142.5000000000034
 30
0.0
 11
-1182.15108453152
 21
142.5000000000034
 31
0.0
  0
LINE
  5
10A
330
1F
100
AcDbEntity
  8
0
  6
CONTINUOUS
 62
     7
100
AcDbLine
 10
-1319.151084531521
 20
142.8644154286436
 30
0.0
 11
-1319.15108453152
 21
142.5000000000034
 31
0.0
  0
ELLIPSE
  5
10B
330
1F
100
AcDbEntity
  8
0
  6
CONTINUOUS
 62
     7
100
AcDbEllipse
 10
-1182.15108453152
 20
364.4998857648395
 30
0.0
 11
0.0
 21
-3.000114235157024
 31
0.0
210
0.0
220
0.0
230
1.0
 40
0.9999619230641674
 41
1.570796326794897
 42
3.141592653589793
  0
LINE
  5
10C
330
1F
100
AcDbEntity
  8
0
  6
CONTINUOUS
 62
     7
100
AcDbLine
 10
-1179.15108453152
 20
364.4998857648395
 30
0.0
 11
-1179.15108453152
 21
364.4963779036298
 31
0.0
  0
ARC
  5
10D
330
1F
100
AcDbEntity
  8
0
  6
CONTINUOUS
 62
     7
100
AcDbCircle
 10
-1177.151084531553
 20
268.4999999999999
 30
0.0
 40
1.500000000000001
100
AcDbArc
 50
90.0
 51
180.0
  0
LINE
  5
10E
330
1F
100
AcDbEntity
  8
0
  6
CONTINUOUS
 62
     7
100
AcDbLine
 10
-1177.151084531553
 20
269.9999999999999
 30
0.0
 11
-1175.651084531553
 21
269.9999999999999
 31
0.0
  0
LINE
  5
10F
330
1F
100
AcDbEntity
  8
0
  6
CONTINUOUS
 62
     7
100
AcDbLine
 10
-905.1510845315528
 20
207.3309975273476
 30
0.0
 11
-905.1510845315528
 21
187.5073009829135
 31
0.0
  0
ARC
  5
110
330
1F
100
AcDbEntity
  8
0
  6
CONTINUOUS
 62
     7
100
AcDbCircle
 10
-1087.623683899434
 20
344.0752229369358
 30
0.0
 40
0.643092135691698
100
AcDbArc
 50
138.659885842083
 51
182.4178696701694
  0
ARC
  5
111
330
1F
100
AcDbEntity
  8
0
  6
CONTINUOUS
 62
     7
100
AcDbCircle
 10
992.6262560158746
 20
165.9261580722774
 30
0.0
 40
0.6410311228187943
210
0.0
220
0.0
230
-1.0
100
AcDbArc
 50
318.5227705802066
 51
2.473415743297437
  0
LINE
  5
112
330
1F
100
AcDbEntity
  8
0
  6
CONTINUOUS
 62
     7
100
AcDbLine
 10
-1146.770903350031
 20
254.9999999999999
 30
0.0
 11
-1150.396134498178
 21
254.9999999999999
 31
0.0
  0
LINE
  5
113
330
1F
100
AcDbEntity
  8
0
  6
CONTINUOUS
 62
     7
100
AcDbLine
 10
-983.1064562433212
 20
165.5015796760602
 30
0.0
 11
-983.2655302433342
 21
165.947078433747
 31
0.0
  0
LINE
  5
114
330
1F
100
AcDbEntity
  8
0
  6
CONTINUOUS
 62
     7
100
AcDbLine
 10
-1143.651084531553
 20
254.9999999999999
 30
0.0
 11
-1143.932161170443
 21
254.9999999999999
 31
0.0
  0
LINE
  5
115
330
1F
100
AcDbEntity
  8
0
  6
CONTINUOUS
 62
     7
100
AcDbLine
 10
-1178.651084531553
 20
268.4999999999999
 30
0.0
 11
-1178.651084531553
 21
349.5000000000001
 31
0.0
  0
LINE
  5
116
330
1F
100
AcDbEntity
  8
0
  6
CONTINUOUS
 62
     7
100
AcDbLine
 10
-1143.932161170443
 20
254.9999999999999
 30
0.0
 11
-1146.770903350031
 21
254.9999999999999
 31
0.0
  0
ARC
  5
117
330
1F
100
AcDbEntity
  8
0
  6
CONTINUOUS
 62
     7
100
AcDbCircle
 10
-967.6339625607188
 20
344.0772094478092
 30
0.0
 40
0.6330418492820629
100
AcDbArc
 50
138.2730498767702
 51
182.5968333109691
  0
SPLINE
  5
118
330
1F
100
AcDbEntity
  8
0
  6
CONTINUOUS
 62
     7
100
AcDbSpline
210
0.0
220
0.0
230
1.0
 70
     8
 71
     3
 72
     9
 73
     5
 74
     0
 42
0.000000001
 43
0.0001
 40
0.213678160942579
 40
0.213678160942579
 40
0.213678160942579
 40
0.213678160942579
 40
0.2162364178209727
 40
0.2162973367292588
 40
0.2162973367292588
 40
0.2162973367292588
 40
0.2162973367292588
 10
-958.1064169130833
 20
344.4987071714652
 30
0.0
 10
-958.1585192893472
 20
344.4991501702344
 30
0.0
 10
-958.2118623619257
 20
344.352659285499
 30
0.0
 10
-958.2652054345042
 20
344.0550573879996
 30
0.0
 10
-958.2664461308188
 20
344.0480538213301
 30
0.0
  0
LINE
  5
119
330
1F
100
AcDbEntity
  8
0
  6
CONTINUOUS
 62
     7
100
AcDbLine
 10
-1178.651084531553
 20
254.9999999999999
 30
0.0
 11
-1178.651084531553
 21
268.4999999999999
 31
0.0
  0
SPLINE
  5
11A
330
1F
100
AcDbEntity
  8
0
  6
CONTINUOUS
 62
     7
100
AcDbSpline
210
0.0
220
0.0
230
1.0
 70
     8
 71
     3
 72
    19
 73
    15
 74
     0
 42
0.000000001
 43
0.0001
 40
2.750544593204952
 40
2.750544593204952
 40
2.750544593204952
 40
2.750544593204952
 40
2.751422006066858
 40
2.758878434267582
 40
2.766334862468305
 40
2.773791290669028
 40
2.781247718869751
 40
2.788704147070474
 40
2.796160575271197
 40
2.803617003471921
 40
2.811073431672644
 40
2.818529859873367
 40
2.82598628807409
 40
2.829757564500772
 40
2.829757564500772
 40
2.829757564500772
 40
2.829757564500772
 10
-1109.3066092329
 20
165.5002792927383
 30
0.0
 10
-1109.324478937642
 20
165.5002320001347
 30
0.0
 10
-1109.494208930918
 20
165.6609478123133
 30
0.0
 10
-1109.815799212728
 20
168.8765167967823
 30
0.0
 10
-1110.271380078332
 20
180.4406703998343
 30
0.0
 10
-1110.726960943935
 20
198.072539130304
 30
0.0
 10
-1111.18254180954
 20
220.3372233291643
 30
0.0
 10
-1111.638122675142
 20
245.4228000372759
 30
0.0
 10
-1112.093703540748
 20
271.2877791542313
 30
0.0
 10
-1112.54928440635
 20
295.8272420078812
 30
0.0
 10
-1113.004865271954
 20
317.0441418064391
 30
0.0
 10
-1113.460446137558
 20
333.2118253657226
 30
0.0
 10
-1113.840973881662
 20
341.3996333808249
 30
0.0
 10
-1114.069641337232
 20
343.6131256270675
 30
0.0
 10
-1114.146448504267
 20
344.0466025912553
 30
0.0
  0
LINE
  5
11B
330
1F
100
AcDbEntity
  8
0
  6
CONTINUOUS
 62
     7
100
AcDbLine
 10
-905.1510845315528
 20
348.5556850397785
 30
0.0
 11
-905.1510845315528
 21
335.4346665274927
 31
0.0
  0
LINE
  5
11C
330
1F
100
AcDbEntity
  8
0
  6
CONTINUOUS
 62
     7
100
AcDbLine
 10
-905.151084531553
 20
161.4443149602214
 30
0.0
 11
-905.151084531553
 21
174.5653334725073
 31
0.0
  0
LINE
  5
11D
330
1F
100
AcDbEntity
  8
0
  6
CONTINUOUS
 62
     7
100
AcDbLine
 10
-902.1510845315529
 20
302.6690024726523
 30
0.0
 11
-905.151084531553
 21
302.6690024726524
 31
0.0
  0
LINE
  5
11E
330
1F
100
AcDbEntity
  8
0
  6
CONTINUOUS
 62
     7
100
AcDbLine
 10
-905.151084531553
 20
174.5653334725072
 30
0.0
 11
-902.1510845315529
 21
174.5653334725072
 31
0.0
  0
ARC
  5
11F
330
1F
100
AcDbEntity
  8
0
  6
CONTINUOUS
 62
     7
100
AcDbCircle
 10
1012.623513436753
 20
165.9268189731523
 30
0.0
 40
0.6436458271997292
210
0.0
220
0.0
230
-1.0
100
AcDbArc
 50
318.6298541991487
 51
2.399727394381102
  0
ARC
  5
120
330
1F
100
AcDbEntity
  8
0
  6
CONTINUOUS
 62
     7
100
AcDbCircle
 10
-1027.624726979712
 20
344.0734690861668
 30
0.0
 40
0.6424958103503704
100
AcDbArc
 50
138.5415963612233
 51
182.47261522842
  0
ARC
  5
121
330
1F
100
AcDbEntity
  8
0
  6
CONTINUOUS
 62
     7
100
AcDbCircle
 10
-977.6317484894195
 20
344.076337668497
 30
0.0
 40
0.6352580467142998
100
AcDbArc
 50
138.358192952288
 51
182.5367889686928
  0
ARC
  5
122
330
1F
100
AcDbEntity
  8
0
  6
CONTINUOUS
 62
     7
100
AcDbCircle
 10
952.0105952456493
 20
166.1436910213401
 30
0.0
 40
1.270423452164634
210
0.0
220
0.0
230
-1.0
100
AcDbArc
 50
329.6199706314563
 51
351.3618330264866
  0
SPLINE
  5
123
330
1F
100
AcDbEntity
  8
0
  6
CONTINUOUS
 62
     7
100
AcDbSpline
210
0.0
220
0.0
230
1.0
 70
     8
 71
     3
 72
    19
 73
    15
 74
     0
 42
0.000000001
 43
0.0001
 40
2.586872407275946
 40
2.586872407275946
 40
2.586872407275946
 40
2.586872407275946
 40
2.587380585650948
 40
2.594837013851671
 40
2.602293442052394
 40
2.609749870253117
 40
2.617206298453841
 40
2.624662726654564
 40
2.632119154855287
 40
2.63957558305601
 40
2.647032011256734
 40
2.654488439457457
 40
2.66194486765818
 40
2.666089841923846
 40
2.666089841923846
 40
2.666089841923846
 40
2.666089841923846
 10
-1099.306390075215
 20
165.5001069459668
 30
0.0
 10
-1099.316739818091
 20
165.5000276926804
 30
0.0
 10
-1099.478949849502
 20
165.5881406857375
 30
0.0
 10
-1099.793020169448
 20
168.4768079877069
 30
0.0
 10
-1100.248601035052
 20
179.7083676144262
 30
0.0
 10
-1100.704181900656
 20
197.0672379243799
 30
0.0
 10
-1101.159762766259
 20
219.1407361515157
 30
0.0
 10
-1101.615343631863
 20
244.1324982482208
 30
0.0
 10
-1102.070924497466
 20
270.008668843904
 30
0.0
 10
-1102.52650536307
 20
294.6634184923378
 30
0.0
 10
-1102.982086228674
 20
316.0903182434927
 30
0.0
 10
-1103.437667094276
 20
332.5456249004963
 30
0.0
 10
-1103.825805702475
 20
341.1884304868479
 30
0.0
 10
-1104.062084022137
 20
343.5704457808657
 30
0.0
 10
-1104.146502053266
 20
344.0469480648298
 30
0.0
  0
SPLINE
  5
124
330
1F
100
AcDbEntity
  8
0
  6
CONTINUOUS
 62
     7
100
AcDbSpline
210
0.0
220
0.0
230
1.0
 70
     8
 71
     3
 72
    19
 73
    15
 74
     0
 42
0.000000001
 43
0.0001
 40
2.423208719839442
 40
2.423208719839442
 40
2.423208719839442
 40
2.423208719839442
 40
2.423339165235037
 40
2.43079559343576
 40
2.438252021636484
 40
2.445708449837207
 40
2.45316487803793
 40
2.460621306238653
 40
2.468077734439377
 40
2.4755341626401
 40
2.482990590840823
 40
2.490447019041546
 40
2.497903447242269
 40
2.502420524953903
 40
2.502420524953903
 40
2.502420524953903
 40
2.502420524953903
 10
-1089.30669016756
 20
165.500013024502
 30
0.0
 10
-1089.309346865228
 20
165.5000321380288
 30
0.0
 10
-1089.463863851431
 20
165.5230341085887
 30
0.0
 10
-1089.770241126168
 20
168.0948229367965
 30
0.0
 10
-1090.225821991771
 20
178.9914878693988
 30
0.0
 10
-1090.681402857374
 20
196.0738038981218
 30
0.0
 10
-1091.136983722979
 20
217.9515945294995
 30
0.0
 10
-1091.592564588583
 20
242.8444226018731
 30
0.0
 10
-1092.048145454185
 20
268.7264840975703
 30
0.0
 10
-1092.503726319791
 20
293.491470162846
 30
0.0
 10
-1092.959307185393
 20
315.1239806943933
 30
0.0
 10
-1093.414888050997
 20
331.8635396780094
 30
0.0
 10
-1093.810605051308
 20
340.9702118380913
 30
0.0
 10
-1094.054461763083
 20
343.5271512436921
 30
0.0
 10
-1094.146458186324
 20
344.0468042614805
 30
0.0
  0
SPLINE
  5
125
330
1F
100
AcDbEntity
  8
0
  6
CONTINUOUS
 62
     7
100
AcDbSpline
210
0.0
220
0.0
230
1.0
 70
     8
 71
     3
 72
    18
 73
    14
 74
     0
 42
0.000000001
 43
0.0001
 40
2.259535321108389
 40
2.259535321108389
 40
2.259535321108389
 40
2.259535321108389
 40
2.26675417301985
 40
2.274210601220573
 40
2.281667029421296
 40
2.289123457622019
 40
2.296579885822743
 40
2.304036314023466
 40
2.311492742224189
 40
2.318949170424912
 40
2.326405598625636
 40
2.333862026826359
 40
2.338754903746427
 40
2.338754903746427
 40
2.338754903746427
 40
2.338754903746427
 10
-1079.306396908791
 20
165.5000285618737
 30
0.0
 10
-1079.45341863349
 20
165.5003042287579
 30
0.0
 10
-1079.752300646723
 20
167.8427890248218
 30
0.0
 10
-1080.203042948491
 20
178.2901780132781
 30
0.0
 10
-1080.658623814095
 20
195.092440550546
 30
0.0
 10
-1081.114204679698
 20
216.7700420516625
 30
0.0
 10
-1081.569785545301
 20
241.558836952821
 30
0.0
 10
-1082.025366410906
 20
267.4414875631024
 30
0.0
 10
-1082.48094727651
 20
292.3116370860073
 30
0.0
 10
-1082.936528142112
 20
314.1453271076057
 30
0.0
 10
-1083.392109007716
 20
331.1657094193384
 30
0.0
 10
-1083.795479669362
 20
340.7474384982641
 30
0.0
 10
-1084.046990042475
 20
343.4855241430328
 30
0.0
 10
-1084.146640127052
 20
344.0479897078318
 30
0.0
  0
LINE
  5
126
330
1F
100
AcDbEntity
  8
0
  6
CONTINUOUS
 62
     7
100
AcDbLine
 10
-905.151084531553
 20
302.6690024726523
 30
0.0
 11
-905.151084531553
 21
322.4926990170865
 31
0.0
  0
SPLINE
  5
127
330
1F
100
AcDbEntity
  8
0
  6
CONTINUOUS
 62
     7
100
AcDbSpline
210
0.0
220
0.0
230
1.0
 70
     8
 71
     3
 72
    18
 73
    14
 74
     0
 42
0.000000001
 43
0.0001
 40
1.441190208405429
 40
1.441190208405429
 40
1.441190208405429
 40
1.441190208405429
 40
1.446547070940304
 40
1.454003499141027
 40
1.46145992734175
 40
1.468916355542473
 40
1.476372783743196
 40
1.48382921194392
 40
1.491285640144643
 40
1.498742068345366
 40
1.506198496546089
 40
1.513654924746812
 40
1.520406754246097
 40
1.520406754246097
 40
1.520406754246097
 40
1.520406754246097
 10
-1029.306267520893
 20
165.501049244942
 30
0.0
 10
-1029.415367302757
 20
165.501479312666
 30
0.0
 10
-1029.676327373156
 20
167.0092215528784
 30
0.0
 10
-1030.08914773209
 20
175.0220918773727
 30
0.0
 10
-1030.544728597693
 20
190.3736310844957
 30
0.0
 10
-1031.000309463296
 20
210.9845308357857
 30
0.0
 10
-1031.455890328901
 20
235.177454855806
 30
0.0
 10
-1031.911471194504
 20
260.9835580403965
 30
0.0
 10
-1032.367052060107
 20
286.3027131014973
 30
0.0
 10
-1032.822632925712
 20
309.0744210914703
 30
0.0
 10
-1033.278213791315
 20
327.4454969322204
 30
0.0
 10
-1033.719444547292
 20
339.5279276800401
 30
0.0
 10
-1034.008815014735
 20
343.2696806798265
 30
0.0
 10
-1034.146325193643
 20
344.0473177234016
 30
0.0
  0
LINE
  5
128
330
1F
100
AcDbEntity
  8
0
  6
CONTINUOUS
 62
     7
100
AcDbLine
 10
-905.1510845315528
 20
187.5073009829133
 30
0.0
 11
-902.1510845315529
 21
187.5073009829133
 31
0.0
  0
LINE
  5
129
330
1F
100
AcDbEntity
  8
0
  6
CONTINUOUS
 62
     7
100
AcDbLine
 10
-1159.822657406807
 20
269.9999999999999
 30
0.0
 11
-1150.396134498178
 21
269.9999999999999
 31
0.0
  0
ARC
  5
12A
330
1F
100
AcDbEntity
  8
0
  6
CONTINUOUS
 62
     7
100
AcDbCircle
 10
1082.623855366105
 20
165.9249974945465
 30
0.0
 40
0.6430026033380373
210
0.0
220
0.0
230
-1.0
100
AcDbArc
 50
318.6294047814708
 51
2.441242715521298
  0
ARC
  5
12B
330
1F
100
AcDbEntity
  8
0
  6
CONTINUOUS
 62
     7
100
AcDbCircle
 10
1022.623663373896
 20
165.9269950962083
 30
0.0
 40
0.6436090413582624
210
0.0
220
0.0
230
-1.0
100
AcDbArc
 50
318.5859811648994
 51
2.448729707715756
  0
LINE
  5
12C
330
1F
100
AcDbEntity
  8
0
  6
CONTINUOUS
 62
     7
100
AcDbLine
 10
-1143.651084531553
 20
268.4999999999999
 30
0.0
 11
-1143.651084531553
 21
254.9999999999999
 31
0.0
  0
ELLIPSE
  5
12D
330
1F
100
AcDbEntity
  8
0
  6
CONTINUOUS
 62
     7
100
AcDbEllipse
 10
-902.1510845315529
 20
301.988016723043
 30
0.0
 11
1.500000000000001
 21
0.0
 31
0.0
210
0.0
220
0.0
230
1.0
 40
0.4539904997395462
 41
0.0
 42
1.570796326794914
  0
ARC
  5
12E
330
1F
100
AcDbEntity
  8
0
  6
CONTINUOUS
 62
     7
100
AcDbCircle
 10
-1017.621050208345
 20
344.0723165154936
 30
0.0
 40
0.6461700083806363
100
AcDbArc
 50
138.7156819441138
 51
182.3618966052456
  0
ARC
  5
12F
330
1F
100
AcDbEntity
  8
0
  6
CONTINUOUS
 62
     7
100
AcDbCircle
 10
-1007.632954444109
 20
344.0774603452134
 30
0.0
 40
0.6335519796050657
100
AcDbArc
 50
138.3486416811376
 51
182.4698398308862
  0
ARC
  5
130
330
1F
100
AcDbEntity
  8
0
  6
CONTINUOUS
 62
     7
100
AcDbCircle
 10
-997.6284927422017
 20
344.0748415525202
 30
0.0
 40
0.6386222216288775
100
AcDbArc
 50
138.4490073893755
 51
182.4926019447381
  0
ARC
  5
131
330
1F
100
AcDbEntity
  8
0
  6
CONTINUOUS
 62
     7
100
AcDbCircle
 10
-987.6292104713409
 20
344.0748090602068
 30
0.0
 40
0.6380702727789336
100
AcDbArc
 50
138.4039433722209
 51
182.5425279126605
  0
ARC
  5
132
330
1F
100
AcDbEntity
  8
0
  6
CONTINUOUS
 62
     7
100
AcDbCircle
 10
1032.62654981658
 20
165.9251771571019
 30
0.0
 40
0.6403287994994264
210
0.0
220
0.0
230
-1.0
100
AcDbArc
 50
318.5188807455014
 51
2.443909058371901
  0
ELLIPSE
  5
133
330
1F
100
AcDbEntity
  8
0
  6
CONTINUOUS
 62
     7
100
AcDbEllipse
 10
-902.1510845315529
 20
208.0119832769568
 30
0.0
 11
1.500000000000001
 21
0.0
 31
0.0
210
0.0
220
0.0
230
-1.0
 40
0.453990499739547
 41
0.0
 42
1.570796326794887
  0
LINE
  5
134
330
1F
100
AcDbEntity
  8
0
  6
CONTINUOUS
 62
     7
100
AcDbLine
 10
-1145.291622850998
 20
269.9999999999999
 30
0.0
 11
-1145.182627570481
 21
269.9999999999999
 31
0.0
  0
LINE
  5
135
330
1F
100
AcDbEntity
  8
0
  6
CONTINUOUS
 62
     7
100
AcDbLine
 10
-905.151084531553
 20
322.4926990170865
 30
0.0
 11
-902.1510845315529
 21
322.4926990170865
 31
0.0
  0
LINE
  5
136
330
1F
100
AcDbEntity
  8
0
  6
CONTINUOUS
 62
     7
100
AcDbLine
 10
-902.1510845315529
 20
207.3309975273475
 30
0.0
 11
-905.1510845315528
 21
207.3309975273475
 31
0.0
  0
LINE
  5
137
330
1F
100
AcDbEntity
  8
0
  6
CONTINUOUS
 62
     7
100
AcDbLine
 10
-1175.651084531553
 20
254.9999999999999
 30
0.0
 11
-1178.651084531553
 21
254.9999999999999
 31
0.0
  0
LINE
  5
138
330
1F
100
AcDbEntity
  8
0
  6
CONTINUOUS
 62
     7
100
AcDbLine
 10
-1093.10669016755
 20
165.5000042954493
 30
0.0
 11
-1093.265977960545
 21
165.9505448699578
 31
0.0
  0
ARC
  5
139
330
1F
100
AcDbEntity
  8
0
  6
CONTINUOUS
 62
     7
100
AcDbCircle
 10
972.636898915572
 20
165.9206868710584
 30
0.0
 40
0.6295024612587985
210
0.0
220
0.0
230
-1.0
100
AcDbArc
 50
318.2493714006854
 51
2.520580093529759
  0
ARC
  5
13A
330
1F
100
AcDbEntity
  8
0
  6
CONTINUOUS
 62
     7
100
AcDbCircle
 10
-1145.151084531553
 20
268.4999999999999
 30
0.0
 40
1.500000000000001
100
AcDbArc
 50
0.0
 51
67.88918966319903
  0
ARC
  5
13B
330
1F
100
AcDbEntity
  8
0
  6
CONTINUOUS
 62
     7
100
AcDbCircle
 10
962.6356071815944
 20
165.9225727616915
 30
0.0
 40
0.6315750801600636
210
0.0
220
0.0
230
-1.0
100
AcDbArc
 50
318.1722634579125
 51
2.687610135896761
  0
LINE
  5
13C
330
1F
100
AcDbEntity
  8
0
  6
CONTINUOUS
 62
     7
100
AcDbLine
 10
-1148.130365030586
 20
269.9999999999999
 30
0.0
 11
-1145.291622850998
 21
269.9999999999999
 31
0.0
  0
LINE
  5
13D
330
1F
100
AcDbEntity
  8
0
  6
CONTINUOUS
 62
     7
100
AcDbLine
 10
-902.1510845315529
 20
359.9892851675826
 30
0.0
 11
-908.1510845315529
 21
359.9892851675826
 31
0.0
  0
ARC
  5
13E
330
1F
100
AcDbEntity
  8
0
  6
CONTINUOUS
 62
     7
100
AcDbCircle
 10
-1077.624445632707
 20
344.0749621002805
 30
0.0
 40
0.6424656349258587
100
AcDbArc
 50
138.5882045050501
 51
182.4665103629824
  0
LINE
  5
13F
330
1F
100
AcDbEntity
  8
0
  6
CONTINUOUS
 62
     7
100
AcDbLine
 10
-900.6510845315529
 20
301.988016723043
 30
0.0
 11
-900.6510845315529
 21
208.011983276957
 31
0.0
  0
SPLINE
  5
140
330
1F
100
AcDbEntity
  8
0
  6
CONTINUOUS
 62
     7
100
AcDbSpline
210
0.0
220
0.0
230
1.0
 70
     8
 71
     3
 72
     9
 73
     5
 74
     0
 42
0.000000001
 43
0.0001
 40
2.586872407366872
 40
2.586872407366872
 40
2.586872407366872
 40
2.586872407366872
 40
2.587380585650948
 40
2.589482525013648
 40
2.589482525013648
 40
2.589482525013648
 40
2.589482525013648
 10
-1103.10639008076
 20
165.5000982168808
 30
0.0
 10
-1103.116739821785
 20
165.500018965641
 30
0.0
 10
-1103.169898413041
 20
165.5288948856457
 30
0.0
 10
-1103.223057004296
 20
165.7085362925986
 30
0.0
 10
-1103.265865854527
 20
165.949702896801
 30
0.0
  0
LINE
  5
141
330
1F
100
AcDbEntity
  8
0
  6
CONTINUOUS
 62
     7
100
AcDbLine
 10
-908.1510845315529
 20
359.9892851675825
 30
0.0
 11
-908.1510845315529
 21
150.0000000000002
 31
0.0
  0
ARC
  5
142
330
1F
100
AcDbEntity
  8
0
  6
CONTINUOUS
 62
     7
100
AcDbCircle
 10
1112.821269770247
 20
165.8549293711896
 30
0.0
 40
0.4551938912853156
210
0.0
220
0.0
230
-1.0
100
AcDbArc
 50
308.8182910462906
 51
12.20785372701147
  0
SPLINE
  5
143
330
1F
100
AcDbEntity
  8
0
  6
CONTINUOUS
 62
     7
100
AcDbSpline
210
0.0
220
0.0
230
1.0
 70
     8
 71
     3
 72
     9
 73
     5
 74
     0
 42
0.000000001
 43
0.0001
 40
2.668709746492291
 40
2.668709746492291
 40
2.668709746492291
 40
2.668709746492291
 40
2.669401295858903
 40
2.671321796222371
 40
2.671321796222371
 40
2.671321796222371
 40
2.671321796222371
 10
-1108.106575798883
 20
344.4998238876083
 30
0.0
 10
-1108.12066014108
 20
344.4998607630239
 30
0.0
 10
-1108.173858081836
 20
344.4601547809182
 30
0.0
 10
-1108.227056022593
 20
344.2694849454908
 30
0.0
 10
-1108.266169621152
 20
344.0486998893979
 30
0.0
  0
LINE
  5
144
330
1F
100
AcDbEntity
  8
0
  6
CONTINUOUS
 62
     7
100
AcDbLine
 10
-1150.396134498178
 20
254.9999999999999
 30
0.0
 11
-1175.651084531553
 21
254.9999999999999
 31
0.0
  0
LINE
  5
145
330
1F
100
AcDbEntity
  8
0
  6
CONTINUOUS
 62
     7
100
AcDbLine
 10
-905.1510845315528
 20
335.4346665274927
 30
0.0
 11
-902.1510845315529
 21
335.4346665274927
 31
0.0
  0
LINE
  5
146
330
1F
100
AcDbEntity
  8
0
  6
CONTINUOUS
 62
     7
100
AcDbLine
 10
-902.1510845315529
 20
161.4443149602214
 30
0.0
 11
-905.151084531553
 21
161.4443149602213
 31
0.0
  0
LINE
  5
147
330
1F
100
AcDbEntity
  8
0
  6
CONTINUOUS
 62
     7
100
AcDbLine
 10
-1175.651084531553
 20
269.9999999999999
 30
0.0
 11
-1165.479511656299
 21
269.9999999999999
 31
0.0
  0
LINE
  5
148
330
1F
100
AcDbEntity
  8
0
  6
CONTINUOUS
 62
     7
100
AcDbLine
 10
-902.1510845315529
 20
348.5556850397786
 30
0.0
 11
-905.1510845315528
 21
348.5556850397786
 31
0.0
  0
SPLINE
  5
149
330
1F
100
AcDbEntity
  8
0
  6
CONTINUOUS
 62
     7
100
AcDbSpline
210
0.0
220
0.0
230
1.0
 70
     8
 71
     3
 72
     9
 73
     5
 74
     0
 42
0.000000001
 43
0.0001
 40
2.505033936499014
 40
2.505033936499014
 40
2.505033936499014
 40
2.505033936499014
 40
2.505359875442993
 40
2.50765503139917
 40
2.50765503139917
 40
2.50765503139917
 40
2.50765503139917
 10
-1098.106135214222
 20
344.4999583879483
 30
0.0
 10
-1098.112773403546
 20
344.5000566725004
 30
0.0
 10
-1098.166155561477
 20
344.4819695997334
 30
0.0
 10
-1098.219537719408
 20
344.3118289333294
 30
0.0
 10
-1098.266281688016
 20
344.0478423165774
 30
0.0
  0
ARC
  5
14A
330
1F
100
AcDbEntity
  8
0
  6
CONTINUOUS
 62
     7
100
AcDbCircle
 10
1002.62820158107
 20
165.9254256633836
 30
0.0
 40
0.6389782894522292
210
0.0
220
0.0
230
-1.0
100
AcDbArc
 50
318.4410576761103
 51
2.507284093422754
  0
LINE
  5
14B
330
1F
100
AcDbEntity
  8
0
  6
CONTINUOUS
 62
     7
100
AcDbLine
 10
-1143.651084531553
 20
349.4999999999999
 30
0.0
 11
-1143.651084531553
 21
268.4999999999999
 31
0.0
  0
LINE
  5
14C
330
1F
100
AcDbEntity
  8
0
  6
CONTINUOUS
 62
     7
100
AcDbLine
 10
-1319.151084531522
 20
296.7578720541868
 30
0.0
 11
-1319.151084531522
 21
255.0
 31
0.0
  0
LINE
  5
14D
330
1F
100
AcDbEntity
  8
0
  6
CONTINUOUS
 62
     7
100
AcDbLine
 10
-1179.151084531521
 20
254.5980389191392
 30
0.0
 11
-1179.151084531521
 21
213.2683075523083
 31
0.0
  0
ELLIPSE
  5
14E
330
1F
100
AcDbEntity
  8
0
  6
CONTINUOUS
 62
     7
100
AcDbEllipse
 10
-1367.874078926018
 20
296.1382880338023
 30
0.0
 11
264.9756073373895
 21
0.0
 31
0.0
210
0.0
220
0.0
230
1.0
 40
0.2679491924311145
 41
1.218224329781404
 42
1.262700652038226
  0
LWPOLYLINE
  5
14F
330
1F
100
AcDbEntity
  8
0
  6
CONTINUOUS
 62
     7
100
AcDbPolyline
 90
       44
 70
     0
 43
0.0
 10
-1288.151084531521
 20
318.1516126864187
 10
-1288.150617327096
 20
318.1300396714396
 10
-1288.149218015429
 20
318.1084826056526
 10
-1288.146890048931
 20
318.0869961274799
 10
-1288.143636880011
 20
318.0656348753439
 10
-1288.139323654926
 20
318.0438133222302
 10
-1288.134033557901
 20
318.0221640764984
 10
-1288.127779035688
 20
318.0007468526683
 10
-1288.120572535038
 20
317.9796213652599
 10
-1288.112651893993
 20
317.959378995506
 10
-1288.10383664581
 20
317.9394515046144
 10
-1288.094147173393
 20
317.9198936224054
 10
-1288.083603859645
 20
317.9007600786991
 10
-1288.071847105771
 20
317.8815077826617
 10
-1288.059194740399
 20
317.8627491223577
 10
-1288.045680245182
 20
317.8445426032186
 10
-1288.031337101771
 20
317.8269467306759
 10
-1288.017041833591
 20
317.8109173353972
 10
-1288.002024822943
 20
317.7954701798565
 10
-1287.986324554786
 20
317.7806514967639
 10
-1287.969979514073
 20
317.7665075188299
 10
-1287.952444963789
 20
317.7526396688446
 10
-1287.93424961697
 20
317.7395286705447
 10
-1287.91544745374
 20
317.7272191975458
 10
-1287.896092454222
 20
317.7157559234631
 10
-1287.877760961904
 20
317.7059492648584
 10
-1287.858988466035
 20
317.6968901772246
 10
-1287.839825725259
 20
317.6886063622732
 10
-1287.820323498221
 20
317.6811255217154
 10
-1287.799865495575
 20
317.6742638403749
 10
-1287.779083646032
 20
317.6682782966566
 10
-1287.758040765169
 20
317.6631886247517
 10
-1287.736799668557
 20
317.6590145588513
 10
-1287.716899249737
 20
317.6559649827459
 10
-1287.696863680866
 20
317.6537159998711
 10
-1287.676746544215
 20
317.6522734376302
 10
-1287.656601422051
 20
317.6516431234262
 10
-1287.635839969887
 20
317.6518471412087
 10
-1287.615087845616
 20
317.6529137039841
 10
-1287.594403809209
 20
317.6548377960953
 10
-1287.573846620634
 20
317.6576144018854
 10
-1287.556318692812
 20
317.6606758642845
 10
-1287.538916251046
 20
317.6643573076844
 10
-1287.52167500897
 20
317.6686497732742
  0
LWPOLYLINE
  5
150
330
1F
100
AcDbEntity
  8
0
  6
CONTINUOUS
 62
     7
100
AcDbPolyline
 90
        6
 70
     0
 43
0.0
 10
-1287.521675008969
 20
363.7950949593968
 42
0.0820261333135472
 10
-1287.973791168274
 20
363.7628560060566
 10
-1288.078715191641
 20
363.7234464882305
 10
-1288.150393943466
 20
363.6480392076443
 10
-1288.151084531521
 20
363.6394994135857
 10
-1288.151084531521
 20
363.6394994135857
  0
ARC
  5
151
330
1F
100
AcDbEntity
  8
0
  6
CONTINUOUS
 62
     7
100
AcDbCircle
 10
-1277.151118970057
 20
323.5532960835884
 30
0.0
 40
3.000034438652007
100
AcDbArc
 50
285.00050468633
 51
359.9994953136683
  0
LWPOLYLINE
  5
152
330
1F
100
AcDbEntity
  8
0
  6
CONTINUOUS
 62
     7
100
AcDbPolyline
 90
        9
 70
     0
 43
0.0
 10
-1274.151084531521
 20
361.6319425550321
 10
-1274.162618996376
 20
361.7412589635942
 10
-1274.197195495514
 20
361.8488141108679
 10
-1274.256842398799
 20
361.95683526732
 10
-1274.340715693022
 20
362.0615073299328
 10
-1274.445403612912
 20
362.1594175111349
 10
-1274.57238603515
 20
362.2527858911493
 10
-1274.57238603515
 20
362.2527858911493
 42
0.1084695305645093
 10
-1276.374627396213
 20
362.7709129325508
  0
LWPOLYLINE
  5
153
330
1F
100
AcDbEntity
  8
0
  6
CONTINUOUS
 62
     7
100
AcDbPolyline
 90
       45
 70
     0
 43
0.0
 10
-1287.52167500897
 20
192.3313502267258
 10
-1287.540902756434
 20
192.3360945258442
 10
-1287.560336732821
 20
192.3400802069416
 10
-1287.579926975741
 20
192.3432963481544
 10
-1287.599623522802
 20
192.3457320276193
 10
-1287.619985616891
 20
192.3474173433424
 10
-1287.640423603105
 20
192.3482702888018
 10
-1287.66088115
 20
192.348289443611
 10
-1287.681301926132
 20
192.3474733873831
 10
-1287.701093660611
 20
192.3458784427754
 10
-1287.720815678955
 20
192.3434980158988
 10
-1287.740417296863
 20
192.3403405555342
 10
-1287.759847830038
 20
192.3364145104626
 10
-1287.779642170747
 20
192.3315758318217
 10
-1287.799220676275
 20
192.3259357378484
 10
-1287.818532050194
 20
192.3195131311577
 10
-1287.83752499608
 20
192.3123269143645
 10
-1287.855748627882
 20
192.3045792507129
 10
-1287.87363977345
 20
192.296122112318
 10
-1287.891156278919
 20
192.2869805509712
 10
-1287.908255990423
 20
192.2771796184637
 10
-1287.92537510972
 20
192.2664341001161
 10
-1287.942029601091
 20
192.2550175901988
 10
-1287.958181081591
 20
192.2429632131116
 10
-1287.973791168274
 20
192.2303040932539
 10
-1287.988912530462
 20
192.2169938702444
 10
-1288.003468797541
 20
192.2031023342659
 10
-1288.017428977702
 20
192.1886670388036
 10
-1288.030762079132
 20
192.1737255373428
 10
-1288.043788022068
 20
192.1578747967743
 10
-1288.056138996061
 20
192.1415225509675
 10
-1288.067789789716
 20
192.1247118605683
 10
-1288.078715191642
 20
192.1074857862225
 10
-1288.089094023527
 20
192.0895226159045
 10
-1288.098710346281
 20
192.071161962855
 10
-1288.107545657013
 20
192.0524505005122
 10
-1288.115581452829
 20
192.0334349023142
 10
-1288.122994850888
 20
192.0136118430566
 10
-1288.129559830779
 20
191.9935034963141
 10
-1288.135264362563
 20
191.9731606328871
 10
-1288.140096416301
 20
191.9526340235761
 10
-1288.144892224147
 20
191.9268123809547
 10
-1288.148327287105
 20
191.9007653702417
 10
-1288.150393943466
 20
191.8745910086972
 10
-1288.151084531521
 20
191.8483873135812
  0
LINE
  5
154
330
1F
100
AcDbEntity
  8
0
  6
CONTINUOUS
 62
     7
100
AcDbLine
 10
-1276.374627396216
 20
189.3445078208973
 30
0.0
 11
-1287.521675008971
 21
192.3313502267264
 31
0.0
  0
LINE
  5
155
330
1F
100
AcDbEntity
  8
0
  6
CONTINUOUS
 62
     7
100
AcDbLine
 10
-1288.15108453152
 20
146.3605005864123
 30
0.0
 11
-1288.15108453152
 21
191.8483873135806
 31
0.0
  0
LINE
  5
156
330
1F
100
AcDbEntity
  8
0
  6
CONTINUOUS
 62
     7
100
AcDbLine
 10
-1274.15108453152
 20
148.3680574449658
 30
0.0
 11
-1274.15108453152
 21
186.4467303420286
 31
0.0
  0
ARC
  5
157
330
1F
100
AcDbEntity
  8
0
  6
CONTINUOUS
 62
     7
100
AcDbCircle
 10
-1277.151187834434
 20
186.4466510749164
 30
0.0
 40
3.000103303959945
100
AcDbArc
 50
0.0015138382146811
 51
74.99848616178741
  0
LINE
  5
158
330
1F
100
AcDbEntity
  8
0
  6
CONTINUOUS
 62
     7
100
AcDbLine
 10
-1288.15108453152
 20
318.1516126864194
 30
0.0
 11
-1288.15108453152
 21
363.6394994135878
 31
0.0
  0
LINE
  5
159
330
1F
100
AcDbEntity
  8
0
  6
CONTINUOUS
 62
     7
100
AcDbLine
 10
-1287.521675008972
 20
317.6686497732735
 30
0.0
 11
-1276.374627396216
 21
320.6554921791026
 31
0.0
  0
ELLIPSE
  5
15A
330
1F
100
AcDbEntity
  8
0
  6
CONTINUOUS
 62
     7
100
AcDbEllipse
 10
-1367.874078926018
 20
213.8617119661977
 30
0.0
 11
264.9756073373895
 21
0.0
 31
0.0
210
0.0
220
0.0
230
1.0
 40
0.2679491924311145
 41
5.02048465514136
 42
5.064960977398182
  0
LWPOLYLINE
  5
15B
330
1F
100
AcDbEntity
  8
0
  6
CONTINUOUS
 62
     7
100
AcDbPolyline
 90
        7
 70
     0
 43
0.0
 10
-1276.374627396213
 20
147.2290870674491
 42
0.1414125801656071
 10
-1274.35968260574
 20
147.9187485279945
 10
-1274.266593575906
 20
148.0291250217765
 10
-1274.192818849092
 20
148.1621102165326
 10
-1274.155738462539
 20
148.2989005052788
 10
-1274.151084531521
 20
148.3680574449678
 10
-1274.151084531521
 20
148.3680574449678
  0
LINE
  5
15C
330
1F
100
AcDbEntity
  8
0
  6
CONTINUOUS
 62
     7
100
AcDbLine
 10
-1319.151084531521
 20
296.7578720541868
 30
0.0
 11
-1319.151084531521
 21
367.1355845713584
 31
0.0
  0
LINE
  5
15D
330
1F
100
AcDbEntity
  8
0
  6
CONTINUOUS
 62
     7
100
AcDbLine
 10
-1319.151084531521
 20
142.8644154286416
 30
0.0
 11
-1319.151084531521
 21
213.2421279458131
 31
0.0
  0
LWPOLYLINE
  5
15E
330
1F
100
AcDbEntity
  8
0
  6
CONTINUOUS
 62
     7
100
AcDbPolyline
 90
        8
 70
     0
 43
0.0
 10
-1276.374627396213
 20
152.630664107176
 42
0.1189226673466839
 10
-1274.515495419905
 20
153.236401383878
 10
-1274.376052481556
 20
153.3607634239964
 10
-1274.267815803638
 20
153.4944320751707
 10
-1274.193241510082
 20
153.63739529805
 10
-1274.155783498094
 20
153.7842535038002
 10
-1274.151084531521
 20
153.8584354018876
 10
-1274.151084531521
 20
153.8584354018876
  0
ELLIPSE
  5
15F
330
1F
100
AcDbEntity
  8
0
  6
CONTINUOUS
 62
     7
100
AcDbEllipse
 10
-1361.904702050728
 20
212.2622222531468
 30
0.0
 11
-235.8055912933254
 21
-1.421330428343004
 31
0.0
210
0.0
220
0.0
230
1.0
 40
0.2735251099434993
 41
1.890069765705991
 42
1.940326078080679
  0
LWPOLYLINE
  5
160
330
1F
100
AcDbEntity
  8
0
  6
CONTINUOUS
 62
     7
100
AcDbPolyline
 90
        6
 70
     0
 43
0.0
 10
-1288.151084531521
 20
151.6270567012054
 10
-1288.083233509634
 20
151.5423536641016
 10
-1287.985394410213
 20
151.5027264734929
 10
-1287.876477034064
 20
151.4786735971506
 10
-1287.876477034064
 20
151.4786735971506
 42
0.0614960346060433
 10
-1287.521675008969
 20
151.4691215627654
  0
LWPOLYLINE
  5
161
330
1F
100
AcDbEntity
  8
0
  6
CONTINUOUS
 62
     7
100
AcDbPolyline
 90
        9
 70
     0
 43
0.0
 10
-1274.151084531521
 20
356.1415645981123
 10
-1274.16282027527
 20
356.2592650366922
 10
-1274.198010421797
 20
356.375171809069
 10
-1274.258737175388
 20
356.4916899715829
 10
-1274.344174470449
 20
356.6047129684435
 10
-1274.450890138292
 20
356.7105586098226
 10
-1274.580422865017
 20
356.8116078861357
 10
-1274.580422865017
 20
356.8116078861357
 42
0.1120834897760263
 10
-1276.374627396213
 20
357.369335892824
  0
LINE
  5
162
330
1F
100
AcDbEntity
  8
0
  6
CONTINUOUS
 62
     7
100
AcDbLine
 10
-1179.15108453152
 20
364.4963779036298
 30
0.0
 11
-1179.15108453152
 21
364.1356988021639
 31
0.0
  0
ELLIPSE
  5
163
330
1F
100
AcDbEntity
  8
0
  6
CONTINUOUS
 62
     7
100
AcDbEllipse
 10
-1361.904702050728
 20
297.7377777468531
 30
0.0
 11
-235.8055912933254
 21
1.421330428343021
 31
0.0
210
0.0
220
0.0
230
1.0
 40
0.2735251099434993
 41
4.342859229098908
 42
4.393115541473596
  0
LINE
  5
164
330
1F
100
AcDbEntity
  8
0
  6
CONTINUOUS
 62
     7
100
AcDbLine
 10
-1179.151084531521
 20
296.7316924476917
 30
0.0
 11
-1179.151084531521
 21
255.0000000000002
 31
0.0
  0
LINE
  5
165
330
1F
100
AcDbEntity
  8
0
  6
CONTINUOUS
 62
     7
100
AcDbLine
 10
-1319.151084531522
 20
255.0
 30
0.0
 11
-1319.151084531522
 21
213.2421279458131
 31
0.0
  0
LINE
  5
166
330
1F
100
AcDbEntity
  8
0
  6
CONTINUOUS
 62
     7
100
AcDbLine
 10
-1179.15108453152
 20
364.1356988021658
 30
0.0
 11
-1179.15108453152
 21
296.7316924476917
 31
0.0
  0
LINE
  5
167
330
1F
100
AcDbEntity
  8
0
  6
CONTINUOUS
 62
     7
100
AcDbLine
 10
-1179.15108453152
 20
213.2683075523082
 30
0.0
 11
-1179.15108453152
 21
145.8643011978341
 31
0.0
  0
LINE
  5
168
330
1F
100
AcDbEntity
  8
0
  6
CONTINUOUS
 62
     7
100
AcDbLine
 10
-1274.15108453152
 20
323.5532696579714
 30
0.0
 11
-1274.15108453152
 21
361.6319425550342
 31
0.0
  0
LWPOLYLINE
  5
169
330
1F
100
AcDbEntity
  8
0
  6
CONTINUOUS
 62
     7
100
AcDbPolyline
 90
        6
 70
     0
 43
0.0
 10
-1288.151084531521
 20
146.3605005864142
 10
-1288.083603859644
 20
146.2792082356109
 10
-1287.986324554785
 20
146.2406494008649
 10
-1287.877760961904
 20
146.21678614254
 10
-1287.877760961904
 20
146.21678614254
 42
0.059116468148848
 10
-1287.52167500897
 20
146.2049050406031
  0
LWPOLYLINE
  5
16A
330
1F
100
AcDbEntity
  8
0
  6
CONTINUOUS
 62
     7
100
AcDbPolyline
 90
        6
 70
     0
 43
0.0
 10
-1287.521675008969
 20
358.5308784372345
 42
0.0852767652659236
 10
-1287.972240146433
 20
358.5009934346014
 10
-1288.077199108252
 20
358.460997414981
 10
-1288.150346721621
 20
358.3821685769437
 10
-1288.151084531521
 20
358.3729432987946
 10
-1288.151084531521
 20
358.3729432987946
  0
LINE
  5
16B
330
1F
100
AcDbEntity
  8
0
  6
CONTINUOUS
 62
     7
100
AcDbLine
 10
-1319.15108453152
 20
367.4999999999966
 30
0.0
 11
-1182.15108453152
 21
367.4999999999966
 31
0.0
  0
LINE
  5
16C
330
1F
100
AcDbEntity
  8
0
  6
CONTINUOUS
 62
     7
100
AcDbLine
 10
-1319.15108453152
 20
367.4999999999966
 30
0.0
 11
-1319.151084531521
 21
367.1355845713563
 31
0.0
  0
ELLIPSE
  5
16D
330
1F
100
AcDbEntity
  8
0
  6
CONTINUOUS
 62
     7
100
AcDbEllipse
 10
-1182.15108453152
 20
145.5001142351605
 30
0.0
 11
0.0
 21
-3.000114235157024
 31
0.0
210
0.0
220
0.0
230
1.0
 40
0.999961923064172
 41
0.0
 42
1.570796326794897
  0
LINE
  5
16E
330
1F
100
AcDbEntity
  8
0
  6
CONTINUOUS
 62
     7
100
AcDbLine
 10
-1179.151084531521
 20
255.0000000000002
 30
0.0
 11
-1179.151084531521
 21
254.5980389191392
 31
0.0
  0
LINE
  5
16F
330
1F
100
AcDbEntity
  8
0
  6
CONTINUOUS
 62
     7
100
AcDbLine
 10
-1148.130365030586
 20
240.0
 30
0.0
 11
-1150.396134498178
 21
240.0
 31
0.0
  0
LWPOLYLINE
  5
170
330
1F
100
AcDbEntity
  8
0
  6
CONTINUOUS
 62
     7
100
AcDbPolyline
 90
        7
 70
     0
 43
0.0
 10
-953.6122215340234
 20
341.0331460826434
 42
-0.0162728102992421
 10
-952.2765245146054
 20
305.7919277175406
 42
0.0027405000436378
 10
-949.4622503751391
 20
176.3817534771706
 42
0.0314479445010548
 10
-948.8592965248321
 20
168.6141548581486
 10
-948.7934189323702
 20
168.5042519283234
 10
-948.7776666111489
 20
168.5000000001278
 10
-948.7776666111489
 20
168.5000000001278
  0
LINE
  5
171
330
1F
100
AcDbEntity
  8
0
  6
CONTINUOUS
 62
     7
100
AcDbLine
 10
-900.6510845315528
 20
334.2855998628143
 30
0.0
 11
-900.6510845315528
 21
321.5285176025569
 31
0.0
  0
LWPOLYLINE
  5
172
330
1F
100
AcDbEntity
  8
0
  6
CONTINUOUS
 62
     7
100
AcDbPolyline
 90
        7
 70
     0
 43
0.0
 10
-993.6117578878132
 20
341.0314166610515
 42
-0.0166895765560236
 10
-992.3034088745997
 20
306.971875085122
 42
0.0025130008413977
 10
-989.4935034549045
 20
177.1072294207472
 42
0.0268911136877088
 10
-988.8902242842775
 20
168.7163755131191
 10
-988.8224710766939
 20
168.5342331009877
 10
-988.7777309467695
 20
168.5000000000839
 10
-988.7777309467695
 20
168.5000000000839
  0
LWPOLYLINE
  5
173
330
1F
100
AcDbEntity
  8
0
  6
CONTINUOUS
 62
     7
100
AcDbPolyline
 90
        5
 70
     0
 43
0.0
 10
-1013.612598181399
 20
341.0363339748646
 42
-0.0158355366887265
 10
-1012.259608272044
 20
305.0546326492134
 42
0.0028540492791474
 10
-1009.447960867752
 20
176.0618891109551
 42
0.035028354583706
 10
-1008.843295517257
 20
168.5733858105863
 10
-1008.777704507654
 20
168.5000000000222
  0
LWPOLYLINE
  5
174
330
1F
100
AcDbEntity
  8
0
  6
CONTINUOUS
 62
     7
100
AcDbPolyline
 90
        7
 70
     0
 43
0.0
 10
-1003.612909631786
 20
341.0380321477214
 42
-0.0163190419278952
 10
-1002.277407298511
 20
305.8390149962206
 42
0.0027064403998829
 10
-999.4680340992261
 20
176.5154543891232
 42
0.0307587967067286
 10
-998.8648929533823
 20
168.6297785712548
 10
-998.798472093117
 20
168.507343889151
 10
-998.7777268429834
 20
168.5000000000874
 10
-998.7777268429834
 20
168.5000000000874
  0
LWPOLYLINE
  5
175
330
1F
100
AcDbEntity
  8
0
  6
CONTINUOUS
 62
     7
100
AcDbPolyline
 90
        5
 70
     0
 43
0.0
 10
-1103.612279872607
 20
341.0330369312153
 42
-0.0169505872737165
 10
-1102.320444129887
 20
307.7066952909826
 42
0.0024146084353589
 10
-1099.50638892678
 20
177.4082827599759
 42
0.0376304254277675
 10
-1098.837228783559
 20
168.5609519587022
 10
-1098.777475656213
 20
168.5000000000742
  0
LINE
  5
176
330
1F
100
AcDbEntity
  8
0
  6
CONTINUOUS
 62
     7
100
AcDbLine
 10
-943.1510845315529
 20
344.4999999999998
 30
0.0
 11
-943.1510845315529
 21
165.5000000000001
 31
0.0
  0
LINE
  5
177
330
1F
100
AcDbEntity
  8
0
  6
CONTINUOUS
 62
     7
100
AcDbLine
 10
-900.6510845315529
 20
317.3429426829196
 30
0.0
 11
-900.6510845315529
 21
321.5285176025567
 31
0.0
  0
LINE
  5
178
330
1F
100
AcDbEntity
  8
0
  6
CONTINUOUS
 62
     7
100
AcDbLine
 10
-1178.651084531553
 20
241.4999999999999
 30
0.0
 11
-1178.651084531553
 21
254.9999999999999
 31
0.0
  0
ELLIPSE
  5
179
330
1F
100
AcDbEntity
  8
0
  6
CONTINUOUS
 62
     7
100
AcDbEllipse
 10
-902.1510845315529
 20
334.2855998628142
 30
0.0
 11
-1.500000000000001
 21
0.0
 31
0.0
210
0.0
220
0.0
230
-1.0
 40
0.7660444431189745
 41
1.570796326794897
 42
3.141592653589793
  0
LINE
  5
17A
330
1F
100
AcDbEntity
  8
0
  6
CONTINUOUS
 62
     7
100
AcDbLine
 10
-900.6510845315529
 20
317.3429426829196
 30
0.0
 11
-900.6510845315529
 21
315.2475789664126
 31
0.0
  0
LINE
  5
17B
330
1F
100
AcDbEntity
  8
0
  6
CONTINUOUS
 62
     7
100
AcDbLine
 10
-900.6510845315529
 20
208.0119832769569
 30
0.0
 11
-900.6510845315529
 21
194.7524210335873
 31
0.0
  0
LINE
  5
17C
330
1F
100
AcDbEntity
  8
0
  6
CONTINUOUS
 62
     7
100
AcDbLine
 10
-948.1510845315529
 20
344.4999999999998
 30
0.0
 11
-948.1510845315529
 21
165.5000000000001
 31
0.0
  0
LINE
  5
17D
330
1F
100
AcDbEntity
  8
0
  6
CONTINUOUS
 62
     7
100
AcDbLine
 10
-929.1510845315529
 20
343.4999999999999
 30
0.0
 11
-929.1510845315529
 21
166.5
 31
0.0
  0
ELLIPSE
  5
17E
330
1F
100
AcDbEntity
  8
0
  6
CONTINUOUS
 62
     7
100
AcDbEllipse
 10
-902.1510845315529
 20
321.5285176025567
 30
0.0
 11
-1.500000000000001
 21
0.0
 31
0.0
210
0.0
220
0.0
230
-1.0
 40
0.6427876096865327
 41
1.570796326794897
 42
3.141592653589793
  0
LINE
  5
17F
330
1F
100
AcDbEntity
  8
0
  6
CONTINUOUS
 62
     7
100
AcDbLine
 10
-1178.651084531553
 20
254.9999999999999
 30
0.0
 11
-1175.651084531553
 21
254.9999999999999
 31
0.0
  0
LINE
  5
180
330
1F
100
AcDbEntity
  8
0
  6
CONTINUOUS
 62
     7
100
AcDbLine
 10
-1150.396134498178
 20
240.0
 30
0.0
 11
-1175.651084531553
 21
240.0
 31
0.0
  0
LINE
  5
181
330
1F
100
AcDbEntity
  8
0
  6
CONTINUOUS
 62
     7
100
AcDbLine
 10
-1143.932161170443
 20
254.9999999999999
 30
0.0
 11
-1146.770903350031
 21
254.9999999999999
 31
0.0
  0
LINE
  5
182
330
1F
100
AcDbEntity
  8
0
  6
CONTINUOUS
 62
     7
100
AcDbLine
 10
-1150.396134498178
 20
255.0
 30
0.0
 11
-1175.651084531553
 21
255.0
 31
0.0
  0
ARC
  5
183
330
1F
100
AcDbEntity
  8
0
  6
CONTINUOUS
 62
     7
100
AcDbCircle
 10
-1145.151084531553
 20
241.4999999999999
 30
0.0
 40
1.500000000000014
100
AcDbArc
 50
292.110810336801
 51
0.0
  0
LWPOLYLINE
  5
184
330
1F
100
AcDbEntity
  8
0
  6
CONTINUOUS
 62
     7
100
AcDbPolyline
 90
        7
 70
     0
 43
0.0
 10
-973.611944973501
 20
341.0320457203858
 42
-0.0162698049686133
 10
-972.2807397558278
 20
305.9798937028176
 42
0.0026825298316846
 10
-969.4712702007628
 20
176.5888689688379
 42
0.0302354929327397
 10
-968.8679265755197
 20
168.6393503568301
 10
-968.8016392161452
 20
168.5097900690011
 10
-968.7777200190964
 20
168.5000000000732
 10
-968.7777200190964
 20
168.5000000000732
  0
ELLIPSE
  5
185
330
1F
100
AcDbEntity
  8
0
  6
CONTINUOUS
 62
     7
100
AcDbEllipse
 10
-902.1510845315529
 20
347.219175253496
 30
0.0
 11
1.500000000000001
 21
0.0
 31
0.0
210
0.0
220
0.0
230
1.0
 40
0.8910065241883678
 41
0.0
 42
1.570796326794897
  0
ELLIPSE
  5
186
330
1F
100
AcDbEntity
  8
0
  6
CONTINUOUS
 62
     7
100
AcDbEllipse
 10
-902.1510845315529
 20
188.4714823974431
 30
0.0
 11
-1.500000000000001
 21
0.0
 31
0.0
210
0.0
220
0.0
230
1.0
 40
0.6427876096865481
 41
1.570796326794897
 42
3.141592653589793
  0
LINE
  5
187
330
1F
100
AcDbEntity
  8
0
  6
CONTINUOUS
 62
     7
100
AcDbLine
 10
-1145.291622850998
 20
240.0
 30
0.0
 11
-1148.130365030586
 21
240.0
 31
0.0
  0
LINE
  5
188
330
1F
100
AcDbEntity
  8
0
  6
CONTINUOUS
 62
     7
100
AcDbLine
 10
-1143.651084531553
 20
254.9999999999999
 30
0.0
 11
-1143.651084531553
 21
241.5
 31
0.0
  0
LINE
  5
189
330
1F
100
AcDbEntity
  8
0
  6
CONTINUOUS
 62
     7
100
AcDbLine
 10
-1145.182627570481
 20
240.0
 30
0.0
 11
-1145.291622850998
 21
240.0
 31
0.0
  0
LINE
  5
18A
330
1F
100
AcDbEntity
  8
0
  6
CONTINUOUS
 62
     7
100
AcDbLine
 10
-900.6510845315529
 20
301.9880167230431
 30
0.0
 11
-900.6510845315529
 21
315.2475789664126
 31
0.0
  0
LWPOLYLINE
  5
18B
330
1F
100
AcDbEntity
  8
0
  6
CONTINUOUS
 62
     7
100
AcDbPolyline
 90
        7
 70
     0
 43
0.0
 10
-1093.612247182837
 20
341.0329392758798
 42
-0.0161918969937919
 10
-1092.275653673354
 20
305.7543519417437
 42
0.0027417672768441
 10
-1089.462565781481
 20
176.3850281180329
 42
0.0319866940455426
 10
-1088.8569980119
 20
168.6078232281535
 10
-1088.788582548062
 20
168.5021116364532
 10
-1088.777465104394
 20
168.5000000001177
 10
-1088.777465104394
 20
168.5000000001177
  0
LINE
  5
18C
330
1F
100
AcDbEntity
  8
0
  6
CONTINUOUS
 62
     7
100
AcDbLine
 10
-900.681390685883
 20
358.8
 30
0.0
 11
-900.6836445852352
 21
358.8
 31
0.0
  0
LINE
  5
18D
330
1F
100
AcDbEntity
  8
0
  6
CONTINUOUS
 62
     7
100
AcDbLine
 10
-900.6510845315528
 20
188.4714823974431
 30
0.0
 11
-900.6510845315528
 21
175.7144001371857
 31
0.0
  0
LINE
  5
18E
330
1F
100
AcDbEntity
  8
0
  6
CONTINUOUS
 62
     7
100
AcDbLine
 10
-900.6510845315529
 20
358.4999999999999
 30
0.0
 11
-900.6510845315529
 21
347.219175253496
 31
0.0
  0
LINE
  5
18F
330
1F
100
AcDbEntity
  8
0
  6
CONTINUOUS
 62
     7
100
AcDbLine
 10
-900.6510845315527
 20
347.219175253496
 30
0.0
 11
-900.6510845315528
 21
341.4172983898542
 31
0.0
  0
ELLIPSE
  5
190
330
1F
100
AcDbEntity
  8
0
  6
CONTINUOUS
 62
     7
100
AcDbEllipse
 10
-902.1510845315529
 20
162.7808247465039
 30
0.0
 11
1.500000000000001
 21
0.0
 31
0.0
210
0.0
220
0.0
230
-1.0
 40
0.891006524188368
 41
0.0
 42
1.570796326794943
  0
LWPOLYLINE
  5
191
330
1F
100
AcDbEntity
  8
0
  6
CONTINUOUS
 62
     7
100
AcDbPolyline
 90
        7
 70
     0
 43
0.0
 10
-983.6119620043745
 20
341.0323703411011
 42
-0.0159057992990672
 10
-982.2571374233621
 20
304.9418153362692
 42
0.0028796937345285
 10
-979.4453687399181
 20
176.005767945149
 42
0.0342530306906487
 10
-978.8464330843073
 20
168.5807373794294
 10
-978.7781581653996
 20
168.500039891941
 10
-978.7777311113518
 20
168.5000000000007
 10
-978.7777311113518
 20
168.5000000000007
  0
LWPOLYLINE
  5
192
330
1F
100
AcDbEntity
  8
0
  6
CONTINUOUS
 62
     7
100
AcDbPolyline
 90
        7
 70
     0
 43
0.0
 10
-1033.611899378493
 20
341.0321861512419
 42
-0.0161917970435254
 10
-1032.281851207054
 20
306.0361462640947
 42
0.0027231647545705
 10
-1029.464934337005
 20
176.4423476770407
 42
0.0307358869800145
 10
-1028.863603365837
 20
168.6259172160371
 10
-1028.795203265867
 20
168.5052489062555
 10
-1028.777644722474
 20
168.5000000001143
 10
-1028.777644722474
 20
168.5000000001143
  0
LINE
  5
193
330
1F
100
AcDbEntity
  8
0
  6
CONTINUOUS
 62
     7
100
AcDbLine
 10
-900.6510845315529
 20
162.7808247465039
 30
0.0
 11
-900.6510845315528
 21
168.5827016101457
 31
0.0
  0
LINE
  5
194
330
1F
100
AcDbEntity
  8
0
  6
CONTINUOUS
 62
     7
100
AcDbLine
 10
-900.6510845315529
 20
162.7808247465039
 30
0.0
 11
-900.6510845315529
 21
151.4999999999999
 31
0.0
  0
LWPOLYLINE
  5
195
330
1F
100
AcDbEntity
  8
0
  6
CONTINUOUS
 62
     7
100
AcDbPolyline
 90
        7
 70
     0
 43
0.0
 10
-1083.612368546807
 20
341.0337653563068
 42
-0.0165456490968298
 10
-1082.299589562737
 20
306.805427045647
 42
0.0025681276500384
 10
-1079.484179439164
 20
176.8826351242549
 42
0.0278017905457312
 10
-1078.880600464131
 20
168.6809991373523
 10
-1078.814545711152
 20
168.5234551030313
 10
-1078.777465252745
 20
168.5000000000125
 10
-1078.777465252745
 20
168.5000000000125
  0
LWPOLYLINE
  5
196
330
1F
100
AcDbEntity
  8
0
  6
CONTINUOUS
 62
     7
100
AcDbPolyline
 90
        7
 70
     0
 43
0.0
 10
-1023.6120282211
 20
341.033062029221
 42
-0.0166733622988616
 10
-1022.30009549881
 20
306.8324705549653
 42
0.0025365567440631
 10
-1019.490314642912
 20
177.0316122030173
 42
0.027321197003971
 10
-1018.887110553481
 20
168.7042320708858
 10
-1018.821172458056
 20
168.5322663873041
 10
-1018.777675522756
 20
168.5000000000703
 10
-1018.777675522756
 20
168.5000000000703
  0
LINE
  5
197
330
1F
100
AcDbEntity
  8
0
  6
CONTINUOUS
 62
     7
100
AcDbLine
 10
-900.6510845315529
 20
170.5895066273875
 30
0.0
 11
-900.6510845315529
 21
175.7144001371855
 31
0.0
  0
LINE
  5
198
330
1F
100
AcDbEntity
  8
0
  6
CONTINUOUS
 62
     7
100
AcDbLine
 10
-936.1510845315529
 20
343.4999999999999
 30
0.0
 11
-936.1510845315529
 21
166.5
 31
0.0
  0
LINE
  5
199
330
1F
100
AcDbEntity
  8
0
  6
CONTINUOUS
 62
     7
100
AcDbLine
 10
-900.6510845315529
 20
170.5895066273876
 30
0.0
 11
-900.6510845315529
 21
168.5827016101457
 31
0.0
  0
LINE
  5
19A
330
1F
100
AcDbEntity
  8
0
  6
CONTINUOUS
 62
     7
100
AcDbLine
 10
-1150.396134498178
 20
254.9999999999999
 30
0.0
 11
-1146.770903350031
 21
254.9999999999999
 31
0.0
  0
ARC
  5
19B
330
1F
100
AcDbEntity
  8
0
  6
CONTINUOUS
 62
     7
100
AcDbCircle
 10
-902.1511426873972
 20
358.4892454867925
 30
0.0
 40
1.500039681917556
100
AcDbArc
 50
11.956218386145
 51
89.99777866914627
  0
LINE
  5
19C
330
1F
100
AcDbEntity
  8
0
  6
CONTINUOUS
 62
     7
100
AcDbLine
 10
-1175.651084531553
 20
240.0
 30
0.0
 11
-1177.151084531553
 21
240.0
 31
0.0
  0
ELLIPSE
  5
19D
330
1F
100
AcDbEntity
  8
0
  6
CONTINUOUS
 62
     7
100
AcDbEllipse
 10
-902.1510845315529
 20
175.7144001371857
 30
0.0
 11
-1.500000000000001
 21
0.0
 31
0.0
210
0.0
220
0.0
230
1.0
 40
0.766044443118979
 41
1.570796326794897
 42
3.141592653589793
  0
LINE
  5
19E
330
1F
100
AcDbEntity
  8
0
  6
CONTINUOUS
 62
     7
100
AcDbLine
 10
-900.6510845315529
 20
192.6570573170804
 30
0.0
 11
-900.6510845315529
 21
194.7524210335873
 31
0.0
  0
ARC
  5
19F
330
1F
100
AcDbEntity
  8
0
  6
CONTINUOUS
 62
     7
100
AcDbCircle
 10
-1177.151084531553
 20
241.4999999999999
 30
0.0
 40
1.500000000000001
100
AcDbArc
 50
180.0
 51
270.0
  0
LWPOLYLINE
  5
1A0
330
1F
100
AcDbEntity
  8
0
  6
CONTINUOUS
 62
     7
100
AcDbPolyline
 90
        5
 70
     0
 43
0.0
 10
-963.6118112682956
 20
341.0310559781082
 42
-0.0168445990484122
 10
-962.3100137098941
 20
307.2533581100292
 42
0.0024633791808138
 10
-959.5005601828881
 20
177.2721215485133
 42
0.039682717461039
 10
-958.8307590272835
 20
168.548222387246
 10
-958.7776921532638
 20
168.5000000001505
  0
LWPOLYLINE
  5
1A1
330
1F
100
AcDbEntity
  8
0
  6
CONTINUOUS
 62
     7
100
AcDbPolyline
 90
        7
 70
     0
 43
0.0
 10
-1113.612219833762
 20
341.0326710178
 42
-0.0166281100363553
 10
-1112.296490282329
 20
306.6657765182313
 42
0.0025854710410916
 10
-1109.482863847343
 20
176.8518955783847
 42
0.028369102203346
 10
-1108.877269643192
 20
168.6699071168823
 10
-1108.811357651189
 20
168.5196090866898
 10
-1108.77750647371
 20
168.5000000000006
 10
-1108.77750647371
 20
168.5000000000006
  0
LINE
  5
1A2
330
1F
100
AcDbEntity
  8
0
  6
CONTINUOUS
 62
     7
100
AcDbLine
 10
-933.1510845315529
 20
343.4999999999999
 30
0.0
 11
-933.1510845315529
 21
166.5
 31
0.0
  0
LINE
  5
1A3
330
1F
100
AcDbEntity
  8
0
  6
CONTINUOUS
 62
     7
100
AcDbLine
 10
-940.1510845315529
 20
343.4999999999999
 30
0.0
 11
-940.1510845315529
 21
166.5
 31
0.0
  0
LINE
  5
1A4
330
1F
100
AcDbEntity
  8
0
  6
CONTINUOUS
 62
     7
100
AcDbLine
 10
-900.6510845315529
 20
192.6570573170804
 30
0.0
 11
-900.6510845315528
 21
188.4714823974431
 31
0.0
  0
LINE
  5
1A5
330
1F
100
AcDbEntity
  8
0
  6
CONTINUOUS
 62
     7
100
AcDbLine
 10
-900.6510845315529
 20
339.4104933726122
 30
0.0
 11
-900.6510845315529
 21
334.2855998628143
 31
0.0
  0
LINE
  5
1A6
330
1F
100
AcDbEntity
  8
0
  6
CONTINUOUS
 62
     7
100
AcDbLine
 10
-900.6510845315529
 20
339.4104933726123
 30
0.0
 11
-900.6510845315529
 21
341.4172983898542
 31
0.0
  0
ARC
  5
1A7
330
1F
100
AcDbEntity
  8
0
  6
CONTINUOUS
 62
     7
100
AcDbCircle
 10
1159.902796251862
 20
271.3178233854808
 30
0.0
 40
1.601620211973485
210
0.0
220
0.0
230
-1.0
100
AcDbArc
 50
105.133039308716
 51
174.8533012573321
  0
LINE
  5
1A8
330
1F
100
AcDbEntity
  8
0
  6
CONTINUOUS
 62
     7
100
AcDbLine
 10
-1167.063595868027
 20
270.9999999999999
 30
0.0
 11
-1167.035175805068
 21
270.9999999999999
 31
0.0
  0
LINE
  5
1A9
330
1F
100
AcDbEntity
  8
0
  6
CONTINUOUS
 62
     7
100
AcDbLine
 10
-1163.151084531553
 20
273.2188925660063
 30
0.0
 11
-1163.951084531553
 21
273.2188925660063
 31
0.0
  0
LINE
  5
1AA
330
1F
100
AcDbEntity
  8
0
  6
CONTINUOUS
 62
     7
100
AcDbLine
 10
-1178.651084531553
 20
160.5
 30
0.0
 11
-1178.651084531553
 21
241.5
 31
0.0
  0
LINE
  5
1AB
330
1F
100
AcDbEntity
  8
0
  6
CONTINUOUS
 62
     7
100
AcDbLine
 10
-1163.151084531553
 20
273.0521278035184
 30
0.0
 11
-1163.151084531553
 21
273.2188925660063
 31
0.0
  0
LINE
  5
1AC
330
1F
100
AcDbEntity
  8
0
  6
CONTINUOUS
 62
     7
100
AcDbLine
 10
-1162.151084531553
 20
273.0521278035184
 30
0.0
 11
-1163.151084531553
 21
273.0521278035184
 31
0.0
  0
ARC
  5
1AD
330
1F
100
AcDbEntity
  8
0
  6
CONTINUOUS
 62
     7
100
AcDbCircle
 10
-1162.651084531553
 20
261.3
 30
0.0
 40
11.98957880828179
100
AcDbArc
 50
74.6867096803013
 51
83.77532450519914
  0
LINE
  5
1AE
330
1F
100
AcDbEntity
  8
0
  6
CONTINUOUS
 62
     7
100
AcDbLine
 10
-1167.035175805068
 20
270.9999999999999
 30
0.0
 11
-1166.994535741487
 21
271.4614984681167
 31
0.0
  0
LINE
  5
1AF
330
1F
100
AcDbEntity
  8
0
  6
CONTINUOUS
 62
     7
100
AcDbLine
 10
-1116.151084531553
 20
256.9999999999999
 30
0.0
 11
-1116.151084531553
 21
256.4999999999999
 31
0.0
  0
LINE
  5
1B0
330
1F
100
AcDbEntity
  8
0
  6
CONTINUOUS
 62
     7
100
AcDbLine
 10
-1142.651084531553
 20
256.9999999999999
 30
0.0
 11
-1140.151084531553
 21
256.9999999999999
 31
0.0
  0
ARC
  5
1B1
330
1F
100
AcDbEntity
  8
0
  6
CONTINUOUS
 62
     7
100
AcDbCircle
 10
-1142.651084531553
 20
256.4999999999999
 30
0.0
 40
0.5000000000000004
100
AcDbArc
 50
90.0
 51
180.0
  0
LINE
  5
1B2
330
1F
100
AcDbEntity
  8
0
  6
CONTINUOUS
 62
     7
100
AcDbLine
 10
-1116.151084531553
 20
252.9999999999999
 30
0.0
 11
-1140.151084531553
 21
252.9999999999999
 31
0.0
  0
LINE
  5
1B3
330
1F
100
AcDbEntity
  8
0
  6
CONTINUOUS
 62
     7
100
AcDbLine
 10
-1116.151084531553
 20
253.4999999999999
 30
0.0
 11
-1116.151084531553
 21
252.9999999999999
 31
0.0
  0
LINE
  5
1B4
330
1F
100
AcDbEntity
  8
0
  6
CONTINUOUS
 62
     7
100
AcDbLine
 10
-1159.822657406807
 20
269.9999999999999
 30
0.0
 11
-1165.479511656299
 21
269.9999999999999
 31
0.0
  0
LINE
  5
1B5
330
1F
100
AcDbEntity
  8
0
  6
CONTINUOUS
 62
     7
100
AcDbLine
 10
-1140.151084531553
 20
252.9999999999999
 30
0.0
 11
-1142.651084531553
 21
252.9999999999999
 31
0.0
  0
ARC
  5
1B6
330
1F
100
AcDbEntity
  8
0
  6
CONTINUOUS
 62
     7
100
AcDbCircle
 10
-1142.651084531553
 20
253.4999999999999
 30
0.0
 40
0.5000000000000004
100
AcDbArc
 50
180.0
 51
270.0
  0
LINE
  5
1B7
330
1F
100
AcDbEntity
  8
0
  6
CONTINUOUS
 62
     7
100
AcDbLine
 10
-1161.351084531553
 20
273.2188925660063
 30
0.0
 11
-1162.151084531553
 21
273.2188925660063
 31
0.0
  0
LINE
  5
1B8
330
1F
100
AcDbEntity
  8
0
  6
CONTINUOUS
 62
     7
100
AcDbLine
 10
-1162.151084531553
 20
273.2188925660063
 30
0.0
 11
-1162.151084531553
 21
273.0521278035185
 31
0.0
  0
LINE
  5
1B9
330
1F
100
AcDbEntity
  8
0
  6
CONTINUOUS
 62
     7
100
AcDbLine
 10
-1116.151084531553
 20
256.4999999999999
 30
0.0
 11
-1116.151084531553
 21
253.4999999999999
 31
0.0
  0
LINE
  5
1BA
330
1F
100
AcDbEntity
  8
0
  6
CONTINUOUS
 62
     7
100
AcDbLine
 10
-1142.151084531553
 20
174.1789299752197
 30
0.0
 11
-1142.651084531552
 21
174.294981409458
 31
0.0
  0
LWPOLYLINE
  5
1BB
330
1F
100
AcDbEntity
  8
0
  6
CONTINUOUS
 62
     7
100
AcDbPolyline
 90
       31
 70
     0
 43
0.0
 10
1142.651084531552
 20
174.294981409458
 10
1142.669033813946
 20
174.3040087461461
 10
1142.68675384765
 20
174.3130295737886
 10
1142.704211701921
 20
174.3220375974165
 10
1142.730159543825
 20
174.3356817522578
 10
1142.755418658654
 20
174.3493005874496
 10
1142.780686438362
 20
174.3633113938197
 10
1142.805138160887
 20
174.3772929597168
 10
1142.828943063224
 20
174.3913639995453
 10
1142.851870420545
 20
174.4054043045659
 10
1142.876739531525
 20
174.4212553265407
 10
1142.900460120734
 20
174.4370675128484
 10
1142.923198170246
 20
174.452963134106
 10
1142.944771857188
 20
174.4688214652055
 10
1142.965598893813
 20
174.4849713416726
 10
1142.985233155638
 20
174.5010857637828
 10
1143.003789693227
 20
174.5172581643592
 10
1143.021169769725
 20
174.5333988211856
 10
1143.042791043438
 20
174.5551380831998
 10
1143.062339936138
 20
174.5768289554525
 10
1143.07998023654
 20
174.5986407825104
 10
1143.09559509392
 20
174.6204145517542
 10
1143.109485051483
 20
174.6426133768896
 10
1143.121333564242
 20
174.6647838122249
 10
1143.131223854387
 20
174.6870672465978
 10
1143.139102354237
 20
174.7093329416535
 10
1143.144190160693
 20
174.7280672700468
 10
1143.147879153535
 20
174.7468141337586
 10
1143.15017539803
 20
174.7656126980401
 10
1143.151070994251
 20
174.7844295566067
 10
1143.151084531553
 20
174.7870455084549
210
0.0
220
0.0
230
-1.0
  0
LINE
  5
1BC
330
1F
100
AcDbEntity
  8
0
  6
CONTINUOUS
 62
     7
100
AcDbLine
 10
-1158.307633321616
 20
271.4614984681165
 30
0.0
 11
-1158.266993258038
 21
270.9999999999999
 31
0.0
  0
LINE
  5
1BD
330
1F
100
AcDbEntity
  8
0
  6
CONTINUOUS
 62
     7
100
AcDbLine
 10
-1140.151084531553
 20
256.9999999999999
 30
0.0
 11
-1116.151084531553
 21
256.9999999999999
 31
0.0
  0
LINE
  5
1BE
330
1F
100
AcDbEntity
  8
0
  6
CONTINUOUS
 62
     7
100
AcDbLine
 10
-1143.151084531553
 20
256.4999999999999
 30
0.0
 11
-1143.151084531553
 21
253.4999999999999
 31
0.0
  0
LINE
  5
1BF
330
1F
100
AcDbEntity
  8
0
  6
CONTINUOUS
 62
     7
100
AcDbLine
 10
-1158.266993258038
 20
270.9999999999999
 30
0.0
 11
-1158.238573195079
 21
270.9999999999999
 31
0.0
  0
ARC
  5
1C0
330
1F
100
AcDbEntity
  8
0
  6
CONTINUOUS
 62
     7
100
AcDbCircle
 10
-1162.651084531553
 20
261.3
 30
0.0
 40
11.98957880828179
100
AcDbArc
 50
96.22467549480064
 51
105.3132903196988
  0
LINE
  5
1C1
330
1F
100
AcDbEntity
  8
0
  6
CONTINUOUS
 62
     7
100
AcDbLine
 10
-1143.932161170443
 20
254.9999999999999
 30
0.0
 11
-1143.651084531553
 21
254.9999999999999
 31
0.0
  0
ARC
  5
1C2
330
1F
100
AcDbEntity
  8
0
  6
CONTINUOUS
 62
     7
100
AcDbCircle
 10
1165.399340977802
 20
271.3177966675878
 30
0.0
 40
1.60165431400287
210
0.0
220
0.0
230
-1.0
100
AcDbArc
 50
5.14754851017166
 51
74.86611092362669
  0
LINE
  5
1C3
330
1F
100
AcDbEntity
  8
0
  6
CONTINUOUS
 62
     7
100
AcDbLine
 10
-1143.651084531553
 20
241.4999999999999
 30
0.0
 11
-1143.651084531553
 21
160.4999999999999
 31
0.0
  0
LINE
  5
1C4
330
1F
100
AcDbEntity
  8
0
  6
CONTINUOUS
 62
     7
100
AcDbLine
 10
-1143.151084531553
 20
339.7544641670905
 30
0.0
 11
-1143.151084531553
 21
338.2544641670905
 31
0.0
  0
LINE
  5
1C5
330
1F
100
AcDbEntity
  8
0
  6
CONTINUOUS
 62
     7
100
AcDbLine
 10
-1043.151084531553
 20
252.2956508413867
 30
0.0
 11
-1043.151084531553
 21
204.859451066441
 31
0.0
  0
ELLIPSE
  5
1C6
330
1F
100
AcDbEntity
  8
0
  6
CONTINUOUS
 62
     7
100
AcDbEllipse
 10
-1044.151084531553
 20
209.3246521166625
 30
0.0
 11
-1.000000000000001
 21
0.0
 31
0.0
210
0.0
220
0.0
230
1.0
 40
0.4733196671848437
 41
3.141592653589821
 42
4.712388980384716
  0
LWPOLYLINE
  5
1C7
330
1F
100
AcDbEntity
  8
0
  6
CONTINUOUS
 62
     7
100
AcDbPolyline
 90
       42
 70
     0
 43
0.0
 10
-1076.151084531553
 20
300.405190958314
 10
-1076.151074583781
 20
300.4039133347651
 10
-1076.150093425013
 20
300.3924423320853
 10
-1076.147498299286
 20
300.3809676236705
 10
-1076.143255369994
 20
300.3694700818406
 10
-1076.137347383657
 20
300.3580072635152
 10
-1076.129589615755
 20
300.3463914440474
 10
-1076.120036738092
 20
300.3348566459655
 10
-1076.108593088219
 20
300.3233824147686
 10
-1076.095240431691
 20
300.3120454344548
 10
-1076.085223908383
 20
300.3045627747136
 10
-1076.074313641768
 20
300.2971713345664
 10
-1076.062459640137
 20
300.2898657575428
 10
-1076.049665850239
 20
300.2826777832335
 10
-1076.035704829127
 20
300.2755221925439
 10
-1076.020728456057
 20
300.2685205020198
 10
-1076.00465381261
 20
300.2616688540315
 10
-1075.987505241148
 20
300.2550139080509
 10
-1075.974515500935
 20
300.2503704924173
 10
-1075.96095662091
 20
300.2458533474007
 10
-1075.946687361738
 20
300.2414332857638
 10
-1075.931847210192
 20
300.2371710081375
 10
-1075.916339089239
 20
300.2330546477617
 10
-1075.900255996653
 20
300.2291247978985
 10
-1075.88339384217
 20
300.2253513151891
 10
-1075.865922375213
 20
300.2217929863017
 10
-1075.852069154143
 20
300.2192124707607
 10
-1075.837871654432
 20
300.2167789828592
 10
-1075.823185918799
 20
300.2144781974549
 10
-1075.808192927021
 20
300.2123481077667
 10
-1075.79280484892
 20
300.2103845245018
 10
-1075.777142045104
 20
300.2086103980077
 10
-1075.761014559591
 20
300.2070141874121
 10
-1075.74462134119
 20
300.2056256739213
 10
-1075.733280165284
 20
300.2048005608013
 10
-1075.72184214804
 20
300.2040790351039
 10
-1075.71023729331
 20
300.2034593439986
 10
-1075.698568406031
 20
300.2029492428517
 10
-1075.686796425241
 20
300.2025486916078
 10
-1075.674984760755
 20
300.2022611616197
 10
-1075.663048296594
 20
300.2020865607836
 10
-1075.651084531553
 20
300.2020282161525
  0
LINE
  5
1C8
330
1F
100
AcDbEntity
  8
0
  6
CONTINUOUS
 62
     7
100
AcDbLine
 10
-1116.151084531553
 20
342.3525403784438
 30
0.0
 11
-1116.151084531553
 21
340.8525403784438
 31
0.0
  0
LINE
  5
1C9
330
1F
100
AcDbEntity
  8
0
  6
CONTINUOUS
 62
     7
100
AcDbLine
 10
-1143.151084531553
 20
265.4999999999999
 30
0.0
 11
-1143.651084531553
 21
265.4999999999999
 31
0.0
  0
LINE
  5
1CA
330
1F
100
AcDbEntity
  8
0
  6
CONTINUOUS
 62
     7
100
AcDbLine
 10
-1116.151084531553
 20
342.4195276765516
 30
0.0
 11
-1116.151084531553
 21
342.3525403784438
 31
0.0
  0
LINE
  5
1CB
330
1F
100
AcDbEntity
  8
0
  6
CONTINUOUS
 62
     7
100
AcDbLine
 10
-1143.151084531553
 20
335.2129544915451
 30
0.0
 11
-1143.151084531553
 21
338.2544641670906
 31
0.0
  0
LINE
  5
1CC
330
1F
100
AcDbEntity
  8
0
  6
CONTINUOUS
 62
     7
100
AcDbLine
 10
-1043.151084531553
 20
344.5503274309307
 30
0.0
 11
-1043.151084531553
 21
309.8246190776832
 31
0.0
  0
LINE
  5
1CD
330
1F
100
AcDbEntity
  8
0
  6
CONTINUOUS
 62
     7
100
AcDbLine
 10
-1076.151084531553
 20
252.3848758728898
 30
0.0
 11
-1076.138748272637
 21
252.3767974418268
 31
0.0
  0
LINE
  5
1CE
330
1F
100
AcDbEntity
  8
0
  6
CONTINUOUS
 62
     7
100
AcDbLine
 10
-1116.151084531553
 20
335.8210700247803
 30
0.0
 11
-1116.151084531553
 21
256.9999999999999
 31
0.0
  0
LINE
  5
1CF
330
1F
100
AcDbEntity
  8
0
  6
CONTINUOUS
 62
     7
100
AcDbLine
 10
-1044.151084531553
 20
209.7979717838474
 30
0.0
 11
-1075.651084531553
 21
209.7979717838474
 31
0.0
  0
LWPOLYLINE
  5
1D0
330
1F
100
AcDbEntity
  8
0
  6
CONTINUOUS
 62
     7
100
AcDbPolyline
 90
        6
 70
     0
 43
0.0
 10
1143.151084531553
 20
335.2129544915451
 10
1143.130203910054
 20
335.3154586823186
 10
1143.066006882424
 20
335.4188352686476
 10
1142.98061460129
 20
335.5027904295156
 10
1142.98061460129
 20
335.5027904295156
 42
0.0534957061512058
 10
1142.651084531553
 20
335.7050185905416
210
0.0
220
0.0
230
-1.0
  0
LINE
  5
1D1
330
1F
100
AcDbEntity
  8
0
  6
CONTINUOUS
 62
     7
100
AcDbLine
 10
-1142.151084531553
 20
335.8210700247803
 30
0.0
 11
-1142.651084531553
 21
335.7050185905417
 31
0.0
  0
LINE
  5
1D2
330
1F
100
AcDbEntity
  8
0
  6
CONTINUOUS
 62
     7
100
AcDbLine
 10
-1116.151084531553
 20
169.1474596215561
 30
0.0
 11
-1116.151084531553
 21
167.6474596215561
 31
0.0
  0
LINE
  5
1D3
330
1F
100
AcDbEntity
  8
0
  6
CONTINUOUS
 62
     7
100
AcDbLine
 10
-1143.151084531553
 20
171.7455358329094
 30
0.0
 11
-1143.151084531553
 21
174.7870455084549
 31
0.0
  0
LINE
  5
1D4
330
1F
100
AcDbEntity
  8
0
  6
CONTINUOUS
 62
     7
100
AcDbLine
 10
-1043.151084531553
 20
200.1753809223167
 30
0.0
 11
-1043.151084531553
 21
165.4496725690692
 31
0.0
  0
LINE
  5
1D5
330
1F
100
AcDbEntity
  8
0
  6
CONTINUOUS
 62
     7
100
AcDbLine
 10
-1116.151084531553
 20
167.6474596215561
 30
0.0
 11
-1116.151084531553
 21
167.5804723234483
 31
0.0
  0
LINE
  5
1D6
330
1F
100
AcDbEntity
  8
0
  6
CONTINUOUS
 62
     7
100
AcDbLine
 10
-1116.151084531553
 20
167.5804723234484
 30
0.0
 11
-1116.151084531553
 21
160.5
 31
0.0
  0
LINE
  5
1D7
330
1F
100
AcDbEntity
  8
0
  6
CONTINUOUS
 62
     7
100
AcDbLine
 10
-1143.151084531553
 20
247.4999999999999
 30
0.0
 11
-1143.651084531553
 21
247.4999999999999
 31
0.0
  0
LINE
  5
1D8
330
1F
100
AcDbEntity
  8
0
  6
CONTINUOUS
 62
     7
100
AcDbLine
 10
-1143.151084531553
 20
262.4999999999999
 30
0.0
 11
-1143.651084531553
 21
262.4999999999999
 31
0.0
  0
LINE
  5
1D9
330
1F
100
AcDbEntity
  8
0
  6
CONTINUOUS
 62
     7
100
AcDbLine
 10
-1043.151084531553
 20
359.9651680112422
 30
0.0
 11
-1043.151084531553
 21
347.254676589544
 31
0.0
  0
LINE
  5
1DA
330
1F
100
AcDbEntity
  8
0
  6
CONTINUOUS
 62
     7
100
AcDbLine
 10
-1142.151084531553
 20
174.1789299752197
 30
0.0
 11
-1116.151084531553
 21
174.1789299752197
 31
0.0
  0
LWPOLYLINE
  5
1DB
330
1F
100
AcDbEntity
  8
0
  6
CONTINUOUS
 62
     7
100
AcDbPolyline
 90
       35
 70
     0
 43
0.0
 10
1143.151084531553
 20
334.3725393319377
 10
1143.151813267286
 20
334.3564092674448
 10
1143.153997053469
 20
334.3402873041807
 10
1143.157632258575
 20
334.3242259392145
 10
1143.162715251079
 20
334.3082776696152
 10
1143.169530035579
 20
334.2918668935504
 10
1143.177917712307
 20
334.2756195431946
 10
1143.187865246724
 20
334.2595996038025
 10
1143.199359604294
 20
334.2438710606291
 10
1143.210313025548
 20
334.230800550659
 10
1143.222390895141
 20
334.2179747084517
 10
1143.235574817213
 20
334.2054380757245
 10
1143.249846395904
 20
334.1932351941947
 10
1143.265805960492
 20
334.180956137912
 10
1143.282949873195
 20
334.1690825539727
 10
1143.30123611117
 20
334.1576713347787
 10
1143.320622651571
 20
334.1467793727318
 10
1143.335123359755
 20
334.1393453094474
 10
1143.350182392335
 20
334.1322009651106
 10
1143.365773334568
 20
334.1253685374623
 10
1143.38186977171
 20
334.1188702242433
 10
1143.398935478672
 20
334.11255353595
 10
1143.416524494053
 20
334.1066147070647
 10
1143.434594204625
 20
334.1010771774764
 10
1143.453101997161
 20
334.0959643870739
 10
1143.471545214522
 20
334.0914050914621
 10
1143.490380867087
 20
334.0872715117324
 10
1143.50955531976
 20
334.0835815400545
 10
1143.529014937449
 20
334.0803530685988
 10
1143.549455340011
 20
334.077507393335
 10
1143.570161657234
 20
334.0751749814262
 10
1143.591061264322
 20
334.0733671769793
 10
1143.612081536478
 20
334.0720953241016
 10
1143.63156271718
 20
334.071402060932
 10
1143.651084531553
 20
334.0711704731883
210
0.0
220
0.0
230
-1.0
  0
LINE
  5
1DC
330
1F
100
AcDbEntity
  8
0
  6
CONTINUOUS
 62
     7
100
AcDbLine
 10
-1038.151084531553
 20
360.0
 30
0.0
 11
-1038.151084531553
 21
150.0
 31
0.0
  0
LINE
  5
1DD
330
1F
100
AcDbEntity
  8
0
  6
CONTINUOUS
 62
     7
100
AcDbLine
 10
-1073.151084531553
 20
251.808528694523
 30
0.0
 11
-1073.151084531553
 21
251.8165018853582
 31
0.0
  0
LINE
  5
1DE
330
1F
100
AcDbEntity
  8
0
  6
CONTINUOUS
 62
     7
100
AcDbLine
 10
-1076.151084531553
 20
252.366811136393
 30
0.0
 11
-1076.151084531553
 21
209.5948090416859
 31
0.0
  0
LINE
  5
1DF
330
1F
100
AcDbEntity
  8
0
  6
CONTINUOUS
 62
     7
100
AcDbLine
 10
-1076.151084531553
 20
308.2479992261145
 30
0.0
 11
-1076.151084531553
 21
303.7184713698605
 31
0.0
  0
LWPOLYLINE
  5
1E0
330
1F
100
AcDbEntity
  8
0
  6
CONTINUOUS
 62
     7
100
AcDbPolyline
 90
       38
 70
     0
 43
0.0
 10
-1143.651084531553
 20
211.5738804423051
 10
-1143.630316122431
 20
211.5742629236155
 10
-1143.609565699164
 20
211.5754077542157
 10
-1143.5888868479
 20
211.5773110141087
 10
-1143.568333154785
 20
211.579968783298
 10
-1143.547332588183
 20
211.5834914692643
 10
-1143.526502673172
 20
211.5878075901466
 10
-1143.505900154775
 20
211.5929043258142
 10
-1143.485581778017
 20
211.5987688561365
 10
-1143.466127497222
 20
211.6052007402804
 10
-1143.446975980429
 20
211.6123471824043
 10
-1143.428176315204
 20
211.6201888975959
 10
-1143.409777589115
 20
211.628706600943
 10
-1143.391281391707
 20
211.6381718468902
 10
-1143.37324361819
 20
211.6483367028635
 10
-1143.355712982632
 20
211.6591725433488
 10
-1143.338738199098
 20
211.6706507428323
 10
-1143.322791394592
 20
211.6824124975075
 10
-1143.307397997483
 20
211.6947609771921
 10
-1143.29259706249
 20
211.7076636562373
 10
-1143.278427644332
 20
211.7210880089946
 10
-1143.264521145083
 20
211.7354363036858
 10
-1143.251309157494
 20
211.7503118564095
 10
-1143.238826871949
 20
211.7656733959459
 10
-1143.227109478829
 20
211.781479651075
 10
-1143.216468059153
 20
211.7972535568082
 10
-1143.206568289532
 20
211.8134203027253
 10
-1143.197434787298
 20
211.8299377233487
 10
-1143.189092169785
 20
211.8467636532012
 10
-1143.181343211827
 20
211.8643859031232
 10
-1143.174446537173
 20
211.8823034666217
 10
-1143.168419843139
 20
211.9004670120075
 10
-1143.163280827037
 20
211.9188272075913
 10
-1143.158909249819
 20
211.9380068957579
 10
-1143.155496673228
 20
211.95736990578
 10
-1143.153050255698
 20
211.9768592173996
 10
-1143.151577155661
 20
211.9964178103589
 10
-1143.151084531553
 20
212.0159886643998
  0
LINE
  5
1E1
330
1F
100
AcDbEntity
  8
0
  6
CONTINUOUS
 62
     7
100
AcDbLine
 10
-1076.151084531553
 20
201.7520007738855
 30
0.0
 11
-1076.119799266136
 21
201.5249074286161
 31
0.0
  0
LINE
  5
1E2
330
1F
100
AcDbEntity
  8
0
  6
CONTINUOUS
 62
     7
100
AcDbLine
 10
-1044.151084531553
 20
300.2020282161525
 30
0.0
 11
-1075.651084531553
 21
300.2020282161525
 31
0.0
  0
LINE
  5
1E3
330
1F
100
AcDbEntity
  8
0
  6
CONTINUOUS
 62
     7
100
AcDbLine
 10
-1043.151084531553
 20
162.7453234104558
 30
0.0
 11
-1043.151084531553
 21
150.0348319887577
 31
0.0
  0
LWPOLYLINE
  5
1E4
330
1F
100
AcDbEntity
  8
0
  6
CONTINUOUS
 62
     7
100
AcDbPolyline
 90
       42
 70
     0
 43
0.0
 10
-1075.651084531553
 20
209.7979717838474
 10
-1075.667409346907
 20
209.7978631375356
 10
-1075.68373416226
 20
209.7975368524314
 10
-1075.700254110184
 20
209.7969839529032
 10
-1075.7166676078
 20
209.7962112043491
 10
-1075.733079487631
 20
209.7952129691785
 10
-1075.749316756817
 20
209.7940004323394
 10
-1075.765603938178
 20
209.7925550500621
 10
-1075.781683054383
 20
209.7908982183227
 10
-1075.796829684229
 20
209.7891233175091
 10
-1075.811736482419
 20
209.7871680296958
 10
-1075.826533317151
 20
209.7850163060089
 10
-1075.841024739024
 20
209.782698607355
 10
-1075.855281326228
 20
209.7802075707786
 10
-1075.869204451509
 20
209.7775648938804
 10
-1075.882932983403
 20
209.7747470456964
 10
-1075.896321163561
 20
209.7717866684394
 10
-1075.913975705038
 20
209.7675439609462
 10
-1075.930981639991
 20
209.7630676058443
 10
-1075.947520471912
 20
209.7583175506898
 10
-1075.963350440743
 20
209.7533723696181
 10
-1075.978573222243
 20
209.7482134881636
 10
-1075.993085872994
 20
209.7428890195831
 10
-1076.007060890881
 20
209.7373450543047
 10
-1076.020341611606
 20
209.7316520506598
 10
-1076.0370381904
 20
209.7238222239163
 10
-1076.052526576295
 20
209.7157712363627
 10
-1076.06687593343
 20
209.707491643399
 10
-1076.080041385209
 20
209.6990368217041
 10
-1076.092241665016
 20
209.6902741744027
 10
-1076.103252329816
 20
209.6813705727653
 10
-1076.113117917899
 20
209.6723166176203
 10
-1076.121819378307
 20
209.6631550648697
 10
-1076.128549763599
 20
209.654983284305
 10
-1076.134390025783
 20
209.6467499910475
 10
-1076.139356422901
 20
209.638448165206
 10
-1076.143443063214
 20
209.630102248657
 10
-1076.14668101428
 20
209.6216410840223
 10
-1076.149031054251
 20
209.613151365005
 10
-1076.150497079352
 20
209.6046255647389
 10
-1076.151074583781
 20
209.5960866652348
 10
-1076.151084531553
 20
209.5948090416859
  0
LINE
  5
1E5
330
1F
100
AcDbEntity
  8
0
  6
CONTINUOUS
 62
     7
100
AcDbLine
 10
-1116.151084531553
 20
349.4999999999999
 30
0.0
 11
-1116.151084531553
 21
342.4195276765516
 31
0.0
  0
LINE
  5
1E6
330
1F
100
AcDbEntity
  8
0
  6
CONTINUOUS
 62
     7
100
AcDbLine
 10
-1143.151084531553
 20
171.7455358329094
 30
0.0
 11
-1143.151084531553
 21
170.2455358329094
 31
0.0
  0
LINE
  5
1E7
330
1F
100
AcDbEntity
  8
0
  6
CONTINUOUS
 62
     7
100
AcDbLine
 10
-1043.151084531553
 20
305.140548933559
 30
0.0
 11
-1043.151084531553
 21
257.7043491586133
 31
0.0
  0
LINE
  5
1E8
330
1F
100
AcDbEntity
  8
0
  6
CONTINUOUS
 62
     7
100
AcDbLine
 10
-1116.151084531553
 20
252.9999999999999
 30
0.0
 11
-1116.151084531553
 21
174.1789299752195
 31
0.0
  0
LINE
  5
1E9
330
1F
100
AcDbEntity
  8
0
  6
CONTINUOUS
 62
     7
100
AcDbLine
 10
-1143.151084531553
 20
244.4999999999999
 30
0.0
 11
-1143.651084531553
 21
244.4999999999999
 31
0.0
  0
LINE
  5
1EA
330
1F
100
AcDbEntity
  8
0
  6
CONTINUOUS
 62
     7
100
AcDbLine
 10
-1116.151084531553
 20
169.8304723234483
 30
0.0
 11
-1116.151084531553
 21
174.1789299752197
 31
0.0
  0
LINE
  5
1EB
330
1F
100
AcDbEntity
  8
0
  6
CONTINUOUS
 62
     7
100
AcDbLine
 10
-1143.151084531553
 20
339.7819142084728
 30
0.0
 11
-1143.151084531553
 21
348.4999999999999
 31
0.0
  0
LINE
  5
1EC
330
1F
100
AcDbEntity
  8
0
  6
CONTINUOUS
 62
     7
100
AcDbLine
 10
-1143.151084531553
 20
161.5
 30
0.0
 11
-1143.151084531553
 21
170.2455358329094
 31
0.0
  0
LINE
  5
1ED
330
1F
100
AcDbEntity
  8
0
  6
CONTINUOUS
 62
     7
100
AcDbLine
 10
-1143.151084531553
 20
339.7544641670905
 30
0.0
 11
-1143.151084531553
 21
339.7819142084728
 31
0.0
  0
LINE
  5
1EE
330
1F
100
AcDbEntity
  8
0
  6
CONTINUOUS
 62
     7
100
AcDbLine
 10
-1076.151084531553
 20
257.6151241271102
 30
0.0
 11
-1076.151084531553
 21
252.3848758728901
 31
0.0
  0
LINE
  5
1EF
330
1F
100
AcDbEntity
  8
0
  6
CONTINUOUS
 62
     7
100
AcDbLine
 10
-1076.151084531553
 20
300.4051909583139
 30
0.0
 11
-1076.151084531553
 21
257.6377520451287
 31
0.0
  0
LINE
  5
1F0
330
1F
100
AcDbEntity
  8
0
  6
CONTINUOUS
 62
     7
100
AcDbLine
 10
-1076.151084531553
 20
206.2815286301395
 30
0.0
 11
-1076.151084531553
 21
201.7520007738858
 31
0.0
  0
LINE
  5
1F1
330
1F
100
AcDbEntity
  8
0
  6
CONTINUOUS
 62
     7
100
AcDbLine
 10
-1076.151084531553
 20
206.2815286301395
 30
0.0
 11
-1076.151084531553
 21
209.5948090416859
 31
0.0
  0
LINE
  5
1F2
330
1F
100
AcDbEntity
  8
0
  6
CONTINUOUS
 62
     7
100
AcDbLine
 10
-1142.151084531553
 20
335.8210700247803
 30
0.0
 11
-1116.151084531553
 21
335.8210700247802
 31
0.0
  0
LINE
  5
1F3
330
1F
100
AcDbEntity
  8
0
  6
CONTINUOUS
 62
     7
100
AcDbLine
 10
-1073.151084531553
 20
258.1834980440241
 30
0.0
 11
-1073.151084531553
 21
258.191471305477
 31
0.0
  0
LINE
  5
1F4
330
1F
100
AcDbEntity
  8
0
  6
CONTINUOUS
 62
     7
100
AcDbLine
 10
-1076.132732083937
 20
308.4221201702688
 30
0.0
 11
-1076.150209183733
 21
308.2860818332219
 31
0.0
  0
LINE
  5
1F5
330
1F
100
AcDbEntity
  8
0
  6
CONTINUOUS
 62
     7
100
AcDbLine
 10
-1116.151084531553
 20
340.8525403784438
 30
0.0
 11
-1116.151084531553
 21
340.1695276765516
 31
0.0
  0
LINE
  5
1F6
330
1F
100
AcDbEntity
  8
0
  6
CONTINUOUS
 62
     7
100
AcDbLine
 10
-1143.151084531553
 20
174.7870455084549
 30
0.0
 11
-1143.151084531553
 21
253.4999999999999
 31
0.0
  0
LINE
  5
1F7
330
1F
100
AcDbEntity
  8
0
  6
CONTINUOUS
 62
     7
100
AcDbLine
 10
-1116.151084531553
 20
340.1695276765516
 30
0.0
 11
-1116.151084531553
 21
335.8210700247802
 31
0.0
  0
ELLIPSE
  5
1F8
330
1F
100
AcDbEntity
  8
0
  6
CONTINUOUS
 62
     7
100
AcDbEllipse
 10
-1044.151084531553
 20
300.6753478833374
 30
0.0
 11
-1.000000000000001
 21
0.0
 31
0.0
210
0.0
220
0.0
230
-1.0
 40
0.4733196671848436
 41
3.141592653589793
 42
4.712388980384716
  0
LINE
  5
1F9
330
1F
100
AcDbEntity
  8
0
  6
CONTINUOUS
 62
     7
100
AcDbLine
 10
-1076.151084531553
 20
300.405190958314
 30
0.0
 11
-1076.151084531553
 21
303.7184713698604
 31
0.0
  0
LINE
  5
1FA
330
1F
100
AcDbEntity
  8
0
  6
CONTINUOUS
 62
     7
100
AcDbLine
 10
-1076.150209183733
 20
308.2860818332219
 30
0.0
 11
-1076.151084531553
 21
308.2479992261145
 31
0.0
  0
LWPOLYLINE
  5
1FB
330
1F
100
AcDbEntity
  8
0
  6
CONTINUOUS
 62
     7
100
AcDbPolyline
 90
       35
 70
     0
 43
0.0
 10
-1143.151084531553
 20
175.6274606680623
 10
-1143.151813267286
 20
175.6435907325551
 10
-1143.153997053469
 20
175.6597126958192
 10
-1143.157632258575
 20
175.6757740607854
 10
-1143.162715251079
 20
175.6917223303847
 10
-1143.169530035579
 20
175.7081331064495
 10
-1143.177917712307
 20
175.7243804568054
 10
-1143.187865246724
 20
175.7404003961974
 10
-1143.199359604294
 20
175.7561289393708
 10
-1143.210313025548
 20
175.769199449341
 10
-1143.222390895141
 20
175.7820252915483
 10
-1143.235574817213
 20
175.7945619242754
 10
-1143.249846395904
 20
175.8067648058052
 10
-1143.265805960492
 20
175.819043862088
 10
-1143.282949873195
 20
175.8309174460273
 10
-1143.30123611117
 20
175.8423286652213
 10
-1143.320622651571
 20
175.8532206272681
 10
-1143.335123359755
 20
175.8606546905526
 10
-1143.350182392335
 20
175.8677990348893
 10
-1143.365773334568
 20
175.8746314625377
 10
-1143.38186977171
 20
175.8811297757566
 10
-1143.398935478672
 20
175.8874464640499
 10
-1143.416524494053
 20
175.8933852929352
 10
-1143.434594204625
 20
175.8989228225236
 10
-1143.453101997161
 20
175.9040356129261
 10
-1143.471545214522
 20
175.9085949085378
 10
-1143.490380867087
 20
175.9127284882676
 10
-1143.50955531976
 20
175.9164184599454
 10
-1143.529014937449
 20
175.9196469314011
 10
-1143.549455340011
 20
175.9224926066649
 10
-1143.570161657234
 20
175.9248250185738
 10
-1143.591061264322
 20
175.9266328230206
 10
-1143.612081536478
 20
175.9279046758984
 10
-1143.63156271718
 20
175.9285979390679
 10
-1143.651084531553
 20
175.9288295268117
  0
LINE
  5
1FC
330
1F
100
AcDbEntity
  8
0
  6
CONTINUOUS
 62
     7
100
AcDbLine
 10
-1116.151084531553
 20
169.8304723234483
 30
0.0
 11
-1116.151084531553
 21
169.1474596215561
 31
0.0
  0
LWPOLYLINE
  5
1FD
330
1F
100
AcDbEntity
  8
0
  6
CONTINUOUS
 62
     7
100
AcDbPolyline
 90
       38
 70
     0
 43
0.0
 10
1143.651084531553
 20
298.4261195576948
 10
1143.630316122431
 20
298.4257370763844
 10
1143.609565699164
 20
298.4245922457842
 10
1143.5888868479
 20
298.4226889858911
 10
1143.568333154785
 20
298.4200312167018
 10
1143.547332588183
 20
298.4165085307355
 10
1143.526502673172
 20
298.4121924098533
 10
1143.505900154775
 20
298.4070956741858
 10
1143.485581778017
 20
298.4012311438634
 10
1143.466127497222
 20
298.3947992597194
 10
1143.446975980429
 20
298.3876528175956
 10
1143.428176315205
 20
298.379811102404
 10
1143.409777589115
 20
298.3712933990569
 10
1143.391281391707
 20
298.3618281531096
 10
1143.37324361819
 20
298.3516632971364
 10
1143.355712982632
 20
298.3408274566511
 10
1143.338738199098
 20
298.3293492571677
 10
1143.322791394592
 20
298.3175875024924
 10
1143.307397997483
 20
298.3052390228079
 10
1143.29259706249
 20
298.2923363437626
 10
1143.278427644332
 20
298.2789119910053
 10
1143.264521145083
 20
298.2645636963142
 10
1143.251309157494
 20
298.2496881435904
 10
1143.238826871949
 20
298.234326604054
 10
1143.227109478829
 20
298.2185203489249
 10
1143.216468059153
 20
298.2027464431916
 10
1143.206568289532
 20
298.1865796972747
 10
1143.197434787298
 20
298.1700622766512
 10
1143.189092169785
 20
298.1532363467987
 10
1143.181343211827
 20
298.1356140968767
 10
1143.174446537173
 20
298.1176965333783
 10
1143.168419843139
 20
298.0995329879925
 10
1143.163280827037
 20
298.0811727924087
 10
1143.158909249819
 20
298.0619931042421
 10
1143.155496673228
 20
298.0426300942199
 10
1143.153050255698
 20
298.0231407826003
 10
1143.151577155661
 20
298.0035821896411
 10
1143.151084531553
 20
297.9840113356001
210
0.0
220
0.0
230
-1.0
  0
LINE
  5
1FE
330
1F
100
AcDbEntity
  8
0
  6
CONTINUOUS
 62
     7
100
AcDbLine
 10
-1143.151084531553
 20
256.4999999999999
 30
0.0
 11
-1143.151084531553
 21
335.2129544915451
 31
0.0
  0
LINE
  5
1FF
330
1F
100
AcDbEntity
  8
0
  6
CONTINUOUS
 62
     7
100
AcDbLine
 10
-1076.151084531553
 20
165.3868840660917
 30
0.0
 11
-1076.151084531553
 21
164.9224556282265
 31
0.0
  0
LINE
  5
200
330
1F
100
AcDbEntity
  8
0
  6
CONTINUOUS
 62
     7
100
AcDbLine
 10
-1076.151084531553
 20
344.6131159339083
 30
0.0
 11
-1076.151084531553
 21
341.9979918067982
 31
0.0
  0
LINE
  5
201
330
1F
100
AcDbEntity
  8
0
  6
CONTINUOUS
 62
     7
100
AcDbLine
 10
-1076.151084531553
 20
344.9792722551922
 30
0.0
 11
-1076.151084531553
 21
344.6131159339083
 31
0.0
  0
ELLIPSE
  5
202
330
1F
100
AcDbEntity
  8
0
  6
CONTINUOUS
 62
     7
100
AcDbEllipse
 10
-1044.151084531553
 20
337.0589897120718
 30
0.0
 11
-1.000000000000001
 21
0.0
 31
0.0
210
0.0
220
0.0
230
-1.0
 40
0.8503522249955627
 41
3.141592653589793
 42
4.712388980384716
  0
LINE
  5
203
330
1F
100
AcDbEntity
  8
0
  6
CONTINUOUS
 62
     7
100
AcDbLine
 10
-1076.132729918726
 20
344.904870919435
 30
0.0
 11
-1076.151084531553
 21
344.6131159339083
 31
0.0
  0
LINE
  5
204
330
1F
100
AcDbEntity
  8
0
  6
CONTINUOUS
 62
     7
100
AcDbLine
 10
-1076.151084531553
 20
336.0454494441491
 30
0.0
 11
-1076.151084531553
 21
341.997991806798
 31
0.0
  0
LINE
  5
205
330
1F
100
AcDbEntity
  8
0
  6
CONTINUOUS
 62
     7
100
AcDbLine
 10
-1143.151084531553
 20
337.4999999999974
 30
0.0
 11
-1143.651084531553
 21
337.4999999999974
 31
0.0
  0
LINE
  5
206
330
1F
100
AcDbEntity
  8
0
  6
CONTINUOUS
 62
     7
100
AcDbLine
 10
-1143.651084531553
 20
172.5000000000024
 30
0.0
 11
-1143.151084531553
 21
172.5000000000024
 31
0.0
  0
ARC
  5
207
330
1F
100
AcDbEntity
  8
0
  6
CONTINUOUS
 62
     7
100
AcDbCircle
 10
-1176.651084531553
 20
349.4999999999999
 30
0.0
 40
2.000000000000002
100
AcDbArc
 50
90.0
 51
180.0
  0
ARC
  5
208
330
1F
100
AcDbEntity
  8
0
  6
CONTINUOUS
 62
     7
100
AcDbCircle
 10
-1145.651084531553
 20
349.4999999999999
 30
0.0
 40
2.000000000000002
100
AcDbArc
 50
0.0
 51
90.0
  0
LINE
  5
209
330
1F
100
AcDbEntity
  8
0
  6
CONTINUOUS
 62
     7
100
AcDbLine
 10
-1076.151084531553
 20
164.9224556282265
 30
0.0
 11
-1076.151084531553
 21
160.0303547987928
 31
0.0
  0
LINE
  5
20A
330
1F
100
AcDbEntity
  8
0
  6
CONTINUOUS
 62
     7
100
AcDbLine
 10
-1145.651084531553
 20
351.5
 30
0.0
 11
-1176.651084531553
 21
351.5
 31
0.0
  0
LINE
  5
20B
330
1F
100
AcDbEntity
  8
0
  6
CONTINUOUS
 62
     7
100
AcDbLine
 10
-908.1510845315529
 20
150.0
 30
0.0
 11
-902.1510845315529
 21
150.0
 31
0.0
  0
LINE
  5
20C
330
1F
100
AcDbEntity
  8
0
  6
CONTINUOUS
 62
     7
100
AcDbLine
 10
-1104.306575798889
 20
344.4998151585726
 30
0.0
 11
-1108.106575798879
 21
344.4998238876083
 31
0.0
  0
LINE
  5
20D
330
1F
100
AcDbEntity
  8
0
  6
CONTINUOUS
 62
     7
100
AcDbLine
 10
-1076.151084531553
 20
344.4999269605005
 30
0.0
 11
-1078.106278727883
 21
344.4999314518113
 31
0.0
  0
LINE
  5
20E
330
1F
100
AcDbEntity
  8
0
  6
CONTINUOUS
 62
     7
100
AcDbLine
 10
-1034.306718334888
 20
344.4990612722742
 30
0.0
 11
-1038.106718334878
 21
344.4990700012365
 31
0.0
  0
LINE
  5
20F
330
1F
100
AcDbEntity
  8
0
  6
CONTINUOUS
 62
     7
100
AcDbLine
 10
-1024.306236837706
 20
344.4988415011916
 30
0.0
 11
-1028.106236837697
 21
344.4988502301325
 31
0.0
  0
LINE
  5
210
330
1F
100
AcDbEntity
  8
0
  6
CONTINUOUS
 62
     7
100
AcDbLine
 10
-1076.151084531553
 20
168.0020081932019
 30
0.0
 11
-1076.151084531553
 21
165.3868840660917
 31
0.0
  0
LINE
  5
211
330
1F
100
AcDbEntity
  8
0
  6
CONTINUOUS
 62
     7
100
AcDbLine
 10
-1076.151084531553
 20
165.3868840660917
 30
0.0
 11
-1076.119733267329
 21
165.0059927821293
 31
0.0
  0
LINE
  5
212
330
1F
100
AcDbEntity
  8
0
  6
CONTINUOUS
 62
     7
100
AcDbLine
 10
-1004.306346166425
 20
344.4985078867294
 30
0.0
 11
-1008.106346166416
 21
344.4985166156378
 31
0.0
  0
LINE
  5
213
330
1F
100
AcDbEntity
  8
0
  6
CONTINUOUS
 62
     7
100
AcDbLine
 10
-964.3064176487621
 20
344.4985416473771
 30
0.0
 11
-968.1064176487521
 21
344.4985503762887
 31
0.0
  0
ELLIPSE
  5
214
330
1F
100
AcDbEntity
  8
0
  6
CONTINUOUS
 62
     7
100
AcDbEllipse
 10
-1044.151084531553
 20
158.5450084842572
 30
0.0
 11
-1.000000000000001
 21
0.0
 31
0.0
210
0.0
220
0.0
230
1.0
 40
0.9995335908367128
 41
3.141592653589793
 42
4.712388980384717
  0
LINE
  5
215
330
1F
100
AcDbEntity
  8
0
  6
CONTINUOUS
 62
     7
100
AcDbLine
 10
-1013.106541018097
 20
165.5014199762878
 30
0.0
 11
-1009.306541018107
 21
165.5014287052024
 31
0.0
  0
LINE
  5
216
330
1F
100
AcDbEntity
  8
0
  6
CONTINUOUS
 62
     7
100
AcDbLine
 10
-1023.106337480285
 20
165.5012506895526
 30
0.0
 11
-1019.306337480295
 21
165.5012594184836
 31
0.0
  0
LINE
  5
217
330
1F
100
AcDbEntity
  8
0
  6
CONTINUOUS
 62
     7
100
AcDbLine
 10
-1033.106267515327
 20
165.5010405159685
 30
0.0
 11
-1029.306267515337
 21
165.5010492449201
 31
0.0
  0
ELLIPSE
  5
218
330
1F
100
AcDbEntity
  8
0
  6
CONTINUOUS
 62
     7
100
AcDbEllipse
 10
-1044.151084531553
 20
172.9410102879282
 30
0.0
 11
-1.000000000000001
 21
0.0
 31
0.0
210
0.0
220
0.0
230
1.0
 40
0.8503522249955632
 41
3.141592653589793
 42
4.712388980384716
  0
LINE
  5
219
330
1F
100
AcDbEntity
  8
0
  6
CONTINUOUS
 62
     7
100
AcDbLine
 10
-1076.151084531553
 20
153.033529404025
 30
0.0
 11
-1076.151084531553
 21
152.9999999999999
 31
0.0
  0
LINE
  5
21A
330
1F
100
AcDbEntity
  8
0
  6
CONTINUOUS
 62
     7
100
AcDbLine
 10
-1076.151084531553
 20
336.0454494441491
 30
0.0
 11
-1076.151084531553
 21
308.4610744854686
 31
0.0
  0
LINE
  5
21B
330
1F
100
AcDbEntity
  8
0
  6
CONTINUOUS
 62
     7
100
AcDbLine
 10
-1076.151084531553
 20
308.4610744854685
 30
0.0
 11
-1076.151084531553
 21
308.2572071341616
 31
0.0
  0
LINE
  5
21C
330
1F
100
AcDbEntity
  8
0
  6
CONTINUOUS
 62
     7
100
AcDbLine
 10
-1076.151084531553
 20
168.0020081932019
 30
0.0
 11
-1076.151084531553
 21
173.9545505558508
 31
0.0
  0
LWPOLYLINE
  5
21D
330
1F
100
AcDbEntity
  8
0
  6
CONTINUOUS
 62
     7
100
AcDbPolyline
 90
       42
 70
     0
 43
0.0
 10
1075.651084531553
 20
159.5445420750939
 10
1075.667405981703
 20
159.5448002746073
 10
1075.683727431852
 20
159.5455757049796
 10
1075.700243892317
 20
159.5468897168029
 10
1075.716653969159
 20
159.5487262897723
 10
1075.733062429878
 20
159.5510988835143
 10
1075.749296388221
 20
159.5539810149645
 10
1075.76558022881
 20
159.5574168510154
 10
1075.781656132751
 20
159.5613556806769
 10
1075.796802792586
 20
159.5655764967417
 10
1075.81170967008
 20
159.5702268689445
 10
1075.826506638545
 20
159.5753451193335
 10
1075.840998237065
 20
159.5808589456317
 10
1075.855255046076
 20
159.5867860246149
 10
1075.869178429723
 20
159.5930748896052
 10
1075.882907264375
 20
159.5997817168452
 10
1075.896295779428
 20
159.6068289903744
 10
1075.91395015618
 20
159.6169306364543
 10
1075.930956023794
 20
159.6275912840072
 10
1075.947494882235
 20
159.6389067839674
 10
1075.963324967177
 20
159.6506904025444
 10
1075.978547951653
 20
159.6629868180312
 10
1075.993060886458
 20
159.6756817393966
 10
1076.007036271295
 20
159.6889041265774
 10
1076.020317434823
 20
159.7024863488958
 10
1076.037014726729
 20
159.7211738008482
 10
1076.052503949569
 20
159.740397844048
 10
1076.066854267023
 20
159.7601770005614
 10
1076.080020795571
 20
159.7803844477681
 10
1076.092222287451
 20
159.8013379480394
 10
1076.103234280886
 20
159.8226392875203
 10
1076.113101317514
 20
159.844311497232
 10
1076.121804343374
 20
159.8662527279745
 10
1076.128538207414
 20
159.8858395228691
 10
1076.134381479771
 20
159.9055831125644
 10
1076.139350435232
 20
159.9255005732989
 10
1076.143439174943
 20
159.9455334372033
 10
1076.146678799328
 20
159.9658528904592
 10
1076.149030043996
 20
159.9862508883313
 10
1076.150496809049
 20
160.0067456532165
 10
1076.151074583781
 20
160.0272820116784
 10
1076.151084531553
 20
160.0303547987927
210
0.0
220
0.0
230
-1.0
  0
LINE
  5
21E
330
1F
100
AcDbEntity
  8
0
  6
CONTINUOUS
 62
     7
100
AcDbLine
 10
-1044.151084531553
 20
350.4554579249061
 30
0.0
 11
-1075.651084531553
 21
350.4554579249061
 31
0.0
  0
LINE
  5
21F
330
1F
100
AcDbEntity
  8
0
  6
CONTINUOUS
 62
     7
100
AcDbLine
 10
-1076.151084531553
 20
357.0
 30
0.0
 11
-1076.151084531553
 21
356.9664705959748
 31
0.0
  0
ARC
  5
220
330
1F
100
AcDbEntity
  8
0
  6
CONTINUOUS
 62
     7
100
AcDbCircle
 10
1177.15108453152
 20
339.4999999999949
 30
0.0
 40
2.000000000000019
210
0.0
220
0.0
230
-1.0
100
AcDbArc
 50
317.5953419933988
 51
0.0000000000727596
  0
LINE
  5
221
330
1F
100
AcDbEntity
  8
0
  6
CONTINUOUS
 62
     7
100
AcDbLine
 10
-1076.151084531553
 20
201.744585240667
 30
0.0
 11
-1076.151084531553
 21
201.485216513647
 31
0.0
  0
LINE
  5
222
330
1F
100
AcDbEntity
  8
0
  6
CONTINUOUS
 62
     7
100
AcDbLine
 10
-1014.30661126246
 20
344.4986481871167
 30
0.0
 11
-1018.10661126245
 21
344.4986569160387
 31
0.0
  0
LINE
  5
223
330
1F
100
AcDbEntity
  8
0
  6
CONTINUOUS
 62
     7
100
AcDbLine
 10
-1073.151084531553
 20
162.6846313942156
 30
0.0
 11
-1073.151084531553
 21
162.684748049171
 31
0.0
  0
LWPOLYLINE
  5
224
330
1F
100
AcDbEntity
  8
0
  6
CONTINUOUS
 62
     7
100
AcDbPolyline
 90
        5
 70
     0
 43
0.0
 10
1076.151084531553
 20
336.0454494441491
 10
1076.085223908383
 20
336.1266836629819
 10
1075.987505241148
 20
336.1663894785491
 10
1075.987505241148
 20
336.1663894785491
 42
0.0664187313231351
 10
1075.651084531553
 20
336.2086374870762
210
0.0
220
0.0
230
-1.0
  0
LINE
  5
225
330
1F
100
AcDbEntity
  8
0
  6
CONTINUOUS
 62
     7
100
AcDbLine
 10
-1073.151084531553
 20
347.3152519421839
 30
0.0
 11
-1073.151084531553
 21
347.3153686057843
 31
0.0
  0
LINE
  5
226
330
1F
100
AcDbEntity
  8
0
  6
CONTINUOUS
 62
     7
100
AcDbLine
 10
-1084.306518675184
 20
344.4999942384503
 30
0.0
 11
-1088.106518675174
 21
344.5000029675035
 31
0.0
  0
LWPOLYLINE
  5
227
330
1F
100
AcDbEntity
  8
0
  6
CONTINUOUS
 62
     7
100
AcDbPolyline
 90
       42
 70
     0
 43
0.0
 10
1076.151084531553
 20
349.9696452012072
 10
1076.151074583781
 20
349.9727179883216
 10
1076.150093425013
 20
350.0002965429641
 10
1076.147498299286
 20
350.0278657992757
 10
1076.143255369994
 20
350.0554716860337
 10
1076.137347383657
 20
350.082976071266
 10
1076.129589615755
 20
350.1108291440228
 10
1076.120036738092
 20
350.1384696163348
 10
1076.108593088219
 20
350.1659468743977
 10
1076.095240431691
 20
350.1930777831022
 10
1076.085223908383
 20
350.2109751791391
 10
1076.074313641768
 20
350.2286469011507
 10
1076.062459640137
 20
350.2461060322817
 10
1076.049665850239
 20
350.2632770318152
 10
1076.035704829127
 20
350.280363704613
 10
1076.020728456057
 20
350.2970761620228
 10
1076.00465381261
 20
350.3134240523882
 10
1075.987505241148
 20
350.3292965357202
 10
1075.974515500935
 20
350.3403678418927
 10
1075.96095662091
 20
350.3511352870318
 10
1075.946687361738
 20
350.361668650017
 10
1075.931847210192
 20
350.3718235083562
 10
1075.916339089239
 20
350.3816283940305
 10
1075.900255996653
 20
350.3909868978376
 10
1075.88339384217
 20
350.3999710739913
 10
1075.865922375213
 20
350.4084412425759
 10
1075.852069154143
 20
350.4145827810921
 10
1075.837871654432
 20
350.4203735793668
 10
1075.823185918799
 20
350.425847863646
 10
1075.808192927021
 20
350.4309153763152
 10
1075.79280484892
 20
350.4355862288466
 10
1075.777142045104
 20
350.4398059680249
 10
1075.761014559591
 20
350.4436021758058
 10
1075.744621341191
 20
350.4469041475695
 10
1075.733280165284
 20
350.44886619568
 10
1075.72184214804
 20
350.4505818470284
 10
1075.71023729331
 20
350.4520552995157
 10
1075.698568406031
 20
350.4532681387387
 10
1075.686796425241
 20
350.4542204831423
 10
1075.674984760755
 20
350.4549040963636
 10
1075.663048296594
 20
350.4553192110541
 10
1075.651084531553
 20
350.4554579249061
210
0.0
220
0.0
230
-1.0
  0
LINE
  5
228
330
1F
100
AcDbEntity
  8
0
  6
CONTINUOUS
 62
     7
100
AcDbLine
 10
-1094.306135208983
 20
344.4999496588215
 30
0.0
 11
-1098.106135208973
 21
344.4999583878705
 31
0.0
  0
LINE
  5
229
330
1F
100
AcDbEntity
  8
0
  6
CONTINUOUS
 62
     7
100
AcDbLine
 10
-994.3064157024095
 20
344.4984222247776
 30
0.0
 11
-998.1064157023994
 21
344.4984309536777
 31
0.0
  0
LINE
  5
22A
330
1F
100
AcDbEntity
  8
0
  6
CONTINUOUS
 62
     7
100
AcDbLine
 10
-1114.306623690906
 20
344.4996141253141
 30
0.0
 11
-1116.151084531553
 21
344.4996183622426
 31
0.0
  0
LINE
  5
22B
330
1F
100
AcDbEntity
  8
0
  6
CONTINUOUS
 62
     7
100
AcDbLine
 10
-1076.151084531553
 20
201.485216513647
 30
0.0
 11
-1076.151084531553
 21
173.9545505558509
 31
0.0
  0
LINE
  5
22C
330
1F
100
AcDbEntity
  8
0
  6
CONTINUOUS
 62
     7
100
AcDbLine
 10
-974.3064853737095
 20
344.4984399225128
 30
0.0
 11
-978.1064853736995
 21
344.4984486514145
 31
0.0
  0
LINE
  5
22D
330
1F
100
AcDbEntity
  8
0
  6
CONTINUOUS
 62
     7
100
AcDbLine
 10
-1076.151084531553
 20
349.9696452012071
 30
0.0
 11
-1076.151084531553
 21
344.9792722551922
 31
0.0
  0
LINE
  5
22E
330
1F
100
AcDbEntity
  8
0
  6
CONTINUOUS
 62
     7
100
AcDbLine
 10
-954.3064169186483
 20
344.4986984425855
 30
0.0
 11
-958.1064169186383
 21
344.4987071715124
 31
0.0
  0
LINE
  5
22F
330
1F
100
AcDbEntity
  8
0
  6
CONTINUOUS
 62
     7
100
AcDbLine
 10
-973.1065392705723
 20
165.5015075708942
 30
0.0
 11
-969.3065392705824
 21
165.5015162998002
 31
0.0
  0
ELLIPSE
  5
230
330
1F
100
AcDbEntity
  8
0
  6
CONTINUOUS
 62
     7
100
AcDbEllipse
 10
-1044.151084531553
 20
351.4549915157428
 30
0.0
 11
-1.000000000000001
 21
0.0
 31
0.0
210
0.0
220
0.0
230
-1.0
 40
0.9995335908367128
 41
3.141592653589793
 42
4.712388980384717
  0
LINE
  5
231
330
1F
100
AcDbEntity
  8
0
  6
CONTINUOUS
 62
     7
100
AcDbLine
 10
-993.1065287134195
 20
165.5015888359759
 30
0.0
 11
-989.3065287134295
 21
165.501597564874
 31
0.0
  0
LINE
  5
232
330
1F
100
AcDbEntity
  8
0
  6
CONTINUOUS
 62
     7
100
AcDbLine
 10
-1003.106332205929
 20
165.5015337432407
 30
0.0
 11
-999.3063322059395
 21
165.5015424721442
 31
0.0
  0
LINE
  5
233
330
1F
100
AcDbEntity
  8
0
  6
CONTINUOUS
 62
     7
100
AcDbLine
 10
-984.3063873470675
 20
344.4983990702841
 30
0.0
 11
-988.1063873470574
 21
344.4984077991818
 31
0.0
  0
LINE
  5
234
330
1F
100
AcDbEntity
  8
0
  6
CONTINUOUS
 62
     7
100
AcDbLine
 10
-1044.151084531553
 20
336.2086374870762
 30
0.0
 11
-1075.651084531553
 21
336.2086374870762
 31
0.0
  0
LINE
  5
235
330
1F
100
AcDbEntity
  8
0
  6
CONTINUOUS
 62
     7
100
AcDbLine
 10
-1044.151084531553
 20
159.5445420750939
 30
0.0
 11
-1075.651084531553
 21
159.5445420750939
 31
0.0
  0
ARC
  5
236
330
1F
100
AcDbEntity
  8
0
  6
CONTINUOUS
 62
     7
100
AcDbCircle
 10
1177.15108453152
 20
170.5000000000051
 30
0.0
 40
2.000000000000002
210
0.0
220
0.0
230
-1.0
100
AcDbArc
 50
359.9999999999273
 51
42.39774892020892
  0
LINE
  5
237
330
1F
100
AcDbEntity
  8
0
  6
CONTINUOUS
 62
     7
100
AcDbLine
 10
-953.1065768547511
 20
165.5011958287311
 30
0.0
 11
-949.3065768547611
 21
165.5012045576672
 31
0.0
  0
LINE
  5
238
330
1F
100
AcDbEntity
  8
0
  6
CONTINUOUS
 62
     7
100
AcDbLine
 10
-1076.151084531553
 20
153.0335294040251
 30
0.0
 11
-1076.151084531553
 21
160.0303547987927
 31
0.0
  0
LINE
  5
239
330
1F
100
AcDbEntity
  8
0
  6
CONTINUOUS
 62
     7
100
AcDbLine
 10
-963.1062274094797
 20
165.5013795895244
 30
0.0
 11
-959.3062274094898
 21
165.5013883184429
 31
0.0
  0
LINE
  5
23A
330
1F
100
AcDbEntity
  8
0
  6
CONTINUOUS
 62
     7
100
AcDbLine
 10
-983.1064562433224
 20
165.5015796760602
 30
0.0
 11
-979.3064562433326
 21
165.5015884049592
 31
0.0
  0
LINE
  5
23B
330
1F
100
AcDbEntity
  8
0
  6
CONTINUOUS
 62
     7
100
AcDbLine
 10
-1083.106396914215
 20
165.5000198328328
 30
0.0
 11
-1079.306396914225
 21
165.5000285618839
 31
0.0
  0
LINE
  5
23C
330
1F
100
AcDbEntity
  8
0
  6
CONTINUOUS
 62
     7
100
AcDbLine
 10
-1044.151084531553
 20
173.7913625129237
 30
0.0
 11
-1075.651084531553
 21
173.7913625129237
 31
0.0
  0
LWPOLYLINE
  5
23D
330
1F
100
AcDbEntity
  8
0
  6
CONTINUOUS
 62
     7
100
AcDbPolyline
 90
       42
 70
     0
 43
0.0
 10
1075.651084531553
 20
173.7913625129237
 10
1075.667409346907
 20
173.7914489189998
 10
1075.68373416226
 20
173.7917084180224
 10
1075.700254110184
 20
173.7921481649731
 10
1075.7166676078
 20
173.7927628088247
 10
1075.733079487631
 20
173.7935568721011
 10
1075.749316756817
 20
173.7945215097812
 10
1075.765603938178
 20
173.7956715366456
 10
1075.781683054383
 20
173.7969900034294
 10
1075.796829684229
 20
173.7984026625299
 10
1075.811736482419
 20
173.7999591756546
 10
1075.826533317151
 20
173.8016724045137
 10
1075.841024739024
 20
173.8035181860544
 10
1075.855281326228
 20
173.8055024758687
 10
1075.869204451509
 20
173.807608084023
 10
1075.882932983403
 20
173.8098538606589
 10
1075.896321163561
 20
173.8122138944981
 10
1075.913975705038
 20
173.8155973980431
 10
1075.930981639991
 20
173.8191687493014
 10
1075.947520471912
 20
173.8229601709523
 10
1075.963350440743
 20
173.8269092033339
 10
1075.978573222243
 20
173.8310309212385
 10
1075.993085872994
 20
173.8352871101757
 10
1076.007060890881
 20
173.8397211092819
 10
1076.020341611606
 20
173.8442768062891
 10
1076.0370381904
 20
173.8505465876328
 10
1076.052526576295
 20
173.8569984702607
 10
1076.06687593343
 20
173.8636388526907
 10
1076.080041385209
 20
173.8704253259582
 10
1076.092241665016
 20
173.8774648142288
 10
1076.103252329816
 20
173.884623731097
 10
1076.113117917899
 20
173.8919099500168
 10
1076.121819378307
 20
173.8992893488234
 10
1076.128549763599
 20
173.9058771130036
 10
1076.134390025783
 20
173.9125198157005
 10
1076.139356422901
 20
173.9192232554731
 10
1076.143443063214
 20
173.9259678152336
 10
1076.14668101428
 20
173.9328111660994
 10
1076.149031054251
 20
173.9396833434906
 10
1076.150497079352
 20
173.9465905141194
 10
1076.151074583781
 20
173.953514117683
 10
1076.151084531553
 20
173.9545505558507
210
0.0
220
0.0
230
-1.0
  0
LINE
  5
23E
330
1F
100
AcDbEntity
  8
0
  6
CONTINUOUS
 62
     7
100
AcDbLine
 10
-1076.151084531553
 20
349.9696452012072
 30
0.0
 11
-1076.151084531553
 21
356.9664705959748
 31
0.0
  0
LINE
  5
23F
330
1F
100
AcDbEntity
  8
0
  6
CONTINUOUS
 62
     7
100
AcDbLine
 10
-1108.266151663107
 20
344.0488012517527
 30
0.0
 11
-1108.717927930753
 21
341.4999695928877
 31
0.0
  0
LINE
  5
240
330
1F
100
AcDbEntity
  8
0
  6
CONTINUOUS
 62
     7
100
AcDbLine
 10
-1033.804254810408
 20
168.9873404262371
 30
0.0
 11
-1033.266277763976
 21
165.952377788395
 31
0.0
  0
LINE
  5
241
330
1F
100
AcDbEntity
  8
0
  6
CONTINUOUS
 62
     7
100
AcDbLine
 10
-973.608413651865
 20
341.0121269591523
 30
0.0
 11
-974.1463021847152
 21
344.0466748087215
 31
0.0
  0
LINE
  5
242
330
1F
100
AcDbEntity
  8
0
  6
CONTINUOUS
 62
     7
100
AcDbLine
 10
-973.8037584748834
 20
168.9833224383314
 30
0.0
 11
-973.2657806639812
 21
165.9483057944607
 31
0.0
  0
LINE
  5
243
330
1F
100
AcDbEntity
  8
0
  6
CONTINUOUS
 62
     7
100
AcDbLine
 10
-983.6084758786486
 20
341.0127063786002
 30
0.0
 11
-984.146402316481
 21
344.0474799769568
 31
0.0
  0
LINE
  5
244
330
1F
100
AcDbEntity
  8
0
  6
CONTINUOUS
 62
     7
100
AcDbLine
 10
-1013.80450101391
 20
168.9883282816444
 30
0.0
 11
-1013.266585563583
 21
165.9537168873017
 31
0.0
  0
LINE
  5
245
330
1F
100
AcDbEntity
  8
0
  6
CONTINUOUS
 62
     7
100
AcDbLine
 10
-959.146210178632
 20
165.9542021216535
 30
0.0
 11
-958.6949614671545
 21
168.5000304986378
 31
0.0
  0
LINE
  5
246
330
1F
100
AcDbEntity
  8
0
  6
CONTINUOUS
 62
     7
100
AcDbLine
 10
-969.1462167769009
 20
165.9539292787367
 30
0.0
 11
-968.6949251909499
 21
168.5000028932204
 31
0.0
  0
LINE
  5
247
330
1F
100
AcDbEntity
  8
0
  6
CONTINUOUS
 62
     7
100
AcDbLine
 10
-979.1470860941452
 20
165.9487943654488
 30
0.0
 11
-978.6948806906312
 21
168.5000299468727
 31
0.0
  0
LINE
  5
248
330
1F
100
AcDbEntity
  8
0
  6
CONTINUOUS
 62
     7
100
AcDbLine
 10
-1083.804205777578
 20
168.9871601628388
 30
0.0
 11
-1083.266249464152
 21
165.9522453554866
 31
0.0
  0
LINE
  5
249
330
1F
100
AcDbEntity
  8
0
  6
CONTINUOUS
 62
     7
100
AcDbLine
 10
-989.1464236976066
 20
165.9522872545053
 30
0.0
 11
-988.6948396831268
 21
168.500030286177
 31
0.0
  0
LINE
  5
24A
330
1F
100
AcDbEntity
  8
0
  6
CONTINUOUS
 62
     7
100
AcDbLine
 10
-1009.146553644501
 20
165.951241904812
 30
0.0
 11
-1008.6947911402
 21
168.5000301094779
 31
0.0
  0
LINE
  5
24B
330
1F
100
AcDbEntity
  8
0
  6
CONTINUOUS
 62
     7
100
AcDbLine
 10
-1003.80447300339
 20
168.9879359127403
 30
0.0
 11
-1003.266526313626
 21
165.9531427934973
 31
0.0
  0
LINE
  5
24C
330
1F
100
AcDbEntity
  8
0
  6
CONTINUOUS
 62
     7
100
AcDbLine
 10
-968.266341877829
 20
344.0485978809483
 30
0.0
 11
-968.7180889320096
 21
341.4999698409684
 31
0.0
  0
LINE
  5
24D
330
1F
100
AcDbEntity
  8
0
  6
CONTINUOUS
 62
     7
100
AcDbLine
 10
-1028.266606872256
 20
344.0458506203555
 30
0.0
 11
-1028.717876666163
 21
341.4999694727179
 31
0.0
  0
LINE
  5
24E
330
1F
100
AcDbEntity
  8
0
  6
CONTINUOUS
 62
     7
100
AcDbLine
 10
-963.6082583843151
 20
341.0110157334867
 30
0.0
 11
-964.1461794056487
 21
344.0457397064305
 31
0.0
  0
LINE
  5
24F
330
1F
100
AcDbEntity
  8
0
  6
CONTINUOUS
 62
     7
100
AcDbLine
 10
-999.1463294077398
 20
165.9526276464186
 30
0.0
 11
-998.6948139185095
 21
168.500001188138
 31
0.0
  0
LINE
  5
250
330
1F
100
AcDbEntity
  8
0
  6
CONTINUOUS
 62
     7
100
AcDbLine
 10
-1079.146702477746
 20
165.9515620646308
 30
0.0
 11
-1078.694999993149
 21
168.5000304459105
 31
0.0
  0
LINE
  5
251
330
1F
100
AcDbEntity
  8
0
  6
CONTINUOUS
 62
     7
100
AcDbLine
 10
-1099.14687298737
 20
165.9509153889748
 30
0.0
 11
-1098.695050812587
 21
168.5000303521403
 31
0.0
  0
LINE
  5
252
330
1F
100
AcDbEntity
  8
0
  6
CONTINUOUS
 62
     7
100
AcDbLine
 10
-1113.80407478988
 20
168.9858516352843
 30
0.0
 11
-1113.266129357191
 21
165.9509528792896
 31
0.0
  0
LINE
  5
253
330
1F
100
AcDbEntity
  8
0
  6
CONTINUOUS
 62
     7
100
AcDbLine
 10
-1033.608437665639
 20
341.0126595445718
 30
0.0
 11
-1034.14632590578
 21
344.0473217506143
 31
0.0
  0
LINE
  5
254
330
1F
100
AcDbEntity
  8
0
  6
CONTINUOUS
 62
     7
100
AcDbLine
 10
-1089.146640384967
 20
165.9520941827408
 30
0.0
 11
-1088.695029720036
 21
168.5000304896273
 31
0.0
  0
LINE
  5
255
330
1F
100
AcDbEntity
  8
0
  6
CONTINUOUS
 62
     7
100
AcDbLine
 10
-1109.146651662415
 20
165.9522375484042
 30
0.0
 11
-1108.695061289071
 21
168.5000304735976
 31
0.0
  0
LINE
  5
256
330
1F
100
AcDbEntity
  8
0
  6
CONTINUOUS
 62
     7
100
AcDbLine
 10
-963.8044113687494
 20
168.9869269217383
 30
0.0
 11
-963.2664857020376
 21
165.9521771512607
 31
0.0
  0
LINE
  5
257
330
1F
100
AcDbEntity
  8
0
  6
CONTINUOUS
 62
     7
100
AcDbLine
 10
-1023.804589771237
 20
168.9890455004794
 30
0.0
 11
-1023.26664497574
 21
165.9542693390362
 31
0.0
  0
LINE
  5
258
330
1F
100
AcDbEntity
  8
0
  6
CONTINUOUS
 62
     7
100
AcDbLine
 10
-1078.266274521239
 20
344.0475477164582
 30
0.0
 11
-1078.717835739478
 21
341.4999694957637
 31
0.0
  0
LINE
  5
259
330
1F
100
AcDbEntity
  8
0
  6
CONTINUOUS
 62
     7
100
AcDbLine
 10
-993.8046139406713
 20
168.9884981309518
 30
0.0
 11
-993.2666885105716
 21
165.9538143359771
 31
0.0
  0
LINE
  5
25A
330
1F
100
AcDbEntity
  8
0
  6
CONTINUOUS
 62
     7
100
AcDbLine
 10
-1103.803783555508
 20
168.9844334379889
 30
0.0
 11
-1103.265847052753
 21
165.94959698192
 31
0.0
  0
LINE
  5
25B
330
1F
100
AcDbEntity
  8
0
  6
CONTINUOUS
 62
     7
100
AcDbLine
 10
-1023.608610914207
 20
341.0137858871053
 30
0.0
 11
-1024.146526383332
 21
344.0485894755339
 31
0.0
  0
LINE
  5
25C
330
1F
100
AcDbEntity
  8
0
  6
CONTINUOUS
 62
     7
100
AcDbLine
 10
-1093.10669016688
 20
165.5000042954445
 30
0.0
 11
-1089.30669016689
 21
165.5000130244971
 31
0.0
  0
LINE
  5
25D
330
1F
100
AcDbEntity
  8
0
  6
CONTINUOUS
 62
     7
100
AcDbLine
 10
-1008.265892208986
 20
344.0503025251144
 30
0.0
 11
-1008.717951073288
 21
341.4999699434837
 31
0.0
  0
LINE
  5
25E
330
1F
100
AcDbEntity
  8
0
  6
CONTINUOUS
 62
     7
100
AcDbLine
 10
-978.2663575359452
 20
344.0483696326656
 30
0.0
 11
-978.7180676550796
 21
341.499969845482
 31
0.0
  0
LINE
  5
25F
330
1F
100
AcDbEntity
  8
0
  6
CONTINUOUS
 62
     7
100
AcDbLine
 10
-953.6085997228718
 20
341.0127169781848
 30
0.0
 11
-954.1465642146262
 21
344.0476848350436
 31
0.0
  0
LINE
  5
260
330
1F
100
AcDbEntity
  8
0
  6
CONTINUOUS
 62
     7
100
AcDbLine
 10
-949.1463620906852
 20
165.9535533185331
 30
0.0
 11
-948.6949985277806
 21
168.5000304572667
 31
0.0
  0
LINE
  5
261
330
1F
100
AcDbEntity
  8
0
  6
CONTINUOUS
 62
     7
100
AcDbLine
 10
-1103.608602676192
 20
341.0122951782973
 30
0.0
 11
-1104.146535507436
 21
344.0471368791524
 31
0.0
  0
LINE
  5
262
330
1F
100
AcDbEntity
  8
0
  6
CONTINUOUS
 62
     7
100
AcDbLine
 10
-1088.266195213288
 20
344.0481394218627
 30
0.0
 11
-1088.717858720487
 21
341.4999695312459
 31
0.0
  0
LINE
  5
263
330
1F
100
AcDbEntity
  8
0
  6
CONTINUOUS
 62
     7
100
AcDbLine
 10
-1113.10660923289
 20
165.5002705637117
 30
0.0
 11
-1109.3066092329
 21
165.5002792927383
 31
0.0
  0
LINE
  5
264
330
1F
100
AcDbEntity
  8
0
  6
CONTINUOUS
 62
     7
100
AcDbLine
 10
-988.2666230131001
 20
344.0466706277421
 30
0.0
 11
-988.7180348092844
 21
341.4999696661571
 31
0.0
  0
LINE
  5
265
330
1F
100
AcDbEntity
  8
0
  6
CONTINUOUS
 62
     7
100
AcDbLine
 10
-948.2655189407536
 20
344.0532069206884
 30
0.0
 11
-948.7180757563527
 21
341.4999701571376
 31
0.0
  0
LINE
  5
266
330
1F
100
AcDbEntity
  8
0
  6
CONTINUOUS
 62
     7
100
AcDbLine
 10
-1093.803915242057
 20
168.9853699907636
 30
0.0
 11
-1093.26594035846
 21
165.9503329686441
 31
0.0
  0
LINE
  5
267
330
1F
100
AcDbEntity
  8
0
  6
CONTINUOUS
 62
     7
100
AcDbLine
 10
-1013.609183355964
 20
341.0170713571795
 30
0.0
 11
-1014.147145832009
 21
344.0521153882406
 31
0.0
  0
LINE
  5
268
330
1F
100
AcDbEntity
  8
0
  6
CONTINUOUS
 62
     7
100
AcDbLine
 10
-1103.106390075203
 20
165.5000982169234
 30
0.0
 11
-1099.306390075213
 21
165.5001069459668
 31
0.0
  0
LINE
  5
269
330
1F
100
AcDbEntity
  8
0
  6
CONTINUOUS
 62
     7
100
AcDbLine
 10
-998.2664771188046
 20
344.0472570209123
 30
0.0
 11
-998.7179949042146
 21
341.4999696527806
 31
0.0
  0
LINE
  5
26A
330
1F
100
AcDbEntity
  8
0
  6
CONTINUOUS
 62
     7
100
AcDbLine
 10
-1019.146646525138
 20
165.9506992364871
 30
0.0
 11
-1018.694791966505
 21
168.5000301496746
 31
0.0
  0
LINE
  5
26B
330
1F
100
AcDbEntity
  8
0
  6
CONTINUOUS
 62
     7
100
AcDbLine
 10
-1098.266242114253
 20
344.0480657819708
 30
0.0
 11
-1098.717890140041
 21
341.4999695272739
 31
0.0
  0
LINE
  5
26C
330
1F
100
AcDbEntity
  8
0
  6
CONTINUOUS
 62
     7
100
AcDbLine
 10
-1018.266633357183
 20
344.0459009638768
 30
0.0
 11
-1018.717907135735
 21
341.4999990095783
 31
0.0
  0
LINE
  5
26D
330
1F
100
AcDbEntity
  8
0
  6
CONTINUOUS
 62
     7
100
AcDbLine
 10
-983.8034170266876
 20
168.9815633462795
 30
0.0
 11
-983.2654873059947
 21
165.9468378875535
 31
0.0
  0
LINE
  5
26E
330
1F
100
AcDbEntity
  8
0
  6
CONTINUOUS
 62
     7
100
AcDbLine
 10
-1113.608539265776
 20
341.0119103440192
 30
0.0
 11
-1114.146478993535
 21
344.0467746473955
 31
0.0
  0
LINE
  5
26F
330
1F
100
AcDbEntity
  8
0
  6
CONTINUOUS
 62
     7
100
AcDbLine
 10
-1093.608557179574
 20
341.012125155247
 30
0.0
 11
-1094.146482553522
 21
344.0469418921659
 31
0.0
  0
LINE
  5
270
330
1F
100
AcDbEntity
  8
0
  6
CONTINUOUS
 62
     7
100
AcDbLine
 10
-953.8044993708221
 20
168.9874646224084
 30
0.0
 11
-953.2665970124805
 21
165.952820602756
 31
0.0
  0
LINE
  5
271
330
1F
100
AcDbEntity
  8
0
  6
CONTINUOUS
 62
     7
100
AcDbLine
 10
-1083.608733613375
 20
341.0132617675258
 30
0.0
 11
-1084.146678149334
 21
344.0482042956898
 31
0.0
  0
LINE
  5
272
330
1F
100
AcDbEntity
  8
0
  6
CONTINUOUS
 62
     7
100
AcDbLine
 10
-958.2664353589735
 20
344.0481146249207
 30
0.0
 11
-958.718092523984
 21
341.4999697887064
 31
0.0
  0
LINE
  5
273
330
1F
100
AcDbEntity
  8
0
  6
CONTINUOUS
 62
     7
100
AcDbLine
 10
-1003.609469169915
 20
341.0186253677026
 30
0.0
 11
-1004.147385240203
 21
344.0533811103067
 31
0.0
  0
LINE
  5
274
330
1F
100
AcDbEntity
  8
0
  6
CONTINUOUS
 62
     7
100
AcDbLine
 10
-993.6083226152095
 20
341.0120395799656
 30
0.0
 11
-994.1462249413677
 21
344.0466943187856
 31
0.0
  0
LINE
  5
275
330
1F
100
AcDbEntity
  8
0
  6
CONTINUOUS
 62
     7
100
AcDbLine
 10
-1029.146540659945
 20
165.9513874111664
 30
0.0
 11
-1028.694810811504
 21
168.500030274411
 31
0.0
  0
LINE
  5
276
330
1F
100
AcDbEntity
  8
0
  6
CONTINUOUS
 62
     7
100
AcDbLine
 10
-1008.777701307291
 20
168.4999999999999
 30
0.0
 11
-1003.717973886767
 21
168.4999999999999
 31
0.0
  0
LINE
  5
277
330
1F
100
AcDbEntity
  8
0
  6
CONTINUOUS
 62
     7
100
AcDbLine
 10
-1018.777668776134
 20
168.4999999999999
 30
0.0
 11
-1013.717932170152
 21
168.4999999999999
 31
0.0
  0
LINE
  5
278
330
1F
100
AcDbEntity
  8
0
  6
CONTINUOUS
 62
     7
100
AcDbLine
 10
-1028.777639700752
 20
168.4999999999999
 30
0.0
 11
-1023.717893741891
 21
168.4999999999999
 31
0.0
  0
LINE
  5
279
330
1F
100
AcDbEntity
  8
0
  6
CONTINUOUS
 62
     7
100
AcDbLine
 10
-958.6352069822728
 20
341.5
 30
0.0
 11
-963.6949412093929
 21
341.5
 31
0.0
  0
LINE
  5
27A
330
1F
100
AcDbEntity
  8
0
  6
CONTINUOUS
 62
     7
100
AcDbLine
 10
-1038.151084531553
 20
168.4999999999999
 30
0.0
 11
-1033.717861201526
 21
168.4999999999999
 31
0.0
  0
LINE
  5
27B
330
1F
100
AcDbEntity
  8
0
  6
CONTINUOUS
 62
     7
100
AcDbLine
 10
-1088.777472594512
 20
168.4999999999999
 30
0.0
 11
-1083.717846059639
 21
168.4999999999999
 31
0.0
  0
ARC
  5
27C
330
1F
100
AcDbEntity
  8
0
  6
CONTINUOUS
 62
     7
100
AcDbCircle
 10
935.6510845315529
 20
168.5
 30
0.0
 40
0.5000000000000004
210
0.0
220
0.0
230
-1.0
100
AcDbArc
 50
0.0
 51
90.0
  0
ARC
  5
27D
330
1F
100
AcDbEntity
  8
0
  6
CONTINUOUS
 62
     7
100
AcDbCircle
 10
933.6510845315529
 20
168.5
 30
0.0
 40
0.5000000000000004
210
0.0
220
0.0
230
-1.0
100
AcDbArc
 50
90.00000000000159
 51
180.0
  0
LINE
  5
27E
330
1F
100
AcDbEntity
  8
0
  6
CONTINUOUS
 62
     7
100
AcDbLine
 10
-933.1510845315529
 20
166.5
 30
0.0
 11
-929.1510845315529
 21
166.5
 31
0.0
  0
LINE
  5
27F
330
1F
100
AcDbEntity
  8
0
  6
CONTINUOUS
 62
     7
100
AcDbLine
 10
-936.1510845315529
 20
343.4999999999999
 30
0.0
 11
-940.1510845315529
 21
343.4999999999999
 31
0.0
  0
ARC
  5
280
330
1F
100
AcDbEntity
  8
0
  6
CONTINUOUS
 62
     7
100
AcDbCircle
 10
942.651084531553
 20
341.4999999999999
 30
0.0
 40
0.5000000000000004
210
0.0
220
0.0
230
-1.0
100
AcDbArc
 50
270.0
 51
0.0
  0
ARC
  5
281
330
1F
100
AcDbEntity
  8
0
  6
CONTINUOUS
 62
     7
100
AcDbCircle
 10
942.651084531553
 20
168.5
 30
0.0
 40
0.5000000000000004
210
0.0
220
0.0
230
-1.0
100
AcDbArc
 50
0.0
 51
90.0
  0
ARC
  5
282
330
1F
100
AcDbEntity
  8
0
  6
CONTINUOUS
 62
     7
100
AcDbCircle
 10
928.651084531553
 20
341.4999999999999
 30
0.0
 40
0.5000000000000004
210
0.0
220
0.0
230
-1.0
100
AcDbArc
 50
270.0
 51
0.0
  0
ARC
  5
283
330
1F
100
AcDbEntity
  8
0
  6
CONTINUOUS
 62
     7
100
AcDbCircle
 10
928.651084531553
 20
168.5
 30
0.0
 40
0.5000000000000004
210
0.0
220
0.0
230
-1.0
100
AcDbArc
 50
0.0
 51
90.0
  0
ARC
  5
284
330
1F
100
AcDbEntity
  8
0
  6
CONTINUOUS
 62
     7
100
AcDbCircle
 10
940.651084531553
 20
341.4999999999999
 30
0.0
 40
0.5000000000000004
210
0.0
220
0.0
230
-1.0
100
AcDbArc
 50
180.0
 51
270.0000000000024
  0
LINE
  5
285
330
1F
100
AcDbEntity
  8
0
  6
CONTINUOUS
 62
     7
100
AcDbLine
 10
-988.6351623949738
 20
341.5
 30
0.0
 11
-993.6948228791672
 21
341.5
 31
0.0
  0
LINE
  5
286
330
1F
100
AcDbEntity
  8
0
  6
CONTINUOUS
 62
     7
100
AcDbLine
 10
-1108.777515657769
 20
168.4999999999999
 30
0.0
 11
-1103.71790819364
 21
168.4999999999999
 31
0.0
  0
ARC
  5
287
330
1F
100
AcDbEntity
  8
0
  6
CONTINUOUS
 62
     7
100
AcDbCircle
 10
935.6510845315529
 20
341.4999999999999
 30
0.0
 40
0.5000000000000004
210
0.0
220
0.0
230
-1.0
100
AcDbArc
 50
270.0
 51
0.0
  0
ARC
  5
288
330
1F
100
AcDbEntity
  8
0
  6
CONTINUOUS
 62
     7
100
AcDbCircle
 10
940.651084531553
 20
168.5
 30
0.0
 40
0.5000000000000004
210
0.0
220
0.0
230
-1.0
100
AcDbArc
 50
89.99999999999763
 51
180.0
  0
LINE
  5
289
330
1F
100
AcDbEntity
  8
0
  6
CONTINUOUS
 62
     7
100
AcDbLine
 10
-912.1510845315529
 20
340.9999999999999
 30
0.0
 11
-928.651084531553
 21
340.9999999999999
 31
0.0
  0
LINE
  5
28A
330
1F
100
AcDbEntity
  8
0
  6
CONTINUOUS
 62
     7
100
AcDbLine
 10
-933.6510845315529
 20
340.9999999999999
 30
0.0
 11
-935.6510845315529
 21
340.9999999999999
 31
0.0
  0
LINE
  5
28B
330
1F
100
AcDbEntity
  8
0
  6
CONTINUOUS
 62
     7
100
AcDbLine
 10
-935.6510845315529
 20
169.0
 30
0.0
 11
-933.6510845315529
 21
169.0
 31
0.0
  0
LINE
  5
28C
330
1F
100
AcDbEntity
  8
0
  6
CONTINUOUS
 62
     7
100
AcDbLine
 10
-942.651084531553
 20
169.0
 30
0.0
 11
-940.651084531553
 21
169.0
 31
0.0
  0
ARC
  5
28D
330
1F
100
AcDbEntity
  8
0
  6
CONTINUOUS
 62
     7
100
AcDbCircle
 10
-902.1510845315529
 20
358.4999999999999
 30
0.0
 40
1.500000000000001
100
AcDbArc
 50
0.0
 51
11.53702088495058
  0
LINE
  5
28E
330
1F
100
AcDbEntity
  8
0
  6
CONTINUOUS
 62
     7
100
AcDbLine
 10
-1008.635172034038
 20
341.5
 30
0.0
 11
-1013.694790142252
 21
341.5
 31
0.0
  0
ARC
  5
28F
330
1F
100
AcDbEntity
  8
0
  6
CONTINUOUS
 62
     7
100
AcDbCircle
 10
-1176.651084531553
 20
160.5
 30
0.0
 40
2.000000000000002
100
AcDbArc
 50
180.0
 51
270.0
  0
ARC
  5
290
330
1F
100
AcDbEntity
  8
0
  6
CONTINUOUS
 62
     7
100
AcDbCircle
 10
-1145.651084531553
 20
160.5
 30
0.0
 40
2.000000000000002
100
AcDbArc
 50
270.0
 51
0.0
  0
ARC
  5
291
330
1F
100
AcDbEntity
  8
0
  6
CONTINUOUS
 62
     7
100
AcDbCircle
 10
912.1510845315529
 20
164.9999999999999
 30
0.0
 40
4.000000000000004
210
0.0
220
0.0
230
-1.0
100
AcDbArc
 50
90.00000000000004
 51
180.0000000000002
  0
LINE
  5
292
330
1F
100
AcDbEntity
  8
0
  6
CONTINUOUS
 62
     7
100
AcDbLine
 10
-958.7776870102463
 20
168.4999999999999
 30
0.0
 11
-953.71808667663
 21
168.4999999999999
 31
0.0
  0
LINE
  5
293
330
1F
100
AcDbEntity
  8
0
  6
CONTINUOUS
 62
     7
100
AcDbLine
 10
-929.1510845315529
 20
343.4999999999999
 30
0.0
 11
-933.1510845315529
 21
343.4999999999999
 31
0.0
  0
LINE
  5
294
330
1F
100
AcDbEntity
  8
0
  6
CONTINUOUS
 62
     7
100
AcDbLine
 10
-928.651084531553
 20
168.9999999999999
 30
0.0
 11
-912.151084531553
 21
168.9999999999999
 31
0.0
  0
LINE
  5
295
330
1F
100
AcDbEntity
  8
0
  6
CONTINUOUS
 62
     7
100
AcDbLine
 10
-978.6351585664803
 20
341.5
 30
0.0
 11
-983.6948584200655
 21
341.5
 31
0.0
  0
LINE
  5
296
330
1F
100
AcDbEntity
  8
0
  6
CONTINUOUS
 62
     7
100
AcDbLine
 10
-1116.151084531553
 20
168.4999999999999
 30
0.0
 11
-1113.717948341002
 21
168.4999999999999
 31
0.0
  0
ARC
  5
297
330
1F
100
AcDbEntity
  8
0
  6
CONTINUOUS
 62
     7
100
AcDbCircle
 10
-902.1510845315529
 20
151.5
 30
0.0
 40
1.500000000000001
100
AcDbArc
 50
270.0000000000005
 51
0.0
  0
LINE
  5
298
330
1F
100
AcDbEntity
  8
0
  6
CONTINUOUS
 62
     7
100
AcDbLine
 10
-1176.651084531553
 20
158.5
 30
0.0
 11
-1145.651084531553
 21
158.5
 31
0.0
  0
LINE
  5
299
330
1F
100
AcDbEntity
  8
0
  6
CONTINUOUS
 62
     7
100
AcDbLine
 10
-1116.151084531553
 20
342.4195276765516
 30
0.0
 11
-1140.151084531553
 21
342.4195276765516
 31
0.0
  0
ARC
  5
29A
330
1F
100
AcDbEntity
  8
0
  6
CONTINUOUS
 62
     7
100
AcDbCircle
 10
-1140.298839263665
 20
339.554133728831
 30
0.0
 40
2.869200922991512
100
AcDbArc
 50
87.04814371905522
 51
172.9096512615239
  0
ARC
  5
29B
330
1F
100
AcDbEntity
  8
0
  6
CONTINUOUS
 62
     7
100
AcDbCircle
 10
933.6510845315529
 20
341.4999999999999
 30
0.0
 40
0.5000000000000004
210
0.0
220
0.0
230
-1.0
100
AcDbArc
 50
180.0
 51
269.9999999999984
  0
LINE
  5
29C
330
1F
100
AcDbEntity
  8
0
  6
CONTINUOUS
 62
     7
100
AcDbLine
 10
-1108.635379028502
 20
341.5
 30
0.0
 11
-1113.6950625305
 21
341.5
 31
0.0
  0
LINE
  5
29D
330
1F
100
AcDbEntity
  8
0
  6
CONTINUOUS
 62
     7
100
AcDbLine
 10
-968.7777076241565
 20
168.4999999999999
 30
0.0
 11
-963.7180932907943
 21
168.4999999999999
 31
0.0
  0
LINE
  5
29E
330
1F
100
AcDbEntity
  8
0
  6
CONTINUOUS
 62
     7
100
AcDbLine
 10
-1098.777486737917
 20
168.4999999999999
 30
0.0
 11
-1093.717873392585
 21
168.4999999999999
 31
0.0
  0
LINE
  5
29F
330
1F
100
AcDbEntity
  8
0
  6
CONTINUOUS
 62
     7
100
AcDbLine
 10
-968.6351853166823
 20
341.5
 30
0.0
 11
-973.6948992614772
 21
341.5
 31
0.0
  0
LINE
  5
2A0
330
1F
100
AcDbEntity
  8
0
  6
CONTINUOUS
 62
     7
100
AcDbLine
 10
-1140.151084531553
 20
167.5804723234483
 30
0.0
 11
-1116.151084531553
 21
167.5804723234483
 31
0.0
  0
LINE
  5
2A1
330
1F
100
AcDbEntity
  8
0
  6
CONTINUOUS
 62
     7
100
AcDbLine
 10
-1078.777482893667
 20
168.4999999999999
 30
0.0
 11
-1076.151084531553
 21
168.4999999999999
 31
0.0
  0
LINE
  5
2A2
330
1F
100
AcDbEntity
  8
0
  6
CONTINUOUS
 62
     7
100
AcDbLine
 10
-940.651084531553
 20
340.9999999999999
 30
0.0
 11
-942.651084531553
 21
340.9999999999999
 31
0.0
  0
LINE
  5
2A3
330
1F
100
AcDbEntity
  8
0
  6
CONTINUOUS
 62
     7
100
AcDbLine
 10
-943.1510845315529
 20
344.4999999999999
 30
0.0
 11
-948.1510845315529
 21
344.4999999999999
 31
0.0
  0
LINE
  5
2A4
330
1F
100
AcDbEntity
  8
0
  6
CONTINUOUS
 62
     7
100
AcDbLine
 10
-1158.151084531553
 20
269.9999999999999
 30
0.0
 11
-1158.238573195079
 21
270.9999999999999
 31
0.0
  0
LINE
  5
2A5
330
1F
100
AcDbEntity
  8
0
  6
CONTINUOUS
 62
     7
100
AcDbLine
 10
-1143.146098672732
 20
339.9082915947189
 30
0.0
 11
-1143.151084531553
 21
339.7544641670905
 31
0.0
  0
LINE
  5
2A6
330
1F
100
AcDbEntity
  8
0
  6
CONTINUOUS
 62
     7
100
AcDbLine
 10
-1167.063595868027
 20
270.9999999999999
 30
0.0
 11
-1167.151084531553
 21
269.9999999999999
 31
0.0
  0
LINE
  5
2A7
330
1F
100
AcDbEntity
  8
0
  6
CONTINUOUS
 62
     7
100
AcDbLine
 10
-1143.151084531553
 20
170.2455358329094
 30
0.0
 11
-1143.146656186059
 21
170.1005568631452
 31
0.0
  0
LINE
  5
2A8
330
1F
100
AcDbEntity
  8
0
  6
CONTINUOUS
 62
     7
100
AcDbLine
 10
-1088.635408628416
 20
341.5
 30
0.0
 11
-1093.695041422218
 21
341.5
 31
0.0
  0
LINE
  5
2A9
330
1F
100
AcDbEntity
  8
0
  6
CONTINUOUS
 62
     7
100
AcDbLine
 10
-1078.635390188686
 20
341.5
 30
0.0
 11
-1083.695015853763
 21
341.5
 31
0.0
  0
LINE
  5
2AA
330
1F
100
AcDbEntity
  8
0
  6
CONTINUOUS
 62
     7
100
AcDbLine
 10
-1018.635203457187
 20
341.5
 30
0.0
 11
-1023.694799482947
 21
341.5
 31
0.0
  0
LINE
  5
2AB
330
1F
100
AcDbEntity
  8
0
  6
CONTINUOUS
 62
     7
100
AcDbLine
 10
-1028.635235192731
 20
341.5
 30
0.0
 11
-1033.694825585589
 21
341.5
 31
0.0
  0
LINE
  5
2AC
330
1F
100
AcDbEntity
  8
0
  6
CONTINUOUS
 62
     7
100
AcDbLine
 10
-948.6352421955224
 20
341.5
 30
0.0
 11
-953.6949809810176
 21
341.5
 31
0.0
  0
ARC
  5
2AD
330
1F
100
AcDbEntity
  8
0
  6
CONTINUOUS
 62
     7
100
AcDbCircle
 10
912.1510845315529
 20
344.9999999999999
 30
0.0
 40
4.000000000000004
210
0.0
220
0.0
230
-1.0
100
AcDbArc
 50
179.9999999999998
 51
270.0
  0
LINE
  5
2AE
330
1F
100
AcDbEntity
  8
0
  6
CONTINUOUS
 62
     7
100
AcDbLine
 10
-940.1510845315529
 20
166.5
 30
0.0
 11
-936.1510845315529
 21
166.5
 31
0.0
  0
LINE
  5
2AF
330
1F
100
AcDbEntity
  8
0
  6
CONTINUOUS
 62
     7
100
AcDbLine
 10
-948.1510845315529
 20
165.5
 30
0.0
 11
-943.1510845315529
 21
165.5
 31
0.0
  0
LINE
  5
2B0
330
1F
100
AcDbEntity
  8
0
  6
CONTINUOUS
 62
     7
100
AcDbLine
 10
-978.7777284594522
 20
168.4999999999999
 30
0.0
 11
-973.7180786581271
 21
168.4999999999999
 31
0.0
  0
LINE
  5
2B1
330
1F
100
AcDbEntity
  8
0
  6
CONTINUOUS
 62
     7
100
AcDbLine
 10
-998.6351680651868
 20
341.5
 30
0.0
 11
-1003.694801206511
 21
341.5
 31
0.0
  0
LINE
  5
2B2
330
1F
100
AcDbEntity
  8
0
  6
CONTINUOUS
 62
     7
100
AcDbLine
 10
-988.7777209456032
 20
168.4999999999999
 30
0.0
 11
-983.7180485126537
 21
168.4999999999999
 31
0.0
  0
LINE
  5
2B3
330
1F
100
AcDbEntity
  8
0
  6
CONTINUOUS
 62
     7
100
AcDbLine
 10
-998.777715744817
 20
168.4999999999999
 30
0.0
 11
-993.7180154538622
 21
168.4999999999999
 31
0.0
  0
LINE
  5
2B4
330
1F
100
AcDbEntity
  8
0
  6
CONTINUOUS
 62
     7
100
AcDbLine
 10
-1098.635406422807
 20
341.5
 30
0.0
 11
-1103.695057257821
 21
341.5
 31
0.0
  0
LINE
  5
2B5
330
1F
100
AcDbEntity
  8
0
  6
CONTINUOUS
 62
     7
100
AcDbLine
 10
-948.7776591171108
 20
168.4999999999999
 30
0.0
 11
-948.1510845315529
 21
168.4999999999999
 31
0.0
  0
SPLINE
  5
2B6
330
1F
100
AcDbEntity
  8
0
  6
CONTINUOUS
 62
     7
100
AcDbSpline
210
0.0
220
0.0
230
1.0
 70
     8
 71
     3
 72
    19
 73
    15
 74
     0
 42
0.000000001
 43
0.0001
 40
0.4617895345155409
 40
0.4617895345155409
 40
0.4617895345155409
 40
0.4617895345155409
 40
0.4622985484448379
 40
0.4697549766455612
 40
0.4772114048462844
 40
0.4846678330470077
 40
0.492124261247731
 40
0.4995806894484542
 40
0.5070371176491776
 40
0.5144935458499006
 40
0.5219499740506239
 40
0.5294064022513472
 40
0.5368628304520704
 40
0.5410164793487267
 40
0.5410164793487267
 40
0.5410164793487267
 40
0.5410164793487267
 10
-973.2657923265708
 20
165.9483712770156
 30
0.0
 10
-973.2761590866454
 20
166.0065802039179
 30
0.0
 10
-973.4383861352546
 20
167.0065391778034
 30
0.0
 10
-973.7524734723992
 20
171.6421233099617
 30
0.0
 10
-974.2080543380018
 20
185.1497464814929
 30
0.0
 10
-974.6636352036064
 20
204.3418553129819
 30
0.0
 10
-975.1192160692094
 20
227.656576197082
 30
0.0
 10
-975.5747969348132
 20
253.1965331064266
 30
0.0
 10
-976.0303778004169
 20
278.8832580112805
 30
0.0
 10
-976.4859586660206
 20
302.6263387510887
 30
0.0
 10
-976.9415395316245
 20
322.4935389317086
 30
0.0
 10
-977.3971203972275
 20
336.868045315655
 30
0.0
 10
-977.7854356760683
 20
343.4413845961532
 30
0.0
 10
-978.021890666374
 20
344.4983351560558
 30
0.0
 10
-978.106485368145
 20
344.498448651407
 30
0.0
  0
SPLINE
  5
2B7
330
1F
100
AcDbEntity
  8
0
  6
CONTINUOUS
 62
     7
100
AcDbSpline
210
0.0
220
0.0
230
1.0
 70
     8
 71
     3
 72
    19
 73
    15
 74
     0
 42
0.000000001
 43
0.0001
 40
0.131846479091742
 40
0.131846479091742
 40
0.131846479091742
 40
0.131846479091742
 40
0.1342157076130176
 40
0.1416721358137408
 40
0.149128564014464
 40
0.1565849922151872
 40
0.1640414204159104
 40
0.1714978486166336
 40
0.1789542768173568
 40
0.18641070501808
 40
0.1938671332188031
 40
0.2013235614195264
 40
0.2087799896202495
 40
0.2110613624672063
 40
0.2110613624672063
 40
0.2110613624672063
 40
0.2110613624672063
 10
-949.3065768492053
 20
165.5012045576882
 30
0.0
 10
-949.3548294062185
 20
165.5010224683961
 30
0.0
 10
-949.5549422517795
 20
166.0109692900011
 30
0.0
 10
-949.9069153858446
 20
170.6508979538758
 30
0.0
 10
-950.3624962514532
 20
183.5210650483465
 30
0.0
 10
-950.8180771170554
 20
202.2082615773113
 30
0.0
 10
-951.2736579826593
 20
225.1917042172203
 30
0.0
 10
-951.729238848263
 20
250.600976705839
 30
0.0
 10
-952.1848197138664
 20
276.3682462463481
 30
0.0
 10
-952.6404005794702
 20
300.3965458726883
 30
0.0
 10
-953.095981445074
 20
320.7304277836147
 30
0.0
 10
-953.5515623106772
 20
335.7150997011973
 30
0.0
 10
-953.9017461446128
 20
342.1840829769244
 30
0.0
 10
-954.1000696900135
 20
343.7858649272825
 30
0.0
 10
-954.1465329468796
 20
344.0475087772894
 30
0.0
  0
SPLINE
  5
2B8
330
1F
100
AcDbEntity
  8
0
  6
CONTINUOUS
 62
     7
100
AcDbSpline
210
0.0
220
0.0
230
1.0
 70
     8
 71
     3
 72
    19
 73
    15
 74
     0
 42
0.000000001
 43
0.0001
 40
0.6254538440417994
 40
0.6254538440417994
 40
0.6254538440417994
 40
0.6254538440417994
 40
0.6263399688607496
 40
0.633796397061473
 40
0.6412528252621961
 40
0.6487092534629194
 40
0.6561656816636428
 40
0.6636221098643659
 40
0.6710785380650892
 40
0.6785349662658124
 40
0.6859913944665357
 40
0.693447822667259
 40
0.7009042508679822
 40
0.7046834742390737
 40
0.7046834742390737
 40
0.7046834742390737
 40
0.7046834742390737
 10
-983.2655302433342
 20
165.947078433747
 30
0.0
 10
-983.2835773789144
 20
166.0481968581866
 30
0.0
 10
-983.4534848030293
 20
167.1623022054424
 30
0.0
 10
-983.7752525156791
 20
172.163404786551
 30
0.0
 10
-984.2308333812828
 20
185.9856374416363
 30
0.0
 10
-984.6864142468854
 20
205.4243300883828
 30
0.0
 10
-985.1419951124905
 20
228.897541874286
 30
0.0
 10
-985.5975759780935
 20
254.4949986189558
 30
0.0
 10
-986.0531568436969
 20
280.1335528967656
 30
0.0
 10
-986.5087377093007
 20
303.726712722462
 30
0.0
 10
-986.9643185749044
 20
323.3544424204886
 30
0.0
 10
-987.4198994405083
 20
337.4194171081742
 30
0.0
 10
-987.8005890349298
 20
343.5675261102802
 30
0.0
 10
-988.029418340817
 20
344.4982502570574
 30
0.0
 10
-988.1063873581696
 20
344.4984077992046
 30
0.0
  0
SPLINE
  5
2B9
330
1F
100
AcDbEntity
  8
0
  6
CONTINUOUS
 62
     7
100
AcDbSpline
210
0.0
220
0.0
230
1.0
 70
     8
 71
     3
 72
    19
 73
    15
 74
     0
 42
0.000000001
 43
0.0001
 40
1.11385748686612
 40
1.11385748686612
 40
1.11385748686612
 40
1.11385748686612
 40
1.118464230108483
 40
1.125920658309207
 40
1.13337708650993
 40
1.140833514710653
 40
1.148289942911376
 40
1.155746371112099
 40
1.163202799312823
 40
1.170659227513546
 40
1.178115655714269
 40
1.185572083914992
 40
1.193028512115715
 40
1.19308284909401
 40
1.19308284909401
 40
1.19308284909401
 40
1.19308284909401
 10
-1009.306541029219
 20
165.5014287053131
 30
0.0
 10
-1009.400363612788
 20
165.5023637301981
 30
0.0
 10
-1009.646046484891
 20
166.7229780628365
 30
0.0
 10
-1010.04358964553
 20
173.828624135745
 30
0.0
 10
-1010.499170511133
 20
188.5774405226801
 30
0.0
 10
-1010.954751376737
 20
208.7317932939091
 30
0.0
 10
-1011.410332242341
 20
232.6515004380185
 30
0.0
 10
-1011.865913107944
 20
258.3899515219478
 30
0.0
 10
-1012.321493973547
 20
283.8525248553486
 30
0.0
 10
-1012.777074839151
 20
306.9670499636954
 30
0.0
 10
-1013.232655704755
 20
325.8524429582884
 30
0.0
 10
-1013.688236570359
 20
338.9717910828715
 30
0.0
 10
-1013.993063793797
 20
343.1774842374263
 30
0.0
 10
-1014.146030728702
 20
344.0458506457987
 30
0.0
 10
-1014.147137375072
 20
344.0520678777301
 30
0.0
  0
SPLINE
  5
2BA
330
1F
100
AcDbEntity
  8
0
  6
CONTINUOUS
 62
     7
100
AcDbSpline
210
0.0
220
0.0
230
1.0
 70
     8
 71
     3
 72
    19
 73
    15
 74
     0
 42
0.000000001
 43
0.0001
 40
2.262152013583243
 40
2.262152013583243
 40
2.262152013583243
 40
2.262152013583243
 40
2.26675417301985
 40
2.274210601220573
 40
2.281667029421296
 40
2.289123457622019
 40
2.296579885822743
 40
2.304036314023466
 40
2.311492742224189
 40
2.318949170424912
 40
2.326405598625636
 40
2.333862026826359
 40
2.341318455027082
 40
2.341371613544059
 40
2.341371613544059
 40
2.341371613544059
 40
2.341371613544059
 10
-1083.266274398461
 20
165.9523860827914
 30
0.0
 10
-1083.3600036266
 20
166.4814275255704
 30
0.0
 10
-1083.605593143273
 20
169.0780040518701
 30
0.0
 10
-1084.003042948481
 20
178.2901705316672
 30
0.0
 10
-1084.458623814085
 20
195.0924347076822
 30
0.0
 10
-1084.914204679688
 20
216.7700383230439
 30
0.0
 10
-1085.369785545291
 20
241.5588356418865
 30
0.0
 10
-1085.825366410896
 20
267.4414887765371
 30
0.0
 10
-1086.2809472765
 20
292.3116407250609
 30
0.0
 10
-1086.736528142102
 20
314.145332876128
 30
0.0
 10
-1087.192109007706
 20
331.1657168478812
 30
0.0
 10
-1087.64768987331
 20
341.9876562415142
 30
0.0
 10
-1087.952493095784
 20
344.4917467948054
 30
0.0
 10
-1088.105436029723
 20
344.500007024841
 30
0.0
 10
-1088.106518675128
 20
344.5000029675037
 30
0.0
  0
LWPOLYLINE
  5
2BB
330
1F
100
AcDbEntity
  8
0
  6
CONTINUOUS
 62
     7
100
AcDbPolyline
 90
        7
 70
     0
 43
0.0
 10
-1103.800181280883
 20
168.9641141851992
 42
-0.0164529762077702
 10
-1105.123200984396
 20
203.6252848424706
 42
0.0026242718971894
 10
-1107.934771736964
 20
333.2578041802798
 42
0.0293390041537832
 10
-1108.539680017665
 20
341.344170295326
 10
-1108.608143799602
 20
341.4873248890157
 10
-1108.635389410464
 20
341.4999999999595
 10
-1108.635389410464
 20
341.4999999999595
  0
LWPOLYLINE
  5
2BC
330
1F
100
AcDbEntity
  8
0
  6
CONTINUOUS
 62
     7
100
AcDbPolyline
 90
        3
 70
     0
 43
0.0
 10
1113.800521306091
 20
168.9658078128968
 42
0.016856296532145
 10
1115.097817477427
 20
202.5186471393947
 42
0.0011245523782355
 10
1116.07476424831
 20
251.7115703059704
210
0.0
220
0.0
230
-1.0
  0
SPLINE
  5
2BD
330
1F
100
AcDbEntity
  8
0
  6
CONTINUOUS
 62
     7
100
AcDbSpline
210
0.0
220
0.0
230
1.0
 70
     8
 71
     3
 72
    19
 73
    15
 74
     0
 42
0.000000001
 43
0.0001
 40
0.6228503021697576
 40
0.6228503021697576
 40
0.6228503021697576
 40
0.6228503021697576
 40
0.6263399688607496
 40
0.633796397061473
 40
0.6412528252621961
 40
0.6487092534629194
 40
0.6561656816636428
 40
0.6636221098643659
 40
0.6710785380650892
 40
0.6785349662658124
 40
0.6859913944665357
 40
0.693447822667259
 40
0.7009042508679822
 40
0.7020644388313577
 40
0.7020644388313577
 40
0.7020644388313577
 40
0.7020644388313577
 10
-979.3064562433311
 20
165.5015884049592
 30
0.0
 10
-979.3775280455825
 20
165.5015167825677
 30
0.0
 10
-979.6004601363683
 20
166.3381703721278
 30
0.0
 10
-979.9752525156891
 20
172.1634128657134
 30
0.0
 10
-980.4308333812928
 20
185.985644172698
 30
0.0
 10
-980.8864142468956
 20
205.4243349235633
 30
0.0
 10
-981.3419951125004
 20
228.8975444200932
 30
0.0
 10
-981.7975759781035
 20
254.4949986682092
 30
0.0
 10
-982.2531568437071
 20
280.133550445457
 30
0.0
 10
-982.7087377093106
 20
303.7267079700814
 30
0.0
 10
-983.1643185749144
 20
323.3544357537897
 30
0.0
 10
-983.6198994405185
 20
337.4194090696997
 30
0.0
 10
-983.9472488213696
 20
342.7060770229289
 30
0.0
 10
-984.1227379136865
 20
343.9141066398836
 30
0.0
 10
-984.146366717469
 20
344.0472793620506
 30
0.0
  0
LINE
  5
2BE
330
1F
100
AcDbEntity
  8
0
  6
CONTINUOUS
 62
     7
100
AcDbLine
 10
-1116.107393081517
 20
253.487276527228
 30
0.0
 11
-1116.151077970682
 21
255.8644622643536
 31
0.0
  0
LWPOLYLINE
  5
2BF
330
1F
100
AcDbEntity
  8
0
  6
CONTINUOUS
 62
     7
100
AcDbPolyline
 90
        7
 70
     0
 43
0.0
 10
1033.800606776176
 20
168.9667637974106
 42
0.0160029844843875
 10
1035.151042365055
 20
204.8567720300285
 42
-0.0028543497078628
 10
1037.965306569237
 20
333.9480094014096
 10
1038.031345751793
 20
335.3442757815704
 10
1038.097287904309
 20
336.6027142479469
 10
1038.151087633946
 20
337.5271721683755
 10
1038.151087633946
 20
337.5271721683755
210
0.0
220
0.0
230
-1.0
  0
LINE
  5
2C0
330
1F
100
AcDbEntity
  8
0
  6
CONTINUOUS
 62
     7
100
AcDbLine
 10
-948.1512060766861
 20
344.4639179025864
 30
0.0
 11
-948.242666341708
 21
344.1723280658559
 31
0.0
  0
LWPOLYLINE
  5
2C1
330
1F
100
AcDbEntity
  8
0
  6
CONTINUOUS
 62
     7
100
AcDbPolyline
 90
        7
 70
     0
 43
0.0
 10
-953.8010601099145
 20
168.9680651588538
 42
-0.0161968751263607
 10
-955.1444057046083
 20
204.552347386893
 42
0.003051821501091
 10
-957.990833917282
 20
334.5051613941911
 42
0.0296571579347602
 10
-958.5479439642969
 20
341.3701707854504
 10
-958.6163100871647
 20
341.4938834924038
 10
-958.6351974063591
 20
341.4999999998645
 10
-958.6351974063591
 20
341.4999999998645
  0
SPLINE
  5
2C2
330
1F
100
AcDbEntity
  8
0
  6
CONTINUOUS
 62
     7
100
AcDbSpline
210
0.0
220
0.0
230
1.0
 70
     8
 71
     3
 72
    14
 73
    10
 74
     0
 42
0.000000001
 43
0.0001
 40
2.753156107241599
 40
2.753156107241599
 40
2.753156107241599
 40
2.753156107241599
 40
2.758878434267582
 40
2.766334862468305
 40
2.773791290669028
 40
2.781247718869751
 40
2.788704147070474
 40
2.796160575271197
 40
2.800373093888956
 40
2.800373093888956
 40
2.800373093888956
 40
2.800373093888956
 10
-1113.266170324787
 20
165.9511841125467
 30
0.0
 10
-1113.38271328743
 20
166.6090710409686
 30
0.0
 10
-1113.651116538608
 20
169.7729793687548
 30
0.0
 10
-1114.071380078322
 20
180.4406631279639
 30
0.0
 10
-1114.526960943925
 20
198.0725335780931
 30
0.0
 10
-1114.982541809529
 20
220.3372199484576
 30
0.0
 10
-1115.438122675132
 20
245.4227991031989
 30
0.0
 10
-1115.827636915808
 20
267.5369383132758
 30
0.0
 10
-1116.065290867948
 20
280.4883693542184
 30
0.0
 10
-1116.151084531553
 20
285.0333407017416
 30
0.0
  0
SPLINE
  5
2C3
330
1F
100
AcDbEntity
  8
0
  6
CONTINUOUS
 62
     7
100
AcDbSpline
210
0.0
220
0.0
230
1.0
 70
     8
 71
     3
 72
    18
 73
    14
 74
     0
 42
0.000000001
 43
0.0001
 40
2.589482525013648
 40
2.589482525013648
 40
2.589482525013648
 40
2.589482525013648
 40
2.594837013851671
 40
2.602293442052394
 40
2.609749870253117
 40
2.617206298453841
 40
2.624662726654564
 40
2.632119154855287
 40
2.63957558305601
 40
2.647032011256734
 40
2.654488439457457
 40
2.66194486765818
 40
2.668709746492291
 40
2.668709746492291
 40
2.668709746492291
 40
2.668709746492291
 10
-1103.265865854527
 20
165.949702896801
 30
0.0
 10
-1103.37491729283
 20
166.5640516802249
 30
0.0
 10
-1103.635829019669
 20
169.5321779397694
 30
0.0
 10
-1104.048601035041
 20
179.7083602711332
 30
0.0
 10
-1104.504181900646
 20
197.0672322741206
 30
0.0
 10
-1104.959762766249
 20
219.1407326541141
 30
0.0
 10
-1105.415343631853
 20
244.1324971882989
 30
0.0
 10
-1105.870924497456
 20
270.0086703077195
 30
0.0
 10
-1106.32650536306
 20
294.6634223607638
 30
0.0
 10
-1106.782086228665
 20
316.0903242017126
 30
0.0
 10
-1107.237667094266
 20
332.5456324636241
 30
0.0
 10
-1107.679163617674
 20
342.3765766428986
 30
0.0
 10
-1107.968799852546
 20
344.4994631646717
 30
0.0
 10
-1108.106575798883
 20
344.4998238876083
 30
0.0
  0
SPLINE
  5
2C4
330
1F
100
AcDbEntity
  8
0
  6
CONTINUOUS
 62
     7
100
AcDbSpline
210
0.0
220
0.0
230
1.0
 70
     8
 71
     3
 72
    19
 73
    15
 74
     0
 42
0.000000001
 43
0.0001
 40
1.443809375406163
 40
1.443809375406163
 40
1.443809375406163
 40
1.443809375406163
 40
1.446547070940304
 40
1.454003499141027
 40
1.46145992734175
 40
1.468916355542473
 40
1.476372783743196
 40
1.48382921194392
 40
1.491285640144643
 40
1.498742068345366
 40
1.506198496546089
 40
1.513654924746812
 40
1.521111352947536
 40
1.523031886317863
 40
1.523031886317863
 40
1.523031886317863
 40
1.523031886317863
 10
-1033.266296201805
 20
165.9524816266826
 30
0.0
 10
-1033.322053090029
 20
166.2665116529489
 30
0.0
 10
-1033.529670266787
 20
168.0446021467614
 30
0.0
 10
-1033.88914773208
 20
175.0220840770211
 30
0.0
 10
-1034.344728597683
 20
190.3736247814001
 30
0.0
 10
-1034.800309463287
 20
210.9845265428985
 30
0.0
 10
-1035.255890328892
 20
235.1774529224869
 30
0.0
 10
-1035.711471194494
 20
260.9835586239809
 30
0.0
 10
-1036.167052060097
 20
286.3027161544925
 30
0.0
 10
-1036.622632925702
 20
309.0744263654204
 30
0.0
 10
-1037.078213791305
 20
327.4455039979259
 30
0.0
 10
-1037.533794656908
 20
339.9208918102727
 30
0.0
 10
-1037.876629504766
 20
344.1082566061601
 30
0.0
 10
-1038.067604064089
 20
344.4998660600829
 30
0.0
 10
-1038.106718334878
 20
344.4990700012365
 30
0.0
  0
SPLINE
  5
2C5
330
1F
100
AcDbEntity
  8
0
  6
CONTINUOUS
 62
     7
100
AcDbSpline
210
0.0
220
0.0
230
1.0
 70
     8
 71
     3
 72
    19
 73
    15
 74
     0
 42
0.000000001
 43
0.0001
 40
1.280147134995334
 40
1.280147134995334
 40
1.280147134995334
 40
1.280147134995334
 40
1.282505650524393
 40
1.289962078725117
 40
1.29741850692584
 40
1.304874935126563
 40
1.312331363327286
 40
1.319787791528009
 40
1.327244219728733
 40
1.334700647929456
 40
1.342157076130179
 40
1.349613504330902
 40
1.357069932531625
 40
1.359355406806
 40
1.359355406806
 40
1.359355406806
 40
1.359355406806
 10
-1023.266684706081
 20
165.9544935411247
 30
0.0
 10
-1023.314719078452
 20
166.2255895470447
 30
0.0
 10
-1023.514613739359
 20
167.8590148808046
 30
0.0
 10
-1023.8663686888
 20
174.4170966852223
 30
0.0
 10
-1024.321949554403
 20
189.4688175775958
 30
0.0
 10
-1024.777530420006
 20
209.8535336703592
 30
0.0
 10
-1025.233111285611
 20
233.9123157474435
 30
0.0
 10
-1025.688692151214
 20
259.6872353143312
 30
0.0
 10
-1026.144273016818
 20
285.0807028379261
 30
0.0
 10
-1026.599853882421
 20
308.0261717457631
 30
0.0
 10
-1027.055434748025
 20
326.6563161170712
 30
0.0
 10
-1027.511015613629
 20
339.4549955917637
 30
0.0
 10
-1027.861282978704
 20
344.0108498051392
 30
0.0
 10
-1028.059690055245
 20
344.498951678878
 30
0.0
 10
-1028.106236843252
 20
344.4988502301204
 30
0.0
  0
LWPOLYLINE
  5
2C6
330
1F
100
AcDbEntity
  8
0
  6
CONTINUOUS
 62
     7
100
AcDbPolyline
 90
        7
 70
     0
 43
0.0
 10
-1013.800921326031
 20
168.9681373098207
 42
-0.0163815197404529
 10
-1015.13076459819
 20
203.9614515014781
 42
0.0026883048086442
 10
-1017.942638155029
 20
333.4355334848392
 42
0.0302048988325885
 10
-1018.545612726075
 20
341.3625487934151
 10
-1018.611833799362
 20
341.490654160155
 10
-1018.635193945256
 20
341.4999999999349
 10
-1018.635193945256
 20
341.4999999999349
  0
LWPOLYLINE
  5
2C7
330
1F
100
AcDbEntity
  8
0
  6
CONTINUOUS
 62
     7
100
AcDbPolyline
 90
        7
 70
     0
 43
0.0
 10
-983.7999571568481
 20
168.9620472965631
 42
-0.0163369297435016
 10
-985.1340936907782
 20
204.1022521706984
 42
0.0027122233715878
 10
-987.9458691394059
 20
333.5075854044439
 42
0.0301586656606813
 10
-988.5448112225614
 20
341.3604520190369
 10
-988.6130815450398
 20
341.4916420448283
 10
-988.6351486937157
 20
341.4999999998988
 10
-988.6351486937157
 20
341.4999999998988
  0
LWPOLYLINE
  5
2C8
330
1F
100
AcDbEntity
  8
0
  6
CONTINUOUS
 62
     7
100
AcDbPolyline
 90
        5
 70
     0
 43
0.0
 10
-973.8003320020196
 20
168.9639947608465
 42
-0.0158565067859173
 10
-975.153869293191
 20
204.9722601109419
 42
0.0028533149010386
 10
-977.9641261920724
 20
333.9195221116033
 42
0.0350734110782596
 10
-978.568770345865
 20
341.4246922200959
 10
-978.6351579388793
 20
341.4999999999936
  0
LWPOLYLINE
  5
2C9
330
1F
100
AcDbEntity
  8
0
  6
CONTINUOUS
 62
     7
100
AcDbPolyline
 90
        7
 70
     0
 43
0.0
 10
-1003.800937618379
 20
168.9679947520179
 42
-0.0159063907723355
 10
-1005.15054211858
 20
204.8302185444651
 42
0.0028589703555969
 10
-1007.968624599532
 20
334.0190572136868
 42
0.0342404141734384
 10
-1008.565664219663
 20
341.4172486880615
 10
-1008.63340619163
 20
341.4999467217424
 10
-1008.635170293002
 20
341.4999999999903
 10
-1008.635170293002
 20
341.4999999999903
  0
SPLINE
  5
2CA
330
1F
100
AcDbEntity
  8
0
  6
CONTINUOUS
 62
     7
100
AcDbSpline
210
0.0
220
0.0
230
1.0
 70
     8
 71
     3
 72
    19
 73
    15
 74
     0
 42
0.000000001
 43
0.0001
 40
1.116477064598226
 40
1.116477064598226
 40
1.116477064598226
 40
1.116477064598226
 40
1.118464230108483
 40
1.125920658309207
 40
1.13337708650993
 40
1.140833514710653
 40
1.148289942911376
 40
1.155746371112099
 40
1.163202799312823
 40
1.170659227513546
 40
1.178115655714269
 40
1.185572083914992
 40
1.193028512115715
 40
1.195692935957597
 40
1.195692935957597
 40
1.195692935957597
 40
1.195692935957597
 10
-1013.266594805438
 20
165.9537690032419
 30
0.0
 10
-1013.307066130264
 20
166.1819982855461
 30
0.0
 10
-1013.499397743624
 20
167.6765645257015
 30
0.0
 10
-1013.84358964552
 20
173.8286162189929
 30
0.0
 10
-1014.299170511122
 20
188.5774340443996
 30
0.0
 10
-1014.754751376727
 20
208.7317887813094
 30
0.0
 10
-1015.210332242331
 20
232.6514982583397
 30
0.0
 10
-1015.665913107934
 20
258.3899518525743
 30
0.0
 10
-1016.121493973537
 20
283.8525276693736
 30
0.0
 10
-1016.577074839141
 20
306.9670550321109
 30
0.0
 10
-1017.032655704745
 20
325.8524498686212
 30
0.0
 10
-1017.488236570348
 20
338.9717992727518
 30
0.0
 10
-1017.846221758101
 20
343.9109119393311
 30
0.0
 10
-1018.05234665732
 20
344.4993921170195
 30
0.0
 10
-1018.106611268005
 20
344.4986569159635
 30
0.0
  0
ARC
  5
2CB
330
1F
100
AcDbEntity
  8
0
  6
CONTINUOUS
 62
     7
100
AcDbCircle
 10
1099.788714686658
 20
165.9244745997898
 30
0.0
 40
0.6424367178290236
210
0.0
220
0.0
230
-1.0
100
AcDbArc
 50
177.6205433929964
 51
221.3425546437736
  0
SPLINE
  5
2CC
330
1F
100
AcDbEntity
  8
0
  6
CONTINUOUS
 62
     7
100
AcDbSpline
210
0.0
220
0.0
230
1.0
 70
     8
 71
     3
 72
     9
 73
     5
 74
     0
 42
0.000000001
 43
0.0001
 40
2.338754903746427
 40
2.338754903746427
 40
2.338754903746427
 40
2.338754903746427
 40
2.341318455027082
 40
2.341371613544059
 40
2.341371613544059
 40
2.341371613544059
 40
2.341371613544059
 10
-1084.146640127052
 20
344.0479897078318
 30
0.0
 10
-1084.198850331009
 20
344.342685311772
 30
0.0
 10
-1084.252143180371
 20
344.4971200251754
 30
0.0
 10
-1084.305436029733
 20
344.4999982957872
 30
0.0
 10
-1084.306518675138
 20
344.4999942384504
 30
0.0
  0
ARC
  5
2CD
330
1F
100
AcDbEntity
  8
0
  6
CONTINUOUS
 62
     7
100
AcDbCircle
 10
1030.223656713176
 20
166.0799519731037
 30
0.0
 40
1.084772464063887
210
0.0
220
0.0
230
-1.0
100
AcDbArc
 50
186.796536068706
 51
212.2532722763127
  0
ARC
  5
2CE
330
1F
100
AcDbEntity
  8
0
  6
CONTINUOUS
 62
     7
100
AcDbCircle
 10
-994.7835701420373
 20
344.0749121494333
 30
0.0
 40
0.6379946221292505
100
AcDbArc
 50
357.4548601259858
 51
41.59144052907635
  0
LWPOLYLINE
  5
2CF
330
1F
100
AcDbEntity
  8
0
  6
CONTINUOUS
 62
     7
100
AcDbPolyline
 90
        7
 70
     0
 43
0.0
 10
-1083.800552258765
 20
168.9665523957558
 42
-0.0168978647386195
 10
-1085.100902912913
 20
202.6572710327338
 42
0.002466849019146
 10
-1087.913936707834
 20
332.7693563370162
 42
0.0261252283639553
 10
-1088.519415511913
 20
341.2708779760085
 10
-1088.587871674154
 20
341.4614517520646
 10
-1088.63542573056
 20
341.4999999998929
 10
-1088.63542573056
 20
341.4999999998929
  0
ARC
  5
2D0
330
1F
100
AcDbEntity
  8
0
  6
CONTINUOUS
 62
     7
100
AcDbCircle
 10
-1025.344971325336
 20
343.8769156159518
 30
0.0
 40
1.210686227939659
100
AcDbArc
 50
8.140829218662848
 51
30.91040047135181
  0
SPLINE
  5
2D1
330
1F
100
AcDbEntity
  8
0
  6
CONTINUOUS
 62
     7
100
AcDbSpline
210
0.0
220
0.0
230
1.0
 70
     8
 71
     3
 72
    18
 73
    14
 74
     0
 42
0.000000001
 43
0.0001
 40
0.1344656818239449
 40
0.1344656818239449
 40
0.1344656818239449
 40
0.1344656818239449
 40
0.1416721358137408
 40
0.149128564014464
 40
0.1565849922151872
 40
0.1640414204159104
 40
0.1714978486166336
 40
0.1789542768173568
 40
0.18641070501808
 40
0.1938671332188031
 40
0.2013235614195264
 40
0.2087799896202495
 40
0.213678160942579
 40
0.213678160942579
 40
0.213678160942579
 40
0.213678160942579
 10
-953.2666077132881
 20
165.9528810924954
 30
0.0
 10
-953.4133769374787
 20
166.7825688628978
 30
0.0
 10
-953.7120064501854
 20
170.7947123945248
 30
0.0
 10
-954.162496251443
 20
183.521058076911
 30
0.0
 10
-954.6180771170453
 20
202.2082564284629
 30
0.0
 10
-955.0736579826493
 20
225.1917013099776
 30
0.0
 10
-955.5292388482529
 20
250.6009762767964
 30
0.0
 10
-955.9848197138564
 20
276.3682483304216
 30
0.0
 10
-956.4404005794602
 20
300.3965503002736
 30
0.0
 10
-956.895981445064
 20
320.7304341943906
 30
0.0
 10
-957.3515623106673
 20
335.7151075734482
 30
0.0
 10
-957.7550408000075
 20
343.1686094238622
 30
0.0
 10
-958.0066590008126
 20
344.4978589830425
 30
0.0
 10
-958.1064169130833
 20
344.4987071714652
 30
0.0
  0
SPLINE
  5
2D2
330
1F
100
AcDbEntity
  8
0
  6
CONTINUOUS
 62
     7
100
AcDbSpline
210
0.0
220
0.0
230
1.0
 70
     8
 71
     3
 72
     9
 73
     5
 74
     0
 42
0.000000001
 43
0.0001
 40
2.256920998797663
 40
2.256920998797663
 40
2.256920998797663
 40
2.256920998797663
 40
2.259297744819127
 40
2.259535321108389
 40
2.259535321108389
 40
2.259535321108389
 40
2.259535321108389
 10
-1079.146664233947
 20
165.9517779042893
 30
0.0
 10
-1079.195069895059
 20
165.6785544396557
 30
0.0
 10
-1079.248314120007
 20
165.5136499730986
 30
0.0
 10
-1079.301558344955
 20
165.5000194895286
 30
0.0
 10
-1079.306396908791
 20
165.5000285618737
 30
0.0
  0
SPLINE
  5
2D3
330
1F
100
AcDbEntity
  8
0
  6
CONTINUOUS
 62
     7
100
AcDbSpline
210
0.0
220
0.0
230
1.0
 70
     8
 71
     3
 72
    18
 73
    14
 74
     0
 42
0.000000001
 43
0.0001
 40
2.425815760831263
 40
2.425815760831263
 40
2.425815760831263
 40
2.425815760831263
 40
2.43079559343576
 40
2.438252021636484
 40
2.445708449837207
 40
2.45316487803793
 40
2.460621306238653
 40
2.468077734439377
 40
2.4755341626401
 40
2.482990590840823
 40
2.490447019041546
 40
2.497903447242269
 40
2.505033936499014
 40
2.505033936499014
 40
2.505033936499014
 40
2.505033936499014
 10
-1093.265977960545
 20
165.9505448699579
 30
0.0
 10
-1093.367399015749
 20
166.5221559910558
 30
0.0
 10
-1093.620680359488
 20
169.3012292164818
 30
0.0
 10
-1094.025821991761
 20
178.9914804561877
 30
0.0
 10
-1094.481402857364
 20
196.0737981509715
 30
0.0
 10
-1094.936983722969
 20
217.9515909161193
 30
0.0
 10
-1095.392564588573
 20
242.8444214163235
 30
0.0
 10
-1095.848145454175
 20
268.7264854363326
 30
0.0
 10
-1096.303726319781
 20
293.4914739169703
 30
0.0
 10
-1096.759307185383
 20
315.123986558365
 30
0.0
 10
-1097.214888050987
 20
331.8635471746124
 30
0.0
 10
-1097.663830727267
 20
342.1951077774848
 30
0.0
 10
-1097.960913115011
 20
344.4978082400262
 30
0.0
 10
-1098.106135214222
 20
344.4999583879483
 30
0.0
  0
SPLINE
  5
2D4
330
1F
100
AcDbEntity
  8
0
  6
CONTINUOUS
 62
     7
100
AcDbSpline
210
0.0
220
0.0
230
1.0
 70
     8
 71
     3
 72
    18
 73
    14
 74
     0
 42
0.000000001
 43
0.0001
 40
1.277522754506212
 40
1.277522754506212
 40
1.277522754506212
 40
1.277522754506212
 40
1.282505650524393
 40
1.289962078725117
 40
1.29741850692584
 40
1.304874935126563
 40
1.312331363327286
 40
1.319787791528009
 40
1.327244219728733
 40
1.334700647929456
 40
1.342157076130179
 40
1.349613504330902
 40
1.356740773764945
 40
1.356740773764945
 40
1.356740773764945
 40
1.356740773764945
 10
-1019.306337485851
 20
165.5012594185108
 30
0.0
 10
-1019.407820931636
 20
165.5017551665285
 30
0.0
 10
-1019.661164665955
 20
166.8625246462557
 30
0.0
 10
-1020.06636868881
 20
174.4171045445791
 30
0.0
 10
-1020.521949554413
 20
189.4688239689385
 30
0.0
 10
-1020.977530420016
 20
209.8535380735536
 30
0.0
 10
-1021.433111285621
 20
233.9123178041531
 30
0.0
 10
-1021.888692151224
 20
259.687234857179
 30
0.0
 10
-1022.344273016828
 20
285.0806999041154
 30
0.0
 10
-1022.799853882431
 20
308.0261665740507
 30
0.0
 10
-1023.255434748035
 20
326.6563091283362
 30
0.0
 10
-1023.704311848252
 20
339.2666578120345
 30
0.0
 10
-1024.001328659934
 20
343.2287956714665
 30
0.0
 10
-1024.146485183082
 20
344.04835688679
 30
0.0
  0
LWPOLYLINE
  5
2D5
330
1F
100
AcDbEntity
  8
0
  6
CONTINUOUS
 62
     7
100
AcDbPolyline
 90
        7
 70
     0
 43
0.0
 10
-1093.800263822255
 20
168.9647738028596
 42
-0.015952264053834
 10
-1095.14469221998
 20
204.5731967562552
 42
0.0028097735044303
 10
-1097.95874961121
 20
333.8049601120878
 42
0.0329302293761712
 10
-1098.561873103533
 20
341.4079075655234
 10
-1098.627911900134
 20
341.4990403719269
 10
-1098.63541298814
 20
341.499999999914
 10
-1098.63541298814
 20
341.499999999914
  0
LINE
  5
2D6
330
1F
100
AcDbEntity
  8
0
  6
CONTINUOUS
 62
     7
100
AcDbLine
 10
-1076.151073557988
 20
255.8641782036694
 30
0.0
 11
-1076.18097347807
 21
257.4869704101085
 31
0.0
  0
LWPOLYLINE
  5
2D7
330
1F
100
AcDbEntity
  8
0
  6
CONTINUOUS
 62
     7
100
AcDbPolyline
 90
        3
 70
     0
 43
0.0
 10
-948.151084531553
 20
337.5300980670275
 42
0.0511776903350642
 10
-948.5750557546786
 20
341.4383091186392
 10
-948.6352391554451
 20
341.4999999999393
  0
SPLINE
  5
2D8
330
1F
100
AcDbEntity
  8
0
  6
CONTINUOUS
 62
     7
100
AcDbSpline
210
0.0
220
0.0
230
1.0
 70
     8
 71
     3
 72
     8
 73
     4
 74
     0
 42
0.000000001
 43
0.0001
 40
0.0522395417752473
 40
0.0522395417752473
 40
0.0522395417752473
 40
0.0522395417752473
 40
0.0523153046904187
 40
0.0523153046904187
 40
0.0523153046904187
 40
0.0523153046904187
 10
-948.2426663417078
 20
344.1723280658559
 30
0.0
 10
-948.2442091963435
 20
344.164909969361
 30
0.0
 10
-948.2457520538322
 20
344.1573653018016
 30
0.0
 10
-948.2472949141369
 20
344.1496941462671
 30
0.0
  0
SPLINE
  5
2D9
330
1F
100
AcDbEntity
  8
0
  6
CONTINUOUS
 62
     7
100
AcDbSpline
210
0.0
220
0.0
230
1.0
 70
     8
 71
     3
 72
    19
 73
    15
 74
     0
 42
0.000000001
 43
0.0001
 40
0.7891414233749248
 40
0.7891414233749248
 40
0.7891414233749248
 40
0.7891414233749248
 40
0.7903813892766615
 40
0.7978378174773847
 40
0.8052942456781079
 40
0.8127506738788312
 40
0.8202071020795545
 40
0.8276635302802777
 40
0.8351199584810011
 40
0.8425763866817244
 40
0.8500328148824476
 40
0.857489243083171
 40
0.8649456712838942
 40
0.8683525372418928
 40
0.8683525372418928
 40
0.8683525372418928
 40
0.8683525372418928
 10
-993.2666899237719
 20
165.953822309802
 30
0.0
 10
-993.2919435136331
 20
166.0963135032144
 30
0.0
 10
-993.469057392029
 20
167.3317805798242
 30
0.0
 10
-993.7980315589591
 20
172.7016548440103
 30
0.0
 10
-994.253612424563
 20
186.8356655809964
 30
0.0
 10
-994.7091932901668
 20
206.5169601431252
 30
0.0
 10
-995.1647741557698
 20
230.1438544838509
 30
0.0
 10
-995.6203550213736
 20
255.7935675779962
 30
0.0
 10
-996.0759358869774
 20
281.3786993243282
 30
0.0
 10
-996.531516752581
 20
304.8171053182943
 30
0.0
 10
-996.9870976181847
 20
324.2013439107437
 30
0.0
 10
-997.4426784837882
 20
337.953905776262
 30
0.0
 10
-997.8157845137115
 20
343.6880619115777
 30
0.0
 10
-998.0370302551
 20
344.4985503555503
 30
0.0
 10
-998.1064157079539
 20
344.4984309536681
 30
0.0
  0
LINE
  5
2DA
330
1F
100
AcDbEntity
  8
0
  6
CONTINUOUS
 62
     7
100
AcDbLine
 10
-1116.074764248309
 20
251.7115703059704
 30
0.0
 11
-1116.107393081517
 21
253.4872765272279
 31
0.0
  0
SPLINE
  5
2DB
330
1F
100
AcDbEntity
  8
0
  6
CONTINUOUS
 62
     7
100
AcDbSpline
210
0.0
220
0.0
230
1.0
 70
     8
 71
     3
 72
    19
 73
    15
 74
     0
 42
0.000000001
 43
0.0001
 40
0.4591830620592712
 40
0.4591830620592712
 40
0.4591830620592712
 40
0.4591830620592712
 40
0.4622985484448379
 40
0.4697549766455612
 40
0.4772114048462844
 40
0.4846678330470077
 40
0.492124261247731
 40
0.4995806894484542
 40
0.5070371176491776
 40
0.5144935458499006
 40
0.5219499740506239
 40
0.5294064022513472
 40
0.5368628304520704
 40
0.5383943315087114
 40
0.5383943315087114
 40
0.5383943315087114
 40
0.5383943315087114
 10
-969.3065392705823
 20
165.5015162998002
 30
0.0
 10
-969.3699903826565
 20
165.5014684198172
 30
0.0
 10
-969.5853017832652
 20
166.2230811036965
 30
0.0
 10
-969.9524734724092
 20
171.6421314399653
 30
0.0
 10
-970.4080543380119
 20
185.1497532940802
 30
0.0
 10
-970.8636352036164
 20
204.3418602537375
 30
0.0
 10
-971.3192160692195
 20
227.6565788639222
 30
0.0
 10
-971.7747969348231
 20
253.1965332823212
 30
0.0
 10
-972.230377800427
 20
278.8832556819149
 30
0.0
 10
-972.6859586660307
 20
302.626334106029
 30
0.0
 10
-973.1415395316345
 20
322.4935323489748
 30
0.0
 10
-973.5971203972375
 20
336.8680373309566
 30
0.0
 10
-973.9320320735965
 20
342.537368369297
 30
0.0
 10
-974.1150834614205
 20
343.87064234324
 30
0.0
 10
-974.1462745607099
 20
344.0465190591311
 30
0.0
  0
SPLINE
  5
2DC
330
1F
100
AcDbEntity
  8
0
  6
CONTINUOUS
 62
     7
100
AcDbSpline
210
0.0
220
0.0
230
1.0
 70
     8
 71
     3
 72
    19
 73
    15
 74
     0
 42
0.000000001
 43
0.0001
 40
0.7865200872836089
 40
0.7865200872836089
 40
0.7865200872836089
 40
0.7865200872836089
 40
0.7903813892766615
 40
0.7978378174773847
 40
0.8052942456781079
 40
0.8127506738788312
 40
0.8202071020795545
 40
0.8276635302802777
 40
0.8351199584810011
 40
0.8425763866817244
 40
0.8500328148824476
 40
0.857489243083171
 40
0.8649456712838942
 40
0.8657303889344601
 40
0.8657303889344601
 40
0.8657303889344601
 40
0.8657303889344601
 10
-989.3065287134312
 20
165.501597564874
 30
0.0
 10
-989.3851693734093
 20
165.5019375182356
 30
0.0
 10
-989.615670321922
 20
166.4603473736379
 30
0.0
 10
-989.9980315589692
 20
172.7016628706764
 30
0.0
 10
-990.4536124245731
 20
186.8356722291538
 30
0.0
 10
-990.9091932901769
 20
206.51696487174
 30
0.0
 10
-991.3647741557799
 20
230.1438569081036
 30
0.0
 10
-991.8203550213836
 20
255.7935675005986
 30
0.0
 10
-992.2759358869874
 20
281.3786967515789
 30
0.0
 10
-992.731516752591
 20
304.8171004595663
 30
0.0
 10
-993.1870976181948
 20
324.2013371614454
 30
0.0
 10
-993.6426784837982
 20
337.9538976856582
 30
0.0
 10
-993.9623809017203
 20
342.8673090362669
 30
0.0
 10
-994.1302230311074
 20
343.9563879121805
 30
0.0
 10
-994.14620487196
 20
344.046581064645
 30
0.0
  0
SPLINE
  5
2DD
330
1F
100
AcDbEntity
  8
0
  6
CONTINUOUS
 62
     7
100
AcDbSpline
210
0.0
220
0.0
230
1.0
 70
     8
 71
     3
 72
    13
 73
     9
 74
     0
 42
0.000000001
 43
0.0001
 40
2.145698697865477
 40
2.145698697865477
 40
2.145698697865477
 40
2.145698697865477
 40
2.147451321808278
 40
2.154907750009002
 40
2.162364178209725
 40
2.169820606410448
 40
2.177277034611171
 40
2.177699087537156
 40
2.177699087537156
 40
2.177699087537156
 40
2.177699087537156
 10
-1076.151084531553
 20
285.0336648950316
 30
0.0
 10
-1076.186779098775
 20
286.9246457330088
 30
0.0
 10
-1076.374333954531
 20
296.7415584409407
 30
0.0
 10
-1076.713749098823
 20
313.1545636263517
 30
0.0
 10
-1077.169329964426
 20
330.4522844297979
 30
0.0
 10
-1077.624910830029
 20
341.6096205209883
 30
0.0
 10
-1077.93722708822
 20
344.426450236517
 30
0.0
 10
-1078.097683057876
 20
344.4999293149853
 30
0.0
 10
-1078.106278738997
 20
344.499931451814
 30
0.0
  0
SPLINE
  5
2DE
330
1F
100
AcDbEntity
  8
0
  6
CONTINUOUS
 62
     7
100
AcDbSpline
210
0.0
220
0.0
230
1.0
 70
     8
 71
     3
 72
    19
 73
    15
 74
     0
 42
0.000000001
 43
0.0001
 40
0.2981323141868897
 40
0.2981323141868897
 40
0.2981323141868897
 40
0.2981323141868897
 40
0.2982571280289278
 40
0.305713556229651
 40
0.3131699844303742
 40
0.3206264126310974
 40
0.3280828408318206
 40
0.3355392690325438
 40
0.342995697233267
 40
0.3504521254339902
 40
0.3579085536347134
 40
0.3653649818354365
 40
0.3728214100361598
 40
0.3773467718981289
 40
0.3773467718981289
 40
0.3773467718981289
 40
0.3773467718981289
 10
-963.2664875532236
 20
165.9521875987219
 30
0.0
 10
-963.2690295566539
 20
165.966533881051
 30
0.0
 10
-963.423431848619
 20
166.8587571946895
 30
0.0
 10
-963.7296944291187
 20
171.1379171956348
 30
0.0
 10
-964.1852752947223
 20
184.3281639278306
 30
0.0
 10
-964.6408561603257
 20
203.269757555405
 30
0.0
 10
-965.0964370259295
 20
226.4212116566354
 30
0.0
 10
-965.5520178915333
 20
251.8984370233023
 30
0.0
 10
-966.0075987571363
 20
277.628070783302
 30
0.0
 10
-966.4631796227405
 20
301.5162088092014
 30
0.0
 10
-966.918760488344
 20
321.6188097953325
 30
0.0
 10
-967.3743413539474
 20
336.2999033439193
 30
0.0
 10
-967.770227072232
 20
343.3079862475445
 30
0.0
 10
-968.0142525019821
 20
344.4979714504243
 30
0.0
 10
-968.1064176431975
 20
344.4985503762538
 30
0.0
  0
SPLINE
  5
2DF
330
1F
100
AcDbEntity
  8
0
  6
CONTINUOUS
 62
     7
100
AcDbSpline
210
0.0
220
0.0
230
1.0
 70
     8
 71
     3
 72
    19
 73
    15
 74
     0
 42
0.000000001
 43
0.0001
 40
0.952808029428521
 40
0.952808029428521
 40
0.952808029428521
 40
0.952808029428521
 40
0.9544228096925732
 40
0.9618792378932965
 40
0.9693356660940197
 40
0.9767920942947429
 40
0.984248522495466
 40
0.9917049506961891
 40
0.9991613788969125
 40
1.006617807097635
 40
1.014074235298359
 40
1.021530663499082
 40
1.028987091699805
 40
1.032019998162057
 40
1.032019998162057
 40
1.032019998162057
 40
1.032019998162057
 10
-1003.266568156231
 20
165.9533786615798
 30
0.0
 10
-1003.299455349699
 20
166.1387889882241
 30
0.0
 10
-1003.484202831702
 20
167.5006877092862
 30
0.0
 10
-1003.820810602239
 20
173.2567632250351
 30
0.0
 10
-1004.276391467843
 20
187.699656776394
 30
0.0
 10
-1004.731972333446
 20
207.6195216584782
 30
0.0
 10
-1005.18755319905
 20
231.3952587260934
 30
0.0
 10
-1005.643134064654
 20
257.0919739794637
 30
0.0
 10
-1006.098714930257
 20
282.61844223317
 30
0.0
 10
-1006.554295795861
 20
305.8972931781842
 30
0.0
 10
-1007.009876661465
 20
325.0340699197675
 30
0.0
 10
-1007.465457527068
 20
338.4714018331114
 30
0.0
 10
-1007.830947363904
 20
343.8018274060335
 30
0.0
 10
-1008.044576912204
 20
344.4986337270277
 30
0.0
 10
-1008.10634617197
 20
344.4985166156272
 30
0.0
  0
ARC
  5
2E0
330
1F
100
AcDbEntity
  8
0
  6
CONTINUOUS
 62
     7
100
AcDbCircle
 10
1109.787936260399
 20
165.924918805165
 30
0.0
 40
0.6418679170315896
210
0.0
220
0.0
230
-1.0
100
AcDbArc
 50
177.5599910655611
 51
221.4195956622485
  0
SPLINE
  5
2E1
330
1F
100
AcDbEntity
  8
0
  6
CONTINUOUS
 62
     7
100
AcDbSpline
210
0.0
220
0.0
230
1.0
 70
     8
 71
     3
 72
    19
 73
    15
 74
     0
 42
0.000000001
 43
0.0001
 40
0.2955093587756521
 40
0.2955093587756521
 40
0.2955093587756521
 40
0.2955093587756521
 40
0.2982571280289278
 40
0.305713556229651
 40
0.3131699844303742
 40
0.3206264126310974
 40
0.3280828408318206
 40
0.3355392690325438
 40
0.342995697233267
 40
0.3504521254339902
 40
0.3579085536347134
 40
0.3653649818354365
 40
0.3728214100361598
 40
0.3747238266828561
 40
0.3747238266828561
 40
0.3747238266828561
 40
0.3747238266828561
 10
-959.3062274039337
 20
165.5013883185215
 30
0.0
 10
-959.3621894571306
 20
165.5005971337486
 30
0.0
 10
-959.5700117988623
 20
166.1123705981095
 30
0.0
 10
-959.9296944291286
 20
171.1379253748143
 30
0.0
 10
-960.3852752947324
 20
184.3281708205479
 30
0.0
 10
-960.8408561603358
 20
203.2697626007238
 30
0.0
 10
-961.2964370259396
 20
226.4212144439624
 30
0.0
 10
-961.7520178915432
 20
251.8984373258019
 30
0.0
 10
-962.2075987571463
 20
277.6280685763564
 30
0.0
 10
-962.6631796227505
 20
301.5162042724142
 30
0.0
 10
-963.118760488354
 20
321.6188032979121
 30
0.0
 10
-963.5743413539575
 20
336.2998954146324
 30
0.0
 10
-963.9168072301302
 20
342.3623243100268
 30
0.0
 10
-964.1074128177682
 20
343.8269737525462
 30
0.0
 10
-964.1461581168717
 20
344.0456195784662
 30
0.0
  0
ARC
  5
2E2
330
1F
100
AcDbEntity
  8
0
  6
CONTINUOUS
 62
     7
100
AcDbCircle
 10
-1104.789573055922
 20
344.074367412341
 30
0.0
 40
0.6436552921206581
100
AcDbArc
 50
357.5584937265613
 51
41.37518645313173
  0
LINE
  5
2E3
330
1F
100
AcDbEntity
  8
0
  6
CONTINUOUS
 62
     7
100
AcDbLine
 10
-1094.146458186324
 20
344.0468042614805
 30
0.0
 11
-1094.30613521454
 21
344.4999496589039
 31
0.0
  0
ARC
  5
2E4
330
1F
100
AcDbEntity
  8
0
  6
CONTINUOUS
 62
     7
100
AcDbCircle
 10
-1035.105573862025
 20
343.9610789284038
 30
0.0
 40
0.9631174059034998
100
AcDbArc
 50
5.137219596006209
 51
33.95795494603855
  0
SPLINE
  5
2E5
330
1F
100
AcDbEntity
  8
0
  6
CONTINUOUS
 62
     7
100
AcDbSpline
210
0.0
220
0.0
230
1.0
 70
     8
 71
     3
 72
     9
 73
     5
 74
     0
 42
0.000000001
 43
0.0001
 40
1.274908707660767
 40
1.274908707660767
 40
1.274908707660767
 40
1.274908707660767
 40
1.27504922232367
 40
1.277522754506212
 40
1.277522754506212
 40
1.277522754506212
 40
1.277522754506212
 10
-1019.14662164168
 20
165.9508395424689
 30
0.0
 10
-1019.149483413654
 20
165.9347021124082
 30
0.0
 10
-1019.202722028377
 20
165.6425746395911
 30
0.0
 10
-1019.255960643101
 20
165.5010133269464
 30
0.0
 10
-1019.306337485851
 20
165.5012594185108
 30
0.0
  0
LINE
  5
2E6
330
1F
100
AcDbEntity
  8
0
  6
CONTINUOUS
 62
     7
100
AcDbLine
 10
-1004.147346208649
 20
344.0531623174131
 30
0.0
 11
-1004.30634617198
 21
344.4985078867188
 31
0.0
  0
LINE
  5
2E7
330
1F
100
AcDbEntity
  8
0
  6
CONTINUOUS
 62
     7
100
AcDbLine
 10
-1076.18097347807
 20
257.4869704101085
 30
0.0
 11
-1076.183605585352
 21
257.6297559991464
 31
0.0
  0
LWPOLYLINE
  5
2E8
330
1F
100
AcDbEntity
  8
0
  6
CONTINUOUS
 62
     7
100
AcDbPolyline
 90
        6
 70
     0
 43
0.0
 10
-1076.183605585351
 20
257.6297559991464
 42
0.0075658318272945
 10
-1078.274445839818
 20
339.2866290758771
 42
0.0398683437059542
 10
-1078.539200826644
 20
341.3422093121995
 10
-1078.605661143745
 20
341.4848553171519
 10
-1078.635411021056
 20
341.4999999999905
 10
-1078.635411021056
 20
341.4999999999905
  0
LINE
  5
2E9
330
1F
100
AcDbEntity
  8
0
  6
CONTINUOUS
 62
     7
100
AcDbLine
 10
-948.2472949141369
 20
344.1496941462671
 30
0.0
 11
-948.2655402508464
 21
344.0530872203617
 31
0.0
  0
LWPOLYLINE
  5
2EA
330
1F
100
AcDbEntity
  8
0
  6
CONTINUOUS
 62
     7
100
AcDbPolyline
 90
        7
 70
     0
 43
0.0
 10
-993.8011352268421
 20
168.9688766642091
 42
-0.0166830013728228
 10
-995.110491707937
 20
203.0744090619542
 42
0.0025193957374649
 10
-997.9199621658396
 20
332.9071439035127
 42
0.0268481009712482
 10
-998.5233187689057
 20
341.2859188103202
 10
-998.5896038392809
 20
341.4645108723739
 10
-998.6351581419394
 20
341.4999999999064
 10
-998.6351581419394
 20
341.4999999999064
  0
ARC
  5
2EB
330
1F
100
AcDbEntity
  8
0
  6
CONTINUOUS
 62
     7
100
AcDbCircle
 10
1009.777562130757
 20
165.9223849392995
 30
0.0
 40
0.6317159401393891
210
0.0
220
0.0
230
-1.0
100
AcDbArc
 50
177.3622792445875
 51
221.7874755153201
  0
ARC
  5
2EC
330
1F
100
AcDbEntity
  8
0
  6
CONTINUOUS
 62
     7
100
AcDbCircle
 10
999.7830523980291
 20
165.9245877533322
 30
0.0
 40
0.6373613194106942
210
0.0
220
0.0
230
-1.0
100
AcDbArc
 50
177.4698988423163
 51
221.5861041514563
  0
ARC
  5
2ED
330
1F
100
AcDbEntity
  8
0
  6
CONTINUOUS
 62
     7
100
AcDbCircle
 10
989.78122848113
 20
165.92408664057
 30
0.0
 40
0.635481619353156
210
0.0
220
0.0
230
-1.0
100
AcDbArc
 50
177.4359157378143
 51
221.6695057430547
  0
ARC
  5
2EE
330
1F
100
AcDbEntity
  8
0
  6
CONTINUOUS
 62
     7
100
AcDbCircle
 10
-984.7839649628756
 20
344.0750522975708
 30
0.0
 40
0.6382028349147042
100
AcDbArc
 50
357.5058483280764
 51
41.55525687115637
  0
ARC
  5
2EF
330
1F
100
AcDbEntity
  8
0
  6
CONTINUOUS
 62
     7
100
AcDbCircle
 10
-1014.770836236249
 20
344.0811091482465
 30
0.0
 40
0.6243746189805466
100
AcDbArc
 50
357.3340639833102
 51
41.96924450428292
  0
ARC
  5
2F0
330
1F
100
AcDbEntity
  8
0
  6
CONTINUOUS
 62
     7
100
AcDbCircle
 10
1089.785432869256
 20
165.923890328841
 30
0.0
 40
0.6394267304084355
210
0.0
220
0.0
230
-1.0
100
AcDbArc
 50
177.4671404696172
 51
221.5215786493111
  0
ARC
  5
2F1
330
1F
100
AcDbEntity
  8
0
  6
CONTINUOUS
 62
     7
100
AcDbCircle
 10
979.7775806811966
 20
165.9215013195146
 30
0.0
 40
0.6310983217886391
210
0.0
220
0.0
230
-1.0
100
AcDbArc
 50
177.5159120789083
 51
221.7105983724145
  0
ARC
  5
2F2
330
1F
100
AcDbEntity
  8
0
  6
CONTINUOUS
 62
     7
100
AcDbCircle
 10
-1114.789543171682
 20
344.0740411019517
 30
0.0
 40
0.6436797519941923
100
AcDbArc
 50
357.5568792393045
 51
41.38813041254411
  0
SPLINE
  5
2F3
330
1F
100
AcDbEntity
  8
0
  6
CONTINUOUS
 62
     7
100
AcDbSpline
210
0.0
220
0.0
230
1.0
 70
     8
 71
     3
 72
    19
 73
    15
 74
     0
 42
0.000000001
 43
0.0001
 40
0.9501854700789012
 40
0.9501854700789012
 40
0.9501854700789012
 40
0.9501854700789012
 40
0.9544228096925732
 40
0.9618792378932965
 40
0.9693356660940197
 40
0.9767920942947429
 40
0.984248522495466
 40
0.9917049506961891
 40
0.9991613788969125
 40
1.006617807097635
 40
1.014074235298359
 40
1.021530663499082
 40
1.028987091699805
 40
1.029417668038018
 40
1.029417668038018
 40
1.029417668038018
 40
1.029417668038018
 10
-999.3063322059398
 20
165.5015424721442
 30
0.0
 10
-999.392631382842
 20
165.5015529071383
 30
0.0
 10
-999.6307908482786
 20
166.5873383025573
 30
0.0
 10
-1000.020810602249
 20
173.2567711975607
 30
0.0
 10
-1000.476391467853
 20
187.6996633402852
 30
0.0
 10
-1000.931972333456
 20
207.6195262795588
 30
0.0
 10
-1001.38755319906
 20
231.3952610282949
 30
0.0
 10
-1001.843134064664
 20
257.0919737754307
 30
0.0
 10
-1002.298714930268
 20
282.6184395395069
 30
0.0
 10
-1002.754295795871
 20
305.897288214104
 30
0.0
 10
-1003.209876661475
 20
325.0340630892524
 30
0.0
 10
-1003.665457527078
 20
338.4713936920355
 30
0.0
 10
-1003.977947376137
 20
343.0288493374869
 30
0.0
 10
-1004.13857693666
 20
344.0039997775468
 30
0.0
 10
-1004.147346208649
 20
344.0531623174131
 30
0.0
  0
LWPOLYLINE
  5
2F4
330
1F
100
AcDbEntity
  8
0
  6
CONTINUOUS
 62
     7
100
AcDbPolyline
 90
        7
 70
     0
 43
0.0
 10
-963.8010058731696
 20
168.9677180802086
 42
-0.0167084178739767
 10
-965.1138247707837
 20
203.2138783104944
 42
0.0025431061465189
 10
-967.9232070945048
 20
332.9827029163147
 42
0.0272824188510001
 10
-968.5263498723824
 20
341.2978137300317
 10
-968.5927655891209
 20
341.4693267386843
 10
-968.6351758935359
 20
341.4999999999411
 10
-968.6351758935359
 20
341.4999999999411
  0
ARC
  5
2F5
330
1F
100
AcDbEntity
  8
0
  6
CONTINUOUS
 62
     7
100
AcDbCircle
 10
-974.7851842420127
 20
344.0743773632764
 30
0.0
 40
0.6395167440907399
100
AcDbArc
 50
357.5033202610594
 51
41.53660820966279
  0
ARC
  5
2F6
330
1F
100
AcDbEntity
  8
0
  6
CONTINUOUS
 62
     7
100
AcDbCircle
 10
-964.7888482609437
 20
344.0730272516873
 30
0.0
 40
0.6432742819659709
100
AcDbArc
 50
357.5580875127775
 51
41.41300110978779
  0
ARC
  5
2F7
330
1F
100
AcDbEntity
  8
0
  6
CONTINUOUS
 62
     7
100
AcDbCircle
 10
959.7919897445975
 20
165.9277818501346
 30
0.0
 40
0.6463563223243678
210
0.0
220
0.0
230
-1.0
100
AcDbArc
 50
177.642482797317
 51
221.2760848399565
  0
ARC
  5
2F8
330
1F
100
AcDbEntity
  8
0
  6
CONTINUOUS
 62
     7
100
AcDbCircle
 10
-954.7871953804018
 20
344.0744062184296
 30
0.0
 40
0.6412268132780019
100
AcDbArc
 50
357.5959175076785
 51
41.42875293766433
  0
ARC
  5
2F9
330
1F
100
AcDbEntity
  8
0
  6
CONTINUOUS
 62
     7
100
AcDbCircle
 10
949.7874854642071
 20
165.9260869162221
 30
0.0
 40
0.6417149792363417
210
0.0
220
0.0
230
-1.0
100
AcDbArc
 50
177.5454677835469
 51
221.4605700838518
  0
ARC
  5
2FA
330
1F
100
AcDbEntity
  8
0
  6
CONTINUOUS
 62
     7
100
AcDbCircle
 10
969.7862458061218
 20
165.9261980055727
 30
0.0
 40
0.6406815991248143
210
0.0
220
0.0
230
-1.0
100
AcDbArc
 50
177.4980971240009
 51
221.5182995247814
  0
MTEXT
  5
2FB
330
1F
100
AcDbEntity
  8
0
 62
     7
100
AcDbMText
 10
-846.3636363636365
 20
108.9454545454546
 30
0.0
 40
8.0
 41
0.0
 71
     1
 72
     1
  1
{\fＭＳ ゴシック;ＫＦＥＫＨ－１５０}
  0
ENDSEC
  0
SECTION
  2
OBJECTS
  0
DICTIONARY
  5
C
330
0
100
AcDbDictionary
  3
ACAD_GROUP
350
D
  3
ACAD_LAYOUT
350
1A
  3
ACAD_MATERIAL
350
43
  3
ACAD_MLEADERSTYLE
350
6B
  3
ACAD_MLINESTYLE
350
17
  3
ACAD_PLOTSETTINGS
350
19
  3
ACAD_SCALELIST
350
47
  3
ACAD_VISUALSTYLE
350
2A
  3
ACDBHEADERROUNDTRIPXREC
350
2FC
  3
ACDBVARIABLEDICTIONARY
350
31D
  0
DICTIONARY
  5
326
330
8
100
AcDbDictionary
280
     1
  3
ACAD_XREC_ROUNDTRIP
360
327
  0
DICTIONARY
  5
D
102
{ACAD_REACTORS
330
C
102
}
330
C
100
AcDbDictionary
  0
DICTIONARY
  5
1A
102
{ACAD_REACTORS
330
C
102
}
330
C
100
AcDbDictionary
  0
DICTIONARY
  5
43
102
{ACAD_REACTORS
330
C
102
}
330
C
100
AcDbDictionary
  3
BYBLOCK
350
45
  3
BYLAYER
350
44
  3
GLOBAL
350
46
  0
DICTIONARY
  5
6B
102
{ACAD_REACTORS
330
C
102
}
330
C
100
AcDbDictionary
  3
STANDARD
350
6C
  0
DICTIONARY
  5
17
102
{ACAD_REACTORS
330
C
102
}
330
C
100
AcDbDictionary
  3
STANDARD
350
18
  0
DICTIONARY
  5
19
102
{ACAD_REACTORS
330
C
102
}
330
C
100
AcDbDictionary
  0
DICTIONARY
  5
47
102
{ACAD_REACTORS
330
C
102
}
330
C
100
AcDbDictionary
  3
A0
350
48
  3
A1
350
49
  3
A2
350
4A
  3
A3
350
4B
  3
A4
350
4C
  3
A5
350
4D
  3
A6
350
4E
  3
A7
350
4F
  3
A8
350
50
  3
A9
350
51
  3
B0
350
52
  3
B1
350
53
  3
B2
350
54
  3
B3
350
55
  3
B4
350
56
  3
B5
350
57
  3
B6
350
58
  3
B7
350
59
  3
B8
350
5A
  3
B9
350
5B
  3
C0
350
5C
  3
C1
350
5D
  3
C2
350
5E
  3
C3
350
5F
  3
C4
350
60
  3
C5
350
61
  3
C6
350
62
  3
C7
350
63
  3
C8
350
64
  3
C9
350
65
  3
D0
350
66
  3
D1
350
67
  3
D2
350
68
  0
DICTIONARY
  5
2A
102
{ACAD_REACTORS
330
C
102
}
330
C
100
AcDbDictionary
  3
2DWIREFRAME
350
2F
  3
BASIC
350
32
  3
BRIGHTEN
350
36
  3
COLORCHANGE
350
3A
  3
CONCEPTUAL
350
34
  3
DIM
350
35
  3
EDGECOLOROFF
350
3D
  3
FACEPATTERN
350
39
  3
FLAT
350
2B
  3
FLATWITHEDGES
350
2C
  3
GOURAUD
350
2D
  3
GOURAUDWITHEDGES
350
2E
  3
HIDDEN
350
31
  3
JITTEROFF
350
3B
  3
LINEPATTERN
350
38
  3
OVERHANGOFF
350
3C
  3
REALISTIC
350
33
  3
SHADED
350
42
  3
SHADED_WITH_EDGES
350
41
  3
SHADES_OF_GRAY
350
3E
  3
SKETCHY
350
3F
  3
THICKEN
350
37
  3
WIREFRAME
350
30
  3
X-RAY
350
40
  0
DICTIONARY
  5
2FC
102
{ACAD_REACTORS
330
C
102
}
330
C
100
AcDbDictionary
  3
CEPSNID
350
306
  3
CEPSNTYPE
350
305
  3
DIMSTYLEDATA
350
31C
  3
FINGERPRINTGUID
350
307
  3
HYPERLINKBASE
350
2FF
  3
INSUNITS
350
304
  3
LAYOUTDICT
350
301
  3
LWETCUNION
350
303
  3
PLOTSETDICT
350
302
  3
PSVPSCALE
350
309
  3
PUCSBASE
350
30C
  3
PUCSORGBACK
350
312
  3
PUCSORGBOTTOM
350
30E
  3
PUCSORGFRONT
350
311
  3
PUCSORGLEFT
350
30F
  3
PUCSORGRIGHT
350
310
  3
PUCSORGTOP
350
30D
  3
PUCSORTHOREF
350
30A
  3
PUCSORTHOVIEW
350
30B
  3
STYLESHEET
350
300
  3
TSTACKALIGN
350
2FD
  3
TSTACKSIZE
350
2FE
  3
UCSBASE
350
315
  3
UCSORGBACK
350
31B
  3
UCSORGBOTTOM
350
317
  3
UCSORGFRONT
350
31A
  3
UCSORGLEFT
350
318
  3
UCSORGRIGHT
350
319
  3
UCSORGTOP
350
316
  3
UCSORTHOREF
350
313
  3
UCSORTHOVIEW
350
314
  3
VERSIONGUID
350
308
  0
DICTIONARY
  5
31D
102
{ACAD_REACTORS
330
C
102
}
330
C
100
AcDbDictionary
  3
CANNOSCALE
350
328
  3
CMLEADERSTYLE
350
31F
  3
CTABLESTYLE
350
31E
  3
DIMASSOC
350
322
  3
HIDETEXT
350
323
  3
MSLTSCALE
350
329
  0
XRECORD
  5
327
102
{ACAD_REACTORS
330
326
102
}
330
326
100
AcDbXrecord
102
VTR_0.000_0.000_1.000_1.000_VISUALSTYLE
340
2F
102
VTR_0.000_0.000_1.000_1.000_GRIDDISPLAY
 70
     3
102
VTR_0.000_0.000_1.000_1.000_GRIDMAJOR
 70
     5
102
VTR_0.000_0.000_1.000_1.000_DEFAULTLIGHTING
280
     1
102
VTR_0.000_0.000_1.000_1.000_DEFAULTLIGHTINGTYPE
 70
     1
102
VTR_0.000_0.000_1.000_1.000_BRIGHTNESS
141
0.0
102
VTR_0.000_0.000_1.000_1.000_CONTRAST
142
0.0
  0
MATERIAL
  5
45
102
{ACAD_REACTORS
330
43
102
}
102
{ACAD_XDICTIONARY
360
32C
102
}
330
43
100
AcDbMaterial
  1
BYBLOCK
  0
MATERIAL
  5
44
102
{ACAD_REACTORS
330
43
102
}
102
{ACAD_XDICTIONARY
360
32A
102
}
330
43
100
AcDbMaterial
  1
BYLAYER
  0
MATERIAL
  5
46
102
{ACAD_REACTORS
330
43
102
}
102
{ACAD_XDICTIONARY
360
32E
102
}
330
43
100
AcDbMaterial
  1
GLOBAL
  0
ACAD_PROXY_OBJECT
  5
6C
102
{ACAD_REACTORS
330
6B
102
}
330
6B
100
AcDbProxyObject
 90
      499
 91
      505
 93
      610
310
40901902A4063FBFFFFFE056BD1B81E855B9FC0AD7A3703D0AD73F4214DD185B99185C9900AD7A3703D0AC73F90141901A02B5E8DC0F42B1CFC02B5E8DC0F42B1CFE5764000000000000300FC0
340
14
340
0
340
11
340
0
 94
        0
1001
ACAD_MLEADERVER
1070
     2
  0
MLINESTYLE
  5
18
102
{ACAD_REACTORS
330
17
102
}
330
17
100
AcDbMlineStyle
  2
Standard
 70
     0
  3

 62
   256
 51
90.0
 52
90.0
 71
     2
 49
0.5
 62
   256
  6
BYLAYER
 49
-0.5
 62
   256
  6
BYLAYER
  0
ACAD_PROXY_OBJECT
  5
48
102
{ACAD_REACTORS
330
47
102
}
330
47
100
AcDbProxyObject
 90
      499
 91
      503
 93
       41
310
903313A31580
  0
ACAD_PROXY_OBJECT
  5
49
102
{ACAD_REACTORS
330
47
102
}
330
47
100
AcDbProxyObject
 90
      499
 91
      503
 93
      105
310
903313A324000000000000004000
  0
ACAD_PROXY_OBJECT
  5
4A
102
{ACAD_REACTORS
330
47
102
}
330
47
100
AcDbProxyObject
 90
      499
 91
      503
 93
      105
310
903313A344000000000000104000
  0
ACAD_PROXY_OBJECT
  5
4B
102
{ACAD_REACTORS
330
47
102
}
330
47
100
AcDbProxyObject
 90
      499
 91
      503
 93
      105
310
903313A354000000000000144000
  0
ACAD_PROXY_OBJECT
  5
4C
102
{ACAD_REACTORS
330
47
102
}
330
47
100
AcDbProxyObject
 90
      499
 91
      503
 93
      105
310
903313A384000000000000204000
  0
ACAD_PROXY_OBJECT
  5
4D
102
{ACAD_REACTORS
330
47
102
}
330
47
100
AcDbProxyObject
 90
      499
 91
      503
 93
      113
310
904313A31304000000000000244000
  0
ACAD_PROXY_OBJECT
  5
4E
102
{ACAD_REACTORS
330
47
102
}
330
47
100
AcDbProxyObject
 90
      499
 91
      503
 93
      113
310
904313A31364000000000000304000
  0
ACAD_PROXY_OBJECT
  5
4F
102
{ACAD_REACTORS
330
47
102
}
330
47
100
AcDbProxyObject
 90
      499
 91
      503
 93
      113
310
904313A32304000000000000344000
  0
ACAD_PROXY_OBJECT
  5
50
102
{ACAD_REACTORS
330
47
102
}
330
47
100
AcDbProxyObject
 90
      499
 91
      503
 93
      113
310
904313A333040000000000003E4000
  0
ACAD_PROXY_OBJECT
  5
51
102
{ACAD_REACTORS
330
47
102
}
330
47
100
AcDbProxyObject
 90
      499
 91
      503
 93
      113
310
904313A34304000000000000444000
  0
ACAD_PROXY_OBJECT
  5
52
102
{ACAD_REACTORS
330
47
102
}
330
47
100
AcDbProxyObject
 90
      499
 91
      503
 93
      113
310
904313A35304000000000000494000
  0
ACAD_PROXY_OBJECT
  5
53
102
{ACAD_REACTORS
330
47
102
}
330
47
100
AcDbProxyObject
 90
      499
 91
      503
 93
      121
310
905313A3130304000000000000594000
  0
ACAD_PROXY_OBJECT
  5
54
102
{ACAD_REACTORS
330
47
102
}
330
47
100
AcDbProxyObject
 90
      499
 91
      503
 93
      105
310
903323A310000000000000010100
  0
ACAD_PROXY_OBJECT
  5
55
102
{ACAD_REACTORS
330
47
102
}
330
47
100
AcDbProxyObject
 90
      499
 91
      503
 93
      105
310
903343A310000000000000410100
  0
ACAD_PROXY_OBJECT
  5
56
102
{ACAD_REACTORS
330
47
102
}
330
47
100
AcDbProxyObject
 90
      499
 91
      503
 93
      105
310
903383A310000000000000810100
  0
ACAD_PROXY_OBJECT
  5
57
102
{ACAD_REACTORS
330
47
102
}
330
47
100
AcDbProxyObject
 90
      499
 91
      503
 93
      113
310
90431303A310000000000000910100
  0
ACAD_PROXY_OBJECT
  5
58
102
{ACAD_REACTORS
330
47
102
}
330
47
100
AcDbProxyObject
 90
      499
 91
      503
 93
      121
310
9053130303A310000000000001650100
  0
ACAD_PROXY_OBJECT
  5
59
102
{ACAD_REACTORS
330
47
102
}
330
47
100
AcDbProxyObject
 90
      499
 91
      503
 93
      257
310
90E312F31323822203D2031272D3022000000000000200FC000000000000284000
  0
ACAD_PROXY_OBJECT
  5
5A
102
{ACAD_REACTORS
330
47
102
}
330
47
100
AcDbProxyObject
 90
      499
 91
      503
 93
      249
310
90D312F363422203D2031272D3022000000000000240FC000000000000284000
  0
ACAD_PROXY_OBJECT
  5
5B
102
{ACAD_REACTORS
330
47
102
}
330
47
100
AcDbProxyObject
 90
      499
 91
      503
 93
      249
310
90D312F333222203D2031272D3022000000000000280FC000000000000284000
  0
ACAD_PROXY_OBJECT
  5
5C
102
{ACAD_REACTORS
330
47
102
}
330
47
100
AcDbProxyObject
 90
      499
 91
      503
 93
      249
310
90D312F313622203D2031272D30220000000000002C0FC000000000000284000
  0
ACAD_PROXY_OBJECT
  5
5D
102
{ACAD_REACTORS
330
47
102
}
330
47
100
AcDbProxyObject
 90
      499
 91
      503
 93
      249
310
90D332F333222203D2031272D30220000000000002E0FC000000000000284000
  0
ACAD_PROXY_OBJECT
  5
5E
102
{ACAD_REACTORS
330
47
102
}
330
47
100
AcDbProxyObject
 90
      499
 91
      503
 93
      241
310
90C312F3822203D2031272D3022000000000000300FC000000000000284000
  0
ACAD_PROXY_OBJECT
  5
5F
102
{ACAD_REACTORS
330
47
102
}
330
47
100
AcDbProxyObject
 90
      499
 91
      503
 93
      249
310
90D332F313622203D2031272D3022000000000000320FC000000000000284000
  0
ACAD_PROXY_OBJECT
  5
60
102
{ACAD_REACTORS
330
47
102
}
330
47
100
AcDbProxyObject
 90
      499
 91
      503
 93
      241
310
90C312F3422203D2031272D3022000000000000340FC000000000000284000
  0
ACAD_PROXY_OBJECT
  5
61
102
{ACAD_REACTORS
330
47
102
}
330
47
100
AcDbProxyObject
 90
      499
 91
      503
 93
      241
310
90C332F3822203D2031272D3022000000000000360FC000000000000284000
  0
ACAD_PROXY_OBJECT
  5
62
102
{ACAD_REACTORS
330
47
102
}
330
47
100
AcDbProxyObject
 90
      499
 91
      503
 93
      241
310
90C312F3222203D2031272D3022000000000000380FC000000000000284000
  0
ACAD_PROXY_OBJECT
  5
63
102
{ACAD_REACTORS
330
47
102
}
330
47
100
AcDbProxyObject
 90
      499
 91
      503
 93
      241
310
90C332F3422203D2031272D30220000000000003A0FC000000000000284000
  0
ACAD_PROXY_OBJECT
  5
64
102
{ACAD_REACTORS
330
47
102
}
330
47
100
AcDbProxyObject
 90
      499
 91
      503
 93
      161
310
90A3122203D2031272D30224000000000000284000
  0
ACAD_PROXY_OBJECT
  5
65
102
{ACAD_REACTORS
330
47
102
}
330
47
100
AcDbProxyObject
 90
      499
 91
      503
 93
      257
310
90E312D312F3222203D2031272D30220000000000003E0FC000000000000284000
  0
ACAD_PROXY_OBJECT
  5
66
102
{ACAD_REACTORS
330
47
102
}
330
47
100
AcDbProxyObject
 90
      499
 91
      503
 93
      225
310
90A3322203D2031272D302200000000000002100000000000000284000
  0
ACAD_PROXY_OBJECT
  5
67
102
{ACAD_REACTORS
330
47
102
}
330
47
100
AcDbProxyObject
 90
      499
 91
      503
 93
      225
310
90A3622203D2031272D302200000000000006100000000000000284000
  0
ACAD_PROXY_OBJECT
  5
68
102
{ACAD_REACTORS
330
47
102
}
330
47
100
AcDbProxyObject
 90
      499
 91
      503
 93
      249
310
90D31272D3022203D2031272D30220000000000000A100000000000000284000
  0
ACAD_PROXY_OBJECT
  5
2F
102
{ACAD_REACTORS
330
2A
102
}
330
2A
100
AcDbProxyObject
 90
      499
 91
      501
 93
      436
310
42CC9915DA5C99599C985B595049028333333333333E33F0000000000000F90107901411070040501600405405064090741402480A0340
1001
ACAD
1000
AcDbSavedByObjectVersion
1070
     0
  0
ACAD_PROXY_OBJECT
  5
32
102
{ACAD_REACTORS
330
2A
102
}
330
2A
100
AcDbProxyObject
 90
      499
 91
      501
 93
      388
310
4150985CDA58D07406404333333333333E33F0000000000000F90107A41107004050150841D405064090741402480A0350
1001
ACAD
1000
AcDbSavedByObjectVersion
1070
     0
  0
ACAD_PROXY_OBJECT
  5
36
102
{ACAD_REACTORS
330
2A
102
}
330
2A
100
AcDbProxyObject
 90
      499
 91
      501
 93
      428
310
42109C9A59DA1D195B90C409028333333333333E33F0000000000000F9010790141107004050150841D405064090741402480A029950
1001
ACAD
1000
AcDbSavedByObjectVersion
1070
     0
  0
ACAD_PROXY_OBJECT
  5
3A
102
{ACAD_REACTORS
330
2A
102
}
330
2A
100
AcDbProxyObject
 90
      499
 91
      501
 93
      452
310
42D0DBDB1BDC90DA185B99D95104090240C333333333333E33F0000000000000F90108901411070040501508421405064090741402480A0350
1001
ACAD
1000
AcDbSavedByObjectVersion
1070
     0
  0
ACAD_PROXY_OBJECT
  5
34
102
{ACAD_REACTORS
330
2A
102
}
330
2A
100
AcDbProxyObject
 90
      499
 91
      501
 93
      500
310
4290DBDB98D95C1D1D585B10940D028333333333333E33F0000000000000F90107902409070040501000000000018199010841D405064090740C02480A0340
1001
ACAD
1000
AcDbSavedByObjectVersion
1070
     0
  0
ACAD_PROXY_OBJECT
  5
35
102
{ACAD_REACTORS
330
2A
102
}
330
2A
100
AcDbProxyObject
 90
      499
 91
      501
 93
      412
310
40D11A5B50B409028333333333333E33F0000000000000F9010790141107004050150841D405064090741402480A02677FFFFFD0
1001
ACAD
1000
AcDbSavedByObjectVersion
1070
     0
  0
ACAD_PROXY_OBJECT
  5
3D
102
{ACAD_REACTORS
330
2A
102
}
330
2A
100
AcDbProxyObject
 90
      499
 91
      501
 93
      452
310
43115919D950DBDB1BDC93D999916409028333333333333E33F0000000000000F9010790141107004050150841D405064090741402480A0350
1001
ACAD
1000
AcDbSavedByObjectVersion
1070
     0
  0
ACAD_PROXY_OBJECT
  5
39
102
{ACAD_REACTORS
330
2A
102
}
330
2A
100
AcDbProxyObject
 90
      499
 91
      501
 93
      444
310
42D19858D95C185D1D195C9B90F409028333333333333E33F0000000000000F9010790141107004050150841D405064090741402480A0350
1001
ACAD
1000
AcDbSavedByObjectVersion
1070
     0
  0
ACAD_PROXY_OBJECT
  5
2B
102
{ACAD_REACTORS
330
2A
102
}
330
2A
100
AcDbProxyObject
 90
      499
 91
      501
 93
      380
310
41119B185D240901404333333333333E33F0000000000000F9010740A907004050150841D405064090741402480A1B50
1001
ACAD
1000
AcDbSavedByObjectVersion
1070
     0
  0
ACAD_PROXY_OBJECT
  5
2C
102
{ACAD_REACTORS
330
2A
102
}
330
2A
100
AcDbProxyObject
 90
      499
 91
      501
 93
      468
310
43519B185D15DA5D1A115919D95CD0140901404333333333333E33F0000000000000F90107409019070040501600405405064090741402480A1B50
1001
ACAD
1000
AcDbSavedByObjectVersion
1070
     0
  0
ACAD_PROXY_OBJECT
  5
2D
102
{ACAD_REACTORS
330
2A
102
}
330
2A
100
AcDbProxyObject
 90
      499
 91
      501
 93
      404
310
41D1DBDD5C985D5910240902404333333333333E33F0000000000000F9010740A9070040501641D405064090741402480A1B50
1001
ACAD
1000
AcDbSavedByObjectVersion
1070
     0
  0
ACAD_PROXY_OBJECT
  5
2E
102
{ACAD_REACTORS
330
2A
102
}
330
2A
100
AcDbProxyObject
 90
      499
 91
      501
 93
      492
310
4411DBDD5C985D5915DA5D1A115919D95CD0340902404333333333333E33F0000000000000F90107409019070040501600405405064090741402480A1B50
1001
ACAD
1000
AcDbSavedByObjectVersion
1070
     0
  0
ACAD_PROXY_OBJECT
  5
31
102
{ACAD_REACTORS
330
2A
102
}
330
2A
100
AcDbProxyObject
 90
      499
 91
      501
 93
      476
310
41921A5919195B90640502408333333333333E33F0000000000000F901079024090700405020000000000001110200405405064090740C02480A0340
1001
ACAD
1000
AcDbSavedByObjectVersion
1070
     0
  0
ACAD_PROXY_OBJECT
  5
3B
102
{ACAD_REACTORS
330
2A
102
}
330
2A
100
AcDbProxyObject
 90
      499
 91
      501
 93
      428
310
42529A5D1D195C93D999914409028333333333333E33F0000000000000F9010790141107004050150A41D405064090741402480A0350
1001
ACAD
1000
AcDbSavedByObjectVersion
1070
     0
  0
ACAD_PROXY_OBJECT
  5
38
102
{ACAD_REACTORS
330
2A
102
}
330
2A
100
AcDbProxyObject
 90
      499
 91
      501
 93
      444
310
42D31A5B995C185D1D195C9B90E409028333333333333E33F0000000000000F9010790141107004050750841D405064090741402483A0350
1001
ACAD
1000
AcDbSavedByObjectVersion
1070
     0
  0
ACAD_PROXY_OBJECT
  5
3C
102
{ACAD_REACTORS
330
2A
102
}
330
2A
100
AcDbProxyObject
 90
      499
 91
      501
 93
      444
310
42D3DD995C9A185B99D3D999915409028333333333333E33F0000000000000F9010790141107004050150941D405064090741402480A0350
1001
ACAD
1000
AcDbSavedByObjectVersion
1070
     0
  0
ACAD_PROXY_OBJECT
  5
33
102
{ACAD_REACTORS
330
2A
102
}
330
2A
100
AcDbProxyObject
 90
      499
 91
      501
 93
      428
310
425499585B1A5CDD1A58D08409038333333333333E33F0000000000000F9010740A907004050150800405405064090740C02480A1B40
1001
ACAD
1000
AcDbSavedByObjectVersion
1070
     0
  0
ACAD_PROXY_OBJECT
  5
42
102
{ACAD_REACTORS
330
2A
102
}
330
2A
100
AcDbProxyObject
 90
      499
 91
      501
 93
      420
310
4194DA1859195911B40902404333333333333E33F0000000000000F9010740A41107004050150800405405064090840C02480A0B40
1001
ACAD
1000
AcDbSavedByObjectVersion
1070
     0
  0
ACAD_PROXY_OBJECT
  5
41
102
{ACAD_REACTORS
330
2A
102
}
330
2A
100
AcDbProxyObject
 90
      499
 91
      501
 93
      516
310
4454DA18591959081DDA5D1A08195919D95CD1A40902404333333333333E33F0000000000000F901074090142907004050250800405405064090740C02480A0B40
1001
ACAD
1000
AcDbSavedByObjectVersion
1070
     0
  0
ACAD_PROXY_OBJECT
  5
3E
102
{ACAD_REACTORS
330
2A
102
}
330
2A
100
AcDbProxyObject
 90
      499
 91
      501
 93
      532
310
4394DA1859195CC81BD98811DC985E5174090240C333333333333E33F0000000000000F901079024090741D01000000000000111010841D405064090740C02480A0340
1001
ACAD
1000
AcDbSavedByObjectVersion
1070
     0
  0
ACAD_PROXY_OBJECT
  5
3F
102
{ACAD_REACTORS
330
2A
102
}
330
2A
100
AcDbProxyObject
 90
      499
 91
      501
 93
      476
310
41D4DAD95D18DA1E51840502408333333333333E33F0000000000000F901079024090741D01000000000000111010B41D405064090741802480A0340
1001
ACAD
1000
AcDbSavedByObjectVersion
1070
     0
  0
ACAD_PROXY_OBJECT
  5
37
102
{ACAD_REACTORS
330
2A
102
}
330
2A
100
AcDbProxyObject
 90
      499
 91
      501
 93
      412
310
41D51A1A58DAD95B90D409028333333333333E33F0000000000000F9010790141107004050150C41D405064090741402480A0350
1001
ACAD
1000
AcDbSavedByObjectVersion
1070
     0
  0
ACAD_PROXY_OBJECT
  5
30
102
{ACAD_REACTORS
330
2A
102
}
330
2A
100
AcDbProxyObject
 90
      499
 91
      501
 93
      420
310
4255DA5C99599C985B595059028333333333333E33F0000000000000F90107901411070040501600405405064090740C02480A0340
1001
ACAD
1000
AcDbSavedByObjectVersion
1070
     0
  0
ACAD_PROXY_OBJECT
  5
40
102
{ACAD_REACTORS
330
2A
102
}
330
2A
100
AcDbProxyObject
 90
      499
 91
      501
 93
      404
310
41560B54985E51940902404000000000000E03F0000000000000F9010740501907004050150841D405064090740C02480A1B40
1001
ACAD
1000
AcDbSavedByObjectVersion
1070
     0
  0
XRECORD
  5
306
102
{ACAD_REACTORS
330
2FC
102
}
330
2FC
100
AcDbXrecord
340
0
  0
XRECORD
  5
305
102
{ACAD_REACTORS
330
2FC
102
}
330
2FC
100
AcDbXrecord
 90
        0
  0
XRECORD
  5
31C
102
{ACAD_REACTORS
330
2FC
102
}
330
2FC
100
AcDbXrecord
1000
DSTYLE
1002
{
1070
   179
 70
     2
1070
   171
 70
     2
1070
   143
 40
25.4
1070
   274
 70
     2
1070
    41
 40
3.0
1070
   141
 40
0.09
1070
    43
 40
0.38
1070
   278
 70
    46
1070
    44
 40
1.5
1070
    42
 40
0.0625
1070
   147
 40
1.5
1070
   272
 70
     4
1070
    73
 70
     1
1070
   172
 70
     0
1070
    74
 70
     1
1070
   283
 70
     1
1070
   340
340
6E
1070
   140
 40
3.0
1070
   284
 70
     0
1070
    78
 70
     0
1002
}
  0
XRECORD
  5
307
102
{ACAD_REACTORS
330
2FC
102
}
330
2FC
100
AcDbXrecord
  1
{2B060338-1CC5-46CE-B423-4AA7E8B81325}
  0
XRECORD
  5
2FF
102
{ACAD_REACTORS
330
2FC
102
}
330
2FC
100
AcDbXrecord
  1

  0
XRECORD
  5
304
102
{ACAD_REACTORS
330
2FC
102
}
330
2FC
100
AcDbXrecord
 90
        4
  0
XRECORD
  5
301
102
{ACAD_REACTORS
330
2FC
102
}
330
2FC
100
AcDbXrecord
340
1A
  0
XRECORD
  5
303
102
{ACAD_REACTORS
330
2FC
102
}
330
2FC
100
AcDbXrecord
 90
    10269
  0
XRECORD
  5
302
102
{ACAD_REACTORS
330
2FC
102
}
330
2FC
100
AcDbXrecord
340
19
  0
XRECORD
  5
309
102
{ACAD_REACTORS
330
2FC
102
}
330
2FC
100
AcDbXrecord
 40
0.0
  0
XRECORD
  5
30C
102
{ACAD_REACTORS
330
2FC
102
}
330
2FC
100
AcDbXrecord
340
0
  0
XRECORD
  5
312
102
{ACAD_REACTORS
330
2FC
102
}
330
2FC
100
AcDbXrecord
 10
0.0
 20
0.0
 30
0.0
  0
XRECORD
  5
30E
102
{ACAD_REACTORS
330
2FC
102
}
330
2FC
100
AcDbXrecord
 10
0.0
 20
0.0
 30
0.0
  0
XRECORD
  5
311
102
{ACAD_REACTORS
330
2FC
102
}
330
2FC
100
AcDbXrecord
 10
0.0
 20
0.0
 30
0.0
  0
XRECORD
  5
30F
102
{ACAD_REACTORS
330
2FC
102
}
330
2FC
100
AcDbXrecord
 10
0.0
 20
0.0
 30
0.0
  0
XRECORD
  5
310
102
{ACAD_REACTORS
330
2FC
102
}
330
2FC
100
AcDbXrecord
 10
0.0
 20
0.0
 30
0.0
  0
XRECORD
  5
30D
102
{ACAD_REACTORS
330
2FC
102
}
330
2FC
100
AcDbXrecord
 10
0.0
 20
0.0
 30
0.0
  0
XRECORD
  5
30A
102
{ACAD_REACTORS
330
2FC
102
}
330
2FC
100
AcDbXrecord
340
0
  0
XRECORD
  5
30B
102
{ACAD_REACTORS
330
2FC
102
}
330
2FC
100
AcDbXrecord
 70
     0
  0
XRECORD
  5
300
102
{ACAD_REACTORS
330
2FC
102
}
330
2FC
100
AcDbXrecord
  1

  0
XRECORD
  5
2FD
102
{ACAD_REACTORS
330
2FC
102
}
330
2FC
100
AcDbXrecord
 90
        1
  0
XRECORD
  5
2FE
102
{ACAD_REACTORS
330
2FC
102
}
330
2FC
100
AcDbXrecord
 90
       70
  0
XRECORD
  5
315
102
{ACAD_REACTORS
330
2FC
102
}
330
2FC
100
AcDbXrecord
340
0
  0
XRECORD
  5
31B
102
{ACAD_REACTORS
330
2FC
102
}
330
2FC
100
AcDbXrecord
 10
0.0
 20
0.0
 30
0.0
  0
XRECORD
  5
317
102
{ACAD_REACTORS
330
2FC
102
}
330
2FC
100
AcDbXrecord
 10
0.0
 20
0.0
 30
0.0
  0
XRECORD
  5
31A
102
{ACAD_REACTORS
330
2FC
102
}
330
2FC
100
AcDbXrecord
 10
0.0
 20
0.0
 30
0.0
  0
XRECORD
  5
318
102
{ACAD_REACTORS
330
2FC
102
}
330
2FC
100
AcDbXrecord
 10
0.0
 20
0.0
 30
0.0
  0
XRECORD
  5
319
102
{ACAD_REACTORS
330
2FC
102
}
330
2FC
100
AcDbXrecord
 10
0.0
 20
0.0
 30
0.0
  0
XRECORD
  5
316
102
{ACAD_REACTORS
330
2FC
102
}
330
2FC
100
AcDbXrecord
 10
0.0
 20
0.0
 30
0.0
  0
XRECORD
  5
313
102
{ACAD_REACTORS
330
2FC
102
}
330
2FC
100
AcDbXrecord
340
0
  0
XRECORD
  5
314
102
{ACAD_REACTORS
330
2FC
102
}
330
2FC
100
AcDbXrecord
 70
     0
  0
XRECORD
  5
308
102
{ACAD_REACTORS
330
2FC
102
}
330
2FC
100
AcDbXrecord
  1
{FAEB1C32-E019-11D5-929B-00C0DF256EC4}
  0
DICTIONARYVAR
  5
328
102
{ACAD_REACTORS
330
31D
102
}
330
31D
100
DictionaryVariables
280
     0
  1
1:1
  0
DICTIONARYVAR
  5
31F
102
{ACAD_REACTORS
330
31D
102
}
330
31D
100
DictionaryVariables
280
     0
  1
Standard
  0
DICTIONARYVAR
  5
31E
102
{ACAD_REACTORS
330
31D
102
}
330
31D
100
DictionaryVariables
280
     0
  1
Standard
  0
DICTIONARYVAR
  5
322
102
{ACAD_REACTORS
330
31D
102
}
330
31D
100
DictionaryVariables
280
     0
  1
2
  0
DICTIONARYVAR
  5
323
102
{ACAD_REACTORS
330
31D
102
}
330
31D
100
DictionaryVariables
280
     0
  1
1
  0
DICTIONARYVAR
  5
329
102
{ACAD_REACTORS
330
31D
102
}
330
31D
100
DictionaryVariables
280
     0
  1
1
  0
DICTIONARY
  5
32C
330
45
100
AcDbDictionary
280
     1
  3
ACAD_XREC_ROUNDTRIP
360
32D
  0
DICTIONARY
  5
32A
330
44
100
AcDbDictionary
280
     1
  3
ACAD_XREC_ROUNDTRIP
360
32B
  0
DICTIONARY
  5
32E
330
46
100
AcDbDictionary
280
     1
  3
ACAD_XREC_ROUNDTRIP
360
32F
  0
XRECORD
  5
32D
102
{ACAD_REACTORS
330
32C
102
}
330
32C
100
AcDbXrecord
102
MATERIAL
148
0.0
149
0.0
149
0.0
 93
        0
 94
      127
282
     0
 72
     1
 77
     1
171
     1
175
     1
179
     1
273
     0
  0
XRECORD
  5
32B
102
{ACAD_REACTORS
330
32A
102
}
330
32A
100
AcDbXrecord
102
MATERIAL
148
0.0
149
0.0
149
0.0
 93
        0
 94
      127
282
     0
 72
     1
 77
     1
171
     1
175
     1
179
     1
273
     0
  0
XRECORD
  5
32F
102
{ACAD_REACTORS
330
32E
102
}
330
32E
100
AcDbXrecord
102
MATERIAL
148
0.0
149
0.0
149
0.0
 93
        0
 94
      127
282
     0
 72
     1
 77
     1
171
     1
175
     1
179
     1
273
     0
  0
ENDSEC
  0
EOF
