  0
SECTION
  2
HEADER
  9
$ACADVER
  1
AC1014
  9
$ACADMAINTVER
 70
     9
  9
$DWGCODEPAGE
  3
ANSI_932
  9
$INSBASE
 10
0.0
 20
0.0
 30
0.0
  9
$EXTMIN
 10
-786.25
 20
389.9280303030303
 30
0.0
  9
$EXTMAX
 10
-198.7500000000001
 20
668.7499999999999
 30
0.0
  9
$LIMMIN
 10
0.0
 20
0.0
  9
$LIMMAX
 10
12.0
 20
9.0
  9
$ORTHOMODE
 70
     0
  9
$REGENMODE
 70
     1
  9
$FILLMODE
 70
     1
  9
$QTEXTMODE
 70
     0
  9
$MIRRTEXT
 70
     1
  9
$DRAGMODE
 70
     2
  9
$LTSCALE
 40
1.0
  9
$OSMODE
 70
    37
  9
$ATTMODE
 70
     1
  9
$TEXTSIZE
 40
0.2
  9
$TRACEWID
 40
0.05
  9
$TEXTSTYLE
  7
STANDARD
  9
$CLAYER
  8
0
  9
$CELTYPE
  6
BYLAYER
  9
$CECOLOR
 62
   256
  9
$CELTSCALE
 40
1.0
  9
$DELOBJ
 70
     1
  9
$DISPSILH
 70
     0
  9
$DIMSCALE
 40
1.0
  9
$DIMASZ
 40
3.0
  9
$DIMEXO
 40
0.0625
  9
$DIMDLI
 40
0.38
  9
$DIMRND
 40
0.0
  9
$DIMDLE
 40
0.0
  9
$DIMEXE
 40
1.5
  9
$DIMTP
 40
0.0
  9
$DIMTM
 40
0.0
  9
$DIMTXT
 40
3.0
  9
$DIMCEN
 40
0.09
  9
$DIMTSZ
 40
0.0
  9
$DIMTOL
 70
     0
  9
$DIMLIM
 70
     0
  9
$DIMTIH
 70
     1
  9
$DIMTOH
 70
     1
  9
$DIMSE1
 70
     0
  9
$DIMSE2
 70
     0
  9
$DIMTAD
 70
     1
  9
$DIMZIN
 70
     0
  9
$DIMBLK
  1

  9
$DIMASO
 70
     1
  9
$DIMSHO
 70
     1
  9
$DIMPOST
  1

  9
$DIMAPOST
  1

  9
$DIMALT
 70
     0
  9
$DIMALTD
 70
     2
  9
$DIMALTF
 40
25.4
  9
$DIMLFAC
 40
1.0
  9
$DIMTOFL
 70
     0
  9
$DIMTVP
 40
0.0
  9
$DIMTIX
 70
     0
  9
$DIMSOXD
 70
     0
  9
$DIMSAH
 70
     0
  9
$DIMBLK1
  1

  9
$DIMBLK2
  1

  9
$DIMSTYLE
  2
STANDARD
  9
$DIMCLRD
 70
     0
  9
$DIMCLRE
 70
     0
  9
$DIMCLRT
 70
     0
  9
$DIMTFAC
 40
1.0
  9
$DIMGAP
 40
1.5
  9
$DIMJUST
 70
     0
  9
$DIMSD1
 70
     0
  9
$DIMSD2
 70
     0
  9
$DIMTOLJ
 70
     1
  9
$DIMTZIN
 70
     0
  9
$DIMALTZ
 70
     0
  9
$DIMALTTZ
 70
     0
  9
$DIMFIT
 70
     3
  9
$DIMUPT
 70
     0
  9
$DIMUNIT
 70
     2
  9
$DIMDEC
 70
     2
  9
$DIMTDEC
 70
     4
  9
$DIMALTU
 70
     2
  9
$DIMALTTD
 70
     2
  9
$DIMTXSTY
  7
ＭＳ_ゴシック
  9
$DIMAUNIT
 70
     0
  9
$LUNITS
 70
     2
  9
$LUPREC
 70
     4
  9
$SKETCHINC
 40
0.1
  9
$FILLETRAD
 40
0.5
  9
$AUNITS
 70
     0
  9
$AUPREC
 70
     0
  9
$MENU
  1
.
  9
$ELEVATION
 40
0.0
  9
$PELEVATION
 40
0.0
  9
$THICKNESS
 40
0.0
  9
$LIMCHECK
 70
     0
  9
$CHAMFERA
 40
0.0
  9
$CHAMFERB
 40
0.0
  9
$CHAMFERC
 40
0.0
  9
$CHAMFERD
 40
0.0
  9
$SKPOLY
 70
     0
  9
$TDCREATE
 40
2459061.740455475
  9
$TDUPDATE
 40
2459061.740455891
  9
$TDINDWG
 40
0.0000000116
  9
$TDUSRTIMER
 40
0.0000000116
  9
$USRTIMER
 70
     1
  9
$ANGBASE
 50
0.0
  9
$ANGDIR
 70
     0
  9
$PDMODE
 70
     0
  9
$PDSIZE
 40
0.0
  9
$PLINEWID
 40
0.0
  9
$COORDS
 70
     1
  9
$SPLFRAME
 70
     0
  9
$SPLINETYPE
 70
     6
  9
$SPLINESEGS
 70
     8
  9
$ATTDIA
 70
     0
  9
$ATTREQ
 70
     1
  9
$HANDLING
 70
     1
  9
$HANDSEED
  5
245
  9
$SURFTAB1
 70
     6
  9
$SURFTAB2
 70
     6
  9
$SURFTYPE
 70
     6
  9
$SURFU
 70
     6
  9
$SURFV
 70
     6
  9
$UCSNAME
  2

  9
$UCSORG
 10
0.0
 20
0.0
 30
0.0
  9
$UCSXDIR
 10
1.0
 20
0.0
 30
0.0
  9
$UCSYDIR
 10
0.0
 20
1.0
 30
0.0
  9
$PUCSNAME
  2

  9
$PUCSORG
 10
0.0
 20
0.0
 30
0.0
  9
$PUCSXDIR
 10
1.0
 20
0.0
 30
0.0
  9
$PUCSYDIR
 10
0.0
 20
1.0
 30
0.0
  9
$USERI1
 70
     0
  9
$USERI2
 70
     0
  9
$USERI3
 70
     0
  9
$USERI4
 70
     0
  9
$USERI5
 70
     0
  9
$USERR1
 40
0.0
  9
$USERR2
 40
0.0
  9
$USERR3
 40
0.0
  9
$USERR4
 40
0.0
  9
$USERR5
 40
0.0
  9
$WORLDVIEW
 70
     1
  9
$SHADEDGE
 70
     3
  9
$SHADEDIF
 70
    70
  9
$TILEMODE
 70
     1
  9
$MAXACTVP
 70
    64
  9
$PINSBASE
 10
0.0
 20
0.0
 30
0.0
  9
$PLIMCHECK
 70
     0
  9
$PEXTMIN
 10
1.000000000000000E+20
 20
1.000000000000000E+20
 30
1.000000000000000E+20
  9
$PEXTMAX
 10
-1.000000000000000E+20
 20
-1.000000000000000E+20
 30
-1.000000000000000E+20
  9
$PLIMMIN
 10
0.0
 20
0.0
  9
$PLIMMAX
 10
12.0
 20
9.0
  9
$UNITMODE
 70
     0
  9
$VISRETAIN
 70
     1
  9
$PLINEGEN
 70
     0
  9
$PSLTSCALE
 70
     1
  9
$TREEDEPTH
 70
  3020
  9
$PICKSTYLE
 70
     1
  9
$CMLSTYLE
  2
STANDARD
  9
$CMLJUST
 70
     0
  9
$CMLSCALE
 40
1.0
  9
$PROXYGRAPHICS
 70
     1
  9
$MEASUREMENT
 70
     1
  0
ENDSEC
  0
SECTION
  2
CLASSES
  0
CLASS
  1
ACDBDICTIONARYWDFLT
  2
AcDbDictionaryWithDefault
  3
ObjectDBX Classes
 90
        0
280
     0
281
     0
  0
CLASS
  1
VISUALSTYLE
  2
AcDbVisualStyle
  3
ObjectDBX Classes
 90
     4095
280
     0
281
     0
  0
CLASS
  1
MATERIAL
  2
AcDbMaterial
  3
ObjectDBX Classes
 90
     1153
280
     0
281
     0
  0
CLASS
  1
SCALE
  2
AcDbScale
  3
ObjectDBX Classes
 90
     1153
280
     0
281
     0
  0
CLASS
  1
TABLESTYLE
  2
AcDbTableStyle
  3
ObjectDBX Classes
 90
     4095
280
     0
281
     0
  0
CLASS
  1
MLEADERSTYLE
  2
AcDbMLeaderStyle
  3
ACDB_MLEADERSTYLE_CLASS
 90
     4095
280
     0
281
     0
  0
CLASS
  1
SUN
  2
AcDbSun
  3
SCENEOE
 90
     1153
280
     0
281
     0
  0
CLASS
  1
DICTIONARYVAR
  2
AcDbDictionaryVar
  3
ObjectDBX Classes
 90
        0
280
     0
281
     0
  0
CLASS
  1
XRECORD
  2
AcDbXrecord
  3
ObjectDBX Classes
 90
        0
280
     0
281
     0
  0
CLASS
  1
LWPOLYLINE
  2
AcDbPolyline
  3
ObjectDBX Classes
 90
        0
280
     0
281
     1
  0
CLASS
  1
HATCH
  2
AcDbHatch
  3
ObjectDBX Classes
 90
        0
280
     0
281
     1
  0
CLASS
  1
ACDBPLACEHOLDER
  2
AcDbPlaceHolder
  3
ObjectDBX Classes
 90
        0
280
     0
281
     0
  0
CLASS
  1
LAYOUT
  2
AcDbLayout
  3
ObjectDBX Classes
 90
        0
280
     0
281
     0
  0
ENDSEC
  0
SECTION
  2
TABLES
  0
TABLE
  2
VPORT
  5
8
102
{ACAD_XDICTIONARY
360
23A
102
}
330
0
100
AcDbSymbolTable
 70
     1
  0
VPORT
  5
29
330
8
100
AcDbSymbolTableRecord
100
AcDbViewportTableRecord
  2
*ACTIVE
 70
     0
 10
0.0
 20
0.0
 11
1.0
 21
1.0
 12
-492.5000000000001
 22
529.3390151515151
 13
0.0
 23
0.0
 14
0.5
 24
0.5
 15
0.5
 25
0.5
 16
0.0
 26
0.0
 36
1.0
 17
0.0
 27
0.0
 37
0.0
 40
278.8219696969696
 41
1.6
 42
50.0
 43
0.0
 44
0.0
 50
0.0
 51
0.0
 71
     0
 72
   100
 73
     1
 74
     3
 75
     0
 76
     0
 77
     0
 78
     0
  0
ENDTAB
  0
TABLE
  2
LTYPE
  5
5
330
0
100
AcDbSymbolTable
 70
     2
  0
LTYPE
  5
14
330
5
100
AcDbSymbolTableRecord
100
AcDbLinetypeTableRecord
  2
BYBLOCK
 70
     0
  3

 72
    65
 73
     0
 40
0.0
  0
LTYPE
  5
15
330
5
100
AcDbSymbolTableRecord
100
AcDbLinetypeTableRecord
  2
BYLAYER
 70
     0
  3

 72
    65
 73
     0
 40
0.0
  0
LTYPE
  5
16
330
5
100
AcDbSymbolTableRecord
100
AcDbLinetypeTableRecord
  2
CONTINUOUS
 70
     0
  3
Solid line
 72
    65
 73
     0
 40
0.0
  0
LTYPE
  5
9B
330
5
100
AcDbSymbolTableRecord
100
AcDbLinetypeTableRecord
  2
________________
 70
     0
  3

 72
    65
 73
     4
 40
6.0
 49
2.25
 74
     0
 49
-1.5
 74
     0
 49
0.7499999999999999
 74
     0
 49
-1.5
 74
     0
  0
ENDTAB
  0
TABLE
  2
LAYER
  5
2
330
0
100
AcDbSymbolTable
 70
     1
  0
LAYER
  5
10
330
2
100
AcDbSymbolTableRecord
100
AcDbLayerTableRecord
  2
0
 70
     0
 62
     7
  6
CONTINUOUS
  0
ENDTAB
  0
TABLE
  2
STYLE
  5
3
330
0
100
AcDbSymbolTable
 70
     2
  0
STYLE
  5
11
330
3
100
AcDbSymbolTableRecord
100
AcDbTextStyleTableRecord
  2
STANDARD
 70
     0
 40
0.0
 41
1.0
 50
0.0
 71
     0
 42
0.2
  3
txt
  4

  0
STYLE
  5
6E
330
3
100
AcDbSymbolTableRecord
100
AcDbTextStyleTableRecord
  2
ＭＳ_ゴシック
 70
     0
 40
0.0
 41
1.0
 50
0.0
 71
     0
 42
0.2
  3
ＭＳ ゴシック.shx
  4

  0
ENDTAB
  0
TABLE
  2
VIEW
  5
6
330
0
100
AcDbSymbolTable
 70
     0
  0
ENDTAB
  0
TABLE
  2
UCS
  5
7
330
0
100
AcDbSymbolTable
 70
     0
  0
ENDTAB
  0
TABLE
  2
APPID
  5
9
330
0
100
AcDbSymbolTable
 70
     2
  0
APPID
  5
12
330
9
100
AcDbSymbolTableRecord
100
AcDbRegAppTableRecord
  2
ACAD
 70
     0
  0
APPID
  5
244
330
9
100
AcDbSymbolTableRecord
100
AcDbRegAppTableRecord
  2
ACAD_MLEADERVER
 70
     0
  0
ENDTAB
  0
TABLE
  2
DIMSTYLE
  5
A
330
0
100
AcDbSymbolTable
 70
     1
  0
DIMSTYLE
105
27
330
A
100
AcDbSymbolTableRecord
100
AcDbDimStyleTableRecord
  2
STANDARD
 70
     0
  3

  4

  5

  6

  7

 40
1.0
 41
0.18
 42
0.0625
 43
0.38
 44
0.18
 45
0.0
 46
0.0
 47
0.0
 48
0.0
140
0.18
141
0.09
142
0.0
143
25.4
144
1.0
145
0.0
146
1.0
147
0.09
 71
     0
 72
     0
 73
     1
 74
     1
 75
     0
 76
     0
 77
     0
 78
     0
170
     0
171
     2
172
     0
173
     0
174
     0
175
     0
176
     0
177
     0
178
     0
270
     2
271
     4
272
     4
273
     2
274
     2
340
11
275
     0
280
     0
281
     0
282
     0
283
     1
284
     0
285
     0
286
     0
287
     3
288
     0
  0
ENDTAB
  0
TABLE
  2
BLOCK_RECORD
  5
1
330
0
100
AcDbSymbolTable
 70
     0
  0
BLOCK_RECORD
  5
1F
330
1
100
AcDbSymbolTableRecord
100
AcDbBlockTableRecord
  2
*MODEL_SPACE
  0
BLOCK_RECORD
  5
1B
330
1
100
AcDbSymbolTableRecord
100
AcDbBlockTableRecord
  2
*PAPER_SPACE
  0
ENDTAB
  0
ENDSEC
  0
SECTION
  2
BLOCKS
  0
BLOCK
  5
20
330
1F
100
AcDbEntity
  8
0
100
AcDbBlockBegin
  2
*MODEL_SPACE
 70
     0
 10
0.0
 20
0.0
 30
0.0
  3
*MODEL_SPACE
  1

  0
ENDBLK
  5
21
330
1F
100
AcDbEntity
  8
0
100
AcDbBlockEnd
  0
BLOCK
  5
1C
330
1B
100
AcDbEntity
 67
     1
  8
0
100
AcDbBlockBegin
  2
*PAPER_SPACE
 70
     0
 10
0.0
 20
0.0
 30
0.0
  3
*PAPER_SPACE
  1

  0
ENDBLK
  5
1D
330
1B
100
AcDbEntity
 67
     1
  8
0
100
AcDbBlockEnd
  0
ENDSEC
  0
SECTION
  2
ENTITIES
  0
POINT
  5
6F
330
1F
100
AcDbEntity
  8
0
 62
     7
100
AcDbPoint
 10
-198.7500000000001
 20
538.75
 30
0.0
  0
LINE
  5
70
330
1F
100
AcDbEntity
  8
0
  6
CONTINUOUS
 62
     7
100
AcDbLine
 10
-427.9010845318284
 20
656.2499999999965
 30
0.0
 11
-427.90108453152
 21
431.2500000000034
 31
0.0
  0
LINE
  5
71
330
1F
100
AcDbEntity
  8
0
  6
CONTINUOUS
 62
     7
100
AcDbLine
 10
-731.7974123774661
 20
522.3581513949915
 30
0.0
 11
-730.1672971474746
 21
522.8878079403447
 31
0.0
  0
LINE
  5
72
330
1F
100
AcDbEntity
  8
0
  6
CONTINUOUS
 62
     7
100
AcDbLine
 10
-580.4509433730673
 20
528.3502419057269
 30
0.0
 11
-580.0518681635896
 21
525.3144630472491
 31
0.0
  0
LINE
  5
73
330
1F
100
AcDbEntity
  8
0
  6
CONTINUOUS
 62
     7
100
AcDbLine
 10
-251.4010845315527
 20
545.75
 30
0.0
 11
-224.9010845315529
 21
545.75
 31
0.0
  0
LINE
  5
74
330
1F
100
AcDbEntity
  8
0
  6
CONTINUOUS
 62
     7
100
AcDbLine
 10
-287.90108453152
 20
653.2498857648394
 30
0.0
 11
-287.90108453152
 21
434.2501142351605
 31
0.0
  0
LINE
  5
75
330
1F
100
AcDbEntity
  8
0
  6
CONTINUOUS
 62
     7
100
AcDbLine
 10
-252.4010845315527
 20
638.25
 30
0.0
 11
-252.4010845315527
 21
449.2499999999997
 31
0.0
  0
ARC
  5
76
330
1F
100
AcDbEntity
  8
0
  6
CONTINUOUS
 62
     7
100
AcDbCircle
 10
-656.251868163587
 20
543.75
 30
0.0
 40
76.19999999999982
100
AcDbArc
 50
282.2646732131748
 51
285.3868375358298
  0
LINE
  5
77
330
1F
100
AcDbEntity
  8
0
  6
CONTINUOUS
 62
     7
100
AcDbLine
 10
-732.0527929541068
 20
559.1497580942728
 30
0.0
 11
-732.4518681635848
 21
562.1855369527503
 31
0.0
  0
LINE
  5
78
330
1F
100
AcDbEntity
  8
0
  6
CONTINUOUS
 62
     7
100
AcDbLine
 10
-730.1672971474745
 20
564.6121920596547
 30
0.0
 11
-731.797412377466
 21
565.1418486050082
 31
0.0
  0
ELLIPSE
  5
79
330
1F
100
AcDbEntity
  8
0
  6
CONTINUOUS
 62
     7
100
AcDbEllipse
 10
-580.5525543365884
 20
564.6659000521965
 30
0.0
 11
0.3818153278459799
 21
0.324653874706593
 31
0.0
210
0.0
220
0.0
230
-1.0
 40
0.9976421992486395
 41
5.103723912994494
 42
6.986683172211634
  0
LINE
  5
7A
330
1F
100
AcDbEntity
  8
0
  6
CONTINUOUS
 62
     7
100
AcDbLine
 10
-677.6437167685955
 20
619.2955442138788
 30
0.0
 11
-677.1140602232421
 21
617.6654289838875
 31
0.0
  0
ARC
  5
7B
330
1F
100
AcDbEntity
  8
0
  6
CONTINUOUS
 62
     7
100
AcDbCircle
 10
-656.251868163587
 20
543.75
 30
0.0
 40
76.20000000000005
100
AcDbArc
 50
74.61316246417017
 51
77.73532678682517
  0
LINE
  5
7C
330
1F
100
AcDbEntity
  8
0
  6
CONTINUOUS
 62
     7
100
AcDbLine
 10
-674.6874051163377
 20
619.9499999999978
 30
0.0
 11
-671.6516262578596
 21
619.550924790519
 31
0.0
  0
LINE
  5
7D
330
1F
100
AcDbEntity
  8
0
  6
CONTINUOUS
 62
     7
100
AcDbLine
 10
-718.9034808500071
 20
440.2124986033213
 30
0.0
 11
-719.4034808500054
 21
440.3770567012049
 31
0.0
  0
LINE
  5
7E
330
1F
100
AcDbEntity
  8
0
  6
CONTINUOUS
 62
     7
100
AcDbLine
 10
-287.4010845315528
 20
449.2499999999999
 30
0.0
 11
-287.4010845315528
 21
638.2500000000001
 31
0.0
  0
LWPOLYLINE
  5
7F
330
1F
100
AcDbEntity
  8
0
  6
CONTINUOUS
 62
     7
100
AcDbPolyline
 90
        6
 70
     0
 43
0.0
 10
-385.1246273962131
 20
435.9790870674491
 42
0.0706458707437944
 10
-383.7081738413449
 20
436.2983370352798
 10
-383.369803760785
 20
436.4672114249741
 10
-383.115442567525
 20
436.6630118131092
 10
-382.9428188490916
 20
436.9121102165325
 10
-382.9010845315207
 20
437.1180574449677
  0
LINE
  5
80
330
1F
100
AcDbEntity
  8
0
  6
CONTINUOUS
 62
     7
100
AcDbLine
 10
-224.8502988394158
 20
541.8512073086788
 30
0.0
 11
-224.9010773846448
 21
544.6144303860497
 31
0.0
  0
LINE
  5
81
330
1F
100
AcDbEntity
  8
0
  6
CONTINUOUS
 62
     7
100
AcDbLine
 10
-580.7063239497082
 20
565.1418486050084
 30
0.0
 11
-582.3364391796997
 21
564.6121920596548
 31
0.0
  0
LINE
  5
82
330
1F
100
AcDbEntity
  8
0
  6
CONTINUOUS
 62
     7
100
AcDbLine
 10
-674.6874051163377
 20
467.5500000000021
 30
0.0
 11
-677.1689343086994
 21
467.5500000000021
 31
0.0
  0
ARC
  5
83
330
1F
100
AcDbEntity
  8
0
  6
CONTINUOUS
 62
     7
100
AcDbCircle
 10
-656.251868163587
 20
543.75
 30
0.0
 40
76.19999999999982
100
AcDbArc
 50
192.2646732131749
 51
195.3868375358298
  0
LWPOLYLINE
  5
84
330
1F
100
AcDbEntity
  8
0
  6
CONTINUOUS
 62
     7
100
AcDbPolyline
 90
        6
 70
     0
 43
0.0
 10
-385.1246273962131
 20
441.3806641071758
 42
0.0741050352844621
 10
-383.7102749336481
 20
441.7289531264898
 10
-383.4370059003266
 20
441.8694118794983
 10
-383.1916547516691
 20
442.0477788848269
 10
-382.9759114084302
 20
442.3152852490786
 10
-382.9010845315205
 20
442.6084354018877
  0
LINE
  5
85
330
1F
100
AcDbEntity
  8
0
  6
CONTINUOUS
 62
     7
100
AcDbLine
 10
-251.9010845315526
 20
450.2500000000001
 30
0.0
 11
-251.9010845315526
 21
628.5044641670906
 31
0.0
  0
LINE
  5
86
330
1F
100
AcDbEntity
  8
0
  6
CONTINUOUS
 62
     7
100
AcDbLine
 10
-637.8163312108366
 20
467.5500000000021
 30
0.0
 11
-640.8521100693148
 21
467.9490752094806
 31
0.0
  0
LWPOLYLINE
  5
87
330
1F
100
AcDbEntity
  8
0
  6
CONTINUOUS
 62
     7
100
AcDbPolyline
 90
        6
 70
     0
 43
0.0
 10
-382.9010845315205
 20
650.3819425550319
 10
-382.9981980009309
 20
650.6934250978802
 10
-383.2143863787182
 20
650.9245772436858
 10
-383.5511181433996
 20
651.1316466418743
 10
-383.864427208053
 20
651.2608958848425
 42
0.0569836182653395
 10
-385.1246273962132
 20
651.5209129325509
  0
ELLIPSE
  5
88
330
1F
100
AcDbEntity
  8
0
  6
CONTINUOUS
 62
     7
100
AcDbEllipse
 10
-684.5283642188064
 20
619.4493138269985
 30
0.0
 11
-0.09841089506523738
 21
-0.4909475830539023
 31
0.0
210
0.0
220
0.0
230
-1.0
 40
0.9985745863604
 41
2.944038257173829
 42
4.199791173280406
  0
LINE
  5
89
330
1F
100
AcDbEntity
  8
0
  6
CONTINUOUS
 62
     7
100
AcDbLine
 10
-582.3364391796996
 20
522.8878079403447
 30
0.0
 11
-580.7063239497081
 21
522.3581513949915
 31
0.0
  0
ELLIPSE
  5
8A
330
1F
100
AcDbEntity
  8
0
  6
CONTINUOUS
 62
     7
100
AcDbEllipse
 10
-731.9511819905858
 20
515.4735039447809
 30
0.0
 11
0.4909475830539023
 21
-0.0984108950654594
 31
0.0
210
0.0
220
0.0
230
-1.0
 40
0.9985745863607479
 41
2.944038257173906
 42
4.199791173280408
  0
LINE
  5
8B
330
1F
100
AcDbEntity
  8
0
  6
CONTINUOUS
 62
     7
100
AcDbLine
 10
-635.3896761039321
 20
617.6654289838874
 30
0.0
 11
-634.8600195585786
 21
619.2955442138787
 31
0.0
  0
ARC
  5
8C
330
1F
100
AcDbEntity
  8
0
  6
CONTINUOUS
 62
     7
100
AcDbCircle
 10
-656.251868163587
 20
543.75
 30
0.0
 40
76.19999999999982
100
AcDbArc
 50
12.26467321317488
 51
15.38683753582977
  0
ELLIPSE
  5
8D
330
1F
100
AcDbEntity
  8
0
  6
CONTINUOUS
 62
     7
100
AcDbEllipse
 10
-635.3359681113905
 20
619.4493138269985
 30
0.0
 11
-0.324653874706371
 21
-0.3818153278458692
 31
0.0
210
0.0
220
0.0
230
-1.0
 40
0.9976421992492879
 41
2.438094788557674
 42
4.321054047774852
  0
LINE
  5
8E
330
1F
100
AcDbEntity
  8
0
  6
CONTINUOUS
 62
     7
100
AcDbLine
 10
-730.96835074154
 20
528.4450162325068
 30
0.0
 11
-730.7127354916921
 21
527.5629917296003
 31
0.0
  0
LINE
  5
8F
330
1F
100
AcDbEntity
  8
0
  6
CONTINUOUS
 62
     7
100
AcDbLine
 10
-581.7910008354819
 20
527.5629917296003
 30
0.0
 11
-581.5353855856339
 21
528.4450162325068
 31
0.0
  0
ELLIPSE
  5
90
330
1F
100
AcDbEntity
  8
0
  6
CONTINUOUS
 62
     7
100
AcDbEllipse
 10
-677.1677682157838
 20
619.449313826999
 30
0.0
 11
-0.324653874706371
 21
0.3818153278458692
 31
0.0
210
0.0
220
0.0
230
-1.0
 40
0.9976421992492879
 41
5.10372391299449
 42
6.986683172211704
  0
ELLIPSE
  5
91
330
1F
100
AcDbEntity
  8
0
  6
CONTINUOUS
 62
     7
100
AcDbEllipse
 10
-677.1677682157838
 20
468.0506861730012
 30
0.0
 11
0.3246538747065931
 21
0.3818153278460912
 31
0.0
210
0.0
220
0.0
230
-1.0
 40
0.9976421992483273
 41
2.438094788557673
 42
4.321054047774882
  0
ELLIPSE
  5
92
330
1F
100
AcDbEntity
  8
0
  6
CONTINUOUS
 62
     7
100
AcDbEllipse
 10
-580.5525543365884
 20
522.8340999478031
 30
0.0
 11
-0.3818153278459802
 21
0.324653874706371
 31
0.0
210
0.0
220
0.0
230
-1.0
 40
0.9976421992492629
 41
2.438094788557577
 42
4.321054047774878
  0
ELLIPSE
  5
93
330
1F
100
AcDbEntity
  8
0
  6
CONTINUOUS
 62
     7
100
AcDbEllipse
 10
-731.9511819905861
 20
522.8340999478031
 30
0.0
 11
-0.3818153278458692
 21
-0.324653874706371
 31
0.0
210
0.0
220
0.0
230
-1.0
 40
0.9976421992492879
 41
5.103723912994465
 42
6.986683172211809
  0
LINE
  5
94
330
1F
100
AcDbEntity
  8
0
  6
CONTINUOUS
 62
     7
100
AcDbLine
 10
-732.4518681635849
 20
525.3144630472494
 30
0.0
 11
-732.0527929541065
 21
528.3502419057273
 31
0.0
  0
LINE
  5
95
330
1F
100
AcDbEntity
  8
0
  6
CONTINUOUS
 62
     7
100
AcDbLine
 10
-224.901084531553
 20
541.7500000000001
 30
0.0
 11
-251.4010845315528
 21
541.7500000000001
 31
0.0
  0
LINE
  5
96
330
1F
100
AcDbEntity
  8
0
  6
CONTINUOUS
 62
     7
100
AcDbLine
 10
-580.0518681635895
 20
562.1855369527505
 30
0.0
 11
-580.4509433730677
 21
559.1497580942724
 31
0.0
  0
LWPOLYLINE
  5
97
330
1F
100
AcDbEntity
  8
0
  6
CONTINUOUS
 62
     7
100
AcDbPolyline
 90
        5
 70
     0
 43
0.0
 10
-382.9010845315205
 20
644.8915645981124
 10
-382.9999300617147
 20
645.2272182859643
 10
-383.2202785400474
 20
645.4769814684294
 10
-383.5640951778187
 20
645.7013371334145
 42
0.0896106647559372
 10
-385.1246273962133
 20
646.1193358928239
  0
LINE
  5
98
330
1F
100
AcDbEntity
  8
0
  6
CONTINUOUS
 62
     7
100
AcDbLine
 10
-581.5353855856341
 20
559.0549837674929
 30
0.0
 11
-581.7910008354819
 21
559.9370082703995
 31
0.0
  0
LINE
  5
99
330
1F
100
AcDbEntity
  8
0
  6
CONTINUOUS
 62
     7
100
AcDbLine
 10
-635.3348020184749
 20
467.5500000000021
 30
0.0
 11
-637.8163312108366
 21
467.5500000000021
 31
0.0
  0
LINE
  5
9A
330
1F
100
AcDbEntity
  8
0
  6
________________
 62
     1
100
AcDbLine
 10
-786.25
 20
543.75
 30
0.0
 11
-531.25
 21
543.75
 31
0.0
  0
ARC
  5
9C
330
1F
100
AcDbEntity
  8
0
  6
CONTINUOUS
 62
     7
100
AcDbCircle
 10
-656.251868163587
 20
543.75
 30
0.0
 40
76.19999999999982
100
AcDbArc
 50
102.2646732131749
 51
105.3868375358299
  0
LINE
  5
9D
330
1F
100
AcDbEntity
  8
0
  6
________________
 62
     7
100
AcDbLine
 10
-252.682161170443
 20
543.75
 30
0.0
 11
-284.4010845315529
 21
543.75
 31
0.0
  0
LINE
  5
9E
330
1F
100
AcDbEntity
  8
0
  6
CONTINUOUS
 62
     7
100
AcDbLine
 10
-287.4010845315528
 20
543.75
 30
0.0
 11
-252.4010845315527
 21
543.75
 31
0.0
  0
LINE
  5
9F
330
1F
100
AcDbEntity
  8
0
  6
CONTINUOUS
 62
     7
100
AcDbLine
 10
-759.7893695602672
 20
606.4016126864186
 30
0.0
 11
-759.6248114623835
 21
606.901612686417
 31
0.0
  0
ARC
  5
A0
330
1F
100
AcDbEntity
  8
0
  6
CONTINUOUS
 62
     7
100
AcDbCircle
 10
-656.251868163587
 20
543.75
 30
0.0
 40
76.19999999999982
100
AcDbArc
 50
164.6131624641702
 51
167.735326786825
  0
ARC
  5
A1
330
1F
100
AcDbEntity
  8
0
  6
CONTINUOUS
 62
     7
100
AcDbCircle
 10
-656.251868163587
 20
543.75
 30
0.0
 40
76.19999999999982
100
AcDbArc
 50
344.6131624641702
 51
347.7353267868252
  0
LINE
  5
A2
330
1F
100
AcDbEntity
  8
0
  6
CONTINUOUS
 62
     7
100
AcDbLine
 10
-672.4388764339869
 20
469.2891326718948
 30
0.0
 11
-671.5568519310802
 21
469.0335174220473
 31
0.0
  0
LINE
  5
A3
330
1F
100
AcDbEntity
  8
0
  6
CONTINUOUS
 62
     7
100
AcDbLine
 10
-253.9326275704811
 20
558.7500000000001
 30
0.0
 11
-285.9010845315529
 21
558.7500000000001
 31
0.0
  0
LINE
  5
A4
330
1F
100
AcDbEntity
  8
0
  6
CONTINUOUS
 62
     7
100
AcDbLine
 10
-251.9010845315526
 20
626.2499999999973
 30
0.0
 11
-252.401084531553
 21
626.2499999999973
 31
0.0
  0
ARC
  5
A5
330
1F
100
AcDbEntity
  8
0
  6
CONTINUOUS
 62
     7
100
AcDbCircle
 10
-254.4010845315528
 20
638.25
 30
0.0
 40
2.000000000000002
100
AcDbArc
 50
0.0
 51
90.0
  0
LINE
  5
A6
330
1F
100
AcDbEntity
  8
0
  6
CONTINUOUS
 62
     7
100
AcDbLine
 10
-251.9010845315526
 20
628.5319142084737
 30
0.0
 11
-251.9010845315526
 21
637.25
 31
0.0
  0
LINE
  5
A7
330
1F
100
AcDbEntity
  8
0
  6
CONTINUOUS
 62
     7
100
AcDbLine
 10
-251.9010845315526
 20
554.2499999999999
 30
0.0
 11
-252.4010845315527
 21
554.2499999999999
 31
0.0
  0
LWPOLYLINE
  5
A8
330
1F
100
AcDbEntity
  8
0
  6
CONTINUOUS
 62
     7
100
AcDbPolyline
 90
        4
 70
     0
 43
0.0
 10
618.7375645705658
 20
476.732101455382
 10
618.8211826058345
 20
477.0429719168858
 10
618.754660770182
 20
477.3437154596418
 10
618.5982781541958
 20
477.503134720167
210
0.0
220
0.0
230
-1.0
  0
LWPOLYLINE
  5
A9
330
1F
100
AcDbEntity
  8
0
  6
CONTINUOUS
 62
     7
100
AcDbPolyline
 90
        4
 70
     0
 43
0.0
 10
583.2442073831037
 20
593.0849664947111
 10
582.9479077858246
 20
593.1806677174791
 10
582.6530536763527
 20
593.0828653581291
 10
582.4802176085562
 20
592.8506393184048
210
0.0
220
0.0
230
-1.0
  0
LWPOLYLINE
  5
AA
330
1F
100
AcDbEntity
  8
0
  6
CONTINUOUS
 62
     7
100
AcDbPolyline
 90
        4
 70
     0
 43
0.0
 10
725.6531928025034
 20
512.2873850679348
 10
725.6378414691576
 20
511.9823876510359
 10
725.802203517289
 20
511.718750759754
 10
725.9937097066422
 20
511.5817355521086
210
0.0
220
0.0
230
-1.0
  0
LWPOLYLINE
  5
AB
330
1F
100
AcDbEntity
  8
0
  6
CONTINUOUS
 62
     7
100
AcDbPolyline
 90
        4
 70
     0
 43
0.0
 10
719.8769099956385
 20
501.8179829739924
 10
719.8140355549289
 20
501.5191420590295
 10
719.935132137452
 20
501.2330390862869
 10
720.1028466671177
 20
501.0677525949282
210
0.0
220
0.0
230
-1.0
  0
LWPOLYLINE
  5
AC
330
1F
100
AcDbEntity
  8
0
  6
CONTINUOUS
 62
     7
100
AcDbPolyline
 90
        4
 70
     0
 43
0.0
 10
677.1140602232421
 20
469.8345710161122
 10
676.9533684916104
 20
470.1135165072798
 10
676.6936726520426
 20
470.2791362646745
 10
676.4703670036499
 20
470.2812834966199
210
0.0
220
0.0
230
-1.0
  0
LWPOLYLINE
  5
AD
330
1F
100
AcDbEntity
  8
0
  6
CONTINUOUS
 62
     7
100
AcDbPolyline
 90
        4
 70
     0
 43
0.0
 10
729.720584666967
 20
523.5315011599371
 10
729.7531344417602
 20
523.2278572897349
 10
729.9567148163882
 20
522.9931780951371
 10
730.1672971474746
 20
522.8878079403447
210
0.0
220
0.0
230
-1.0
  0
LWPOLYLINE
  5
AE
330
1F
100
AcDbEntity
  8
0
  6
CONTINUOUS
 62
     7
100
AcDbPolyline
 90
        4
 70
     0
 43
0.0
 10
582.4802176085562
 20
494.6493606815953
 10
582.6709999720389
 20
494.4044613063154
 10
582.9693298673751
 20
494.3197089750568
 10
583.2442073831038
 20
494.4150335052889
210
0.0
220
0.0
230
-1.0
  0
LWPOLYLINE
  5
AF
330
1F
100
AcDbEntity
  8
0
  6
CONTINUOUS
 62
     7
100
AcDbPolyline
 90
        4
 70
     0
 43
0.0
 10
688.4201326114786
 20
474.0081584569449
 10
688.2177825730297
 20
474.2585319411585
 10
687.9353753820393
 20
474.3814872647733
 10
687.7144830956521
 20
474.3486753610837
210
0.0
220
0.0
230
-1.0
  0
LWPOLYLINE
  5
B0
330
1F
100
AcDbEntity
  8
0
  6
CONTINUOUS
 62
     7
100
AcDbPolyline
 90
        4
 70
     0
 43
0.0
 10
586.510026620532
 20
511.5817355521086
 10
586.760400104746
 20
511.7840855905575
 10
586.8833554283605
 20
512.0664927815475
 10
586.8505435246708
 20
512.2873850679348
210
0.0
220
0.0
230
-1.0
  0
LWPOLYLINE
  5
B1
330
1F
100
AcDbEntity
  8
0
  6
CONTINUOUS
 62
     7
100
AcDbPolyline
 90
        4
 70
     0
 43
0.0
 10
725.9937097066421
 20
575.9182644478913
 10
725.7433362224283
 20
575.7159144094423
 10
725.6203808988137
 20
575.4335072184517
 10
725.6531928025033
 20
575.2126149320648
210
0.0
220
0.0
230
-1.0
  0
LWPOLYLINE
  5
B2
330
1F
100
AcDbEntity
  8
0
  6
CONTINUOUS
 62
     7
100
AcDbPolyline
 90
        4
 70
     0
 43
0.0
 10
705.5868346582979
 20
616.7576607804832
 10
705.6825358810662
 20
617.0539603777625
 10
705.5847335217161
 20
617.3488144872346
 10
705.3525074819918
 20
617.5216505550306
210
0.0
220
0.0
230
-1.0
  0
LWPOLYLINE
  5
B3
330
1F
100
AcDbEntity
  8
0
  6
CONTINUOUS
 62
     7
100
AcDbPolyline
 90
        4
 70
     0
 43
0.0
 10
592.4008896600569
 20
501.0677525949283
 10
592.6165261111929
 20
501.3067784106864
 10
592.6937894328953
 20
501.6049431508011
 10
592.6268263315361
 20
501.8179829739924
210
0.0
220
0.0
230
-1.0
  0
LWPOLYLINE
  5
B4
330
1F
100
AcDbEntity
  8
0
  6
CONTINUOUS
 62
     7
100
AcDbPolyline
 90
        4
 70
     0
 43
0.0
 10
586.8505435246707
 20
575.2126149320651
 10
586.8658948580166
 20
575.5176123489638
 10
586.7015328098854
 20
575.7812492402456
 10
586.5100266205321
 20
575.918264447891
210
0.0
220
0.0
230
-1.0
  0
LWPOLYLINE
  5
B5
330
1F
100
AcDbEntity
  8
0
  6
CONTINUOUS
 62
     7
100
AcDbPolyline
 90
        4
 70
     0
 43
0.0
 10
584.9302925157562
 20
516.9232810968174
 10
584.7254818059316
 20
517.1498018704604
 10
584.4228408535317
 20
517.2199997852533
 10
584.1905411459492
 20
517.1814688425742
210
0.0
220
0.0
230
-1.0
  0
LWPOLYLINE
  5
B6
330
1F
100
AcDbEntity
  8
0
  6
CONTINUOUS
 62
     7
100
AcDbPolyline
 90
        4
 70
     0
 43
0.0
 10
683.0785870667696
 20
472.4284243521686
 10
682.8520662931267
 20
472.2236136423446
 10
682.7818683783337
 20
471.9209726899447
 10
682.8203993210128
 20
471.6886729823619
210
0.0
220
0.0
230
-1.0
  0
LWPOLYLINE
  5
B7
330
1F
100
AcDbEntity
  8
0
  6
CONTINUOUS
 62
     7
100
AcDbPolyline
 90
        4
 70
     0
 43
0.0
 10
676.4703670036499
 20
617.2187165033798
 10
676.7740108738524
 20
617.251266278173
 10
677.0086900684498
 20
617.4548466528009
 10
677.1140602232421
 20
617.6654289838874
210
0.0
220
0.0
230
-1.0
  0
LWPOLYLINE
  5
B8
330
1F
100
AcDbEntity
  8
0
  6
CONTINUOUS
 62
     7
100
AcDbPolyline
 90
       54
 70
     0
 43
0.0
 10
640.8521100693149
 20
467.9490752094806
 10
640.8680037730134
 20
467.9549246304067
 10
640.8835931613658
 20
467.9615986078855
 10
640.898830070748
 20
467.9690475231139
 10
640.9136663375353
 20
467.9772217572884
 10
640.9286571920512
 20
467.986455838018
 10
640.9432085259647
 20
467.9964017685916
 10
640.9572928248039
 20
468.0070029157697
 10
640.9708825740968
 20
468.0182026463146
 10
640.9876875959131
 20
468.0334829879362
 10
641.0037067866973
 20
468.049649570933
 10
641.0189342368425
 20
468.0666085764285
 10
641.0333640367421
 20
468.0842661855447
 10
641.0469902767893
 20
468.1025285794049
 10
641.0598070473775
 20
468.1213019391321
 10
641.0748244104153
 20
468.1455575044307
 10
641.0887120747067
 20
468.1705098156108
 10
641.1015032680701
 20
468.1960488202834
 10
641.1132312183244
 20
468.2220644660601
 10
641.1276679945373
 20
468.2583693430116
 10
641.1403279183908
 20
468.2953580808016
 10
641.1512859128756
 20
468.3328670254392
 10
641.160360377828
 20
468.3696082053337
 10
641.1679600678411
 20
468.4067130851697
 10
641.1740899350865
 20
468.4440904837417
 10
641.1787549317365
 20
468.4816492198423
 10
641.1821939189025
 20
468.523294547158
 10
641.1837547844631
 20
468.5650722802399
 10
641.1833348282404
 20
468.6068519599773
 10
641.181594384543
 20
468.6388782725703
 10
641.1785339312078
 20
468.6708357810232
 10
641.1740693702677
 20
468.7026196879509
 10
641.1681166037542
 20
468.7341251959696
 10
641.1623795762266
 20
468.7584366745441
 10
641.1556076536476
 20
468.7825456328836
 10
641.1477623218166
 20
468.8063474973825
 10
641.1388050665324
 20
468.8297376944361
 10
641.1286973735945
 20
468.8526116504399
 10
641.117400728802
 20
468.8748647917884
 10
641.107207000968
 20
468.8926080018867
 10
641.0961522764188
 20
468.9098415924702
 10
641.0842373215929
 20
468.9264744187171
 10
641.074468638514
 20
468.9388262589242
 10
641.0641704875125
 20
468.9507602479526
 10
641.053357082152
 20
468.9622269104277
 10
641.0420426359967
 20
468.973176770976
 10
641.031620341555
 20
468.9824010790058
 10
641.0208036050138
 20
468.9911803658106
 10
641.0096153733485
 20
468.9994791543486
 10
640.9980785935351
 20
469.0072619675771
 10
640.9857804000402
 20
469.0147472834052
 10
640.9731213722581
 20
469.0216405096741
 10
640.9601424057544
 20
469.027908328512
 10
640.9468843960941
 20
469.033517422047
210
0.0
220
0.0
230
-1.0
  0
LWPOLYLINE
  5
B9
330
1F
100
AcDbEntity
  8
0
  6
CONTINUOUS
 62
     7
100
AcDbPolyline
 90
        4
 70
     0
 43
0.0
 10
582.3364391796996
 20
522.8878079403447
 10
582.6153846708671
 20
523.0484996719764
 10
582.7810044282617
 20
523.3081955115446
 10
582.7831516602071
 20
523.5315011599373
210
0.0
220
0.0
230
-1.0
  0
LWPOLYLINE
  5
BA
330
1F
100
AcDbEntity
  8
0
  6
CONTINUOUS
 62
     7
100
AcDbPolyline
 90
        4
 70
     0
 43
0.0
 10
606.9169016688761
 20
470.7423392195167
 10
606.8212004461078
 20
470.4460396222376
 10
606.9190028054581
 20
470.1511855127653
 10
607.1512288451825
 20
469.9783494449692
210
0.0
220
0.0
230
-1.0
  0
LWPOLYLINE
  5
BB
330
1F
100
AcDbEntity
  8
0
  6
CONTINUOUS
 62
     7
100
AcDbPolyline
 90
        4
 70
     0
 43
0.0
 10
618.5982781541958
 20
609.9968652798326
 10
618.7899706273995
 20
610.2345900860007
 10
618.8119608138868
 20
610.5444863993204
 10
618.7375645705658
 20
610.7678985446177
210
0.0
220
0.0
230
-1.0
  0
LWPOLYLINE
  5
BC
330
1F
100
AcDbEntity
  8
0
  6
CONTINUOUS
 62
     7
100
AcDbPolyline
 90
       54
 70
     0
 43
0.0
 10
640.9468843960938
 20
618.4664825779531
 10
640.9602958933143
 20
618.4721613170134
 10
640.9734216092207
 20
618.4785141069733
 10
640.9862192877519
 20
618.4855063879227
 10
640.9986466728469
 20
618.4931035999525
 10
641.0111622905289
 20
618.501623436885
 10
641.0232639097871
 20
618.5107504724041
 10
641.0349229560196
 20
618.5204389422048
 10
641.0461108546258
 20
618.5306430819824
 10
641.0598765558786
 20
618.5445703465361
 10
641.0728722366806
 20
618.5592830103286
 10
641.0850855322668
 20
618.5746931874498
 10
641.0965040778725
 20
618.5907129919902
 10
641.1071155087336
 20
618.6072545380406
 10
641.1169074600851
 20
618.6242299396908
 10
641.1266143095689
 20
618.6430459737467
 10
641.1354555964284
 20
618.6623070240445
 10
641.1434508473245
 20
618.6819384854283
 10
641.1506195889168
 20
618.7018657527436
 10
641.1591653201151
 20
618.7295942121484
 10
641.1663129367305
 20
618.757736172821
 10
641.1721315561235
 20
618.7861678820703
 10
641.1761395938584
 20
618.8108504248675
 10
641.1792650718883
 20
618.8356607640575
 10
641.1826820193164
 20
618.8777007481443
 10
641.1839052530156
 20
618.919949589593
 10
641.1830347136535
 20
618.9622685546212
 10
641.1801703418984
 20
619.0045189094479
 10
641.1754120784174
 20
619.0465619202919
 10
641.1688598638789
 20
619.0882588533715
 10
641.1616723936243
 20
619.1244780956932
 10
641.1530732403868
 20
619.1604190131745
 10
641.1430242259443
 20
619.1959768850561
 10
641.1314871720754
 20
619.2310469905773
 10
641.1207707704319
 20
619.2596430525359
 10
641.1089173597574
 20
619.287836519877
 10
641.0958847132256
 20
619.3155101221026
 10
641.0816306040111
 20
619.3425465887148
 10
641.0661128052884
 20
619.3688286492154
 10
641.05321009285
 20
619.3885614566387
 10
641.0394477923146
 20
619.4077766464916
 10
641.0248292468768
 20
619.4263728642173
 10
641.0093577997321
 20
619.4442487552594
 10
640.9930367940754
 20
619.4613029650607
 10
640.9758695731012
 20
619.4774341390652
 10
640.9605566242745
 20
619.4903969595471
 10
640.9446093864334
 20
619.5025902555537
 10
640.9280628121236
 20
619.5139316133835
 10
640.9149166982822
 20
619.5220442158374
 10
640.9014207396187
 20
619.5295910747003
 10
640.8876058953932
 20
619.536533434156
 10
640.8735031248664
 20
619.542832538388
 10
640.8628780183309
 20
619.5470675988004
 10
640.8521100693142
 20
619.5509247905196
210
0.0
220
0.0
230
-1.0
  0
LWPOLYLINE
  5
BD
330
1F
100
AcDbEntity
  8
0
  6
CONTINUOUS
 62
     7
100
AcDbPolyline
 90
        4
 70
     0
 43
0.0
 10
614.3198511375797
 20
480.1249581679485
 10
614.0210102226166
 20
480.1878326086581
 10
613.7349072498745
 20
480.0667360261352
 10
613.5696207585155
 20
479.8990214964696
210
0.0
220
0.0
230
-1.0
  0
LWPOLYLINE
  5
BE
330
1F
100
AcDbEntity
  8
0
  6
CONTINUOUS
 62
     7
100
AcDbPolyline
 90
        4
 70
     0
 43
0.0
 10
682.8203993210128
 20
615.811327017638
 10
682.7864416168567
 20
615.4912031447603
 10
682.8991911135507
 20
615.2045685618443
 10
683.0785870667696
 20
615.0715756478309
210
0.0
220
0.0
230
-1.0
  0
LWPOLYLINE
  5
BF
330
1F
100
AcDbEntity
  8
0
  6
CONTINUOUS
 62
     7
100
AcDbPolyline
 90
        4
 70
     0
 43
0.0
 10
582.7831516602068
 20
563.968498840063
 10
582.7506018854142
 20
564.272142710265
 10
582.547021510786
 20
564.5068219048628
 10
582.3364391796997
 20
564.6121920596548
210
0.0
220
0.0
230
-1.0
  0
LWPOLYLINE
  5
C0
330
1F
100
AcDbEntity
  8
0
  6
CONTINUOUS
 62
     7
100
AcDbPolyline
 90
        4
 70
     0
 43
0.0
 10
730.1672971474745
 20
564.6121920596547
 10
729.8883516563071
 20
564.4515003280233
 10
729.7227318989127
 20
564.1918044884553
 10
729.720584666967
 20
563.968498840063
210
0.0
220
0.0
230
-1.0
  0
LWPOLYLINE
  5
C1
330
1F
100
AcDbEntity
  8
0
  6
CONTINUOUS
 62
     7
100
AcDbPolyline
 90
       54
 70
     0
 43
0.0
 10
730.9683507415398
 20
559.0549837674929
 10
730.9740294806003
 20
559.0415722702728
 10
730.9803822705602
 20
559.0284465543665
 10
730.9873745515098
 20
559.0156488758353
 10
730.9949717635396
 20
559.0032214907403
 10
731.0034916004722
 20
558.9907058730583
 10
731.0126186359912
 20
558.9786042537999
 10
731.0223071057918
 20
558.9669452075674
 10
731.0325112455695
 20
558.9557573089614
 10
731.0464385101235
 20
558.9419916077082
 10
731.0611511739156
 20
558.9289959269064
 10
731.076561351037
 20
558.9167826313204
 10
731.0925811555774
 20
558.9053640857145
 10
731.1091227016276
 20
558.8947526548533
 10
731.1260981032777
 20
558.884960703502
 10
731.1449141373339
 20
558.8752538540181
 10
731.1641751876315
 20
558.8664125671585
 10
731.1838066490157
 20
558.858417316263
 10
731.2037339163307
 20
558.8512485746706
 10
731.2314623757355
 20
558.8427028434721
 10
731.2596043364077
 20
558.8355552268564
 10
731.2880360456571
 20
558.8297366074632
 10
731.3127185884546
 20
558.8257285697287
 10
731.3375289276446
 20
558.8226030916987
 10
731.3795689117316
 20
558.8191861442706
 10
731.42181775318
 20
558.8179629105714
 10
731.4641367182084
 20
558.8188334499333
 10
731.5063870730353
 20
558.8216978216889
 10
731.5484300838791
 20
558.8264560851701
 10
731.5901270169588
 20
558.8330082997084
 10
731.6263462592804
 20
558.8401957699622
 10
731.6622871767619
 20
558.8487949232006
 10
731.6978450486434
 20
558.8588439376427
 10
731.7329151541646
 20
558.8703809915116
 10
731.7615112161232
 20
558.8810973931548
 10
731.7897046834644
 20
558.8929508038299
 10
731.8173782856899
 20
558.9059834503615
 10
731.8444147523019
 20
558.9202375595759
 10
731.8706968128024
 20
558.9357553582983
 10
731.8904296202256
 20
558.948658070737
 10
731.9096448100782
 20
558.962420371272
 10
731.9282410278039
 20
558.9770389167097
 10
731.9461169188457
 20
558.992510363854
 10
731.9631711286472
 20
559.0088313695107
 10
731.9793023026518
 20
559.0259985904846
 10
731.992265123133
 20
559.0413115393111
 10
732.00445841914
 20
559.057258777152
 10
732.0157997769695
 20
559.0738053514618
 10
732.0239123794233
 20
559.0869514653027
 10
732.0314592382863
 20
559.100447423966
 10
732.038401597742
 20
559.1142622681915
 10
732.0447007019744
 20
559.1283650387185
 10
732.0489357623889
 20
559.1389901452596
 10
732.0527929541101
 20
559.1497580942823
210
0.0
220
0.0
230
-1.0
  0
LWPOLYLINE
  5
C2
330
1F
100
AcDbEntity
  8
0
  6
CONTINUOUS
 62
     7
100
AcDbPolyline
 90
        4
 70
     0
 43
0.0
 10
584.190541145949
 20
570.3185311574257
 10
584.5106650188264
 20
570.2845734532691
 10
584.7972996017425
 20
570.3973229499637
 10
584.9302925157562
 20
570.5767189031825
210
0.0
220
0.0
230
-1.0
  0
LWPOLYLINE
  5
C3
330
1F
100
AcDbEntity
  8
0
  6
CONTINUOUS
 62
     7
100
AcDbPolyline
 90
       54
 70
     0
 43
0.0
 10
581.5353855856339
 20
528.4450162325068
 10
581.5297068465735
 20
528.4584277297273
 10
581.5233540566139
 20
528.4715534456334
 10
581.5163617756646
 20
528.4843511241646
 10
581.5087645636345
 20
528.4967785092598
 10
581.5002447267019
 20
528.5092941269415
 10
581.4911176911833
 20
528.5213957462
 10
581.4814292213827
 20
528.5330547924325
 10
581.4712250816046
 20
528.5442426910387
 10
581.4572978170506
 20
528.5580083922914
 10
581.4425851532584
 20
528.5710040730933
 10
581.4271749761374
 20
528.5832173686795
 10
581.4111551715966
 20
528.5946359142853
 10
581.3946136255465
 20
528.6052473451466
 10
581.3776382238963
 20
528.6150392964979
 10
581.3588221898403
 20
528.6247461459816
 10
581.3395611395426
 20
528.6335874328414
 10
581.3199296781585
 20
528.6415826837372
 10
581.3000024108434
 20
528.6487514253297
 10
581.2722739514386
 20
528.657297156528
 10
581.2441319907663
 20
528.6644447731435
 10
581.2157002815172
 20
528.6702633925362
 10
581.1910177387197
 20
528.674271430271
 10
581.1662073995299
 20
528.6773969083007
 10
581.1241674154429
 20
528.6808138557293
 10
581.0819185739942
 20
528.6820370894283
 10
581.039599608966
 20
528.6811665500663
 10
580.9973492541391
 20
528.6783021783108
 10
580.9553062432951
 20
528.6735439148298
 10
580.9136093102155
 20
528.6669917002915
 10
580.877390067894
 20
528.6598042300373
 10
580.8414491504125
 20
528.6512050767993
 10
580.8058912785309
 20
528.6411560623569
 10
580.7708211730095
 20
528.6296190084882
 10
580.7422251110511
 20
528.6189026068448
 10
580.7140316437102
 20
528.60704919617
 10
580.6863580414846
 20
528.5940165496384
 10
580.6593215748724
 20
528.579762440424
 10
580.6330395143718
 20
528.5642446417016
 10
580.6133067069484
 20
528.5513419292629
 10
580.5940915170955
 20
528.5375796287275
 10
580.5754952993698
 20
528.5229610832897
 10
580.5576194083278
 20
528.507489636145
 10
580.540565198526
 20
528.4911686304882
 10
580.5244340245215
 20
528.4740014095141
 10
580.5114712040402
 20
528.4586884606872
 10
580.4992779080333
 20
528.442741222846
 10
580.4879365502034
 20
528.4261946485362
 10
580.4798239477497
 20
528.4130485346951
 10
580.4722770888867
 20
528.3995525760316
 10
580.465334729431
 20
528.3857377318062
 10
580.4590356251988
 20
528.3716349612793
 10
580.4548005647869
 20
528.3610098547438
 10
580.4509433730673
 20
528.350241905727
210
0.0
220
0.0
230
-1.0
  0
LWPOLYLINE
  5
C4
330
1F
100
AcDbEntity
  8
0
  6
CONTINUOUS
 62
     7
100
AcDbPolyline
 90
        4
 70
     0
 43
0.0
 10
-396.27167500897
 20
481.0813502267257
 10
-396.5875249960803
 20
481.0623269143646
 10
-396.8287151916415
 20
480.8574857862224
 10
-396.9010845315217
 20
480.5983873135812
  0
LWPOLYLINE
  5
C5
330
1F
100
AcDbEntity
  8
0
  6
CONTINUOUS
 62
     7
100
AcDbPolyline
 90
        4
 70
     0
 43
0.0
 10
698.9341155686587
 20
479.8990214964693
 10
698.6950897529006
 20
480.1146579476058
 10
698.3969250127858
 20
480.1919212693082
 10
698.1838851895944
 20
480.1249581679487
210
0.0
220
0.0
230
-1.0
  0
LWPOLYLINE
  5
C6
330
1F
100
AcDbEntity
  8
0
  6
CONTINUOUS
 62
     7
100
AcDbPolyline
 90
        4
 70
     0
 43
0.0
 10
693.7661717566085
 20
610.7678985446177
 10
693.6825537213399
 20
610.4570280831143
 10
693.7490755569922
 20
610.1562845403581
 10
693.9054581729786
 20
609.9968652798328
210
0.0
220
0.0
230
-1.0
  0
LWPOLYLINE
  5
C7
330
1F
100
AcDbEntity
  8
0
  6
CONTINUOUS
 62
     7
100
AcDbPolyline
 90
        4
 70
     0
 43
0.0
 10
730.023518718618
 20
592.8506393184045
 10
729.8327363551352
 20
593.0955386936845
 10
729.5344064597994
 20
593.180291024943
 10
729.2595289440706
 20
593.084966494711
210
0.0
220
0.0
230
-1.0
  0
LWPOLYLINE
  5
C8
330
1F
100
AcDbEntity
  8
0
  6
CONTINUOUS
 62
     7
100
AcDbPolyline
 90
        4
 70
     0
 43
0.0
 10
629.4251492604047
 20
615.0715756478309
 10
629.6516700340475
 20
615.2763863576556
 10
629.7218679488404
 20
615.5790273100552
 10
629.6833370061613
 20
615.8113270176378
210
0.0
220
0.0
230
-1.0
  0
LWPOLYLINE
  5
C9
330
1F
100
AcDbEntity
  8
0
  6
CONTINUOUS
 62
     7
100
AcDbPolyline
 90
        4
 70
     0
 43
0.0
 10
727.5734438114182
 20
570.5767189031825
 10
727.7782545212426
 20
570.3501981295395
 10
728.0808954736425
 20
570.2800002147466
 10
728.3131951812252
 20
570.3185311574256
210
0.0
220
0.0
230
-1.0
  0
LWPOLYLINE
  5
CA
330
1F
100
AcDbEntity
  8
0
  6
CONTINUOUS
 62
     7
100
AcDbPolyline
 90
        4
 70
     0
 43
0.0
 10
635.3896761039321
 20
617.6654289838874
 10
635.5503678355637
 20
617.3864834927197
 10
635.8100636751317
 20
617.2208637353253
 10
636.0333693235244
 20
617.2187165033799
210
0.0
220
0.0
230
-1.0
  0
LWPOLYLINE
  5
CB
330
1F
100
AcDbEntity
  8
0
  6
CONTINUOUS
 62
     7
100
AcDbPolyline
 90
        4
 70
     0
 43
0.0
 10
693.9054581729783
 20
477.503134720167
 10
693.7137656997746
 20
477.265409913999
 10
693.6917755132876
 20
476.9555136006795
 10
693.7661717566085
 20
476.7321014553819
210
0.0
220
0.0
230
-1.0
  0
LWPOLYLINE
  5
CC
330
1F
100
AcDbEntity
  8
0
  6
CONTINUOUS
 62
     7
100
AcDbPolyline
 90
        4
 70
     0
 43
0.0
 10
592.6268263315357
 20
585.6820170260073
 10
592.6897007722453
 20
585.9808579409702
 10
592.5686041897226
 20
586.2669609137128
 10
592.4008896600568
 20
586.4322474050715
210
0.0
220
0.0
230
-1.0
  0
LWPOLYLINE
  5
CD
330
1F
100
AcDbEntity
  8
0
  6
CONTINUOUS
 62
     7
100
AcDbPolyline
 90
       28
 70
     0
 43
0.0
 10
-385.1246273962137
 20
609.4054921791035
 10
-384.9892696856397
 20
609.4452740977905
 10
-384.8558131802502
 20
609.4914840010695
 10
-384.7246953782292
 20
609.5438719897857
 10
-384.5963537777607
 20
609.6021881647839
 10
-384.4712258770284
 20
609.6661826269096
 10
-384.3497491742169
 20
609.7356054770071
 10
-384.2323611675099
 20
609.8102068159219
 10
-384.1191927066357
 20
609.8898698425967
 10
-384.0099115940776
 20
609.9746538399817
 10
-383.9047959793398
 20
610.0642147857344
 10
-383.8041240119277
 20
610.1582086575123
 10
-383.7081738413452
 20
610.2562914329721
 10
-383.6172236170972
 20
610.3581190897713
 10
-383.5315514886879
 20
610.4633476055667
 10
-383.4479199149893
 20
610.5765223815014
 10
-383.3698037607852
 20
610.6933929180378
 10
-383.2973504875064
 20
610.8135564477734
 10
-383.2307075565834
 20
610.9366102033077
 10
-383.1700224294463
 20
611.0621514172387
 10
-383.1154425675253
 20
611.1897773221648
 10
-383.067115432251
 20
611.3190851506843
 10
-383.0165935759062
 20
611.4790654804638
 10
-382.9751445968985
 20
611.6415695356891
 10
-382.9428188490921
 20
611.8059196487067
 10
-382.919666686351
 20
611.9714381518617
 10
-382.9057384625393
 20
612.137447377501
 10
-382.9010845315213
 20
612.3032696579703
  0
LWPOLYLINE
  5
CE
330
1F
100
AcDbEntity
  8
0
  6
CONTINUOUS
 62
     7
100
AcDbPolyline
 90
       27
 70
     0
 43
0.0
 10
268.2346753573875
 20
561.613903015062
 10
268.1694846363208
 20
561.5945812084193
 10
268.1051574733365
 20
561.5725546634773
 10
268.0319035521883
 20
561.5436684649449
 10
267.9599399194362
 20
561.5111282487009
 10
267.8895136654141
 20
561.4750689283005
 10
267.8208718804545
 20
561.435625417299
 10
267.7542616548913
 20
561.3929326292524
 10
267.6899300790579
 20
561.3471254777156
 10
267.6281242432869
 20
561.2983388762449
 10
267.5770450575057
 20
561.254037518596
 10
267.527814854119
 20
561.207558146214
 10
267.480561526359
 20
561.1590283282209
 10
267.4354129674568
 20
561.1085756337384
 10
267.3924970706443
 20
561.0563276318892
 10
267.346659997089
 20
560.9950068614334
 10
267.3037193954032
 20
560.9313573916272
 10
267.2638039453366
 20
560.8656110961667
 10
267.227042326639
 20
560.7979998487475
 10
267.1935632190613
 20
560.728755523066
 10
267.1634953023528
 20
560.6581099928178
 10
267.1369672562643
 20
560.5862951316996
 10
267.1139346195984
 20
560.5131260422762
 10
267.0944285615419
 20
560.4388001316554
 10
267.0785054283531
 20
560.3635790993875
 10
267.0662215662912
 20
560.2877246450241
 10
267.0576333216156
 20
560.2114984681165
210
0.0
220
0.0
230
-1.0
  0
LWPOLYLINE
  5
CF
330
1F
100
AcDbEntity
  8
0
  6
CONTINUOUS
 62
     7
100
AcDbPolyline
 90
        4
 70
     0
 43
0.0
 10
729.2595289440703
 20
494.415033505289
 10
729.5558285413496
 20
494.3193322825206
 10
729.8506826508217
 20
494.4171346418711
 10
730.0235187186179
 20
494.6493606815953
210
0.0
220
0.0
230
-1.0
  0
LWPOLYLINE
  5
D0
330
1F
100
AcDbEntity
  8
0
  6
CONTINUOUS
 62
     7
100
AcDbPolyline
 90
        4
 70
     0
 43
0.0
 10
613.5696207585154
 20
607.6009785035305
 10
613.8086465742734
 20
607.385342052394
 10
614.1068113143882
 20
607.3080787306917
 10
614.3198511375796
 20
607.3750418320512
210
0.0
220
0.0
230
-1.0
  0
LWPOLYLINE
  5
D1
330
1F
100
AcDbEntity
  8
0
  6
CONTINUOUS
 62
     7
100
AcDbPolyline
 90
        4
 70
     0
 43
0.0
 10
624.7892532315221
 20
474.3486753610837
 10
624.4842558146232
 20
474.3640266944295
 10
624.2206189233411
 20
474.1996646462982
 10
624.0836037156957
 20
474.008158456945
210
0.0
220
0.0
230
-1.0
  0
LWPOLYLINE
  5
D2
330
1F
100
AcDbEntity
  8
0
  6
CONTINUOUS
 62
     7
100
AcDbPolyline
 90
        4
 70
     0
 43
0.0
 10
636.0333693235244
 20
470.2812834966197
 10
635.729725453322
 20
470.2487337218269
 10
635.4950462587244
 20
470.0451533471989
 10
635.3896761039323
 20
469.8345710161124
210
0.0
220
0.0
230
-1.0
  0
LWPOLYLINE
  5
D3
330
1F
100
AcDbEntity
  8
0
  6
CONTINUOUS
 62
     7
100
AcDbPolyline
 90
        4
 70
     0
 43
0.0
 10
629.6833370061613
 20
471.6886729823619
 10
629.7172947103174
 20
472.0087968552393
 10
629.6045452136235
 20
472.2954314381553
 10
629.4251492604047
 20
472.4284243521687
210
0.0
220
0.0
230
-1.0
  0
LWPOLYLINE
  5
D4
330
1F
100
AcDbEntity
  8
0
  6
CONTINUOUS
 62
     7
100
AcDbPolyline
 90
        4
 70
     0
 43
0.0
 10
624.0836037156957
 20
613.4918415430548
 10
624.2859537541447
 20
613.2414680588412
 10
624.5683609451348
 20
613.1185127352265
 10
624.789253231522
 20
613.1513246389162
210
0.0
220
0.0
230
-1.0
  0
LWPOLYLINE
  5
D5
330
1F
100
AcDbEntity
  8
0
  6
CONTINUOUS
 62
     7
100
AcDbPolyline
 90
       54
 70
     0
 43
0.0
 10
732.0527929541064
 20
528.3502419057273
 10
732.0469435331805
 20
528.3661356094262
 10
732.0402695557015
 20
528.3817249977786
 10
732.0328206404732
 20
528.3969619071606
 10
732.0246464062988
 20
528.4117981739482
 10
732.015412325569
 20
528.4267890284638
 10
732.0054663949954
 20
528.4413403623776
 10
731.9948652478171
 20
528.4554246612165
 10
731.9836655172726
 20
528.4690144105098
 10
731.968385175651
 20
528.4858194323258
 10
731.952218592654
 20
528.5018386231102
 10
731.9352595871587
 20
528.517066073255
 10
731.9176019780425
 20
528.5314958731549
 10
731.899339584182
 20
528.5451221132021
 10
731.8805662244548
 20
528.5579388837904
 10
731.8563106591563
 20
528.572956246828
 10
731.8313583479764
 20
528.5868439111197
 10
731.8058193433036
 20
528.599635104483
 10
731.7798036975269
 20
528.6113630547369
 10
731.7434988205756
 20
528.62579983095
 10
731.7065100827854
 20
528.6384597548038
 10
731.6690011381478
 20
528.6494177492884
 10
731.6322599582533
 20
528.6584922142409
 10
731.5951550784173
 20
528.666091904254
 10
731.5577776798456
 20
528.6722217714994
 10
731.5202189437449
 20
528.6768867681493
 10
731.478573616429
 20
528.6803257553149
 10
731.436795883347
 20
528.681886620876
 10
731.3950162036097
 20
528.681466664653
 10
731.3629898910167
 20
528.6797262209554
 10
731.3310323825638
 20
528.6766657676208
 10
731.2992484756361
 20
528.6722012066807
 10
731.2677429676177
 20
528.6662484401669
 10
731.2434314890429
 20
528.6605114126395
 10
731.2193225307036
 20
528.6537394900605
 10
731.1955206662045
 20
528.6458941582292
 10
731.1721304691506
 20
528.6369369029451
 10
731.1492565131471
 20
528.6268292100074
 10
731.1270033717983
 20
528.6155325652146
 10
731.1092601617003
 20
528.6053388373808
 10
731.092026571117
 20
528.5942841128312
 10
731.0753937448699
 20
528.5823691580058
 10
731.0630419046626
 20
528.572600474927
 10
731.0511079156345
 20
528.5623023239255
 10
731.0396412531593
 20
528.5514889185647
 10
731.028691392611
 20
528.5401744724094
 10
731.0194670845814
 20
528.5297521779679
 10
731.0106877977765
 20
528.5189354414268
 10
731.0023890092389
 20
528.5077472097612
 10
730.9946061960098
 20
528.4962104299477
 10
730.987120880182
 20
528.4839122364529
 10
730.9802276539133
 20
528.4712532086706
 10
730.9739598350756
 20
528.4582742421666
 10
730.9683507415408
 20
528.4450162325062
210
0.0
220
0.0
230
-1.0
  0
LWPOLYLINE
  5
D6
330
1F
100
AcDbEntity
  8
0
  6
CONTINUOUS
 62
     7
100
AcDbPolyline
 90
       54
 70
     0
 43
0.0
 10
671.5568519310802
 20
469.0335174220475
 10
671.5434404338599
 20
469.0278386829867
 10
671.5303147179537
 20
469.0214858930268
 10
671.5175170394224
 20
469.0144936120774
 10
671.5050896543274
 20
469.0068964000475
 10
671.4925740366456
 20
468.9983765631147
 10
671.4804724173874
 20
468.9892495275963
 10
671.4688133711547
 20
468.9795610577951
 10
671.4576254725484
 20
468.9693569180171
 10
671.4438597712956
 20
468.9554296534635
 10
671.4308640904939
 20
468.9407169896713
 10
671.4186507949074
 20
468.9253068125498
 10
671.4072322493017
 20
468.9092870080096
 10
671.3966208184406
 20
468.8927454619594
 10
671.3868288670893
 20
468.8757700603092
 10
671.3771220176051
 20
468.8569540262533
 10
671.3682807307456
 20
468.8376929759557
 10
671.3602854798501
 20
468.8180615145714
 10
671.3531167382574
 20
468.7981342472565
 10
671.3445710070592
 20
468.7704057878516
 10
671.3374233904435
 20
468.7422638271792
 10
671.3316047710506
 20
468.7138321179301
 10
671.327596733316
 20
468.6891495751324
 10
671.3244712552859
 20
468.6643392359424
 10
671.3210543078577
 20
468.6222992518554
 10
671.3198310741585
 20
468.580050410407
 10
671.3207016135207
 20
468.5377314453787
 10
671.3235659852762
 20
468.4954810905517
 10
671.328324248757
 20
468.4534380797078
 10
671.3348764632955
 20
468.4117411466279
 10
671.3420639335498
 20
468.3755219043067
 10
671.3506630867877
 20
468.3395809868251
 10
671.3607121012301
 20
468.3040231149438
 10
671.3722491550988
 20
468.2689530094221
 10
671.3829655567422
 20
468.2403569474636
 10
671.3948189674169
 20
468.2121634801229
 10
671.4078516139487
 20
468.1844898778971
 10
671.422105723163
 20
468.1574534112849
 10
671.4376235218858
 20
468.1311713507845
 10
671.4505262343243
 20
468.1114385433613
 10
671.4642885348595
 20
468.0922233535088
 10
671.4789070802967
 20
468.0736271357831
 10
671.4943785274415
 20
468.055751244741
 10
671.5106995330981
 20
468.0386970349397
 10
671.527866754072
 20
468.0225658609352
 10
671.5431797028987
 20
468.0096030404539
 10
671.5591269407396
 20
467.9974097444466
 10
671.5756735150494
 20
467.9860683866173
 10
671.5888196288905
 20
467.9779557841637
 10
671.6023155875538
 20
467.9704089253007
 10
671.6161304317792
 20
467.9634665658447
 10
671.6302332023059
 20
467.9571674616125
 10
671.6408583088472
 20
467.9529324011982
 10
671.6516262578697
 20
467.9490752094767
210
0.0
220
0.0
230
-1.0
  0
LWPOLYLINE
  5
D7
330
1F
100
AcDbEntity
  8
0
  6
CONTINUOUS
 62
     7
100
AcDbPolyline
 90
        4
 70
     0
 43
0.0
 10
722.49873344342
 20
581.4035900093915
 10
722.7364582495879
 20
581.2118975361873
 10
723.0463545629075
 20
581.1899073497002
 10
723.269766708205
 20
581.2643035930213
210
0.0
220
0.0
230
-1.0
  0
LWPOLYLINE
  5
D8
330
1F
100
AcDbEntity
  8
0
  6
CONTINUOUS
 62
     7
100
AcDbPolyline
 90
        4
 70
     0
 43
0.0
 10
589.2339696189694
 20
581.2643035930212
 10
589.5448400804728
 20
581.1806855577526
 10
589.8455836232293
 20
581.2472073934048
 10
590.0050028837542
 20
581.4035900093912
210
0.0
220
0.0
230
-1.0
  0
LWPOLYLINE
  5
D9
330
1F
100
AcDbEntity
  8
0
  6
CONTINUOUS
 62
     7
100
AcDbPolyline
 90
        4
 70
     0
 43
0.0
 10
720.1028466671177
 20
586.4322474050716
 10
719.8872102159811
 20
586.1932215893136
 10
719.809946894279
 20
585.8950568491987
 10
719.8769099956385
 20
585.6820170260074
210
0.0
220
0.0
230
-1.0
  0
LWPOLYLINE
  5
DA
330
1F
100
AcDbEntity
  8
0
  6
CONTINUOUS
 62
     7
100
AcDbPolyline
 90
        4
 70
     0
 43
0.0
 10
728.3131951812251
 20
517.1814688425742
 10
727.9930713083479
 20
517.2154265467303
 10
727.7064367254319
 20
517.1026770500362
 10
727.5734438114183
 20
516.9232810968175
210
0.0
220
0.0
230
-1.0
  0
LWPOLYLINE
  5
DB
330
1F
100
AcDbEntity
  8
0
  6
CONTINUOUS
 62
     7
100
AcDbPolyline
 90
       54
 70
     0
 43
0.0
 10
580.4509433730677
 20
559.1497580942723
 10
580.4567927939937
 20
559.1338643905739
 10
580.4634667714729
 20
559.1182750022215
 10
580.4709156867012
 20
559.1030380928393
 10
580.4790899208753
 20
559.0882018260517
 10
580.4883240016053
 20
559.0732109715357
 10
580.4982699321787
 20
559.0586596376223
 10
580.5088710793572
 20
559.0445753387829
 10
580.5200708099015
 20
559.0309855894903
 10
580.5353511515232
 20
559.0141805676739
 10
580.5515177345202
 20
558.9981613768897
 10
580.5684767400154
 20
558.9829339267444
 10
580.5861343491317
 20
558.968504126845
 10
580.6043967429921
 20
558.954877886798
 10
580.6231701027195
 20
558.9420611162095
 10
580.6474256680178
 20
558.9270437531719
 10
580.6723779791979
 20
558.9131560888804
 10
580.6979169838709
 20
558.9003648955169
 10
580.7239326296475
 20
558.8886369452625
 10
580.7602375065986
 20
558.8742001690499
 10
580.7972262443885
 20
558.8615402451959
 10
580.8347351890262
 20
558.8505822507115
 10
580.8714763689206
 20
558.8415077857587
 10
580.9085812487572
 20
558.8339080957459
 10
580.9459586473288
 20
558.8277782285005
 10
580.9835173834293
 20
558.8231132318501
 10
581.0251627107455
 20
558.8196742446845
 10
581.0669404438272
 20
558.8181133791237
 10
581.1087201235644
 20
558.8185333353466
 10
581.1407464361577
 20
558.820273779044
 10
581.1727039446102
 20
558.8233342323789
 10
581.2044878515384
 20
558.8277987933192
 10
581.2359933595566
 20
558.8337515598328
 10
581.2603048381314
 20
558.8394885873604
 10
581.2844137964705
 20
558.8462605099392
 10
581.3082156609696
 20
558.8541058417704
 10
581.3316058580234
 20
558.8630630970546
 10
581.3544798140271
 20
558.8731707899925
 10
581.3767329553759
 20
558.8844674347853
 10
581.3944761654739
 20
558.8946611626191
 10
581.4117097560572
 20
558.9057158871684
 10
581.4283425823045
 20
558.9176308419939
 10
581.4406944225118
 20
558.9273995250729
 10
581.4526284115398
 20
558.9376976760747
 10
581.464095074015
 20
558.9485110814354
 10
581.475044934563
 20
558.9598255275903
 10
581.484269242593
 20
558.970247822032
 10
581.4930485293977
 20
558.9810645585733
 10
581.5013473179356
 20
558.9922527902387
 10
581.5091301311642
 20
559.0037895700519
 10
581.5166154469923
 20
559.016087763547
 10
581.523508673261
 20
559.028746791329
 10
581.5297764920989
 20
559.0417257578331
 10
581.5353855856337
 20
559.0549837674936
210
0.0
220
0.0
230
-1.0
  0
LWPOLYLINE
  5
DC
330
1F
100
AcDbEntity
  8
0
  6
CONTINUOUS
 62
     7
100
AcDbPolyline
 90
       54
 70
     0
 43
0.0
 10
671.6516262578597
 20
619.5509247905188
 10
671.635732554161
 20
619.5450753695932
 10
671.6201431658085
 20
619.5384013921143
 10
671.6049062564263
 20
619.5309524768861
 10
671.590069989639
 20
619.5227782427115
 10
671.575079135123
 20
619.5135441619819
 10
671.5605278012094
 20
619.5035982314083
 10
671.5464435023703
 20
619.4929970842297
 10
671.5328537530775
 20
619.4817973536852
 10
671.5160487312611
 20
619.4665170120637
 10
671.500029540477
 20
619.4503504290669
 10
671.4848020903315
 20
619.4333914235717
 10
671.4703722904321
 20
619.4157338144555
 10
671.4567460503849
 20
619.3974714205946
 10
671.4439292797967
 20
619.3786980608676
 10
671.4289119167593
 20
619.3544424955693
 10
671.4150242524676
 20
619.3294901843889
 10
671.4022330591042
 20
619.3039511797165
 10
671.3905051088499
 20
619.2779355339397
 10
671.3760683326369
 20
619.2416306569886
 10
671.3634084087832
 20
619.2046419191984
 10
671.3524504142988
 20
619.1671329745604
 10
671.3433759493462
 20
619.130391794666
 10
671.3357762593331
 20
619.0932869148302
 10
671.3296463920876
 20
619.0559095162582
 10
671.3249813954377
 20
619.0183507801577
 10
671.3215424082717
 20
618.9767054528417
 10
671.3199815427109
 20
618.93492771976
 10
671.3204014989338
 20
618.8931480400225
 10
671.3221419426312
 20
618.8611217274296
 10
671.3252023959662
 20
618.8291642189766
 10
671.3296669569065
 20
618.7973803120487
 10
671.33561972342
 20
618.7658748040301
 10
671.3413567509475
 20
618.7415633254558
 10
671.3481286735266
 20
618.7174543671164
 10
671.3559740053579
 20
618.6936525026172
 10
671.3649312606422
 20
618.6702623055633
 10
671.3750389535799
 20
618.6473883495598
 10
671.3863355983723
 20
618.6251352082113
 10
671.3965293262064
 20
618.6073919981131
 10
671.4075840507555
 20
618.59015840753
 10
671.4194990055812
 20
618.5735255812828
 10
671.42926768866
 20
618.5611737410752
 10
671.4395658396618
 20
618.5492397520471
 10
671.4503792450223
 20
618.537773089572
 10
671.4616936911775
 20
618.526823229024
 10
671.4721159856193
 20
618.5175989209941
 10
671.4829327221606
 20
618.5088196341892
 10
671.4941209538257
 20
618.5005208456515
 10
671.5056577336394
 20
618.4927380324227
 10
671.5179559271342
 20
618.4852527165947
 10
671.5306149549164
 20
618.478359490326
 10
671.5435939214203
 20
618.4720916714886
 10
671.5568519310807
 20
618.4664825779535
210
0.0
220
0.0
230
-1.0
  0
LWPOLYLINE
  5
DD
330
1F
100
AcDbEntity
  8
0
  6
CONTINUOUS
 62
     7
100
AcDbPolyline
 90
       26
 70
     0
 43
0.0
 10
275.7445357414868
 20
560.2114984681166
 10
275.7356189181285
 20
560.2900940396214
 10
275.7227717587881
 20
560.3682926565511
 10
275.7060571437004
 20
560.4458076222049
 10
275.6855379530998
 20
560.5223522398826
 10
275.6612770672206
 20
560.5976398128834
 10
275.6342661924307
 20
560.6691105334021
 10
275.6037389673288
 20
560.7393901300999
 10
275.5698249597021
 20
560.8082491089285
 10
275.5326537373377
 20
560.8754579758399
 10
275.4923548680231
 20
560.9407872367862
 10
275.4490579195456
 20
561.00400739772
 10
275.4028924596922
 20
561.0648889645933
 10
275.3536711476615
 20
561.1236078700592
 10
275.3015226334722
 20
561.1800398425262
 10
275.2466453574958
 20
561.2340130931354
 10
275.1892377601017
 20
561.2853558330302
 10
275.1294982816609
 20
561.3338962733516
 10
275.0676253625439
 20
561.3794626252419
 10
275.0038174431211
 20
561.4218830998434
 10
274.9354652453731
 20
561.4626146904344
 10
274.8650103965701
 20
561.5000007254351
 10
274.7927193574575
 20
561.5339318901221
 10
274.7188585887811
 20
561.5642988697706
 10
274.6436945512861
 20
561.5909923496587
 10
274.5674937057181
 20
561.6139030150621
210
0.0
220
0.0
230
-1.0
  0
LWPOLYLINE
  5
DE
330
1F
100
AcDbEntity
  8
0
  6
CONTINUOUS
 62
     7
100
AcDbPolyline
 90
        4
 70
     0
 43
0.0
 10
-396.901084531521
 20
606.9016126864186
 10
-396.7973760020616
 20
606.5967524234675
 10
-396.5342262291549
 20
606.4197063248005
 10
-396.2716750089699
 20
606.4186497732742
  0
LWPOLYLINE
  5
DF
330
1F
100
AcDbEntity
  8
0
  6
CONTINUOUS
 62
     7
100
AcDbPolyline
 90
        4
 70
     0
 43
0.0
 10
723.269766708205
 20
506.2356964069787
 10
722.9588962467016
 20
506.3193144422471
 10
722.6581527039451
 20
506.2527926065952
 10
722.49873344342
 20
506.0964099906087
210
0.0
220
0.0
230
-1.0
  0
LWPOLYLINE
  5
E0
330
1F
100
AcDbEntity
  8
0
  6
CONTINUOUS
 62
     7
100
AcDbPolyline
 90
        4
 70
     0
 43
0.0
 10
687.7144830956522
 20
613.1513246389162
 10
688.0194805125509
 20
613.1359733055704
 10
688.283117403833
 20
613.3003353537016
 10
688.4201326114784
 20
613.491841543055
210
0.0
220
0.0
230
-1.0
  0
LWPOLYLINE
  5
E1
330
1F
100
AcDbEntity
  8
0
  6
CONTINUOUS
 62
     7
100
AcDbPolyline
 90
       32
 70
     0
 43
0.0
 10
-251.8966561860591
 20
458.8505568631451
 10
-251.8876401693043
 20
458.7431162319953
 10
-251.8703202101257
 20
458.6142603313574
 10
-251.8459694909571
 20
458.4862627817505
 10
-251.814624617056
 20
458.3593853345766
 10
-251.7763300263597
 20
458.2338926631366
 10
-251.7311394194085
 20
458.1100534221409
 10
-251.6791174876681
 20
457.9881409354118
 10
-251.6203418374531
 20
457.8684334520538
 10
-251.5549049926168
 20
457.7512139315911
 10
-251.4829163515414
 20
457.6367693445205
 10
-251.404503974093
 20
457.5253895034106
 10
-251.319816083286
 20
457.4173654691096
 10
-251.2290221845914
 20
457.3129876041471
 10
-251.1323137321791
 20
457.2125433681411
 10
-251.0299043036893
 20
457.1163149652377
 10
-250.922029280103
 20
457.0245769594414
 10
-250.808945061174
 20
456.9375939694315
 10
-250.6909278760467
 20
456.8556185408401
 10
-250.5682722702145
 20
456.7788892729336
 10
-250.44128936224
 20
456.7076292511234
 10
-250.3103049663987
 20
456.642044809894
 10
-250.1756576716746
 20
456.5823246255942
 10
-250.0376969553018
 20
456.5286391173638
 10
-249.8967813927417
 20
456.4811401186411
 10
-249.7532770079778
 20
456.4399607716758
 10
-249.6075557903886
 20
456.4052155928577
 10
-249.4599943886283
 20
456.3770006566284
 10
-249.31097297878
 20
456.3553938490699
 10
-249.1608742937915
 20
456.3404551478445
 10
-249.0100827937495
 20
456.3322268919283
 10
-248.9010845315527
 20
456.3304723234482
  0
LWPOLYLINE
  5
E2
330
1F
100
AcDbEntity
  8
0
  6
CONTINUOUS
 62
     7
100
AcDbPolyline
 90
        4
 70
     0
 43
0.0
 10
590.0050028837541
 20
506.0964099906087
 10
589.7672780775864
 20
506.2881024638122
 10
589.457381764267
 20
506.3100926502997
 10
589.2339696189695
 20
506.2356964069786
210
0.0
220
0.0
230
-1.0
  0
LWPOLYLINE
  5
E3
330
1F
100
AcDbEntity
  8
0
  6
CONTINUOUS
 62
     7
100
AcDbPolyline
 90
        4
 70
     0
 43
0.0
 10
604.8829544672035
 20
487.4679006641263
 10
604.5976285092987
 20
487.5767500348009
 10
604.2961042598064
 20
487.5019007176442
 10
604.1066163867056
 20
487.3621075359992
210
0.0
220
0.0
230
-1.0
  0
LWPOLYLINE
  5
E4
330
1F
100
AcDbEntity
  8
0
  6
CONTINUOUS
 62
     7
100
AcDbPolyline
 90
        4
 70
     0
 43
0.0
 10
717.8612433976605
 20
609.6020159211926
 10
718.0020278091207
 20
609.8795292004239
 10
717.9516057703662
 20
610.1860138446793
 10
717.8298021361333
 20
610.3379690222187
210
0.0
220
0.0
230
-1.0
  0
LWPOLYLINE
  5
E5
330
1F
100
AcDbEntity
  8
0
  6
CONTINUOUS
 62
     7
100
AcDbPolyline
 90
        4
 70
     0
 43
0.0
 10
595.9276011738114
 20
591.2863493713214
 10
596.2215635614588
 20
591.1551299584808
 10
596.5290107599222
 20
591.1737861447241
 10
596.7109309356828
 20
591.3033047644682
210
0.0
220
0.0
230
-1.0
  0
LWPOLYLINE
  5
E6
330
1F
100
AcDbEntity
  8
0
  6
CONTINUOUS
 62
     7
100
AcDbPolyline
 90
        4
 70
     0
 43
0.0
 10
712.6397606275877
 20
595.8952517768814
 10
712.4641708946122
 20
595.6254357926791
 10
712.4345020542247
 20
595.3188553088935
 10
712.5339674994608
 20
595.1189136963835
210
0.0
220
0.0
230
-1.0
  0
LWPOLYLINE
  5
E7
330
1F
100
AcDbEntity
  8
0
  6
CONTINUOUS
 62
     7
100
AcDbPolyline
 90
        4
 70
     0
 43
0.0
 10
703.7882175349085
 20
604.0742669897759
 10
703.6569981220679
 20
603.7803046021281
 10
703.6756543083112
 20
603.4728574036648
 10
703.8051729280553
 20
603.2909372279042
210
0.0
220
0.0
230
-1.0
  0
LWPOLYLINE
  5
E8
330
1F
100
AcDbEntity
  8
0
  6
CONTINUOUS
 62
     7
100
AcDbPolyline
 90
        4
 70
     0
 43
0.0
 10
712.5339674994607
 20
492.3810863036164
 10
712.425118128786
 20
492.0957603457117
 10
712.4999674459427
 20
491.7942360962193
 10
712.6397606275879
 20
491.6047482231183
210
0.0
220
0.0
230
-1.0
  0
LWPOLYLINE
  5
E9
330
1F
100
AcDbEntity
  8
0
  6
CONTINUOUS
 62
     7
100
AcDbPolyline
 90
        4
 70
     0
 43
0.0
 10
604.1066163867056
 20
600.1378924640004
 10
604.3764323709079
 20
599.962302731025
 10
604.6830128546935
 20
599.9326338906377
 10
604.8829544672035
 20
600.0320993358737
210
0.0
220
0.0
230
-1.0
  0
LWPOLYLINE
  5
EA
330
1F
100
AcDbEntity
  8
0
  6
CONTINUOUS
 62
     7
100
AcDbPolyline
 90
        4
 70
     0
 43
0.0
 10
707.6207818599705
 20
600.0320993358737
 10
707.9061078178753
 20
599.9232499651989
 10
708.2076320673677
 20
599.9980992823553
 10
708.3971199404685
 20
600.1378924640003
210
0.0
220
0.0
230
-1.0
  0
LWPOLYLINE
  5
EB
330
1F
100
AcDbEntity
  8
0
  6
CONTINUOUS
 62
     7
100
AcDbPolyline
 90
        4
 70
     0
 43
0.0
 10
596.7109309356828
 20
496.1966952355319
 10
596.4461456068625
 20
496.3488393034148
 10
596.1366246083443
 20
496.3220802902239
 10
595.9276011738115
 20
496.2136506286786
210
0.0
220
0.0
230
-1.0
  0
LWPOLYLINE
  5
EC
330
1F
100
AcDbEntity
  8
0
  6
CONTINUOUS
 62
     7
100
AcDbPolyline
 90
        4
 70
     0
 43
0.0
 10
722.1038840847797
 20
482.1406247659268
 10
722.381397364011
 20
481.9998403544663
 10
722.6878820082666
 20
482.050262393221
 10
722.8398371858062
 20
482.172066027454
210
0.0
220
0.0
230
-1.0
  0
LWPOLYLINE
  5
ED
330
1F
100
AcDbEntity
  8
0
  6
CONTINUOUS
 62
     7
100
AcDbPolyline
 90
        4
 70
     0
 43
0.0
 10
608.6985633991189
 20
603.2909372279042
 10
608.8507074670023
 20
603.5557225567245
 10
608.8239484538112
 20
603.865243555243
 10
608.7155187922659
 20
604.0742669897757
210
0.0
220
0.0
230
-1.0
  0
LWPOLYLINE
  5
EE
330
1F
100
AcDbEntity
  8
0
  6
CONTINUOUS
 62
     7
100
AcDbPolyline
 90
        4
 70
     0
 43
0.0
 10
703.8051729280555
 20
484.2090627720956
 10
703.6530288601717
 20
483.9442774432754
 10
703.679787873363
 20
483.6347564447569
 10
703.7882175349084
 20
483.4257330102242
210
0.0
220
0.0
230
-1.0
  0
LWPOLYLINE
  5
EF
330
1F
100
AcDbEntity
  8
0
  6
CONTINUOUS
 62
     7
100
AcDbPolyline
 90
        4
 70
     0
 43
0.0
 10
722.8398371858061
 20
605.3279339725457
 10
722.576233013218
 20
605.4917199978627
 10
722.2668729263107
 20
605.4681630809156
 10
722.1038840847798
 20
605.3593752340732
210
0.0
220
0.0
230
-1.0
  0
LWPOLYLINE
  5
F0
330
1F
100
AcDbEntity
  8
0
  6
CONTINUOUS
 62
     7
100
AcDbPolyline
 90
       32
 70
     0
 43
0.0
 10
-248.9010845315527
 20
631.1695276765516
 10
-249.0545242430173
 20
631.1660495234183
 10
-249.2052418128435
 20
631.155834255168
 10
-249.3552093369049
 20
631.13890341349
 10
-249.5040448120521
 20
631.1152961909394
 10
-249.6513659300488
 20
631.085069212789
 10
-249.7967927568283
 20
631.048296667881
 10
-249.9399484797867
 20
631.0050705921768
 10
-250.0804602796602
 20
630.9555011901733
 10
-250.217960355682
 20
630.8997171623995
 10
-250.3520871255397
 20
630.8378659989739
 10
-250.482486613699
 20
630.7701141911576
 10
-250.608814030548
 20
630.6966473059989
 10
-250.730735530333
 20
630.617669864774
 10
-250.8479301182667
 20
630.533404965409
 10
-250.9600916574193
 20
630.4440935938429
 10
-251.0669309056846
 20
630.3499935805532
 10
-251.1681774946405
 20
630.2513781767427
 10
-251.2635817482713
 20
630.1485342496264
 10
-251.3529162333
 20
630.0417601261752
 10
-251.4359769366223
 20
629.931363146855
 10
-251.5125839804221
 20
629.8176570214824
 10
-251.5825818116251
 20
629.7009591042413
 10
-251.6458388373447
 20
629.5815877203821
 10
-251.7022465182193
 20
629.4598596805716
 10
-251.7517179723046
 20
629.3360881095184
 10
-251.794186178757
 20
629.2105806943459
 10
-251.8296018988236
 20
629.083638428149
 10
-251.8579314491125
 20
628.955554888929
 10
-251.8791544678653
 20
628.8266160578637
 10
-251.8932618097923
 20
628.6971006471072
 10
-251.8960986727324
 20
628.6582915947191
  0
LWPOLYLINE
  5
F1
330
1F
100
AcDbEntity
  8
0
  6
CONTINUOUS
 62
     7
100
AcDbPolyline
 90
        4
 70
     0
 43
0.0
 10
608.7155187922658
 20
483.4257330102243
 10
608.8467382051062
 20
483.7196953978717
 10
608.8280820188628
 20
484.0271425963352
 10
608.6985633991187
 20
484.2090627720956
210
0.0
220
0.0
230
-1.0
  0
LWPOLYLINE
  5
F2
330
1F
100
AcDbEntity
  8
0
  6
CONTINUOUS
 62
     7
100
AcDbPolyline
 90
        4
 70
     0
 43
0.0
 10
589.6638991413681
 20
482.1720660274538
 10
589.927503313956
 20
482.008280002137
 10
590.2368634008635
 20
482.0318369190841
 10
590.3998522423947
 20
482.1406247659267
210
0.0
220
0.0
230
-1.0
  0
LWPOLYLINE
  5
F3
330
1F
100
AcDbEntity
  8
0
  6
CONTINUOUS
 62
     7
100
AcDbPolyline
 90
        4
 70
     0
 43
0.0
 10
594.6424929295137
 20
477.8979840788076
 10
594.5017085180536
 20
477.6204707995759
 10
594.5521305568082
 20
477.3139861553206
 10
594.6739341910411
 20
477.1620309777808
210
0.0
220
0.0
230
-1.0
  0
LWPOLYLINE
  5
F4
330
1F
100
AcDbEntity
  8
0
  6
CONTINUOUS
 62
     7
100
AcDbPolyline
 90
        4
 70
     0
 43
0.0
 10
594.6739341910409
 20
610.337969022219
 10
594.5101481657241
 20
610.0743648496309
 10
594.5337050826714
 20
609.7650047627236
 10
594.6424929295137
 20
609.6020159211926
210
0.0
220
0.0
230
-1.0
  0
LWPOLYLINE
  5
F5
330
1F
100
AcDbEntity
  8
0
  6
CONTINUOUS
 62
     7
100
AcDbPolyline
 90
        4
 70
     0
 43
0.0
 10
715.7928053914916
 20
591.303304764468
 10
716.0575907203119
 20
591.1511606965847
 10
716.3671117188301
 20
591.1779197097761
 10
716.5761351533628
 20
591.2863493713215
210
0.0
220
0.0
230
-1.0
  0
LWPOLYLINE
  5
F6
330
1F
100
AcDbEntity
  8
0
  6
CONTINUOUS
 62
     7
100
AcDbPolyline
 90
        4
 70
     0
 43
0.0
 10
716.5761351533629
 20
496.2136506286785
 10
716.2821727657155
 20
496.3448700415192
 10
715.974725567252
 20
496.3262138552757
 10
715.7928053914917
 20
496.1966952355318
210
0.0
220
0.0
230
-1.0
  0
LWPOLYLINE
  5
F7
330
1F
100
AcDbEntity
  8
0
  6
CONTINUOUS
 62
     7
100
AcDbPolyline
 90
        4
 70
     0
 43
0.0
 10
717.829802136133
 20
477.1620309777809
 10
717.9935881614501
 20
477.4256351503689
 10
717.9700312445028
 20
477.7349952372762
 10
717.8612433976606
 20
477.8979840788073
210
0.0
220
0.0
230
-1.0
  0
LWPOLYLINE
  5
F8
330
1F
100
AcDbEntity
  8
0
  6
CONTINUOUS
 62
     7
100
AcDbPolyline
 90
        4
 70
     0
 43
0.0
 10
590.3998522423947
 20
605.3593752340731
 10
590.122338963163
 20
605.5001596455334
 10
589.8158543189077
 20
605.4497376067789
 10
589.6638991413681
 20
605.3279339725459
210
0.0
220
0.0
230
-1.0
  0
LWPOLYLINE
  5
F9
330
1F
100
AcDbEntity
  8
0
  6
CONTINUOUS
 62
     7
100
AcDbPolyline
 90
        4
 70
     0
 43
0.0
 10
599.8639756995866
 20
491.6047482231185
 10
600.0395654325624
 20
491.8745642073208
 10
600.0692342729495
 20
492.1811446911064
 10
599.9697688277136
 20
492.3810863036164
210
0.0
220
0.0
230
-1.0
  0
LWPOLYLINE
  5
FA
330
1F
100
AcDbEntity
  8
0
  6
CONTINUOUS
 62
     7
100
AcDbPolyline
 90
        4
 70
     0
 43
0.0
 10
599.9697688277133
 20
595.1189136963835
 10
600.0786181983882
 20
595.404239654288
 10
600.0037688812313
 20
595.7057639037804
 10
599.8639756995863
 20
595.8952517768814
210
0.0
220
0.0
230
-1.0
  0
LWPOLYLINE
  5
FB
330
1F
100
AcDbEntity
  8
0
  6
CONTINUOUS
 62
     7
100
AcDbPolyline
 90
        4
 70
     0
 43
0.0
 10
708.3971199404687
 20
487.3621075359993
 10
708.1273039562662
 20
487.5376972689751
 10
707.8207234724806
 20
487.5673661093622
 10
707.6207818599706
 20
487.4679006641263
210
0.0
220
0.0
230
-1.0
  0
LWPOLYLINE
  5
FC
330
1F
100
AcDbEntity
  8
0
  6
CONTINUOUS
 62
     7
100
AcDbPolyline
 90
        4
 70
     0
 43
0.0
 10
698.1838851895947
 20
607.3750418320514
 10
698.4827261045575
 20
607.3121673913417
 10
698.7688290772999
 20
607.4332639738647
 10
698.9341155686589
 20
607.6009785035304
210
0.0
220
0.0
230
-1.0
  0
LWPOLYLINE
  5
FD
330
1F
100
AcDbEntity
  8
0
  6
CONTINUOUS
 62
     7
100
AcDbPolyline
 90
        4
 70
     0
 43
0.0
 10
705.3525074819917
 20
469.9783494449692
 10
705.5974068572717
 20
470.1691318084515
 10
705.6821591885301
 20
470.4674617037878
 10
705.586834658298
 20
470.7423392195168
210
0.0
220
0.0
230
-1.0
  0
LWPOLYLINE
  5
FE
330
1F
100
AcDbEntity
  8
0
  6
CONTINUOUS
 62
     7
100
AcDbPolyline
 90
        4
 70
     0
 43
0.0
 10
607.1512288451825
 20
617.5216505550308
 10
606.9063294699025
 20
617.3308681915481
 10
606.8215771386441
 20
617.032538296212
 10
606.9169016688762
 20
616.7576607804832
210
0.0
220
0.0
230
-1.0
  0
POINT
  5
FF
330
1F
100
AcDbEntity
  8
0
 62
     7
100
AcDbPoint
 10
-448.75
 20
538.75
 30
0.0
  0
MTEXT
  5
100
330
1F
100
AcDbEntity
  8
0
 62
     7
100
AcDbMText
 10
-333.2387145179442
 20
394.405303030303
 30
0.0
 40
5.0
 41
0.0
 71
     1
 72
     1
  1
{\fＭＳ ゴシック;ＫＦＥＫＨ－１５０ＢＡ}
  0
ARC
  5
101
330
1F
100
AcDbEntity
  8
0
  6
CONTINUOUS
 62
     7
100
AcDbCircle
 10
-251.4010845315527
 20
545.2499999999995
 30
0.0
 40
0.4999999999999449
100
AcDbArc
 50
90.0
 51
180.0
  0
ELLIPSE
  5
102
330
1F
100
AcDbEntity
  8
0
  6
CONTINUOUS
 62
     7
100
AcDbEllipse
 10
-470.654702050728
 20
586.4877777468533
 30
0.0
 11
-235.8055912933254
 21
1.421330428342804
 31
0.0
210
0.0
220
0.0
230
1.0
 40
0.2735251099434997
 41
4.342859229098908
 42
4.393115541473595
  0
LINE
  5
103
330
1F
100
AcDbEntity
  8
0
  6
CONTINUOUS
 62
     7
100
AcDbLine
 10
-251.9010845315526
 20
623.9629544915448
 30
0.0
 11
-251.4010845315528
 21
624.4550185905416
 31
0.0
  0
LINE
  5
104
330
1F
100
AcDbEntity
  8
0
  6
________________
 62
     1
100
AcDbLine
 10
-656.251868163587
 20
418.7499999999999
 30
0.0
 11
-656.251868163587
 21
668.7499999999999
 31
0.0
  0
LINE
  5
105
330
1F
100
AcDbEntity
  8
0
  6
CONTINUOUS
 62
     7
100
AcDbLine
 10
-382.9010845315203
 20
437.1180574449658
 30
0.0
 11
-382.9010845315203
 21
475.1967303420285
 31
0.0
  0
LINE
  5
106
330
1F
100
AcDbEntity
  8
0
  6
CONTINUOUS
 62
     7
100
AcDbLine
 10
-275.8135958680269
 20
559.75
 30
0.0
 11
-275.785175805068
 21
559.75
 31
0.0
  0
LINE
  5
107
330
1F
100
AcDbEntity
  8
0
  6
CONTINUOUS
 62
     7
100
AcDbLine
 10
-270.1010845315527
 20
561.968892566006
 30
0.0
 11
-270.9010845315528
 21
561.968892566006
 31
0.0
  0
LINE
  5
108
330
1F
100
AcDbEntity
  8
0
  6
CONTINUOUS
 62
     7
100
AcDbLine
 10
-250.9010845315528
 20
624.5710700247802
 30
0.0
 11
-251.4010845315528
 21
624.4550185905417
 31
0.0
  0
ELLIPSE
  5
109
330
1F
100
AcDbEntity
  8
0
  6
CONTINUOUS
 62
     7
100
AcDbEllipse
 10
-290.90108453152
 20
434.2501142351605
 30
0.0
 11
0.0
 21
-3.000114235157225
 31
0.0
210
0.0
220
0.0
230
1.0
 40
0.9999619230641305
 41
0.0
 42
1.570796326794897
  0
LINE
  5
10A
330
1F
100
AcDbEntity
  8
0
  6
CONTINUOUS
 62
     7
100
AcDbLine
 10
-396.9010845315207
 20
440.3770567012055
 30
0.0
 11
-396.2716750089693
 21
440.2191215627656
 31
0.0
  0
LINE
  5
10B
330
1F
100
AcDbEntity
  8
0
  6
CONTINUOUS
 62
     7
100
AcDbLine
 10
-267.0576333216156
 20
560.2114984681166
 30
0.0
 11
-267.0169932580377
 21
559.7500000000001
 31
0.0
  0
ARC
  5
10C
330
1F
100
AcDbEntity
  8
0
  6
CONTINUOUS
 62
     7
100
AcDbCircle
 10
-251.4010845315527
 20
542.2499999999997
 30
0.0
 40
0.4999999999999449
100
AcDbArc
 50
180.0
 51
270.0
  0
ELLIPSE
  5
10D
330
1F
100
AcDbEntity
  8
0
  6
CONTINUOUS
 62
     7
100
AcDbEllipse
 10
-476.6240789260177
 20
502.6117119661977
 30
0.0
 11
264.9756073373895
 21
0.0
 31
0.0
210
0.0
220
0.0
230
1.0
 40
0.267949192431114
 41
5.02048465514136
 42
5.06496097739818
  0
LINE
  5
10E
330
1F
100
AcDbEntity
  8
0
  6
CONTINUOUS
 62
     7
100
AcDbLine
 10
-385.1246273962157
 20
478.0945078208973
 30
0.0
 11
-396.2716750089716
 21
481.0813502267263
 31
0.0
  0
ARC
  5
10F
330
1F
100
AcDbEntity
  8
0
  6
CONTINUOUS
 62
     7
100
AcDbCircle
 10
-285.9010845315528
 20
530.2499999999999
 30
0.0
 40
1.499999999999946
100
AcDbArc
 50
180.0
 51
270.0
  0
ARC
  5
110
330
1F
100
AcDbEntity
  8
0
  6
CONTINUOUS
 62
     7
100
AcDbCircle
 10
-271.401084531553
 20
550.0500000000002
 30
0.0
 40
11.98957880828178
100
AcDbArc
 50
74.6867096803013
 51
83.77532450519914
  0
LINE
  5
111
330
1F
100
AcDbEntity
  8
0
  6
CONTINUOUS
 62
     7
100
AcDbLine
 10
-250.9010845315528
 20
624.5710700247802
 30
0.0
 11
-224.901084531553
 21
624.5710700247802
 31
0.0
  0
ELLIPSE
  5
112
330
1F
100
AcDbEntity
  8
0
  6
CONTINUOUS
 62
     7
100
AcDbEllipse
 10
-476.6240789260177
 20
584.8882880338022
 30
0.0
 11
264.9756073373895
 21
0.0
 31
0.0
210
0.0
220
0.0
230
1.0
 40
0.267949192431114
 41
1.218224329781404
 42
1.262700652038226
  0
LINE
  5
113
330
1F
100
AcDbEntity
  8
0
  6
CONTINUOUS
 62
     7
100
AcDbLine
 10
-271.9010845315528
 20
561.8021278035184
 30
0.0
 11
-271.9010845315528
 21
561.9688925660063
 31
0.0
  0
LINE
  5
114
330
1F
100
AcDbEntity
  8
0
  6
CONTINUOUS
 62
     7
100
AcDbLine
 10
-593.6002554771696
 20
647.2875013966787
 30
0.0
 11
-593.1002554771713
 21
647.122943298795
 31
0.0
  0
LINE
  5
115
330
1F
100
AcDbEntity
  8
0
  6
CONTINUOUS
 62
     7
100
AcDbLine
 10
-224.901084531553
 20
638.25
 30
0.0
 11
-224.901084531553
 21
449.2499999999999
 31
0.0
  0
ARC
  5
116
330
1F
100
AcDbEntity
  8
0
  6
CONTINUOUS
 62
     7
100
AcDbCircle
 10
-271.401084531553
 20
550.0500000000002
 30
0.0
 40
11.98957880828178
100
AcDbArc
 50
96.22467549480064
 51
105.3132903196988
  0
LINE
  5
117
330
1F
100
AcDbEntity
  8
0
  6
CONTINUOUS
 62
     7
100
AcDbLine
 10
-251.9010845315526
 20
533.2499999999998
 30
0.0
 11
-252.4010845315527
 21
533.2499999999998
 31
0.0
  0
CIRCLE
  5
118
330
1F
100
AcDbEntity
  8
0
  6
CONTINUOUS
 62
     7
100
AcDbCircle
 10
-656.251868163587
 20
543.75
 30
0.0
 40
73.99999999999996
  0
LINE
  5
119
330
1F
100
AcDbEntity
  8
0
  6
CONTINUOUS
 62
     7
100
AcDbLine
 10
-396.9010845315207
 20
435.1105005864142
 30
0.0
 11
-396.2716750089693
 21
434.9549050406031
 31
0.0
  0
ELLIPSE
  5
11A
330
1F
100
AcDbEntity
  8
0
  6
CONTINUOUS
 62
     7
100
AcDbEllipse
 10
-290.90108453152
 20
653.2498857648394
 30
0.0
 11
0.0
 21
-3.000114235157225
 31
0.0
210
0.0
220
0.0
230
1.0
 40
0.9999619230641305
 41
1.570796326794897
 42
3.141592653589793
  0
ARC
  5
11B
330
1F
100
AcDbEntity
  8
0
  6
CONTINUOUS
 62
     7
100
AcDbCircle
 10
-253.9010845315528
 20
557.25
 30
0.0
 40
1.500000000000057
100
AcDbArc
 50
0.0
 51
67.88918966319903
  0
LINE
  5
11C
330
1F
100
AcDbEntity
  8
0
  6
CONTINUOUS
 62
     7
100
AcDbLine
 10
-250.9010845315528
 20
462.9289299752197
 30
0.0
 11
-224.901084531553
 21
462.9289299752197
 31
0.0
  0
LINE
  5
11D
330
1F
100
AcDbEntity
  8
0
  6
CONTINUOUS
 62
     7
100
AcDbLine
 10
-270.9010845315528
 20
561.8021278035184
 30
0.0
 11
-271.9010845315528
 21
561.8021278035184
 31
0.0
  0
LINE
  5
11E
330
1F
100
AcDbEntity
  8
0
  6
CONTINUOUS
 62
     7
100
AcDbLine
 10
-250.9010845315528
 20
462.9289299752197
 30
0.0
 11
-251.4010845315522
 21
463.0449814094582
 31
0.0
  0
ELLIPSE
  5
11F
330
1F
100
AcDbEntity
  8
0
  6
CONTINUOUS
 62
     7
100
AcDbEllipse
 10
-470.654702050728
 20
501.0122222531465
 30
0.0
 11
-235.8055912933254
 21
-1.421330428343026
 31
0.0
210
0.0
220
0.0
230
1.0
 40
0.2735251099434988
 41
1.890069765705991
 42
1.940326078080679
  0
LINE
  5
120
330
1F
100
AcDbEntity
  8
0
  6
CONTINUOUS
 62
     7
100
AcDbLine
 10
-396.2716750089714
 20
606.4186497732737
 30
0.0
 11
-385.1246273962155
 21
609.4054921791028
 31
0.0
  0
LINE
  5
121
330
1F
100
AcDbEntity
  8
0
  6
CONTINUOUS
 62
     7
100
AcDbLine
 10
-270.9010845315528
 20
561.968892566006
 30
0.0
 11
-270.9010845315528
 21
561.8021278035181
 31
0.0
  0
LINE
  5
122
330
1F
100
AcDbEntity
  8
0
  6
CONTINUOUS
 62
     7
100
AcDbLine
 10
-267.0169932580378
 20
559.75
 30
0.0
 11
-266.9885731950787
 21
559.75
 31
0.0
  0
LINE
  5
123
330
1F
100
AcDbEntity
  8
0
  6
CONTINUOUS
 62
     7
100
AcDbLine
 10
-251.4010845315522
 20
463.0449814094582
 30
0.0
 11
-251.9010845315526
 21
463.537045508455
 31
0.0
  0
ARC
  5
124
330
1F
100
AcDbEntity
  8
0
  6
CONTINUOUS
 62
     7
100
AcDbCircle
 10
-285.9010845315528
 20
557.25
 30
0.0
 40
1.499999999999946
100
AcDbArc
 50
90.0
 51
180.0
  0
ARC
  5
125
330
1F
100
AcDbEntity
  8
0
  6
CONTINUOUS
 62
     7
100
AcDbCircle
 10
-253.9010845315528
 20
530.2499999999999
 30
0.0
 40
1.500000000000057
100
AcDbArc
 50
292.110810336801
 51
0.0
  0
LINE
  5
126
330
1F
100
AcDbEntity
  8
0
  6
CONTINUOUS
 62
     7
100
AcDbLine
 10
-396.9010845315205
 20
606.9016126864198
 30
0.0
 11
-396.9010845315205
 21
652.3894994135879
 31
0.0
  0
LINE
  5
127
330
1F
100
AcDbEntity
  8
0
  6
CONTINUOUS
 62
     7
100
AcDbLine
 10
-253.9326275704811
 20
528.7499999999998
 30
0.0
 11
-285.9010845315529
 21
528.7499999999998
 31
0.0
  0
LINE
  5
128
330
1F
100
AcDbEntity
  8
0
  6
CONTINUOUS
 62
     7
100
AcDbLine
 10
-251.9010845315526
 20
464.3774606680624
 30
0.0
 11
-252.4010845315528
 21
464.6788295268118
 31
0.0
  0
LINE
  5
129
330
1F
100
AcDbEntity
  8
0
  6
CONTINUOUS
 62
     7
100
AcDbLine
 10
-382.9010845315203
 20
612.3032696579713
 30
0.0
 11
-382.9010845315203
 21
650.3819425550342
 31
0.0
  0
LWPOLYLINE
  5
12A
330
1F
100
AcDbEntity
  8
0
  6
CONTINUOUS
 62
     7
100
AcDbPolyline
 90
        7
 70
     0
 43
0.0
 10
-382.9010845315212
 20
475.1967303420292
 42
0.1022360107655089
 10
-383.1486310733232
 20
476.3898178740529
 10
-383.2877471738155
 20
476.6692482759403
 10
-383.4563474915486
 20
476.935056166073
 42
0.1030031818166285
 10
-384.3549220365358
 20
477.7674894498187
 10
-384.7353379693821
 20
477.9608963294284
 10
-385.1246273962137
 20
478.0945078208966
  0
LINE
  5
12B
330
1F
100
AcDbEntity
  8
0
  6
CONTINUOUS
 62
     7
100
AcDbLine
 10
-271.9010845315528
 20
561.968892566006
 30
0.0
 11
-272.7010845315529
 21
561.968892566006
 31
0.0
  0
LINE
  5
12C
330
1F
100
AcDbEntity
  8
0
  6
CONTINUOUS
 62
     7
100
AcDbLine
 10
-252.4010845315527
 20
500.3238804423053
 30
0.0
 11
-251.9010845315526
 21
500.7659886644
 31
0.0
  0
LINE
  5
12D
330
1F
100
AcDbEntity
  8
0
  6
CONTINUOUS
 62
     7
100
AcDbLine
 10
-720.1028466671177
 20
586.4322474050716
 30
0.0
 11
-729.2595289440704
 21
593.0849664947111
 31
0.0
  0
ARC
  5
12E
330
1F
100
AcDbEntity
  8
0
  6
CONTINUOUS
 62
     7
100
AcDbCircle
 10
-656.251868163587
 20
543.75
 30
0.0
 40
76.19999999999982
100
AcDbArc
 50
299.6131624641701
 51
303.3868375358298
  0
ELLIPSE
  5
12F
330
1F
100
AcDbEntity
  8
0
  6
CONTINUOUS
 62
     7
100
AcDbEllipse
 10
-580.5525543365884
 20
572.026496055219
 30
0.0
 11
-0.4909475830539023
 21
0.09841089506523738
 31
0.0
210
0.0
220
0.0
230
-1.0
 40
0.9985745863607478
 41
2.944038257173746
 42
4.199791173280406
  0
LINE
  5
130
330
1F
100
AcDbEntity
  8
0
  6
CONTINUOUS
 62
     7
100
AcDbLine
 10
-586.510026620532
 20
511.5817355521086
 30
0.0
 11
-580.7787858629907
 21
508.6615225289613
 31
0.0
  0
LINE
  5
131
330
1F
100
AcDbEntity
  8
0
  6
CONTINUOUS
 62
     7
100
AcDbLine
 10
-690.8957286941023
 20
619.9499999999978
 30
0.0
 11
-684.5280893192868
 21
619.9499999999978
 31
0.0
  0
LINE
  5
132
330
1F
100
AcDbEntity
  8
0
  6
CONTINUOUS
 62
     7
100
AcDbLine
 10
-693.7661717566085
 20
610.7678985446177
 30
0.0
 11
-697.9959216891756
 21
619.0692501979336
 31
0.0
  0
ARC
  5
133
330
1F
100
AcDbEntity
  8
0
  6
CONTINUOUS
 62
     7
100
AcDbCircle
 10
-656.251868163587
 20
543.75
 30
0.0
 40
76.19999999999982
100
AcDbArc
 50
326.6131624641702
 51
330.3868375358298
  0
LINE
  5
134
330
1F
100
AcDbEntity
  8
0
  6
CONTINUOUS
 62
     7
100
AcDbLine
 10
-726.9865646637782
 20
488.0979745590053
 30
0.0
 11
-726.8468710095744
 21
488.7515242352315
 31
0.0
  0
ARC
  5
135
330
1F
100
AcDbEntity
  8
0
  6
CONTINUOUS
 62
     7
100
AcDbCircle
 10
-656.251868163587
 20
543.75
 30
0.0
 40
76.19999999999982
100
AcDbArc
 50
56.61316246417016
 51
60.38683753582988
  0
LINE
  5
136
330
1F
100
AcDbEntity
  8
0
  6
CONTINUOUS
 62
     7
100
AcDbLine
 10
-618.7375645705658
 20
476.732101455382
 30
0.0
 11
-614.5078146379988
 21
468.4307498020663
 31
0.0
  0
LINE
  5
137
330
1F
100
AcDbEntity
  8
0
  6
CONTINUOUS
 62
     7
100
AcDbLine
 10
-600.5998427225926
 20
473.0153034998088
 30
0.0
 11
-601.2533923988188
 21
473.1549971540127
 31
0.0
  0
LINE
  5
138
330
1F
100
AcDbEntity
  8
0
  6
CONTINUOUS
 62
     7
100
AcDbLine
 10
-580.9326179656537
 20
502.0059464744115
 30
0.0
 11
-580.6670114245479
 21
501.4744543555236
 31
0.0
  0
LINE
  5
139
330
1F
100
AcDbEntity
  8
0
  6
CONTINUOUS
 62
     7
100
AcDbLine
 10
-614.5078146379986
 20
619.0692501979336
 30
0.0
 11
-613.9763225191109
 21
619.3348567390393
 31
0.0
  0
LINE
  5
13A
330
1F
100
AcDbEntity
  8
0
  6
CONTINUOUS
 62
     7
100
AcDbLine
 10
-592.4008896600569
 20
501.0677525949283
 30
0.0
 11
-583.2442073831039
 21
494.4150335052889
 31
0.0
  0
ARC
  5
13B
330
1F
100
AcDbEntity
  8
0
  6
CONTINUOUS
 62
     7
100
AcDbCircle
 10
-656.251868163587
 20
543.75
 30
0.0
 40
76.19999999999982
100
AcDbArc
 50
209.6131624641702
 51
213.3868375358298
  0
ARC
  5
13C
330
1F
100
AcDbEntity
  8
0
  6
CONTINUOUS
 62
     7
100
AcDbCircle
 10
-656.251868163587
 20
543.75
 30
0.0
 40
76.19999999999982
100
AcDbArc
 50
146.6131624641702
 51
150.3868375358299
  0
LINE
  5
13D
330
1F
100
AcDbEntity
  8
0
  6
CONTINUOUS
 62
     7
100
AcDbLine
 10
-698.9341155686587
 20
479.8990214964693
 30
0.0
 11
-705.5868346582978
 21
470.7423392195167
 31
0.0
  0
ARC
  5
13E
330
1F
100
AcDbEntity
  8
0
  6
CONTINUOUS
 62
     7
100
AcDbCircle
 10
621.0518681635882
 20
578.9499999999987
 30
0.0
 40
40.99999999999992
210
0.0
220
0.0
230
-1.0
100
AcDbArc
 50
99.93752722614771
 51
109.8183954691146
  0
ARC
  5
13F
330
1F
100
AcDbEntity
  8
0
  6
CONTINUOUS
 62
     7
100
AcDbCircle
 10
691.451868163586
 20
508.5500000000011
 30
0.0
 40
40.99999999999992
210
0.0
220
0.0
230
-1.0
100
AcDbArc
 50
340.1816045308854
 51
350.0624727738522
  0
ARC
  5
140
330
1F
100
AcDbEntity
  8
0
  6
CONTINUOUS
 62
     7
100
AcDbCircle
 10
691.451868163586
 20
508.5500000000011
 30
0.0
 40
40.99999999999992
210
0.0
220
0.0
230
-1.0
100
AcDbArc
 50
279.9375272261477
 51
289.8183954691145
  0
LINE
  5
141
330
1F
100
AcDbEntity
  8
0
  6
CONTINUOUS
 62
     7
100
AcDbLine
 10
-731.5711183615207
 20
585.4940535255884
 30
0.0
 11
-723.2697667082049
 21
581.2643035930213
 31
0.0
  0
ARC
  5
142
330
1F
100
AcDbEntity
  8
0
  6
CONTINUOUS
 62
     7
100
AcDbCircle
 10
-656.251868163587
 20
543.75
 30
0.0
 40
76.19999999999982
100
AcDbArc
 50
29.61316246417018
 51
33.38683753582991
  0
ELLIPSE
  5
143
330
1F
100
AcDbEntity
  8
0
  6
CONTINUOUS
 62
     7
100
AcDbEllipse
 10
-580.5525543365884
 20
578.3923927098978
 30
0.0
 11
0.3423548945881149
 21
0.3664237368767864
 31
0.0
210
0.0
220
0.0
230
-1.0
 40
0.9970665012060188
 41
5.0614364861563
 42
7.101062955507503
  0
LINE
  5
144
330
1F
100
AcDbEntity
  8
0
  6
CONTINUOUS
 62
     7
100
AcDbLine
 10
-731.8367249026264
 20
501.4744543555236
 30
0.0
 11
-731.5711183615207
 21
502.0059464744115
 31
0.0
  0
LINE
  5
145
330
1F
100
AcDbEntity
  8
0
  6
CONTINUOUS
 62
     7
100
AcDbLine
 10
-684.5280893192868
 20
467.5500000000021
 30
0.0
 11
-690.8957286941023
 21
467.5500000000021
 31
0.0
  0
LINE
  5
146
330
1F
100
AcDbEntity
  8
0
  6
CONTINUOUS
 62
     7
100
AcDbLine
 10
-580.7787858629907
 20
578.8384774710382
 30
0.0
 11
-586.510026620532
 21
575.918264447891
 31
0.0
  0
LINE
  5
147
330
1F
100
AcDbEntity
  8
0
  6
CONTINUOUS
 62
     7
100
AcDbLine
 10
-580.6670114245477
 20
586.0255456444759
 30
0.0
 11
-580.9326179656538
 21
585.4940535255882
 31
0.0
  0
LINE
  5
148
330
1F
100
AcDbEntity
  8
0
  6
CONTINUOUS
 62
     7
100
AcDbLine
 10
-731.7249504641835
 20
508.6615225289613
 30
0.0
 11
-725.9937097066421
 21
511.5817355521085
 31
0.0
  0
ARC
  5
149
330
1F
100
AcDbEntity
  8
0
  6
CONTINUOUS
 62
     7
100
AcDbCircle
 10
621.0518681635882
 20
508.5500000000011
 30
0.0
 40
40.99999999999992
210
0.0
220
0.0
230
-1.0
100
AcDbArc
 50
250.1816045308854
 51
260.0624727738522
  0
ARC
  5
14A
330
1F
100
AcDbEntity
  8
0
  6
CONTINUOUS
 62
     7
100
AcDbCircle
 10
691.451868163586
 20
578.9499999999987
 30
0.0
 40
40.99999999999992
210
0.0
220
0.0
230
-1.0
100
AcDbArc
 50
70.1816045308854
 51
80.06247277385219
  0
LINE
  5
14B
330
1F
100
AcDbEntity
  8
0
  6
CONTINUOUS
 62
     7
100
AcDbLine
 10
-725.9937097066421
 20
575.9182644478913
 30
0.0
 11
-731.7249504641836
 21
578.8384774710385
 31
0.0
  0
ELLIPSE
  5
14C
330
1F
100
AcDbEntity
  8
0
  6
CONTINUOUS
 62
     7
100
AcDbEllipse
 10
-621.6094754536892
 20
619.4493138269985
 30
0.0
 11
-0.3664237368767864
 21
-0.3423548945880039
 31
0.0
210
0.0
220
0.0
230
-1.0
 40
0.997066501205846
 41
2.323715005261861
 42
4.363341474613058
  0
LINE
  5
14D
330
1F
100
AcDbEntity
  8
0
  6
CONTINUOUS
 62
     7
100
AcDbLine
 10
-580.0518681635895
 20
515.4737788443005
 30
0.0
 11
-580.0518681635895
 21
509.1061394694848
 31
0.0
  0
ARC
  5
14E
330
1F
100
AcDbEntity
  8
0
  6
CONTINUOUS
 62
     7
100
AcDbCircle
 10
-656.251868163587
 20
543.75
 30
0.0
 40
76.19999999999982
100
AcDbArc
 50
290.6131624641702
 51
294.3868375358298
  0
LINE
  5
14F
330
1F
100
AcDbEntity
  8
0
  6
CONTINUOUS
 62
     7
100
AcDbLine
 10
-684.0528614154397
 20
467.8955446841522
 30
0.0
 11
-682.8203993210128
 21
471.688672982362
 31
0.0
  0
LINE
  5
150
330
1F
100
AcDbEntity
  8
0
  6
CONTINUOUS
 62
     7
100
AcDbLine
 10
-697.9959216891757
 20
468.4307498020663
 30
0.0
 11
-693.7661717566086
 21
476.732101455382
 31
0.0
  0
LINE
  5
151
330
1F
100
AcDbEntity
  8
0
  6
CONTINUOUS
 62
     7
100
AcDbLine
 10
-613.9763225191109
 20
468.1651432609606
 30
0.0
 11
-614.5078146379985
 21
468.4307498020663
 31
0.0
  0
LINE
  5
152
330
1F
100
AcDbEntity
  8
0
  6
CONTINUOUS
 62
     7
100
AcDbLine
 10
-614.5078146379986
 20
619.0692501979336
 30
0.0
 11
-618.7375645705657
 21
610.7678985446177
 31
0.0
  0
LINE
  5
153
330
1F
100
AcDbEntity
  8
0
  6
CONTINUOUS
 62
     7
100
AcDbLine
 10
-698.5274138080631
 20
619.3348567390393
 30
0.0
 11
-697.9959216891755
 21
619.0692501979336
 31
0.0
  0
LINE
  5
154
330
1F
100
AcDbEntity
  8
0
  6
CONTINUOUS
 62
     7
100
AcDbLine
 10
-589.2339696189694
 20
581.2643035930212
 30
0.0
 11
-580.9326179656537
 21
585.4940535255882
 31
0.0
  0
LINE
  5
155
330
1F
100
AcDbEntity
  8
0
  6
CONTINUOUS
 62
     7
100
AcDbLine
 10
-723.269766708205
 20
506.2356964069787
 30
0.0
 11
-731.5711183615208
 21
502.0059464744118
 31
0.0
  0
LINE
  5
156
330
1F
100
AcDbEntity
  8
0
  6
CONTINUOUS
 62
     7
100
AcDbLine
 10
-606.9169016688761
 20
470.7423392195167
 30
0.0
 11
-613.5696207585153
 21
479.8990214964694
 31
0.0
  0
LINE
  5
157
330
1F
100
AcDbEntity
  8
0
  6
CONTINUOUS
 62
     7
100
AcDbLine
 10
-711.9038936045818
 20
614.4846965001911
 30
0.0
 11
-711.2503439283556
 21
614.3450028459874
 31
0.0
  0
LINE
  5
158
330
1F
100
AcDbEntity
  8
0
  6
CONTINUOUS
 62
     7
100
AcDbLine
 10
-729.2595289440703
 20
494.415033505289
 30
0.0
 11
-720.1028466671174
 21
501.0677525949284
 31
0.0
  0
LINE
  5
159
330
1F
100
AcDbEntity
  8
0
  6
CONTINUOUS
 62
     7
100
AcDbLine
 10
-580.9326179656537
 20
502.0059464744115
 30
0.0
 11
-589.2339696189694
 21
506.2356964069785
 31
0.0
  0
LINE
  5
15A
330
1F
100
AcDbEntity
  8
0
  6
CONTINUOUS
 62
     7
100
AcDbLine
 10
-705.5868346582979
 20
616.7576607804832
 30
0.0
 11
-698.9341155686587
 21
607.6009785035305
 31
0.0
  0
ARC
  5
15B
330
1F
100
AcDbEntity
  8
0
  6
CONTINUOUS
 62
     7
100
AcDbCircle
 10
-656.251868163587
 20
543.75
 30
0.0
 40
76.19999999999982
100
AcDbArc
 50
119.6131624641702
 51
123.3868375358298
  0
ARC
  5
15C
330
1F
100
AcDbEntity
  8
0
  6
CONTINUOUS
 62
     7
100
AcDbCircle
 10
621.0518681635882
 20
578.9499999999987
 30
0.0
 40
40.99999999999992
210
0.0
220
0.0
230
-1.0
100
AcDbArc
 50
160.1816045308854
 51
170.0624727738521
  0
LINE
  5
15D
330
1F
100
AcDbEntity
  8
0
  6
CONTINUOUS
 62
     7
100
AcDbLine
 10
-583.2442073831037
 20
593.0849664947111
 30
0.0
 11
-592.4008896600567
 21
586.4322474050716
 31
0.0
  0
LINE
  5
15E
330
1F
100
AcDbEntity
  8
0
  6
CONTINUOUS
 62
     7
100
AcDbLine
 10
-731.5711183615207
 20
585.4940535255884
 30
0.0
 11
-731.8367249026264
 21
586.025545644476
 31
0.0
  0
LINE
  5
15F
330
1F
100
AcDbEntity
  8
0
  6
CONTINUOUS
 62
     7
100
AcDbLine
 10
-629.6833370061613
 20
471.6886729823619
 30
0.0
 11
-628.4508749117346
 21
467.8955446841521
 31
0.0
  0
LINE
  5
160
330
1F
100
AcDbEntity
  8
0
  6
CONTINUOUS
 62
     7
100
AcDbLine
 10
-613.5696207585154
 20
607.6009785035305
 30
0.0
 11
-606.9169016688762
 21
616.7576607804832
 31
0.0
  0
LINE
  5
161
330
1F
100
AcDbEntity
  8
0
  6
CONTINUOUS
 62
     7
100
AcDbLine
 10
-580.0518681635895
 20
578.3938605305152
 30
0.0
 11
-580.0518681635895
 21
572.0262211556995
 31
0.0
  0
ELLIPSE
  5
162
330
1F
100
AcDbEntity
  8
0
  6
CONTINUOUS
 62
     7
100
AcDbEllipse
 10
-731.9511819905858
 20
572.026496055219
 30
0.0
 11
-0.4909475830539021
 21
-0.0984108950650153
 31
0.0
210
0.0
220
0.0
230
-1.0
 40
0.9985745863608348
 41
5.224986787488959
 42
6.480739703595606
  0
ARC
  5
163
330
1F
100
AcDbEntity
  8
0
  6
CONTINUOUS
 62
     7
100
AcDbCircle
 10
621.0518681635882
 20
508.5500000000011
 30
0.0
 40
40.99999999999992
210
0.0
220
0.0
230
-1.0
100
AcDbArc
 50
189.9375272261477
 51
199.8183954691145
  0
ARC
  5
164
330
1F
100
AcDbEntity
  8
0
  6
CONTINUOUS
 62
     7
100
AcDbCircle
 10
691.451868163586
 20
578.9499999999987
 30
0.0
 40
40.99999999999992
210
0.0
220
0.0
230
-1.0
100
AcDbArc
 50
9.937527226147742
 51
19.8183954691145
  0
ARC
  5
165
330
1F
100
AcDbEntity
  8
0
  6
CONTINUOUS
 62
     7
100
AcDbCircle
 10
-656.251868163587
 20
543.75
 30
0.0
 40
76.19999999999982
100
AcDbArc
 50
200.6131624641702
 51
204.3868375358298
  0
LINE
  5
166
330
1F
100
AcDbEntity
  8
0
  6
CONTINUOUS
 62
     7
100
AcDbLine
 10
-621.1633906925488
 20
468.2769176994035
 30
0.0
 11
-624.083603715696
 21
474.0081584569451
 31
0.0
  0
ELLIPSE
  5
167
330
1F
100
AcDbEntity
  8
0
  6
CONTINUOUS
 62
     7
100
AcDbEllipse
 10
-684.5283642188064
 20
468.0506861730012
 30
0.0
 11
0.09841089506523738
 21
-0.4909475830539023
 31
0.0
210
0.0
220
0.0
230
-1.0
 40
0.9985745863603127
 41
5.224986787488973
 42
6.480739703595541
  0
ELLIPSE
  5
168
330
1F
100
AcDbEntity
  8
0
  6
CONTINUOUS
 62
     7
100
AcDbEllipse
 10
-621.6094754536892
 20
468.0506861730012
 30
0.0
 11
0.3664237368770085
 21
-0.3423548945880039
 31
0.0
210
0.0
220
0.0
230
-1.0
 40
0.9970665012055445
 41
5.0614364861563
 42
7.101062955507518
  0
LINE
  5
169
330
1F
100
AcDbEntity
  8
0
  6
CONTINUOUS
 62
     7
100
AcDbLine
 10
-691.3403456346256
 20
619.2230823005964
 30
0.0
 11
-688.4201326114785
 21
613.4918415430548
 31
0.0
  0
ELLIPSE
  5
16A
330
1F
100
AcDbEntity
  8
0
  6
CONTINUOUS
 62
     7
100
AcDbEllipse
 10
-627.975372108368
 20
619.4493138269985
 30
0.0
 11
-0.09841089506523738
 21
0.4909475830539023
 31
0.0
210
0.0
220
0.0
230
-1.0
 40
0.9985745863607478
 41
5.224986787488959
 42
6.480739703595542
  0
ELLIPSE
  5
16B
330
1F
100
AcDbEntity
  8
0
  6
CONTINUOUS
 62
     7
100
AcDbEllipse
 10
-627.975372108368
 20
468.0506861730012
 30
0.0
 11
0.09841089506523738
 21
0.4909475830539023
 31
0.0
210
0.0
220
0.0
230
-1.0
 40
0.9985745863607478
 41
2.94403825717383
 42
4.199791173280412
  0
LINE
  5
16C
330
1F
100
AcDbEntity
  8
0
  6
CONTINUOUS
 62
     7
100
AcDbLine
 10
-671.5568519310802
 20
618.4664825779527
 30
0.0
 11
-672.4388764339869
 21
618.2108673281048
 31
0.0
  0
LINE
  5
16D
330
1F
100
AcDbEntity
  8
0
  6
CONTINUOUS
 62
     7
100
AcDbLine
 10
-730.7127354916921
 20
559.9370082703996
 30
0.0
 11
-730.9683507415398
 21
559.054983767493
 31
0.0
  0
LINE
  5
16E
330
1F
100
AcDbEntity
  8
0
  6
CONTINUOUS
 62
     7
100
AcDbLine
 10
-682.8203993210128
 20
615.811327017638
 30
0.0
 11
-684.0528614154396
 21
619.6044553158478
 31
0.0
  0
LINE
  5
16F
330
1F
100
AcDbEntity
  8
0
  6
CONTINUOUS
 62
     7
100
AcDbLine
 10
-640.946884396094
 20
469.033517422047
 30
0.0
 11
-640.0648598931874
 21
469.2891326718948
 31
0.0
  0
ARC
  5
170
330
1F
100
AcDbEntity
  8
0
  6
CONTINUOUS
 62
     7
100
AcDbCircle
 10
-656.251868163587
 20
543.75
 30
0.0
 40
76.19999999999982
100
AcDbArc
 50
254.6131624641702
 51
257.7353267868252
  0
ARC
  5
171
330
1F
100
AcDbEntity
  8
0
  6
CONTINUOUS
 62
     7
100
AcDbCircle
 10
-656.251868163587
 20
543.75
 30
0.0
 40
76.19999999999982
100
AcDbArc
 50
245.6131624641702
 51
249.3868375358298
  0
ARC
  5
172
330
1F
100
AcDbEntity
  8
0
  6
CONTINUOUS
 62
     7
100
AcDbCircle
 10
-656.251868163587
 20
543.75
 30
0.0
 40
76.20000000000005
100
AcDbArc
 50
110.6131624641702
 51
114.3868375358297
  0
LINE
  5
173
330
1F
100
AcDbEntity
  8
0
  6
CONTINUOUS
 62
     7
100
AcDbLine
 10
-640.8521100693142
 20
619.5509247905197
 30
0.0
 11
-637.8163312108366
 21
619.9499999999978
 31
0.0
  0
LINE
  5
174
330
1F
100
AcDbEntity
  8
0
  6
CONTINUOUS
 62
     7
100
AcDbLine
 10
-634.8600195585786
 20
468.2044557861211
 30
0.0
 11
-635.3896761039321
 21
469.8345710161124
 31
0.0
  0
ELLIPSE
  5
175
330
1F
100
AcDbEntity
  8
0
  6
CONTINUOUS
 62
     7
100
AcDbEllipse
 10
-635.3359681113905
 20
468.0506861730012
 30
0.0
 11
0.3246538747065931
 21
-0.3818153278458691
 31
0.0
210
0.0
220
0.0
230
-1.0
 40
0.9976421992492889
 41
5.103723912994493
 42
6.986683172211705
  0
LINE
  5
176
330
1F
100
AcDbEntity
  8
0
  6
CONTINUOUS
 62
     7
100
AcDbLine
 10
-732.4518681635849
 20
572.0262211556994
 30
0.0
 11
-732.4518681635849
 21
578.3938605305151
 31
0.0
  0
LINE
  5
177
330
1F
100
AcDbEntity
  8
0
  6
CONTINUOUS
 62
     7
100
AcDbLine
 10
-580.0518681635895
 20
564.6670661451119
 30
0.0
 11
-580.0518681635895
 21
562.1855369527505
 31
0.0
  0
ELLIPSE
  5
178
330
1F
100
AcDbEntity
  8
0
  6
CONTINUOUS
 62
     7
100
AcDbEllipse
 10
-731.9511819905858
 20
564.6659000521965
 30
0.0
 11
0.3818153278460912
 21
-0.3246538747065931
 31
0.0
210
0.0
220
0.0
230
-1.0
 40
0.9976421992486143
 41
2.438094788557743
 42
4.321054047774859
  0
LINE
  5
179
330
1F
100
AcDbEntity
  8
0
  6
CONTINUOUS
 62
     7
100
AcDbLine
 10
-677.1689343086994
 20
619.9499999999978
 30
0.0
 11
-674.6874051163377
 21
619.9499999999978
 31
0.0
  0
LINE
  5
17A
330
1F
100
AcDbEntity
  8
0
  6
CONTINUOUS
 62
     7
100
AcDbLine
 10
-677.1140602232421
 20
469.8345710161122
 30
0.0
 11
-677.6437167685955
 21
468.204455786121
 31
0.0
  0
LINE
  5
17B
330
1F
100
AcDbEntity
  8
0
  6
CONTINUOUS
 62
     7
100
AcDbLine
 10
-640.0648598931876
 20
618.210867328105
 30
0.0
 11
-640.9468843960941
 21
618.4664825779532
 31
0.0
  0
LINE
  5
17C
330
1F
100
AcDbEntity
  8
0
  6
CONTINUOUS
 62
     7
100
AcDbLine
 10
-732.4518681635849
 20
522.8329338548876
 30
0.0
 11
-732.4518681635849
 21
525.3144630472493
 31
0.0
  0
LINE
  5
17D
330
1F
100
AcDbEntity
  8
0
  6
CONTINUOUS
 62
     7
100
AcDbLine
 10
-580.0518681635895
 20
525.3144630472494
 30
0.0
 11
-580.0518681635895
 21
522.8329338548878
 31
0.0
  0
LINE
  5
17E
330
1F
100
AcDbEntity
  8
0
  6
CONTINUOUS
 62
     7
100
AcDbLine
 10
-637.8163312108366
 20
619.9499999999978
 30
0.0
 11
-635.3348020184749
 21
619.9499999999978
 31
0.0
  0
LINE
  5
17F
330
1F
100
AcDbEntity
  8
0
  6
CONTINUOUS
 62
     7
100
AcDbLine
 10
-732.4518681635849
 20
509.1061394694847
 30
0.0
 11
-732.4518681635849
 21
515.4737788443003
 31
0.0
  0
LINE
  5
180
330
1F
100
AcDbEntity
  8
0
  6
CONTINUOUS
 62
     7
100
AcDbLine
 10
-697.9959216891757
 20
468.4307498020663
 30
0.0
 11
-698.5274138080632
 21
468.1651432609606
 31
0.0
  0
LINE
  5
181
330
1F
100
AcDbEntity
  8
0
  6
CONTINUOUS
 62
     7
100
AcDbLine
 10
-628.4508749117347
 20
619.6044553158478
 30
0.0
 11
-629.6833370061614
 21
615.811327017638
 31
0.0
  0
ELLIPSE
  5
182
330
1F
100
AcDbEntity
  8
0
  6
CONTINUOUS
 62
     7
100
AcDbEllipse
 10
-731.9511819905858
 20
578.3923927098978
 30
0.0
 11
0.3423548945880039
 21
-0.3664237368767864
 31
0.0
210
0.0
220
0.0
230
-1.0
 40
0.9970665012061695
 41
2.323715005261874
 42
4.363341474613077
  0
ELLIPSE
  5
183
330
1F
100
AcDbEntity
  8
0
  6
CONTINUOUS
 62
     7
100
AcDbEllipse
 10
-580.5525543365884
 20
515.4735039447809
 30
0.0
 11
0.4909475830539023
 21
0.09841089506523738
 31
0.0
210
0.0
220
0.0
230
-1.0
 40
0.9985745863607912
 41
5.224986787488928
 42
6.480739703595439
  0
LINE
  5
184
330
1F
100
AcDbEntity
  8
0
  6
CONTINUOUS
 62
     7
100
AcDbLine
 10
-580.3974128477394
 20
515.9490067481473
 30
0.0
 11
-584.190541145949
 21
517.1814688425742
 31
0.0
  0
LINE
  5
185
330
1F
100
AcDbEntity
  8
0
  6
CONTINUOUS
 62
     7
100
AcDbLine
 10
-732.4518681635849
 20
562.1855369527507
 30
0.0
 11
-732.4518681635849
 21
564.667066145112
 31
0.0
  0
LINE
  5
186
330
1F
100
AcDbEntity
  8
0
  6
CONTINUOUS
 62
     7
100
AcDbLine
 10
-621.608007633072
 20
467.5500000000021
 30
0.0
 11
-627.9756470078876
 21
467.5500000000021
 31
0.0
  0
LINE
  5
187
330
1F
100
AcDbEntity
  8
0
  6
CONTINUOUS
 62
     7
100
AcDbLine
 10
-728.3131951812251
 20
517.1814688425742
 30
0.0
 11
-732.1063234794349
 21
515.9490067481473
 31
0.0
  0
LINE
  5
188
330
1F
100
AcDbEntity
  8
0
  6
CONTINUOUS
 62
     7
100
AcDbLine
 10
-627.9756470078876
 20
619.9499999999978
 30
0.0
 11
-621.608007633072
 21
619.9499999999978
 31
0.0
  0
LINE
  5
189
330
1F
100
AcDbEntity
  8
0
  6
CONTINUOUS
 62
     7
100
AcDbLine
 10
-732.106323479435
 20
571.5509932518523
 30
0.0
 11
-728.3131951812252
 21
570.3185311574257
 31
0.0
  0
LINE
  5
18A
330
1F
100
AcDbEntity
  8
0
  6
CONTINUOUS
 62
     7
100
AcDbLine
 10
-671.6516262578601
 20
467.9490752094802
 30
0.0
 11
-674.6874051163378
 21
467.5500000000022
 31
0.0
  0
ARC
  5
18B
330
1F
100
AcDbEntity
  8
0
  6
CONTINUOUS
 62
     7
100
AcDbCircle
 10
-656.251868163587
 20
543.75
 30
0.0
 40
76.20000000000005
100
AcDbArc
 50
20.61316246417018
 51
24.38683753582972
  0
ELLIPSE
  5
18C
330
1F
100
AcDbEntity
  8
0
  6
CONTINUOUS
 62
     7
100
AcDbEllipse
 10
-690.894260873485
 20
468.0506861730012
 30
0.0
 11
0.3664237368770085
 21
0.342354894588226
 31
0.0
210
0.0
220
0.0
230
-1.0
 40
0.9970665012055454
 41
2.323715005261834
 42
4.363341474613071
  0
ARC
  5
18D
330
1F
100
AcDbEntity
  8
0
  6
CONTINUOUS
 62
     7
100
AcDbCircle
 10
-656.251868163587
 20
543.75
 30
0.0
 40
76.19999999999982
100
AcDbArc
 50
65.61316246417019
 51
69.38683753582973
  0
LINE
  5
18E
330
1F
100
AcDbEntity
  8
0
  6
CONTINUOUS
 62
     7
100
AcDbLine
 10
-584.190541145949
 20
570.3185311574257
 30
0.0
 11
-580.3974128477394
 21
571.5509932518523
 31
0.0
  0
ARC
  5
18F
330
1F
100
AcDbEntity
  8
0
  6
CONTINUOUS
 62
     7
100
AcDbCircle
 10
-656.251868163587
 20
543.75
 30
0.0
 40
76.19999999999982
100
AcDbArc
 50
155.6131624641702
 51
159.3868375358299
  0
ELLIPSE
  5
190
330
1F
100
AcDbEntity
  8
0
  6
CONTINUOUS
 62
     7
100
AcDbEllipse
 10
-731.9511819905858
 20
509.107607290102
 30
0.0
 11
-0.3423548945880039
 21
-0.3664237368770085
 31
0.0
210
0.0
220
0.0
230
-1.0
 40
0.9970665012058467
 41
5.061436486156287
 42
7.101062955507532
  0
ELLIPSE
  5
191
330
1F
100
AcDbEntity
  8
0
  6
CONTINUOUS
 62
     7
100
AcDbEllipse
 10
-690.894260873485
 20
619.4493138269985
 30
0.0
 11
-0.3664237368770085
 21
0.3423548945880039
 31
0.0
210
0.0
220
0.0
230
-1.0
 40
0.9970665012058467
 41
5.061436486156312
 42
7.101062955507532
  0
LINE
  5
192
330
1F
100
AcDbEntity
  8
0
  6
CONTINUOUS
 62
     7
100
AcDbLine
 10
-624.0836037156957
 20
613.4918415430548
 30
0.0
 11
-621.1633906925487
 21
619.2230823005964
 31
0.0
  0
LINE
  5
193
330
1F
100
AcDbEntity
  8
0
  6
CONTINUOUS
 62
     7
100
AcDbLine
 10
-688.4201326114786
 20
474.0081584569449
 30
0.0
 11
-691.3403456346257
 21
468.2769176994033
 31
0.0
  0
ELLIPSE
  5
194
330
1F
100
AcDbEntity
  8
0
  6
CONTINUOUS
 62
     7
100
AcDbEllipse
 10
-580.5525543365884
 20
509.107607290102
 30
0.0
 11
-0.3423548945881149
 21
0.3664237368767864
 31
0.0
210
0.0
220
0.0
230
-1.0
 40
0.9970665012060188
 41
2.323715005261875
 42
4.363341474613076
  0
ARC
  5
195
330
1F
100
AcDbEntity
  8
0
  6
CONTINUOUS
 62
     7
100
AcDbCircle
 10
-656.251868163587
 20
543.75
 30
0.0
 40
76.19999999999982
100
AcDbArc
 50
335.6131624641702
 51
339.3868375358298
  0
ARC
  5
196
330
1F
100
AcDbEntity
  8
0
  6
CONTINUOUS
 62
     7
100
AcDbCircle
 10
621.0518681635882
 20
508.5500000000011
 30
0.0
 40
40.99999999999992
210
0.0
220
0.0
230
-1.0
100
AcDbArc
 50
209.9226162137268
 51
220.0431425520749
  0
LINE
  5
197
330
1F
100
AcDbEntity
  8
0
  6
CONTINUOUS
 62
     7
100
AcDbLine
 10
-708.3971199404687
 20
487.3621075359993
 30
0.0
 11
-717.8612433976606
 21
477.8979840788073
 31
0.0
  0
LINE
  5
198
330
1F
100
AcDbEntity
  8
0
  6
CONTINUOUS
 62
     7
100
AcDbLine
 10
-608.7155187922658
 20
483.4257330102243
 30
0.0
 11
-601.2533923988186
 21
473.1549971540127
 31
0.0
  0
LINE
  5
199
330
1F
100
AcDbEntity
  8
0
  6
CONTINUOUS
 62
     7
100
AcDbLine
 10
-599.8639756995866
 20
491.6047482231185
 30
0.0
 11
-590.3998522423949
 21
482.1406247659268
 31
0.0
  0
ARC
  5
19A
330
1F
100
AcDbEntity
  8
0
  6
CONTINUOUS
 62
     7
100
AcDbCircle
 10
691.451868163586
 20
508.5500000000011
 30
0.0
 40
40.99999999999992
210
0.0
220
0.0
230
-1.0
100
AcDbArc
 50
319.956857447925
 51
330.0773837862731
  0
LINE
  5
19B
330
1F
100
AcDbEntity
  8
0
  6
CONTINUOUS
 62
     7
100
AcDbLine
 10
-585.6568653175998
 20
488.7515242352314
 30
0.0
 11
-585.5171716633962
 21
488.0979745590051
 31
0.0
  0
LINE
  5
19C
330
1F
100
AcDbEntity
  8
0
  6
CONTINUOUS
 62
     7
100
AcDbLine
 10
-712.6397606275877
 20
595.8952517768814
 30
0.0
 11
-722.1038840847796
 21
605.3593752340731
 31
0.0
  0
LINE
  5
19D
330
1F
100
AcDbEntity
  8
0
  6
CONTINUOUS
 62
     7
100
AcDbLine
 10
-757.3934327617003
 20
612.3032696579702
 30
0.0
 11
-758.6212040564121
 21
609.4054921791032
 31
0.0
  0
ARC
  5
19E
330
1F
100
AcDbEntity
  8
0
  6
CONTINUOUS
 62
     7
100
AcDbCircle
 10
-656.251868163587
 20
543.75
 30
0.0
 40
76.19999999999982
100
AcDbArc
 50
137.6131624641702
 51
141.3868375358297
  0
ELLIPSE
  5
19F
330
1F
100
AcDbEntity
  8
0
  6
CONTINUOUS
 62
     7
100
AcDbEllipse
 10
-698.9896459104422
 20
586.4877777468533
 30
0.0
 11
24.4574644843878
 21
59.98182797862395
 31
0.0
210
0.0
220
0.0
230
1.0
 40
0.9712688682807288
 41
0.4727021101587104
 42
0.7686444854382157
  0
ELLIPSE
  5
1A0
330
1F
100
AcDbEntity
  8
0
  6
CONTINUOUS
 62
     7
100
AcDbEllipse
 10
-613.926012607259
 20
501.4241444436707
 30
0.0
 11
45.60981004831842
 21
-45.60981004831842
 31
0.0
210
0.0
220
0.0
230
1.0
 40
0.9999688079870115
 41
5.826537076324812
 42
6.739833538034356
  0
LINE
  5
1A1
330
1F
100
AcDbEntity
  8
0
  6
CONTINUOUS
 62
     7
100
AcDbLine
 10
-726.8468710095744
 20
598.7484757647683
 30
0.0
 11
-716.5761351533629
 21
591.2863493713212
 31
0.0
  0
ELLIPSE
  5
1A2
330
1F
100
AcDbEntity
  8
0
  6
CONTINUOUS
 62
     7
100
AcDbEllipse
 10
-698.5777237199179
 20
586.0758555563292
 30
0.0
 11
-45.6098100483182
 21
45.6098100483182
 31
0.0
210
0.0
220
0.0
230
1.0
 40
0.9999688079870128
 41
5.826537076324813
 42
6.739833538034357
  0
LINE
  5
1A3
330
1F
100
AcDbEntity
  8
0
  6
CONTINUOUS
 62
     7
100
AcDbLine
 10
-601.2533923988187
 20
614.3450028459873
 30
0.0
 11
-600.5998427225925
 21
614.484696500191
 31
0.0
  0
LINE
  5
1A4
330
1F
100
AcDbEntity
  8
0
  6
CONTINUOUS
 62
     7
100
AcDbLine
 10
-585.6568653175998
 20
488.7515242352314
 30
0.0
 11
-595.9276011738114
 21
496.2136506286785
 31
0.0
  0
LINE
  5
1A5
330
1F
100
AcDbEntity
  8
0
  6
CONTINUOUS
 62
     7
100
AcDbLine
 10
-726.8468710095744
 20
598.7484757647683
 30
0.0
 11
-726.9865646637782
 21
599.4020254409944
 31
0.0
  0
LINE
  5
1A6
330
1F
100
AcDbEntity
  8
0
  6
CONTINUOUS
 62
     7
100
AcDbLine
 10
-711.2503439283554
 20
473.154997154013
 30
0.0
 11
-703.7882175349082
 21
483.4257330102243
 31
0.0
  0
ELLIPSE
  5
1A7
330
1F
100
AcDbEntity
  8
0
  6
CONTINUOUS
 62
     7
100
AcDbEllipse
 10
-698.4995321564214
 20
585.9976639928333
 30
0.0
 11
-45.6098100483182
 21
45.6098100483182
 31
0.0
210
0.0
220
0.0
230
1.0
 40
0.9999688079870153
 41
5.917850438998125
 42
6.648520175361048
  0
ARC
  5
1A8
330
1F
100
AcDbEntity
  8
0
  6
CONTINUOUS
 62
     7
100
AcDbCircle
 10
-656.251868163587
 20
543.75
 30
0.0
 40
76.19999999999982
100
AcDbArc
 50
128.6131624641702
 51
132.3868375358298
  0
LINE
  5
1A9
330
1F
100
AcDbEntity
  8
0
  6
CONTINUOUS
 62
     7
100
AcDbLine
 10
-703.7882175349085
 20
604.0742669897759
 30
0.0
 11
-711.2503439283557
 21
614.3450028459874
 31
0.0
  0
LINE
  5
1AA
330
1F
100
AcDbEntity
  8
0
  6
CONTINUOUS
 62
     7
100
AcDbLine
 10
-717.8612433976605
 20
609.6020159211926
 30
0.0
 11
-708.3971199404685
 21
600.1378924640006
 31
0.0
  0
LINE
  5
1AB
330
1F
100
AcDbEntity
  8
0
  6
CONTINUOUS
 62
     7
100
AcDbLine
 10
-722.1038840847797
 20
482.1406247659268
 30
0.0
 11
-712.6397606275879
 21
491.6047482231185
 31
0.0
  0
ARC
  5
1AC
330
1F
100
AcDbEntity
  8
0
  6
CONTINUOUS
 62
     7
100
AcDbCircle
 10
-656.251868163587
 20
543.75
 30
0.0
 40
76.19999999999982
100
AcDbArc
 50
236.6131624641702
 51
240.3868375358298
  0
LINE
  5
1AD
330
1F
100
AcDbEntity
  8
0
  6
CONTINUOUS
 62
     7
100
AcDbLine
 10
-595.9276011738114
 20
591.2863493713214
 30
0.0
 11
-585.6568653175998
 21
598.7484757647685
 31
0.0
  0
LINE
  5
1AE
330
1F
100
AcDbEntity
  8
0
  6
CONTINUOUS
 62
     7
100
AcDbLine
 10
-716.5761351533629
 20
496.2136506286785
 30
0.0
 11
-726.8468710095746
 21
488.7515242352313
 31
0.0
  0
LINE
  5
1AF
330
1F
100
AcDbEntity
  8
0
  6
CONTINUOUS
 62
     7
100
AcDbLine
 10
-594.6424929295137
 20
477.8979840788076
 30
0.0
 11
-604.1066163867056
 21
487.3621075359995
 31
0.0
  0
ARC
  5
1B0
330
1F
100
AcDbEntity
  8
0
  6
CONTINUOUS
 62
     7
100
AcDbCircle
 10
698.7230008770556
 20
501.2788672865329
 30
0.0
 40
67.02886728792845
210
0.0
220
0.0
230
-1.0
100
AcDbArc
 50
269.9996298648293
 51
0.0003701351707832
  0
LINE
  5
1B1
330
1F
100
AcDbEntity
  8
0
  6
CONTINUOUS
 62
     7
100
AcDbLine
 10
-601.2533923988187
 20
614.3450028459873
 30
0.0
 11
-608.7155187922659
 21
604.0742669897758
 31
0.0
  0
ARC
  5
1B2
330
1F
100
AcDbEntity
  8
0
  6
CONTINUOUS
 62
     7
100
AcDbCircle
 10
691.451868163586
 20
578.9499999999987
 30
0.0
 40
40.99999999999992
210
0.0
220
0.0
230
-1.0
100
AcDbArc
 50
49.95685744792495
 51
60.0773837862731
  0
ELLIPSE
  5
1B3
330
1F
100
AcDbEntity
  8
0
  6
CONTINUOUS
 62
     7
100
AcDbEllipse
 10
-613.5140904167363
 20
501.0122222531465
 30
0.0
 11
-24.45746448445086
 21
-59.98182797859909
 31
0.0
210
0.0
220
0.0
230
1.0
 40
0.9712688682807931
 41
0.4727021101597539
 42
0.7686444854392606
  0
ELLIPSE
  5
1B4
330
1F
100
AcDbEntity
  8
0
  6
CONTINUOUS
 62
     7
100
AcDbEllipse
 10
-614.0042041707551
 20
585.9976639928333
 30
0.0
 11
45.60981004831843
 21
45.60981004831821
 31
0.0
210
0.0
220
0.0
230
1.0
 40
0.9999688079870126
 41
5.917850438998125
 42
6.648520175361048
  0
ELLIPSE
  5
1B5
330
1F
100
AcDbEntity
  8
0
  6
CONTINUOUS
 62
     7
100
AcDbEllipse
 10
-613.514090416736
 20
586.4877777468533
 30
0.0
 11
59.9818279786235
 21
-24.45746448438801
 31
0.0
210
0.0
220
0.0
230
1.0
 40
0.9712688682807816
 41
0.4727021101586398
 42
0.7686444854381991
  0
ARC
  5
1B6
330
1F
100
AcDbEntity
  8
0
  6
CONTINUOUS
 62
     7
100
AcDbCircle
 10
-250.9010845315528
 20
637.2499999999999
 30
0.0
 40
1.000000000000001
100
AcDbArc
 50
90.0
 51
180.0
  0
LINE
  5
1B7
330
1F
100
AcDbEntity
  8
0
  6
CONTINUOUS
 62
     7
100
AcDbLine
 10
-768.7518681635853
 20
543.75
 30
0.0
 11
-768.387452734945
 21
585.5078720541869
 31
0.0
  0
ELLIPSE
  5
1B8
330
1F
100
AcDbEntity
  8
0
  6
CONTINUOUS
 62
     7
100
AcDbEllipse
 10
-613.514090416736
 20
586.4877777468533
 30
0.0
 11
-24.45746448445086
 21
59.98182797859909
 31
0.0
210
0.0
220
0.0
230
1.0
 40
0.9712688682807928
 41
5.514540821740326
 42
5.81048319701983
  0
LINE
  5
1B9
330
1F
100
AcDbEntity
  8
0
  6
CONTINUOUS
 62
     7
100
AcDbLine
 10
-759.7893695655465
 20
481.0983873135808
 30
0.0
 11
-759.7827466008238
 21
481.081350226728
 31
0.0
  0
ARC
  5
1BA
330
1F
100
AcDbEntity
  8
0
  6
CONTINUOUS
 62
     7
100
AcDbCircle
 10
-615.1135801297866
 20
502.6117119661977
 30
0.0
 40
71.00000000000006
100
AcDbArc
 50
270.5000000000001
 51
359.5000000000001
  0
ARC
  5
1BB
330
1F
100
AcDbEntity
  8
0
  6
CONTINUOUS
 62
     7
100
AcDbCircle
 10
621.0518681635882
 20
508.5500000000011
 30
0.0
 40
40.99999999999992
210
0.0
220
0.0
230
-1.0
100
AcDbArc
 50
229.956857447925
 51
240.077383786273
  0
ARC
  5
1BC
330
1F
100
AcDbEntity
  8
0
  6
CONTINUOUS
 62
     7
100
AcDbCircle
 10
-656.251868163587
 20
543.75
 30
0.0
 40
76.19999999999982
100
AcDbArc
 50
227.6131624641702
 51
231.3868375358298
  0
LINE
  5
1BD
330
1F
100
AcDbEntity
  8
0
  6
CONTINUOUS
 62
     7
100
AcDbLine
 10
-604.1066163867056
 20
600.1378924640004
 30
0.0
 11
-594.6424929295138
 21
609.6020159211923
 31
0.0
  0
LINE
  5
1BE
330
1F
100
AcDbEntity
  8
0
  6
CONTINUOUS
 62
     7
100
AcDbLine
 10
-718.9034808500076
 20
647.2875014019579
 30
0.0
 11
-718.9205179368603
 21
647.2808784372352
 31
0.0
  0
LINE
  5
1BF
330
1F
100
AcDbEntity
  8
0
  6
CONTINUOUS
 62
     7
100
AcDbLine
 10
-698.7225678653845
 20
653.2499999999966
 30
0.0
 11
-613.781168461793
 21
653.2499999999966
 31
0.0
  0
LINE
  5
1C0
330
1F
100
AcDbEntity
  8
0
  6
CONTINUOUS
 62
     7
100
AcDbLine
 10
-614.4939961094021
 20
431.6144154286437
 30
0.0
 11
-656.2518681635889
 21
431.2500000000034
 31
0.0
  0
LINE
  5
1C1
330
1F
100
AcDbEntity
  8
0
  6
CONTINUOUS
 62
     7
100
AcDbLine
 10
-656.2518681635888
 20
431.2500000000032
 30
0.0
 11
-698.0097402177756
 21
431.6144154286436
 31
0.0
  0
LINE
  5
1C2
330
1F
100
AcDbEntity
  8
0
  6
CONTINUOUS
 62
     7
100
AcDbLine
 10
-251.8960986727323
 20
628.658291594719
 30
0.0
 11
-251.9010845315526
 21
628.5044641670905
 31
0.0
  0
ARC
  5
1C3
330
1F
100
AcDbEntity
  8
0
  6
CONTINUOUS
 62
     7
100
AcDbCircle
 10
691.451868163586
 20
578.9499999999987
 30
0.0
 40
40.99999999999992
210
0.0
220
0.0
230
-1.0
100
AcDbArc
 50
29.92261621372681
 51
40.04314255207501
  0
LINE
  5
1C4
330
1F
100
AcDbEntity
  8
0
  6
CONTINUOUS
 62
     7
100
AcDbLine
 10
-711.2503439283554
 20
473.154997154013
 30
0.0
 11
-711.9038936045816
 21
473.015303499809
 31
0.0
  0
LINE
  5
1C5
330
1F
100
AcDbEntity
  8
0
  6
CONTINUOUS
 62
     7
100
AcDbLine
 10
-585.5171716633963
 20
599.4020254409946
 30
0.0
 11
-585.6568653175999
 21
598.7484757647685
 31
0.0
  0
LINE
  5
1C6
330
1F
100
AcDbEntity
  8
0
  6
CONTINUOUS
 62
     7
100
AcDbLine
 10
-224.901084531553
 20
638.25
 30
0.0
 11
-250.9010845315528
 21
638.25
 31
0.0
  0
LINE
  5
1C7
330
1F
100
AcDbEntity
  8
0
  6
CONTINUOUS
 62
     7
100
AcDbLine
 10
-593.6002554771692
 20
440.2124985980418
 30
0.0
 11
-593.5832183903166
 21
440.2191215627646
 31
0.0
  0
ARC
  5
1C8
330
1F
100
AcDbEntity
  8
0
  6
CONTINUOUS
 62
     7
100
AcDbCircle
 10
-656.251868163587
 20
543.75
 30
0.0
 40
76.20000000000005
100
AcDbArc
 50
47.61316246417018
 51
51.38683753582981
  0
ARC
  5
1C9
330
1F
100
AcDbEntity
  8
0
  6
CONTINUOUS
 62
     7
100
AcDbCircle
 10
-656.251868163587
 20
543.75
 30
0.0
 40
76.19999999999982
100
AcDbArc
 50
317.6131624641702
 51
321.3868375358298
  0
ARC
  5
1CA
330
1F
100
AcDbEntity
  8
0
  6
CONTINUOUS
 62
     7
100
AcDbCircle
 10
-656.251868163587
 20
543.75
 30
0.0
 40
76.19999999999982
100
AcDbArc
 50
38.61316246417019
 51
42.38683753582992
  0
LINE
  5
1CB
330
1F
100
AcDbEntity
  8
0
  6
CONTINUOUS
 62
     7
100
AcDbLine
 10
-593.100255477171
 20
440.3770567012047
 30
0.0
 11
-593.6002554771691
 21
440.2124985980416
 31
0.0
  0
LINE
  5
1CC
330
1F
100
AcDbEntity
  8
0
  6
CONTINUOUS
 62
     7
100
AcDbLine
 10
-590.3998522423947
 20
605.3593752340731
 30
0.0
 11
-599.8639756995864
 21
595.8952517768814
 31
0.0
  0
ARC
  5
1CD
330
1F
100
AcDbEntity
  8
0
  6
CONTINUOUS
 62
     7
100
AcDbCircle
 10
691.451868163586
 20
508.5500000000011
 30
0.0
 40
40.99999999999992
210
0.0
220
0.0
230
-1.0
100
AcDbArc
 50
299.9226162137268
 51
310.0431425520749
  0
ARC
  5
1CE
330
1F
100
AcDbEntity
  8
0
  6
CONTINUOUS
 62
     7
100
AcDbCircle
 10
621.0518681635882
 20
578.9499999999987
 30
0.0
 40
40.99999999999992
210
0.0
220
0.0
230
-1.0
100
AcDbArc
 50
119.9226162137268
 51
130.043142552075
  0
ARC
  5
1CF
330
1F
100
AcDbEntity
  8
0
  6
CONTINUOUS
 62
     7
100
AcDbCircle
 10
-656.251868163587
 20
543.75
 30
0.0
 40
76.19999999999982
100
AcDbArc
 50
218.6131624641702
 51
222.3868375358298
  0
ARC
  5
1D0
330
1F
100
AcDbEntity
  8
0
  6
CONTINUOUS
 62
     7
100
AcDbCircle
 10
621.0518681635882
 20
578.9499999999987
 30
0.0
 40
40.99999999999992
210
0.0
220
0.0
230
-1.0
100
AcDbArc
 50
139.956857447925
 51
150.077383786273
  0
ARC
  5
1D1
330
1F
100
AcDbEntity
  8
0
  6
CONTINUOUS
 62
     7
100
AcDbCircle
 10
-656.251868163587
 20
543.75
 30
0.0
 40
76.19999999999982
100
AcDbArc
 50
308.6131624641702
 51
312.3868375358299
  0
LINE
  5
1D2
330
1F
100
AcDbEntity
  8
0
  6
CONTINUOUS
 62
     7
100
AcDbLine
 10
-248.9010845315527
 20
456.3304723234485
 30
0.0
 11
-224.901084531553
 21
456.3304723234485
 31
0.0
  0
ELLIPSE
  5
1D3
330
1F
100
AcDbEntity
  8
0
  6
CONTINUOUS
 62
     7
100
AcDbEllipse
 10
-614.0042041707551
 20
501.5023360071667
 30
0.0
 11
45.60981004831843
 21
-45.60981004831821
 31
0.0
210
0.0
220
0.0
230
1.0
 40
0.9999688079870139
 41
5.917850438998124
 42
6.648520175361047
  0
ELLIPSE
  5
1D4
330
1F
100
AcDbEntity
  8
0
  6
CONTINUOUS
 62
     7
100
AcDbEllipse
 10
-613.5140904167363
 20
501.0122222531465
 30
0.0
 11
59.9818279786235
 21
24.45746448438801
 31
0.0
210
0.0
220
0.0
230
1.0
 40
0.9712688682807842
 41
5.514540821741387
 42
5.81048319702095
  0
LINE
  5
1D5
330
1F
100
AcDbEntity
  8
0
  6
CONTINUOUS
 62
     7
100
AcDbLine
 10
-721.9073603426916
 20
646.1193358928236
 30
0.0
 11
-724.8051378215588
 21
644.891564598112
 31
0.0
  0
LINE
  5
1D6
330
1F
100
AcDbEntity
  8
0
  6
CONTINUOUS
 62
     7
100
AcDbLine
 10
-758.6212040564121
 20
478.0945078208967
 30
0.0
 11
-757.3934327617003
 21
475.1967303420296
 31
0.0
  0
ARC
  5
1D7
330
1F
100
AcDbEntity
  8
0
  6
CONTINUOUS
 62
     7
100
AcDbCircle
 10
-697.3901561973911
 20
502.6117119661977
 30
0.0
 40
71.00000000000017
100
AcDbArc
 50
180.5
 51
269.5000000000001
  0
ARC
  5
1D8
330
1F
100
AcDbEntity
  8
0
  6
CONTINUOUS
 62
     7
100
AcDbCircle
 10
698.7230008770556
 20
586.221132713467
 30
0.0
 40
67.02886728792845
210
0.0
220
0.0
230
-1.0
100
AcDbArc
 50
359.9996298648291
 51
90.00037013517084
  0
LINE
  5
1D9
330
1F
100
AcDbEntity
  8
0
  6
CONTINUOUS
 62
     7
100
AcDbLine
 10
-552.7209897263539
 20
481.0813502267257
 30
0.0
 11
-552.7143667669095
 21
481.0983873135811
 31
0.0
  0
LINE
  5
1DA
330
1F
100
AcDbEntity
  8
0
  6
CONTINUOUS
 62
     7
100
AcDbLine
 10
-544.1162835922324
 20
585.5078720541866
 30
0.0
 11
-543.751868163592
 21
543.7499999999997
 31
0.0
  0
ELLIPSE
  5
1DB
330
1F
100
AcDbEntity
  8
0
  6
CONTINUOUS
 62
     7
100
AcDbEllipse
 10
-698.9896459104422
 20
501.012222253147
 30
0.0
 11
24.45746448438758
 21
-59.98182797862418
 31
0.0
210
0.0
220
0.0
230
1.0
 40
0.9712688682807238
 41
5.51454082174137
 42
5.810483197020892
  0
LINE
  5
1DC
330
1F
100
AcDbEntity
  8
0
  6
CONTINUOUS
 62
     7
100
AcDbLine
 10
-724.8051378215587
 20
442.6084354018876
 30
0.0
 11
-721.9073603426915
 21
441.3806641071758
 31
0.0
  0
ARC
  5
1DD
330
1F
100
AcDbEntity
  8
0
  6
CONTINUOUS
 62
     7
100
AcDbCircle
 10
613.7807354501216
 20
501.2788672865329
 30
0.0
 40
67.02886728792845
210
0.0
220
0.0
230
-1.0
100
AcDbArc
 50
179.9996298648291
 51
270.0003701351709
  0
ELLIPSE
  5
1DE
330
1F
100
AcDbEntity
  8
0
  6
CONTINUOUS
 62
     7
100
AcDbEllipse
 10
-698.9896459104422
 20
586.4877777468533
 30
0.0
 11
-59.98182797859997
 21
-24.45746448445086
 31
0.0
210
0.0
220
0.0
230
1.0
 40
0.9712688682807287
 41
5.51454082174031
 42
5.810483197019761
  0
LINE
  5
1DF
330
1F
100
AcDbEntity
  8
0
  6
CONTINUOUS
 62
     7
100
AcDbLine
 10
-549.2943926012664
 20
496.2629901207616
 30
0.0
 11
-549.2943926012664
 21
591.2370098792388
 31
0.0
  0
LINE
  5
1E0
330
1F
100
AcDbEntity
  8
0
  6
CONTINUOUS
 62
     7
100
AcDbLine
 10
-656.2518681635888
 20
656.2499999999965
 30
0.0
 11
-614.493996109402
 21
655.8855845713562
 31
0.0
  0
LINE
  5
1E1
330
1F
100
AcDbEntity
  8
0
  6
CONTINUOUS
 62
     7
100
AcDbLine
 10
-703.7388780428305
 20
436.7925244376778
 30
0.0
 11
-608.7648582843466
 21
436.7925244376778
 31
0.0
  0
LINE
  5
1E2
330
1F
100
AcDbEntity
  8
0
  6
________________
 62
     1
100
AcDbLine
 10
-448.75
 20
543.75
 30
0.0
 11
-198.7500000000001
 21
543.75
 31
0.0
  0
ARC
  5
1E3
330
1F
100
AcDbEntity
  8
0
  6
CONTINUOUS
 62
     7
100
AcDbCircle
 10
613.7807354501218
 20
586.221132713467
 30
0.0
 40
67.02886728792845
210
0.0
220
0.0
230
-1.0
100
AcDbArc
 50
89.99962986482917
 51
180.0003701351708
  0
ELLIPSE
  5
1E4
330
1F
100
AcDbEntity
  8
0
  6
CONTINUOUS
 62
     7
100
AcDbEllipse
 10
-613.926012607259
 20
586.0758555563292
 30
0.0
 11
45.60981004831843
 21
45.60981004831821
 31
0.0
210
0.0
220
0.0
230
1.0
 40
0.9999688079870102
 41
5.826537076324812
 42
6.739833538034356
  0
ELLIPSE
  5
1E5
330
1F
100
AcDbEntity
  8
0
  6
CONTINUOUS
 62
     7
100
AcDbEllipse
 10
-698.5777237199179
 20
501.4241444436707
 30
0.0
 11
-45.60981004831821
 21
-45.60981004831843
 31
0.0
210
0.0
220
0.0
230
1.0
 40
0.9999688079870126
 41
5.826537076324812
 42
6.739833538034357
  0
LINE
  5
1E6
330
1F
100
AcDbEntity
  8
0
  6
CONTINUOUS
 62
     7
100
AcDbLine
 10
-613.781168461793
 20
434.2500000000034
 30
0.0
 11
-698.7225678653845
 21
434.2500000000034
 31
0.0
  0
LINE
  5
1E7
330
1F
100
AcDbEntity
  8
0
  6
CONTINUOUS
 62
     7
100
AcDbLine
 10
-759.6248114623835
 20
480.5983873135828
 30
0.0
 11
-759.7893695655465
 21
481.0983873135809
 31
0.0
  0
LINE
  5
1E8
330
1F
100
AcDbEntity
  8
0
  6
CONTINUOUS
 62
     7
100
AcDbLine
 10
-251.9010845315526
 20
458.9955358329094
 30
0.0
 11
-251.8966561860591
 21
458.8505568631452
 31
0.0
  0
LINE
  5
1E9
330
1F
100
AcDbEntity
  8
0
  6
CONTINUOUS
 62
     7
100
AcDbLine
 10
-763.2093437259108
 20
591.2370098792456
 30
0.0
 11
-763.2093437259107
 21
496.2629901207539
 31
0.0
  0
LINE
  5
1EA
330
1F
100
AcDbEntity
  8
0
  6
CONTINUOUS
 62
     7
100
AcDbLine
 10
-608.7648582843467
 20
650.7074755623221
 30
0.0
 11
-703.7388780428305
 21
650.7074755623221
 31
0.0
  0
LINE
  5
1EB
330
1F
100
AcDbEntity
  8
0
  6
CONTINUOUS
 62
     7
100
AcDbLine
 10
-552.7143667616302
 20
606.4016126864191
 30
0.0
 11
-552.720989726353
 21
606.4186497732718
 31
0.0
  0
ARC
  5
1EC
330
1F
100
AcDbEntity
  8
0
  6
CONTINUOUS
 62
     7
100
AcDbCircle
 10
-250.9010845315528
 20
450.2500000000001
 30
0.0
 40
1.000000000000001
100
AcDbArc
 50
180.0
 51
270.0
  0
LINE
  5
1ED
330
1F
100
AcDbEntity
  8
0
  6
CONTINUOUS
 62
     7
100
AcDbLine
 10
-590.5963759844847
 20
441.3806641071758
 30
0.0
 11
-587.6985985056176
 21
442.6084354018875
 31
0.0
  0
LINE
  5
1EE
330
1F
100
AcDbEntity
  8
0
  6
CONTINUOUS
 62
     7
100
AcDbLine
 10
-250.9010845315528
 20
449.2499999999999
 30
0.0
 11
-224.901084531553
 21
449.2499999999999
 31
0.0
  0
LINE
  5
1EF
330
1F
100
AcDbEntity
  8
0
  6
CONTINUOUS
 62
     7
100
AcDbLine
 10
-543.751868163592
 20
543.75
 30
0.0
 11
-544.1162835922324
 21
501.9921279458133
 31
0.0
  0
LINE
  5
1F0
330
1F
100
AcDbEntity
  8
0
  6
CONTINUOUS
 62
     7
100
AcDbLine
 10
-553.8825322707643
 20
609.4054921791035
 30
0.0
 11
-555.110303565476
 21
612.3032696579704
 31
0.0
  0
ELLIPSE
  5
1F1
330
1F
100
AcDbEntity
  8
0
  6
CONTINUOUS
 62
     7
100
AcDbEllipse
 10
-698.4995321564214
 20
501.5023360071667
 30
0.0
 11
-45.60981004831821
 21
-45.60981004831799
 31
0.0
210
0.0
220
0.0
230
1.0
 40
0.9999688079870175
 41
5.917850438998125
 42
6.648520175361047
  0
LINE
  5
1F2
330
1F
100
AcDbEntity
  8
0
  6
CONTINUOUS
 62
     7
100
AcDbLine
 10
-765.7518681635854
 20
501.2793002982041
 30
0.0
 11
-765.7518681635854
 21
586.2206997017954
 31
0.0
  0
LINE
  5
1F3
330
1F
100
AcDbEntity
  8
0
  6
CONTINUOUS
 62
     7
100
AcDbLine
 10
-698.0097402177755
 20
655.885584571356
 30
0.0
 11
-656.2518681635887
 21
656.2499999999964
 31
0.0
  0
LINE
  5
1F4
330
1F
100
AcDbEntity
  8
0
  6
CONTINUOUS
 62
     7
100
AcDbLine
 10
-719.4034808500055
 20
647.122943298795
 30
0.0
 11
-718.9034808500074
 21
647.2875014019579
 31
0.0
  0
LINE
  5
1F5
330
1F
100
AcDbEntity
  8
0
  6
CONTINUOUS
 62
     7
100
AcDbLine
 10
-555.110303565476
 20
475.1967303420292
 30
0.0
 11
-553.8825322707643
 21
478.0945078208963
 31
0.0
  0
LINE
  5
1F6
330
1F
100
AcDbEntity
  8
0
  6
CONTINUOUS
 62
     7
100
AcDbLine
 10
-768.3874527349451
 20
501.992127945813
 30
0.0
 11
-768.7518681635854
 21
543.7499999999998
 31
0.0
  0
LINE
  5
1F7
330
1F
100
AcDbEntity
  8
0
  6
CONTINUOUS
 62
     7
100
AcDbLine
 10
-552.8789248647932
 20
606.901612686417
 30
0.0
 11
-552.7143667616301
 21
606.401612686419
 31
0.0
  0
ELLIPSE
  5
1F8
330
1F
100
AcDbEntity
  8
0
  6
CONTINUOUS
 62
     7
100
AcDbEllipse
 10
-698.9896459104422
 20
501.012222253147
 30
0.0
 11
-59.98182797859996
 21
24.45746448445063
 31
0.0
210
0.0
220
0.0
230
1.0
 40
0.9712688682807267
 41
0.4727021101598354
 42
0.7686444854392768
  0
ARC
  5
1F9
330
1F
100
AcDbEntity
  8
0
  6
CONTINUOUS
 62
     7
100
AcDbCircle
 10
-697.3901561973911
 20
584.8882880338022
 30
0.0
 40
71.00000000000017
100
AcDbArc
 50
90.5
 51
179.5
  0
LINE
  5
1FA
330
1F
100
AcDbEntity
  8
0
  6
CONTINUOUS
 62
     7
100
AcDbLine
 10
-587.6985985056177
 20
644.8915645981124
 30
0.0
 11
-590.5963759844848
 21
646.119335892824
 31
0.0
  0
LINE
  5
1FB
330
1F
100
AcDbEntity
  8
0
  6
CONTINUOUS
 62
     7
100
AcDbLine
 10
-224.901084531553
 20
631.1695276765516
 30
0.0
 11
-248.9010845315527
 21
631.1695276765516
 31
0.0
  0
ARC
  5
1FC
330
1F
100
AcDbEntity
  8
0
  6
CONTINUOUS
 62
     7
100
AcDbCircle
 10
-615.1135801297863
 20
584.8882880338022
 30
0.0
 40
70.99999999999984
100
AcDbArc
 50
0.5000000000000023
 51
89.5
  0
LINE
  5
1FD
330
1F
100
AcDbEntity
  8
0
  6
CONTINUOUS
 62
     7
100
AcDbLine
 10
-546.751868163592
 20
586.2206997017955
 30
0.0
 11
-546.751868163592
 21
501.2793002982042
 31
0.0
  0
LINE
  5
1FE
330
1F
100
AcDbEntity
  8
0
  6
CONTINUOUS
 62
     7
100
AcDbLine
 10
-254.4010845315528
 20
640.2499999999998
 30
0.0
 11
-285.4010845315529
 21
640.2499999999998
 31
0.0
  0
ARC
  5
1FF
330
1F
100
AcDbEntity
  8
0
  6
CONTINUOUS
 62
     7
100
AcDbCircle
 10
-285.4010845315528
 20
449.2499999999999
 30
0.0
 40
2.000000000000002
100
AcDbArc
 50
180.0
 51
270.0
  0
ARC
  5
200
330
1F
100
AcDbEntity
  8
0
  6
CONTINUOUS
 62
     7
100
AcDbCircle
 10
-254.4010845315528
 20
449.2499999999999
 30
0.0
 40
2.000000000000002
100
AcDbArc
 50
270.0
 51
0.0
  0
LINE
  5
201
330
1F
100
AcDbEntity
  8
0
  6
CONTINUOUS
 62
     7
100
AcDbLine
 10
-252.4010845315527
 20
587.1761195576947
 30
0.0
 11
-251.9010845315525
 21
586.7340113356003
 31
0.0
  0
LINE
  5
202
330
1F
100
AcDbEntity
  8
0
  6
CONTINUOUS
 62
     7
100
AcDbLine
 10
-427.90108453152
 20
431.2500000000032
 30
0.0
 11
-290.9010845315199
 21
431.2500000000032
 31
0.0
  0
LINE
  5
203
330
1F
100
AcDbEntity
  8
0
  6
CONTINUOUS
 62
     7
100
AcDbLine
 10
-427.90108453152
 20
656.2499999999965
 30
0.0
 11
-290.9010845315199
 21
656.2499999999965
 31
0.0
  0
LINE
  5
204
330
1F
100
AcDbEntity
  8
0
  6
CONTINUOUS
 62
     7
100
AcDbLine
 10
-275.8135958680269
 20
559.75
 30
0.0
 11
-275.9010845315529
 21
558.7500000000001
 31
0.0
  0
ARC
  5
205
330
1F
100
AcDbEntity
  8
0
  6
CONTINUOUS
 62
     7
100
AcDbCircle
 10
285.9010845315199
 20
459.2500000000051
 30
0.0
 40
2.000000000000002
210
0.0
220
0.0
230
-1.0
100
AcDbArc
 50
359.9999999999638
 51
42.3984087102167
  0
LINE
  5
206
330
1F
100
AcDbEntity
  8
0
  6
CONTINUOUS
 62
     7
100
AcDbLine
 10
-266.9010845315529
 20
558.7500000000001
 30
0.0
 11
-266.9885731950786
 21
559.75
 31
0.0
  0
LINE
  5
207
330
1F
100
AcDbEntity
  8
0
  6
CONTINUOUS
 62
     7
100
AcDbLine
 10
-396.2716750089694
 20
647.2808784372346
 30
0.0
 11
-396.9010845315217
 21
647.1229432987944
 31
0.0
  0
LINE
  5
208
330
1F
100
AcDbEntity
  8
0
  6
CONTINUOUS
 62
     7
100
AcDbLine
 10
-285.4010845315528
 20
447.2499999999999
 30
0.0
 11
-254.4010845315528
 21
447.2499999999999
 31
0.0
  0
ARC
  5
209
330
1F
100
AcDbEntity
  8
0
  6
CONTINUOUS
 62
     7
100
AcDbCircle
 10
-285.4010845315528
 20
638.25
 30
0.0
 40
1.999999999999891
100
AcDbArc
 50
90.0
 51
180.0
  0
LINE
  5
20A
330
1F
100
AcDbEntity
  8
0
  6
CONTINUOUS
 62
     7
100
AcDbLine
 10
-251.9010845315526
 20
536.2499999999997
 30
0.0
 11
-252.4010845315527
 21
536.2499999999997
 31
0.0
  0
ARC
  5
20B
330
1F
100
AcDbEntity
  8
0
  6
CONTINUOUS
 62
     7
100
AcDbCircle
 10
285.9010845315199
 20
628.2499999999949
 30
0.0
 40
2.000000000000002
210
0.0
220
0.0
230
-1.0
100
AcDbArc
 50
317.5953419933988
 51
0.0000000000362093
  0
LINE
  5
20C
330
1F
100
AcDbEntity
  8
0
  6
CONTINUOUS
 62
     7
100
AcDbLine
 10
-251.9010845315526
 20
623.1225393319374
 30
0.0
 11
-252.4010845315527
 21
622.8211704731881
 31
0.0
  0
LINE
  5
20D
330
1F
100
AcDbEntity
  8
0
  6
CONTINUOUS
 62
     7
100
AcDbLine
 10
-396.9010845315205
 20
435.1105005864122
 30
0.0
 11
-396.9010845315205
 21
480.5983873135806
 31
0.0
  0
LINE
  5
20E
330
1F
100
AcDbEntity
  8
0
  6
CONTINUOUS
 62
     7
100
AcDbLine
 10
-275.7851758050681
 20
559.75
 30
0.0
 11
-275.7445357414869
 21
560.2114984681168
 31
0.0
  0
LINE
  5
20F
330
1F
100
AcDbEntity
  8
0
  6
CONTINUOUS
 62
     7
100
AcDbLine
 10
-251.9010845315526
 20
551.25
 30
0.0
 11
-252.4010845315527
 21
551.25
 31
0.0
  0
LINE
  5
210
330
1F
100
AcDbEntity
  8
0
  6
CONTINUOUS
 62
     7
100
AcDbLine
 10
-396.2716750089694
 20
652.5450949593969
 30
0.0
 11
-396.9010845315215
 21
652.3894994135857
 31
0.0
  0
LINE
  5
211
330
1F
100
AcDbEntity
  8
0
  6
CONTINUOUS
 62
     7
100
AcDbLine
 10
-252.4010845315531
 20
461.2500000000024
 30
0.0
 11
-251.901084531553
 21
461.2500000000024
 31
0.0
  0
ENDSEC
  0
SECTION
  2
OBJECTS
  0
DICTIONARY
  5
C
330
0
100
AcDbDictionary
  3
ACAD_GROUP
350
D
  3
ACAD_LAYOUT
350
1A
  3
ACAD_MATERIAL
350
43
  3
ACAD_MLEADERSTYLE
350
6B
  3
ACAD_MLINESTYLE
350
17
  3
ACAD_PLOTSETTINGS
350
19
  3
ACAD_SCALELIST
350
47
  3
ACAD_VISUALSTYLE
350
2A
  3
ACDBHEADERROUNDTRIPXREC
350
212
  3
ACDBVARIABLEDICTIONARY
350
233
  0
DICTIONARY
  5
23A
330
8
100
AcDbDictionary
280
     1
  3
ACAD_XREC_ROUNDTRIP
360
23B
  0
DICTIONARY
  5
D
102
{ACAD_REACTORS
330
C
102
}
330
C
100
AcDbDictionary
  0
DICTIONARY
  5
1A
102
{ACAD_REACTORS
330
C
102
}
330
C
100
AcDbDictionary
  0
DICTIONARY
  5
43
102
{ACAD_REACTORS
330
C
102
}
330
C
100
AcDbDictionary
  3
BYBLOCK
350
45
  3
BYLAYER
350
44
  3
GLOBAL
350
46
  0
DICTIONARY
  5
6B
102
{ACAD_REACTORS
330
C
102
}
330
C
100
AcDbDictionary
  3
STANDARD
350
6C
  0
DICTIONARY
  5
17
102
{ACAD_REACTORS
330
C
102
}
330
C
100
AcDbDictionary
  3
STANDARD
350
18
  0
DICTIONARY
  5
19
102
{ACAD_REACTORS
330
C
102
}
330
C
100
AcDbDictionary
  0
DICTIONARY
  5
47
102
{ACAD_REACTORS
330
C
102
}
330
C
100
AcDbDictionary
  3
A0
350
48
  3
A1
350
49
  3
A2
350
4A
  3
A3
350
4B
  3
A4
350
4C
  3
A5
350
4D
  3
A6
350
4E
  3
A7
350
4F
  3
A8
350
50
  3
A9
350
51
  3
B0
350
52
  3
B1
350
53
  3
B2
350
54
  3
B3
350
55
  3
B4
350
56
  3
B5
350
57
  3
B6
350
58
  3
B7
350
59
  3
B8
350
5A
  3
B9
350
5B
  3
C0
350
5C
  3
C1
350
5D
  3
C2
350
5E
  3
C3
350
5F
  3
C4
350
60
  3
C5
350
61
  3
C6
350
62
  3
C7
350
63
  3
C8
350
64
  3
C9
350
65
  3
D0
350
66
  3
D1
350
67
  3
D2
350
68
  0
DICTIONARY
  5
2A
102
{ACAD_REACTORS
330
C
102
}
330
C
100
AcDbDictionary
  3
2DWIREFRAME
350
2F
  3
BASIC
350
32
  3
BRIGHTEN
350
36
  3
COLORCHANGE
350
3A
  3
CONCEPTUAL
350
34
  3
DIM
350
35
  3
EDGECOLOROFF
350
3D
  3
FACEPATTERN
350
39
  3
FLAT
350
2B
  3
FLATWITHEDGES
350
2C
  3
GOURAUD
350
2D
  3
GOURAUDWITHEDGES
350
2E
  3
HIDDEN
350
31
  3
JITTEROFF
350
3B
  3
LINEPATTERN
350
38
  3
OVERHANGOFF
350
3C
  3
REALISTIC
350
33
  3
SHADED
350
42
  3
SHADED_WITH_EDGES
350
41
  3
SHADES_OF_GRAY
350
3E
  3
SKETCHY
350
3F
  3
THICKEN
350
37
  3
WIREFRAME
350
30
  3
X-RAY
350
40
  0
DICTIONARY
  5
212
102
{ACAD_REACTORS
330
C
102
}
330
C
100
AcDbDictionary
  3
CEPSNID
350
21C
  3
CEPSNTYPE
350
21B
  3
DIMSTYLEDATA
350
232
  3
FINGERPRINTGUID
350
21D
  3
HYPERLINKBASE
350
215
  3
INSUNITS
350
21A
  3
LAYOUTDICT
350
217
  3
LWETCUNION
350
219
  3
PLOTSETDICT
350
218
  3
PSVPSCALE
350
21F
  3
PUCSBASE
350
222
  3
PUCSORGBACK
350
228
  3
PUCSORGBOTTOM
350
224
  3
PUCSORGFRONT
350
227
  3
PUCSORGLEFT
350
225
  3
PUCSORGRIGHT
350
226
  3
PUCSORGTOP
350
223
  3
PUCSORTHOREF
350
220
  3
PUCSORTHOVIEW
350
221
  3
STYLESHEET
350
216
  3
TSTACKALIGN
350
213
  3
TSTACKSIZE
350
214
  3
UCSBASE
350
22B
  3
UCSORGBACK
350
231
  3
UCSORGBOTTOM
350
22D
  3
UCSORGFRONT
350
230
  3
UCSORGLEFT
350
22E
  3
UCSORGRIGHT
350
22F
  3
UCSORGTOP
350
22C
  3
UCSORTHOREF
350
229
  3
UCSORTHOVIEW
350
22A
  3
VERSIONGUID
350
21E
  0
DICTIONARY
  5
233
102
{ACAD_REACTORS
330
C
102
}
330
C
100
AcDbDictionary
  3
CANNOSCALE
350
23C
  3
CMLEADERSTYLE
350
235
  3
CTABLESTYLE
350
234
  3
DIMASSOC
350
238
  3
HIDETEXT
350
239
  3
MSLTSCALE
350
23D
  0
XRECORD
  5
23B
102
{ACAD_REACTORS
330
23A
102
}
330
23A
100
AcDbXrecord
102
VTR_0.000_0.000_1.000_1.000_VISUALSTYLE
340
2F
102
VTR_0.000_0.000_1.000_1.000_GRIDDISPLAY
 70
     3
102
VTR_0.000_0.000_1.000_1.000_GRIDMAJOR
 70
     5
102
VTR_0.000_0.000_1.000_1.000_DEFAULTLIGHTING
280
     1
102
VTR_0.000_0.000_1.000_1.000_DEFAULTLIGHTINGTYPE
 70
     1
102
VTR_0.000_0.000_1.000_1.000_BRIGHTNESS
141
0.0
102
VTR_0.000_0.000_1.000_1.000_CONTRAST
142
0.0
  0
MATERIAL
  5
45
102
{ACAD_REACTORS
330
43
102
}
102
{ACAD_XDICTIONARY
360
240
102
}
330
43
100
AcDbMaterial
  1
BYBLOCK
  0
MATERIAL
  5
44
102
{ACAD_REACTORS
330
43
102
}
102
{ACAD_XDICTIONARY
360
23E
102
}
330
43
100
AcDbMaterial
  1
BYLAYER
  0
MATERIAL
  5
46
102
{ACAD_REACTORS
330
43
102
}
102
{ACAD_XDICTIONARY
360
242
102
}
330
43
100
AcDbMaterial
  1
GLOBAL
  0
ACAD_PROXY_OBJECT
  5
6C
102
{ACAD_REACTORS
330
6B
102
}
330
6B
100
AcDbProxyObject
 90
      499
 91
      505
 93
      610
310
40901902A4063FBFFFFFE056BD1B81E855B9FC0AD7A3703D0AD73F4214DD185B99185C9900AD7A3703D0AC73F90141901A02B5E8DC0F42B1CFC02B5E8DC0F42B1CFE5764000000000000300FC0
340
14
340
0
340
11
340
0
 94
        0
1001
ACAD_MLEADERVER
1070
     2
  0
MLINESTYLE
  5
18
102
{ACAD_REACTORS
330
17
102
}
330
17
100
AcDbMlineStyle
  2
Standard
 70
     0
  3

 62
   256
 51
90.0
 52
90.0
 71
     2
 49
0.5
 62
   256
  6
BYLAYER
 49
-0.5
 62
   256
  6
BYLAYER
  0
ACAD_PROXY_OBJECT
  5
48
102
{ACAD_REACTORS
330
47
102
}
330
47
100
AcDbProxyObject
 90
      499
 91
      503
 93
       41
310
903313A31580
  0
ACAD_PROXY_OBJECT
  5
49
102
{ACAD_REACTORS
330
47
102
}
330
47
100
AcDbProxyObject
 90
      499
 91
      503
 93
      105
310
903313A324000000000000004000
  0
ACAD_PROXY_OBJECT
  5
4A
102
{ACAD_REACTORS
330
47
102
}
330
47
100
AcDbProxyObject
 90
      499
 91
      503
 93
      105
310
903313A344000000000000104000
  0
ACAD_PROXY_OBJECT
  5
4B
102
{ACAD_REACTORS
330
47
102
}
330
47
100
AcDbProxyObject
 90
      499
 91
      503
 93
      105
310
903313A354000000000000144000
  0
ACAD_PROXY_OBJECT
  5
4C
102
{ACAD_REACTORS
330
47
102
}
330
47
100
AcDbProxyObject
 90
      499
 91
      503
 93
      105
310
903313A384000000000000204000
  0
ACAD_PROXY_OBJECT
  5
4D
102
{ACAD_REACTORS
330
47
102
}
330
47
100
AcDbProxyObject
 90
      499
 91
      503
 93
      113
310
904313A31304000000000000244000
  0
ACAD_PROXY_OBJECT
  5
4E
102
{ACAD_REACTORS
330
47
102
}
330
47
100
AcDbProxyObject
 90
      499
 91
      503
 93
      113
310
904313A31364000000000000304000
  0
ACAD_PROXY_OBJECT
  5
4F
102
{ACAD_REACTORS
330
47
102
}
330
47
100
AcDbProxyObject
 90
      499
 91
      503
 93
      113
310
904313A32304000000000000344000
  0
ACAD_PROXY_OBJECT
  5
50
102
{ACAD_REACTORS
330
47
102
}
330
47
100
AcDbProxyObject
 90
      499
 91
      503
 93
      113
310
904313A333040000000000003E4000
  0
ACAD_PROXY_OBJECT
  5
51
102
{ACAD_REACTORS
330
47
102
}
330
47
100
AcDbProxyObject
 90
      499
 91
      503
 93
      113
310
904313A34304000000000000444000
  0
ACAD_PROXY_OBJECT
  5
52
102
{ACAD_REACTORS
330
47
102
}
330
47
100
AcDbProxyObject
 90
      499
 91
      503
 93
      113
310
904313A35304000000000000494000
  0
ACAD_PROXY_OBJECT
  5
53
102
{ACAD_REACTORS
330
47
102
}
330
47
100
AcDbProxyObject
 90
      499
 91
      503
 93
      121
310
905313A3130304000000000000594000
  0
ACAD_PROXY_OBJECT
  5
54
102
{ACAD_REACTORS
330
47
102
}
330
47
100
AcDbProxyObject
 90
      499
 91
      503
 93
      105
310
903323A310000000000000010100
  0
ACAD_PROXY_OBJECT
  5
55
102
{ACAD_REACTORS
330
47
102
}
330
47
100
AcDbProxyObject
 90
      499
 91
      503
 93
      105
310
903343A310000000000000410100
  0
ACAD_PROXY_OBJECT
  5
56
102
{ACAD_REACTORS
330
47
102
}
330
47
100
AcDbProxyObject
 90
      499
 91
      503
 93
      105
310
903383A310000000000000810100
  0
ACAD_PROXY_OBJECT
  5
57
102
{ACAD_REACTORS
330
47
102
}
330
47
100
AcDbProxyObject
 90
      499
 91
      503
 93
      113
310
90431303A310000000000000910100
  0
ACAD_PROXY_OBJECT
  5
58
102
{ACAD_REACTORS
330
47
102
}
330
47
100
AcDbProxyObject
 90
      499
 91
      503
 93
      121
310
9053130303A310000000000001650100
  0
ACAD_PROXY_OBJECT
  5
59
102
{ACAD_REACTORS
330
47
102
}
330
47
100
AcDbProxyObject
 90
      499
 91
      503
 93
      257
310
90E312F31323822203D2031272D3022000000000000200FC000000000000284000
  0
ACAD_PROXY_OBJECT
  5
5A
102
{ACAD_REACTORS
330
47
102
}
330
47
100
AcDbProxyObject
 90
      499
 91
      503
 93
      249
310
90D312F363422203D2031272D3022000000000000240FC000000000000284000
  0
ACAD_PROXY_OBJECT
  5
5B
102
{ACAD_REACTORS
330
47
102
}
330
47
100
AcDbProxyObject
 90
      499
 91
      503
 93
      249
310
90D312F333222203D2031272D3022000000000000280FC000000000000284000
  0
ACAD_PROXY_OBJECT
  5
5C
102
{ACAD_REACTORS
330
47
102
}
330
47
100
AcDbProxyObject
 90
      499
 91
      503
 93
      249
310
90D312F313622203D2031272D30220000000000002C0FC000000000000284000
  0
ACAD_PROXY_OBJECT
  5
5D
102
{ACAD_REACTORS
330
47
102
}
330
47
100
AcDbProxyObject
 90
      499
 91
      503
 93
      249
310
90D332F333222203D2031272D30220000000000002E0FC000000000000284000
  0
ACAD_PROXY_OBJECT
  5
5E
102
{ACAD_REACTORS
330
47
102
}
330
47
100
AcDbProxyObject
 90
      499
 91
      503
 93
      241
310
90C312F3822203D2031272D3022000000000000300FC000000000000284000
  0
ACAD_PROXY_OBJECT
  5
5F
102
{ACAD_REACTORS
330
47
102
}
330
47
100
AcDbProxyObject
 90
      499
 91
      503
 93
      249
310
90D332F313622203D2031272D3022000000000000320FC000000000000284000
  0
ACAD_PROXY_OBJECT
  5
60
102
{ACAD_REACTORS
330
47
102
}
330
47
100
AcDbProxyObject
 90
      499
 91
      503
 93
      241
310
90C312F3422203D2031272D3022000000000000340FC000000000000284000
  0
ACAD_PROXY_OBJECT
  5
61
102
{ACAD_REACTORS
330
47
102
}
330
47
100
AcDbProxyObject
 90
      499
 91
      503
 93
      241
310
90C332F3822203D2031272D3022000000000000360FC000000000000284000
  0
ACAD_PROXY_OBJECT
  5
62
102
{ACAD_REACTORS
330
47
102
}
330
47
100
AcDbProxyObject
 90
      499
 91
      503
 93
      241
310
90C312F3222203D2031272D3022000000000000380FC000000000000284000
  0
ACAD_PROXY_OBJECT
  5
63
102
{ACAD_REACTORS
330
47
102
}
330
47
100
AcDbProxyObject
 90
      499
 91
      503
 93
      241
310
90C332F3422203D2031272D30220000000000003A0FC000000000000284000
  0
ACAD_PROXY_OBJECT
  5
64
102
{ACAD_REACTORS
330
47
102
}
330
47
100
AcDbProxyObject
 90
      499
 91
      503
 93
      161
310
90A3122203D2031272D30224000000000000284000
  0
ACAD_PROXY_OBJECT
  5
65
102
{ACAD_REACTORS
330
47
102
}
330
47
100
AcDbProxyObject
 90
      499
 91
      503
 93
      257
310
90E312D312F3222203D2031272D30220000000000003E0FC000000000000284000
  0
ACAD_PROXY_OBJECT
  5
66
102
{ACAD_REACTORS
330
47
102
}
330
47
100
AcDbProxyObject
 90
      499
 91
      503
 93
      225
310
90A3322203D2031272D302200000000000002100000000000000284000
  0
ACAD_PROXY_OBJECT
  5
67
102
{ACAD_REACTORS
330
47
102
}
330
47
100
AcDbProxyObject
 90
      499
 91
      503
 93
      225
310
90A3622203D2031272D302200000000000006100000000000000284000
  0
ACAD_PROXY_OBJECT
  5
68
102
{ACAD_REACTORS
330
47
102
}
330
47
100
AcDbProxyObject
 90
      499
 91
      503
 93
      249
310
90D31272D3022203D2031272D30220000000000000A100000000000000284000
  0
ACAD_PROXY_OBJECT
  5
2F
102
{ACAD_REACTORS
330
2A
102
}
330
2A
100
AcDbProxyObject
 90
      499
 91
      501
 93
      436
310
42CC9915DA5C99599C985B595049028333333333333E33F0000000000000F90107901411070040501600405405064090741402480A0340
1001
ACAD
1000
AcDbSavedByObjectVersion
1070
     0
  0
ACAD_PROXY_OBJECT
  5
32
102
{ACAD_REACTORS
330
2A
102
}
330
2A
100
AcDbProxyObject
 90
      499
 91
      501
 93
      388
310
4150985CDA58D07406404333333333333E33F0000000000000F90107A41107004050150841D405064090741402480A0350
1001
ACAD
1000
AcDbSavedByObjectVersion
1070
     0
  0
ACAD_PROXY_OBJECT
  5
36
102
{ACAD_REACTORS
330
2A
102
}
330
2A
100
AcDbProxyObject
 90
      499
 91
      501
 93
      428
310
42109C9A59DA1D195B90C409028333333333333E33F0000000000000F9010790141107004050150841D405064090741402480A029950
1001
ACAD
1000
AcDbSavedByObjectVersion
1070
     0
  0
ACAD_PROXY_OBJECT
  5
3A
102
{ACAD_REACTORS
330
2A
102
}
330
2A
100
AcDbProxyObject
 90
      499
 91
      501
 93
      452
310
42D0DBDB1BDC90DA185B99D95104090240C333333333333E33F0000000000000F90108901411070040501508421405064090741402480A0350
1001
ACAD
1000
AcDbSavedByObjectVersion
1070
     0
  0
ACAD_PROXY_OBJECT
  5
34
102
{ACAD_REACTORS
330
2A
102
}
330
2A
100
AcDbProxyObject
 90
      499
 91
      501
 93
      500
310
4290DBDB98D95C1D1D585B10940D028333333333333E33F0000000000000F90107902409070040501000000000018199010841D405064090740C02480A0340
1001
ACAD
1000
AcDbSavedByObjectVersion
1070
     0
  0
ACAD_PROXY_OBJECT
  5
35
102
{ACAD_REACTORS
330
2A
102
}
330
2A
100
AcDbProxyObject
 90
      499
 91
      501
 93
      412
310
40D11A5B50B409028333333333333E33F0000000000000F9010790141107004050150841D405064090741402480A02677FFFFFD0
1001
ACAD
1000
AcDbSavedByObjectVersion
1070
     0
  0
ACAD_PROXY_OBJECT
  5
3D
102
{ACAD_REACTORS
330
2A
102
}
330
2A
100
AcDbProxyObject
 90
      499
 91
      501
 93
      452
310
43115919D950DBDB1BDC93D999916409028333333333333E33F0000000000000F9010790141107004050150841D405064090741402480A0350
1001
ACAD
1000
AcDbSavedByObjectVersion
1070
     0
  0
ACAD_PROXY_OBJECT
  5
39
102
{ACAD_REACTORS
330
2A
102
}
330
2A
100
AcDbProxyObject
 90
      499
 91
      501
 93
      444
310
42D19858D95C185D1D195C9B90F409028333333333333E33F0000000000000F9010790141107004050150841D405064090741402480A0350
1001
ACAD
1000
AcDbSavedByObjectVersion
1070
     0
  0
ACAD_PROXY_OBJECT
  5
2B
102
{ACAD_REACTORS
330
2A
102
}
330
2A
100
AcDbProxyObject
 90
      499
 91
      501
 93
      380
310
41119B185D240901404333333333333E33F0000000000000F9010740A907004050150841D405064090741402480A1B50
1001
ACAD
1000
AcDbSavedByObjectVersion
1070
     0
  0
ACAD_PROXY_OBJECT
  5
2C
102
{ACAD_REACTORS
330
2A
102
}
330
2A
100
AcDbProxyObject
 90
      499
 91
      501
 93
      468
310
43519B185D15DA5D1A115919D95CD0140901404333333333333E33F0000000000000F90107409019070040501600405405064090741402480A1B50
1001
ACAD
1000
AcDbSavedByObjectVersion
1070
     0
  0
ACAD_PROXY_OBJECT
  5
2D
102
{ACAD_REACTORS
330
2A
102
}
330
2A
100
AcDbProxyObject
 90
      499
 91
      501
 93
      404
310
41D1DBDD5C985D5910240902404333333333333E33F0000000000000F9010740A9070040501641D405064090741402480A1B50
1001
ACAD
1000
AcDbSavedByObjectVersion
1070
     0
  0
ACAD_PROXY_OBJECT
  5
2E
102
{ACAD_REACTORS
330
2A
102
}
330
2A
100
AcDbProxyObject
 90
      499
 91
      501
 93
      492
310
4411DBDD5C985D5915DA5D1A115919D95CD0340902404333333333333E33F0000000000000F90107409019070040501600405405064090741402480A1B50
1001
ACAD
1000
AcDbSavedByObjectVersion
1070
     0
  0
ACAD_PROXY_OBJECT
  5
31
102
{ACAD_REACTORS
330
2A
102
}
330
2A
100
AcDbProxyObject
 90
      499
 91
      501
 93
      476
310
41921A5919195B90640502408333333333333E33F0000000000000F901079024090700405020000000000001110200405405064090740C02480A0340
1001
ACAD
1000
AcDbSavedByObjectVersion
1070
     0
  0
ACAD_PROXY_OBJECT
  5
3B
102
{ACAD_REACTORS
330
2A
102
}
330
2A
100
AcDbProxyObject
 90
      499
 91
      501
 93
      428
310
42529A5D1D195C93D999914409028333333333333E33F0000000000000F9010790141107004050150A41D405064090741402480A0350
1001
ACAD
1000
AcDbSavedByObjectVersion
1070
     0
  0
ACAD_PROXY_OBJECT
  5
38
102
{ACAD_REACTORS
330
2A
102
}
330
2A
100
AcDbProxyObject
 90
      499
 91
      501
 93
      444
310
42D31A5B995C185D1D195C9B90E409028333333333333E33F0000000000000F9010790141107004050750841D405064090741402483A0350
1001
ACAD
1000
AcDbSavedByObjectVersion
1070
     0
  0
ACAD_PROXY_OBJECT
  5
3C
102
{ACAD_REACTORS
330
2A
102
}
330
2A
100
AcDbProxyObject
 90
      499
 91
      501
 93
      444
310
42D3DD995C9A185B99D3D999915409028333333333333E33F0000000000000F9010790141107004050150941D405064090741402480A0350
1001
ACAD
1000
AcDbSavedByObjectVersion
1070
     0
  0
ACAD_PROXY_OBJECT
  5
33
102
{ACAD_REACTORS
330
2A
102
}
330
2A
100
AcDbProxyObject
 90
      499
 91
      501
 93
      428
310
425499585B1A5CDD1A58D08409038333333333333E33F0000000000000F9010740A907004050150800405405064090740C02480A1B40
1001
ACAD
1000
AcDbSavedByObjectVersion
1070
     0
  0
ACAD_PROXY_OBJECT
  5
42
102
{ACAD_REACTORS
330
2A
102
}
330
2A
100
AcDbProxyObject
 90
      499
 91
      501
 93
      420
310
4194DA1859195911B40902404333333333333E33F0000000000000F9010740A41107004050150800405405064090840C02480A0B40
1001
ACAD
1000
AcDbSavedByObjectVersion
1070
     0
  0
ACAD_PROXY_OBJECT
  5
41
102
{ACAD_REACTORS
330
2A
102
}
330
2A
100
AcDbProxyObject
 90
      499
 91
      501
 93
      516
310
4454DA18591959081DDA5D1A08195919D95CD1A40902404333333333333E33F0000000000000F901074090142907004050250800405405064090740C02480A0B40
1001
ACAD
1000
AcDbSavedByObjectVersion
1070
     0
  0
ACAD_PROXY_OBJECT
  5
3E
102
{ACAD_REACTORS
330
2A
102
}
330
2A
100
AcDbProxyObject
 90
      499
 91
      501
 93
      532
310
4394DA1859195CC81BD98811DC985E5174090240C333333333333E33F0000000000000F901079024090741D01000000000000111010841D405064090740C02480A0340
1001
ACAD
1000
AcDbSavedByObjectVersion
1070
     0
  0
ACAD_PROXY_OBJECT
  5
3F
102
{ACAD_REACTORS
330
2A
102
}
330
2A
100
AcDbProxyObject
 90
      499
 91
      501
 93
      476
310
41D4DAD95D18DA1E51840502408333333333333E33F0000000000000F901079024090741D01000000000000111010B41D405064090741802480A0340
1001
ACAD
1000
AcDbSavedByObjectVersion
1070
     0
  0
ACAD_PROXY_OBJECT
  5
37
102
{ACAD_REACTORS
330
2A
102
}
330
2A
100
AcDbProxyObject
 90
      499
 91
      501
 93
      412
310
41D51A1A58DAD95B90D409028333333333333E33F0000000000000F9010790141107004050150C41D405064090741402480A0350
1001
ACAD
1000
AcDbSavedByObjectVersion
1070
     0
  0
ACAD_PROXY_OBJECT
  5
30
102
{ACAD_REACTORS
330
2A
102
}
330
2A
100
AcDbProxyObject
 90
      499
 91
      501
 93
      420
310
4255DA5C99599C985B595059028333333333333E33F0000000000000F90107901411070040501600405405064090740C02480A0340
1001
ACAD
1000
AcDbSavedByObjectVersion
1070
     0
  0
ACAD_PROXY_OBJECT
  5
40
102
{ACAD_REACTORS
330
2A
102
}
330
2A
100
AcDbProxyObject
 90
      499
 91
      501
 93
      404
310
41560B54985E51940902404000000000000E03F0000000000000F9010740501907004050150841D405064090740C02480A1B40
1001
ACAD
1000
AcDbSavedByObjectVersion
1070
     0
  0
XRECORD
  5
21C
102
{ACAD_REACTORS
330
212
102
}
330
212
100
AcDbXrecord
340
0
  0
XRECORD
  5
21B
102
{ACAD_REACTORS
330
212
102
}
330
212
100
AcDbXrecord
 90
        0
  0
XRECORD
  5
232
102
{ACAD_REACTORS
330
212
102
}
330
212
100
AcDbXrecord
1000
DSTYLE
1002
{
1070
   179
 70
     2
1070
   171
 70
     2
1070
   143
 40
25.4
1070
   274
 70
     2
1070
    41
 40
3.0
1070
   141
 40
0.09
1070
    43
 40
0.38
1070
   278
 70
    46
1070
    44
 40
1.5
1070
    42
 40
0.0625
1070
   147
 40
1.5
1070
   272
 70
     4
1070
    73
 70
     1
1070
   172
 70
     0
1070
    74
 70
     1
1070
   283
 70
     1
1070
   340
340
6E
1070
   140
 40
3.0
1070
   284
 70
     0
1070
    78
 70
     0
1002
}
  0
XRECORD
  5
21D
102
{ACAD_REACTORS
330
212
102
}
330
212
100
AcDbXrecord
  1
{DB03F03A-A572-4F51-909F-FFFB850186AB}
  0
XRECORD
  5
215
102
{ACAD_REACTORS
330
212
102
}
330
212
100
AcDbXrecord
  1

  0
XRECORD
  5
21A
102
{ACAD_REACTORS
330
212
102
}
330
212
100
AcDbXrecord
 90
        4
  0
XRECORD
  5
217
102
{ACAD_REACTORS
330
212
102
}
330
212
100
AcDbXrecord
340
1A
  0
XRECORD
  5
219
102
{ACAD_REACTORS
330
212
102
}
330
212
100
AcDbXrecord
 90
    10269
  0
XRECORD
  5
218
102
{ACAD_REACTORS
330
212
102
}
330
212
100
AcDbXrecord
340
19
  0
XRECORD
  5
21F
102
{ACAD_REACTORS
330
212
102
}
330
212
100
AcDbXrecord
 40
0.0
  0
XRECORD
  5
222
102
{ACAD_REACTORS
330
212
102
}
330
212
100
AcDbXrecord
340
0
  0
XRECORD
  5
228
102
{ACAD_REACTORS
330
212
102
}
330
212
100
AcDbXrecord
 10
0.0
 20
0.0
 30
0.0
  0
XRECORD
  5
224
102
{ACAD_REACTORS
330
212
102
}
330
212
100
AcDbXrecord
 10
0.0
 20
0.0
 30
0.0
  0
XRECORD
  5
227
102
{ACAD_REACTORS
330
212
102
}
330
212
100
AcDbXrecord
 10
0.0
 20
0.0
 30
0.0
  0
XRECORD
  5
225
102
{ACAD_REACTORS
330
212
102
}
330
212
100
AcDbXrecord
 10
0.0
 20
0.0
 30
0.0
  0
XRECORD
  5
226
102
{ACAD_REACTORS
330
212
102
}
330
212
100
AcDbXrecord
 10
0.0
 20
0.0
 30
0.0
  0
XRECORD
  5
223
102
{ACAD_REACTORS
330
212
102
}
330
212
100
AcDbXrecord
 10
0.0
 20
0.0
 30
0.0
  0
XRECORD
  5
220
102
{ACAD_REACTORS
330
212
102
}
330
212
100
AcDbXrecord
340
0
  0
XRECORD
  5
221
102
{ACAD_REACTORS
330
212
102
}
330
212
100
AcDbXrecord
 70
     0
  0
XRECORD
  5
216
102
{ACAD_REACTORS
330
212
102
}
330
212
100
AcDbXrecord
  1

  0
XRECORD
  5
213
102
{ACAD_REACTORS
330
212
102
}
330
212
100
AcDbXrecord
 90
        1
  0
XRECORD
  5
214
102
{ACAD_REACTORS
330
212
102
}
330
212
100
AcDbXrecord
 90
       70
  0
XRECORD
  5
22B
102
{ACAD_REACTORS
330
212
102
}
330
212
100
AcDbXrecord
340
0
  0
XRECORD
  5
231
102
{ACAD_REACTORS
330
212
102
}
330
212
100
AcDbXrecord
 10
0.0
 20
0.0
 30
0.0
  0
XRECORD
  5
22D
102
{ACAD_REACTORS
330
212
102
}
330
212
100
AcDbXrecord
 10
0.0
 20
0.0
 30
0.0
  0
XRECORD
  5
230
102
{ACAD_REACTORS
330
212
102
}
330
212
100
AcDbXrecord
 10
0.0
 20
0.0
 30
0.0
  0
XRECORD
  5
22E
102
{ACAD_REACTORS
330
212
102
}
330
212
100
AcDbXrecord
 10
0.0
 20
0.0
 30
0.0
  0
XRECORD
  5
22F
102
{ACAD_REACTORS
330
212
102
}
330
212
100
AcDbXrecord
 10
0.0
 20
0.0
 30
0.0
  0
XRECORD
  5
22C
102
{ACAD_REACTORS
330
212
102
}
330
212
100
AcDbXrecord
 10
0.0
 20
0.0
 30
0.0
  0
XRECORD
  5
229
102
{ACAD_REACTORS
330
212
102
}
330
212
100
AcDbXrecord
340
0
  0
XRECORD
  5
22A
102
{ACAD_REACTORS
330
212
102
}
330
212
100
AcDbXrecord
 70
     0
  0
XRECORD
  5
21E
102
{ACAD_REACTORS
330
212
102
}
330
212
100
AcDbXrecord
  1
{FAEB1C32-E019-11D5-929B-00C0DF256EC4}
  0
DICTIONARYVAR
  5
23C
102
{ACAD_REACTORS
330
233
102
}
330
233
100
DictionaryVariables
280
     0
  1
1:1
  0
DICTIONARYVAR
  5
235
102
{ACAD_REACTORS
330
233
102
}
330
233
100
DictionaryVariables
280
     0
  1
Standard
  0
DICTIONARYVAR
  5
234
102
{ACAD_REACTORS
330
233
102
}
330
233
100
DictionaryVariables
280
     0
  1
Standard
  0
DICTIONARYVAR
  5
238
102
{ACAD_REACTORS
330
233
102
}
330
233
100
DictionaryVariables
280
     0
  1
2
  0
DICTIONARYVAR
  5
239
102
{ACAD_REACTORS
330
233
102
}
330
233
100
DictionaryVariables
280
     0
  1
1
  0
DICTIONARYVAR
  5
23D
102
{ACAD_REACTORS
330
233
102
}
330
233
100
DictionaryVariables
280
     0
  1
1
  0
DICTIONARY
  5
240
330
45
100
AcDbDictionary
280
     1
  3
ACAD_XREC_ROUNDTRIP
360
241
  0
DICTIONARY
  5
23E
330
44
100
AcDbDictionary
280
     1
  3
ACAD_XREC_ROUNDTRIP
360
23F
  0
DICTIONARY
  5
242
330
46
100
AcDbDictionary
280
     1
  3
ACAD_XREC_ROUNDTRIP
360
243
  0
XRECORD
  5
241
102
{ACAD_REACTORS
330
240
102
}
330
240
100
AcDbXrecord
102
MATERIAL
148
0.0
149
0.0
149
0.0
 93
        0
 94
      127
282
     0
 72
     1
 77
     1
171
     1
175
     1
179
     1
273
     0
  0
XRECORD
  5
23F
102
{ACAD_REACTORS
330
23E
102
}
330
23E
100
AcDbXrecord
102
MATERIAL
148
0.0
149
0.0
149
0.0
 93
        0
 94
      127
282
     0
 72
     1
 77
     1
171
     1
175
     1
179
     1
273
     0
  0
XRECORD
  5
243
102
{ACAD_REACTORS
330
242
102
}
330
242
100
AcDbXrecord
102
MATERIAL
148
0.0
149
0.0
149
0.0
 93
        0
 94
      127
282
     0
 72
     1
 77
     1
171
     1
175
     1
179
     1
273
     0
  0
ENDSEC
  0
EOF
