  0
SECTION
  2
HEADER
  9
$ACADVER
  1
AC1014
  9
$ACADMAINTVER
 70
     9
  9
$DWGCODEPAGE
  3
ANSI_932
  9
$INSBASE
 10
0.0
 20
0.0
 30
0.0
  9
$EXTMIN
 10
-1273.15108453152
 20
111.7818181818182
 30
0.0
  9
$EXTMAX
 10
-465.1343591935156
 20
387.2033803838895
 30
10.0
  9
$LIMMIN
 10
0.0
 20
0.0
  9
$LIMMAX
 10
12.0
 20
9.0
  9
$ORTHOMODE
 70
     0
  9
$REGENMODE
 70
     1
  9
$FILLMODE
 70
     1
  9
$QTEXTMODE
 70
     0
  9
$MIRRTEXT
 70
     1
  9
$DRAGMODE
 70
     2
  9
$LTSCALE
 40
1.0
  9
$OSMODE
 70
    37
  9
$ATTMODE
 70
     1
  9
$TEXTSIZE
 40
0.2
  9
$TRACEWID
 40
0.05
  9
$TEXTSTYLE
  7
STANDARD
  9
$CLAYER
  8
0
  9
$CELTYPE
  6
BYLAYER
  9
$CECOLOR
 62
   256
  9
$CELTSCALE
 40
1.0
  9
$DELOBJ
 70
     1
  9
$DISPSILH
 70
     0
  9
$DIMSCALE
 40
1.0
  9
$DIMASZ
 40
3.0
  9
$DIMEXO
 40
0.0625
  9
$DIMDLI
 40
0.38
  9
$DIMRND
 40
0.0
  9
$DIMDLE
 40
0.0
  9
$DIMEXE
 40
1.5
  9
$DIMTP
 40
0.0
  9
$DIMTM
 40
0.0
  9
$DIMTXT
 40
3.0
  9
$DIMCEN
 40
0.09
  9
$DIMTSZ
 40
0.0
  9
$DIMTOL
 70
     0
  9
$DIMLIM
 70
     0
  9
$DIMTIH
 70
     1
  9
$DIMTOH
 70
     1
  9
$DIMSE1
 70
     0
  9
$DIMSE2
 70
     0
  9
$DIMTAD
 70
     1
  9
$DIMZIN
 70
     0
  9
$DIMBLK
  1

  9
$DIMASO
 70
     1
  9
$DIMSHO
 70
     1
  9
$DIMPOST
  1

  9
$DIMAPOST
  1

  9
$DIMALT
 70
     0
  9
$DIMALTD
 70
     2
  9
$DIMALTF
 40
25.4
  9
$DIMLFAC
 40
1.0
  9
$DIMTOFL
 70
     0
  9
$DIMTVP
 40
0.0
  9
$DIMTIX
 70
     0
  9
$DIMSOXD
 70
     0
  9
$DIMSAH
 70
     0
  9
$DIMBLK1
  1

  9
$DIMBLK2
  1

  9
$DIMSTYLE
  2
STANDARD
  9
$DIMCLRD
 70
     0
  9
$DIMCLRE
 70
     0
  9
$DIMCLRT
 70
     0
  9
$DIMTFAC
 40
1.0
  9
$DIMGAP
 40
1.5
  9
$DIMJUST
 70
     0
  9
$DIMSD1
 70
     0
  9
$DIMSD2
 70
     0
  9
$DIMTOLJ
 70
     1
  9
$DIMTZIN
 70
     0
  9
$DIMALTZ
 70
     0
  9
$DIMALTTZ
 70
     0
  9
$DIMFIT
 70
     3
  9
$DIMUPT
 70
     0
  9
$DIMUNIT
 70
     2
  9
$DIMDEC
 70
     2
  9
$DIMTDEC
 70
     4
  9
$DIMALTU
 70
     2
  9
$DIMALTTD
 70
     2
  9
$DIMTXSTY
  7
ＭＳ_ゴシック
  9
$DIMAUNIT
 70
     0
  9
$LUNITS
 70
     2
  9
$LUPREC
 70
     4
  9
$SKETCHINC
 40
0.1
  9
$FILLETRAD
 40
0.5
  9
$AUNITS
 70
     0
  9
$AUPREC
 70
     0
  9
$MENU
  1
.
  9
$ELEVATION
 40
0.0
  9
$PELEVATION
 40
0.0
  9
$THICKNESS
 40
0.0
  9
$LIMCHECK
 70
     0
  9
$CHAMFERA
 40
0.0
  9
$CHAMFERB
 40
0.0
  9
$CHAMFERC
 40
0.0
  9
$CHAMFERD
 40
0.0
  9
$SKPOLY
 70
     0
  9
$TDCREATE
 40
2458992.633452697
  9
$TDUPDATE
 40
2458992.6334536
  9
$TDINDWG
 40
0.0000000116
  9
$TDUSRTIMER
 40
0.0000000116
  9
$USRTIMER
 70
     1
  9
$ANGBASE
 50
0.0
  9
$ANGDIR
 70
     0
  9
$PDMODE
 70
     0
  9
$PDSIZE
 40
0.0
  9
$PLINEWID
 40
0.0
  9
$COORDS
 70
     1
  9
$SPLFRAME
 70
     0
  9
$SPLINETYPE
 70
     6
  9
$SPLINESEGS
 70
     8
  9
$ATTDIA
 70
     0
  9
$ATTREQ
 70
     1
  9
$HANDLING
 70
     1
  9
$HANDSEED
  5
328
  9
$SURFTAB1
 70
     6
  9
$SURFTAB2
 70
     6
  9
$SURFTYPE
 70
     6
  9
$SURFU
 70
     6
  9
$SURFV
 70
     6
  9
$UCSNAME
  2

  9
$UCSORG
 10
0.0
 20
0.0
 30
0.0
  9
$UCSXDIR
 10
1.0
 20
0.0
 30
0.0
  9
$UCSYDIR
 10
0.0
 20
1.0
 30
0.0
  9
$PUCSNAME
  2

  9
$PUCSORG
 10
0.0
 20
0.0
 30
0.0
  9
$PUCSXDIR
 10
1.0
 20
0.0
 30
0.0
  9
$PUCSYDIR
 10
0.0
 20
1.0
 30
0.0
  9
$USERI1
 70
     0
  9
$USERI2
 70
     0
  9
$USERI3
 70
     0
  9
$USERI4
 70
     0
  9
$USERI5
 70
     0
  9
$USERR1
 40
0.0
  9
$USERR2
 40
0.0
  9
$USERR3
 40
0.0
  9
$USERR4
 40
0.0
  9
$USERR5
 40
0.0
  9
$WORLDVIEW
 70
     1
  9
$SHADEDGE
 70
     3
  9
$SHADEDIF
 70
    70
  9
$TILEMODE
 70
     1
  9
$MAXACTVP
 70
    64
  9
$PINSBASE
 10
0.0
 20
0.0
 30
0.0
  9
$PLIMCHECK
 70
     0
  9
$PEXTMIN
 10
1.000000000000000E+20
 20
1.000000000000000E+20
 30
1.000000000000000E+20
  9
$PEXTMAX
 10
-1.000000000000000E+20
 20
-1.000000000000000E+20
 30
-1.000000000000000E+20
  9
$PLIMMIN
 10
0.0
 20
0.0
  9
$PLIMMAX
 10
12.0
 20
9.0
  9
$UNITMODE
 70
     0
  9
$VISRETAIN
 70
     1
  9
$PLINEGEN
 70
     0
  9
$PSLTSCALE
 70
     1
  9
$TREEDEPTH
 70
  3020
  9
$PICKSTYLE
 70
     1
  9
$CMLSTYLE
  2
STANDARD
  9
$CMLJUST
 70
     0
  9
$CMLSCALE
 40
1.0
  9
$PROXYGRAPHICS
 70
     1
  9
$MEASUREMENT
 70
     1
  0
ENDSEC
  0
SECTION
  2
CLASSES
  0
CLASS
  1
ACDBDICTIONARYWDFLT
  2
AcDbDictionaryWithDefault
  3
ObjectDBX Classes
 90
        0
280
     0
281
     0
  0
CLASS
  1
VISUALSTYLE
  2
AcDbVisualStyle
  3
ObjectDBX Classes
 90
     4095
280
     0
281
     0
  0
CLASS
  1
MATERIAL
  2
AcDbMaterial
  3
ObjectDBX Classes
 90
     1153
280
     0
281
     0
  0
CLASS
  1
SCALE
  2
AcDbScale
  3
ObjectDBX Classes
 90
     1153
280
     0
281
     0
  0
CLASS
  1
TABLESTYLE
  2
AcDbTableStyle
  3
ObjectDBX Classes
 90
     4095
280
     0
281
     0
  0
CLASS
  1
MLEADERSTYLE
  2
AcDbMLeaderStyle
  3
ACDB_MLEADERSTYLE_CLASS
 90
     4095
280
     0
281
     0
  0
CLASS
  1
SUN
  2
AcDbSun
  3
SCENEOE
 90
     1153
280
     0
281
     0
  0
CLASS
  1
DICTIONARYVAR
  2
AcDbDictionaryVar
  3
ObjectDBX Classes
 90
        0
280
     0
281
     0
  0
CLASS
  1
XRECORD
  2
AcDbXrecord
  3
ObjectDBX Classes
 90
        0
280
     0
281
     0
  0
CLASS
  1
LWPOLYLINE
  2
AcDbPolyline
  3
ObjectDBX Classes
 90
        0
280
     0
281
     1
  0
CLASS
  1
HATCH
  2
AcDbHatch
  3
ObjectDBX Classes
 90
        0
280
     0
281
     1
  0
CLASS
  1
ACDBPLACEHOLDER
  2
AcDbPlaceHolder
  3
ObjectDBX Classes
 90
        0
280
     0
281
     0
  0
CLASS
  1
LAYOUT
  2
AcDbLayout
  3
ObjectDBX Classes
 90
        0
280
     0
281
     0
  0
ENDSEC
  0
SECTION
  2
TABLES
  0
TABLE
  2
VPORT
  5
8
102
{ACAD_XDICTIONARY
360
31D
102
}
330
0
100
AcDbSymbolTable
 70
     1
  0
VPORT
  5
29
330
8
100
AcDbSymbolTableRecord
100
AcDbViewportTableRecord
  2
*ACTIVE
 70
     0
 10
0.0
 20
0.0
 11
1.0
 21
1.0
 12
-869.1427218625179
 22
249.4925992828539
 13
0.0
 23
0.0
 14
0.5
 24
0.5
 15
0.5
 25
0.5
 16
0.0
 26
0.0
 36
1.0
 17
0.0
 27
0.0
 37
0.0
 40
275.4215622020713
 41
1.6
 42
50.0
 43
0.0
 44
0.0
 50
0.0
 51
0.0
 71
     0
 72
   100
 73
     1
 74
     3
 75
     0
 76
     0
 77
     0
 78
     0
  0
ENDTAB
  0
TABLE
  2
LTYPE
  5
5
330
0
100
AcDbSymbolTable
 70
     2
  0
LTYPE
  5
14
330
5
100
AcDbSymbolTableRecord
100
AcDbLinetypeTableRecord
  2
BYBLOCK
 70
     0
  3

 72
    65
 73
     0
 40
0.0
  0
LTYPE
  5
15
330
5
100
AcDbSymbolTableRecord
100
AcDbLinetypeTableRecord
  2
BYLAYER
 70
     0
  3

 72
    65
 73
     0
 40
0.0
  0
LTYPE
  5
16
330
5
100
AcDbSymbolTableRecord
100
AcDbLinetypeTableRecord
  2
CONTINUOUS
 70
     0
  3
Solid line
 72
    65
 73
     0
 40
0.0
  0
LTYPE
  5
2E7
330
5
100
AcDbSymbolTableRecord
100
AcDbLinetypeTableRecord
  2
CENTER
 70
     0
  3

 72
    65
 73
     0
 40
0.0
  0
ENDTAB
  0
TABLE
  2
LAYER
  5
2
330
0
100
AcDbSymbolTable
 70
     1
  0
LAYER
  5
10
330
2
100
AcDbSymbolTableRecord
100
AcDbLayerTableRecord
  2
0
 70
     0
 62
     7
  6
CONTINUOUS
  0
ENDTAB
  0
TABLE
  2
STYLE
  5
3
330
0
100
AcDbSymbolTable
 70
     2
  0
STYLE
  5
11
330
3
100
AcDbSymbolTableRecord
100
AcDbTextStyleTableRecord
  2
STANDARD
 70
     0
 40
0.0
 41
1.0
 50
0.0
 71
     0
 42
0.2
  3
txt
  4

  0
STYLE
  5
6E
330
3
100
AcDbSymbolTableRecord
100
AcDbTextStyleTableRecord
  2
ＭＳ_ゴシック
 70
     0
 40
0.0
 41
1.0
 50
0.0
 71
     0
 42
0.2
  3
ＭＳ ゴシック.shx
  4

  0
ENDTAB
  0
TABLE
  2
VIEW
  5
6
330
0
100
AcDbSymbolTable
 70
     0
  0
ENDTAB
  0
TABLE
  2
UCS
  5
7
330
0
100
AcDbSymbolTable
 70
     0
  0
ENDTAB
  0
TABLE
  2
APPID
  5
9
330
0
100
AcDbSymbolTable
 70
     2
  0
APPID
  5
12
330
9
100
AcDbSymbolTableRecord
100
AcDbRegAppTableRecord
  2
ACAD
 70
     0
  0
APPID
  5
327
330
9
100
AcDbSymbolTableRecord
100
AcDbRegAppTableRecord
  2
ACAD_MLEADERVER
 70
     0
  0
ENDTAB
  0
TABLE
  2
DIMSTYLE
  5
A
330
0
100
AcDbSymbolTable
 70
     1
  0
DIMSTYLE
105
27
330
A
100
AcDbSymbolTableRecord
100
AcDbDimStyleTableRecord
  2
STANDARD
 70
     0
  3

  4

  5

  6

  7

 40
1.0
 41
0.18
 42
0.0625
 43
0.38
 44
0.18
 45
0.0
 46
0.0
 47
0.0
 48
0.0
140
0.18
141
0.09
142
0.0
143
25.4
144
1.0
145
0.0
146
1.0
147
0.09
 71
     0
 72
     0
 73
     1
 74
     1
 75
     0
 76
     0
 77
     0
 78
     0
170
     0
171
     2
172
     0
173
     0
174
     0
175
     0
176
     0
177
     0
178
     0
270
     2
271
     4
272
     4
273
     2
274
     2
340
11
275
     0
280
     0
281
     0
282
     0
283
     1
284
     0
285
     0
286
     0
287
     3
288
     0
  0
ENDTAB
  0
TABLE
  2
BLOCK_RECORD
  5
1
330
0
100
AcDbSymbolTable
 70
     2
  0
BLOCK_RECORD
  5
1F
330
1
100
AcDbSymbolTableRecord
100
AcDbBlockTableRecord
  2
*MODEL_SPACE
  0
BLOCK_RECORD
  5
1B
330
1
100
AcDbSymbolTableRecord
100
AcDbBlockTableRecord
  2
*PAPER_SPACE
  0
BLOCK_RECORD
  5
CA
330
1
100
AcDbSymbolTableRecord
100
AcDbBlockTableRecord
  2
D_FRAME_VIEW_1983
  0
BLOCK_RECORD
  5
CC
330
1
100
AcDbSymbolTableRecord
100
AcDbBlockTableRecord
  2
D_FRAME_VIEW_1316
  0
ENDTAB
  0
ENDSEC
  0
SECTION
  2
BLOCKS
  0
BLOCK
  5
20
330
1F
100
AcDbEntity
  8
0
100
AcDbBlockBegin
  2
*MODEL_SPACE
 70
     0
 10
0.0
 20
0.0
 30
0.0
  3
*MODEL_SPACE
  1

  0
ENDBLK
  5
21
330
1F
100
AcDbEntity
  8
0
100
AcDbBlockEnd
  0
BLOCK
  5
1C
330
1B
100
AcDbEntity
 67
     1
  8
0
100
AcDbBlockBegin
  2
*PAPER_SPACE
 70
     0
 10
0.0
 20
0.0
 30
0.0
  3
*PAPER_SPACE
  1

  0
ENDBLK
  5
1D
330
1B
100
AcDbEntity
 67
     1
  8
0
100
AcDbBlockEnd
  0
BLOCK
  5
CD
330
CA
100
AcDbEntity
  8
0
100
AcDbBlockBegin
  2
D_FRAME_VIEW_1983
 70
     0
 10
0.0
 20
0.0
 30
0.0
  3
D_FRAME_VIEW_1983
  1

  0
ENDBLK
  5
CE
330
CA
100
AcDbEntity
  8
0
100
AcDbBlockEnd
  0
BLOCK
  5
31B
330
CC
100
AcDbEntity
  8
0
100
AcDbBlockBegin
  2
D_FRAME_VIEW_1316
 70
     0
 10
0.0
 20
0.0
 30
0.0
  3
D_FRAME_VIEW_1316
  1

  0
ENDBLK
  5
31C
330
CC
100
AcDbEntity
  8
0
100
AcDbBlockEnd
  0
ENDSEC
  0
SECTION
  2
ENTITIES
  0
ELLIPSE
  5
6F
330
1F
100
AcDbEntity
  8
0
  6
CONTINUOUS
 62
     7
100
AcDbEllipse
 10
-834.1510845315531
 20
217.2153636608464
 30
0.0
 11
1.500000000000001
 21
0.0
 31
0.0
210
0.0
220
0.0
230
-1.0
 40
0.453990499739547
 41
0.0
 42
1.570796326794878
  0
LINE
  5
70
330
1F
100
AcDbEntity
  8
0
  6
CONTINUOUS
 62
     7
100
AcDbLine
 10
-1008.151043766704
 20
265.0659410288646
 30
0.0
 11
-1008.180973725166
 21
266.6903641989385
 31
0.0
  0
LINE
  5
71
330
1F
100
AcDbEntity
  8
0
  6
CONTINUOUS
 62
     7
100
AcDbLine
 10
-1008.180973725166
 20
266.6903641989385
 30
0.0
 11
-1008.183605866481
 21
266.8331516329729
 31
0.0
  0
LWPOLYLINE
  5
72
330
1F
100
AcDbEntity
  8
0
  6
CONTINUOUS
 62
     7
100
AcDbPolyline
 90
        6
 70
     0
 43
0.0
 10
-1008.183605866481
 20
266.8331516329729
 42
0.0075698934914115
 10
-1010.274445839818
 20
348.4900094597666
 42
0.0400432069126333
 10
-1010.539642402753
 20
350.5465742138526
 10
-1010.605905541513
 20
350.6882390828568
 10
-1010.635411016118
 20
350.7033803838798
 10
-1010.635411016118
 20
350.7033803838798
  0
LWPOLYLINE
  5
73
330
1F
100
AcDbEntity
  8
0
  6
CONTINUOUS
 62
     7
100
AcDbPolyline
 90
        7
 70
     0
 43
0.0
 10
965.8006085984752
 20
178.1701544435772
 42
0.0160045817971971
 10
967.1515775704602
 20
214.082599780207
 42
-0.0028555420800528
 10
969.9653065692371
 20
343.1513897852992
 10
970.0315117905218
 20
344.5514497642661
 10
970.0976876522824
 20
345.8138629285023
 10
970.1511177236129
 20
346.7310433504217
 10
970.1511177236129
 20
346.7310433504217
210
0.0
220
0.0
230
-1.0
  0
LINE
  5
74
330
1F
100
AcDbEntity
  8
0
  6
CONTINUOUS
 62
     7
100
AcDbLine
 10
-1048.074764041038
 20
260.9149394123801
 30
0.0
 11
-1048.10739309181
 21
262.690657471326
 31
0.0
  0
LWPOLYLINE
  5
75
330
1F
100
AcDbEntity
  8
0
  6
CONTINUOUS
 62
     7
100
AcDbPolyline
 90
        7
 70
     0
 43
0.0
 10
-1025.800265829601
 20
178.1681654966496
 42
-0.0159539294501183
 10
-1027.145224303553
 20
213.7989630162963
 42
0.0028105869301796
 10
-1029.95874961121
 20
343.0083404959773
 42
0.0329558204130051
 10
-1030.562047228039
 20
350.6115314531795
 10
-1030.628306606152
 20
350.7020184151025
 10
-1030.635412928759
 20
350.7033803837989
 10
-1030.635412928759
 20
350.7033803837989
  0
LWPOLYLINE
  5
76
330
1F
100
AcDbEntity
  8
0
  6
CONTINUOUS
 62
     7
100
AcDbPolyline
 90
        3
 70
     0
 43
0.0
 10
1045.800521928952
 20
178.16919171156
 42
0.016844435159272
 10
1047.097817477429
 20
211.7220275232843
 42
0.0011226113116785
 10
1048.074764041038
 20
260.9149394123801
210
0.0
220
0.0
230
-1.0
  0
LWPOLYLINE
  5
77
330
1F
100
AcDbEntity
  8
0
  6
CONTINUOUS
 62
     7
100
AcDbPolyline
 90
        7
 70
     0
 43
0.0
 10
-1035.800181234782
 20
178.1674943094568
 42
-0.0164486282736637
 10
-1037.123429581765
 20
212.8400892766555
 42
0.0026253529105215
 10
-1039.93500760778
 20
342.4659769783697
 42
0.0294240449765833
 10
-1040.540215434803
 20
350.5485968334409
 10
-1040.608442642982
 20
350.6906763532476
 10
-1040.635389412309
 20
350.7033803838491
 10
-1040.635389412309
 20
350.7033803838491
  0
LINE
  5
78
330
1F
100
AcDbEntity
  8
0
  6
CONTINUOUS
 62
     7
100
AcDbLine
 10
-832.6510845315531
 20
311.1913971069325
 30
0.0
 11
-832.6510845315531
 21
217.2153636608465
 31
0.0
  0
LINE
  5
79
330
1F
100
AcDbEntity
  8
0
  6
CONTINUOUS
 62
     7
100
AcDbLine
 10
-1048.10739309181
 20
262.690657471326
 30
0.0
 11
-1048.151077384645
 21
265.0678107699393
 31
0.0
  0
LWPOLYLINE
  5
7A
330
1F
100
AcDbEntity
  8
0
  6
CONTINUOUS
 62
     7
100
AcDbPolyline
 90
        7
 70
     0
 43
0.0
 10
-1015.800552836886
 20
178.169936041891
 42
-0.0168858454539149
 10
-1017.100902912915
 20
211.8606514166233
 42
0.0024693657032492
 10
-1019.914470398354
 20
341.9840918529018
 42
0.026192781186745
 10
-1020.519714455425
 20
350.4750795620119
 10
-1020.587871674154
 20
350.6648321359542
 10
-1020.635425732863
 20
350.7033803837822
 10
-1020.635425732863
 20
350.7033803837822
  0
ELLIPSE
  5
7B
330
1F
100
AcDbEntity
  8
0
  6
CONTINUOUS
 62
     7
100
AcDbEllipse
 10
-834.1510845315531
 20
311.1913971069325
 30
0.0
 11
1.500000000000001
 21
0.0
 31
0.0
210
0.0
220
0.0
230
1.0
 40
0.4539904997395462
 41
0.0
 42
1.57079632679486
  0
LINE
  5
7C
330
1F
100
AcDbEntity
  8
0
  6
CONTINUOUS
 62
     7
100
AcDbLine
 10
-1111.151084531522
 20
263.8014193030288
 30
0.0
 11
-1111.151084531522
 21
222.4716879361978
 31
0.0
  0
ELLIPSE
  5
7D
330
1F
100
AcDbEntity
  8
0
  6
CONTINUOUS
 62
     7
100
AcDbEllipse
 10
-1299.874078926018
 20
305.3416684176918
 30
0.0
 11
264.9756073373895
 21
0.0
 31
0.0
210
0.0
220
0.0
230
1.0
 40
0.2679491924311145
 41
1.218224329781404
 42
1.262700652038226
  0
LINE
  5
7E
330
1F
100
AcDbEntity
  8
0
  6
CONTINUOUS
 62
     7
100
AcDbLine
 10
-1251.151084531522
 20
264.2033803838895
 30
0.0
 11
-1251.151084531522
 21
222.4455083297027
 31
0.0
  0
LINE
  5
7F
330
1F
100
AcDbEntity
  8
0
  6
CONTINUOUS
 62
     7
100
AcDbLine
 10
-1206.151084531521
 20
332.7566500418609
 30
0.0
 11
-1206.151084531521
 21
370.8353229389236
 31
0.0
  0
LINE
  5
80
330
1F
100
AcDbEntity
  8
0
  6
CONTINUOUS
 62
     7
100
AcDbLine
 10
-1220.151084531521
 20
155.5638809703018
 30
0.0
 11
-1220.151084531521
 21
201.0517676974702
 31
0.0
  0
LINE
  5
81
330
1F
100
AcDbEntity
  8
0
  6
CONTINUOUS
 62
     7
100
AcDbLine
 10
-860.1510845315532
 20
279.3816168961718
 30
0.0
 11
-860.1510845315532
 21
175.2033803838894
 31
0.0
  0
LINE
  5
82
330
1F
100
AcDbEntity
  8
0
  6
CONTINUOUS
 62
     7
100
AcDbLine
 10
-1111.151084531521
 20
373.3390791860554
 30
0.0
 11
-1111.151084531521
 21
305.9350728315812
 31
0.0
  0
LWPOLYLINE
  5
83
330
1F
100
AcDbEntity
  8
0
  6
CONTINUOUS
 62
     7
100
AcDbPolyline
 90
        6
 70
     0
 43
0.0
 10
-1219.52167500897
 20
372.9984753432864
 42
0.0816019046358632
 10
-1219.973791168274
 20
372.9662363899461
 10
-1220.078715191641
 20
372.9268268721201
 10
-1220.150393943466
 20
372.8514195915338
 10
-1220.151084531521
 20
372.8428797974752
 10
-1220.151084531521
 20
372.8428797974752
  0
LINE
  5
84
330
1F
100
AcDbEntity
  8
0
  6
CONTINUOUS
 62
     7
100
AcDbLine
 10
-1111.151084531522
 20
305.9350728315812
 30
0.0
 11
-1111.151084531522
 21
264.2033803838897
 31
0.0
  0
LINE
  5
85
330
1F
100
AcDbEntity
  8
0
  6
CONTINUOUS
 62
     7
100
AcDbLine
 10
-1220.151084531521
 20
327.354993070309
 30
0.0
 11
-1220.151084531521
 21
372.8428797974774
 31
0.0
  0
LINE
  5
86
330
1F
100
AcDbEntity
  8
0
  6
CONTINUOUS
 62
     7
100
AcDbLine
 10
-858.1510845315531
 20
238.8848898106764
 30
0.0
 11
-858.1510845315531
 21
173.2033803838894
 31
0.0
  0
LINE
  5
87
330
1F
100
AcDbEntity
  8
0
  6
CONTINUOUS
 62
     7
100
AcDbLine
 10
-1251.151084531522
 20
305.9612524380763
 30
0.0
 11
-1251.151084531522
 21
264.2033803838895
 31
0.0
  0
LWPOLYLINE
  5
88
330
1F
100
AcDbEntity
  8
0
  6
CONTINUOUS
 62
     7
100
AcDbPolyline
 90
       39
 70
     0
 43
0.0
 10
-1220.151084531522
 20
327.3549930703082
 10
-1220.15045025701
 20
327.3300490020796
 10
-1220.148555153946
 20
327.3050878335976
 10
-1220.145410803036
 20
327.2801946009124
 10
-1220.141028784984
 20
327.2554543400746
 10
-1220.135420680497
 20
327.2309520871345
 10
-1220.12859807028
 20
327.2067728781427
 10
-1220.120572535038
 20
327.1830017491494
 10
-1220.11131396158
 20
327.1596077760708
 10
-1220.100826151487
 20
327.1366010205583
 10
-1220.089148777622
 20
327.1140658142713
 10
-1220.076321512853
 20
327.0920864888693
 10
-1220.062384030045
 20
327.0707473760114
 10
-1220.047376002062
 20
327.050132807357
 10
-1220.031337101771
 20
327.0303271145655
 10
-1220.014708030922
 20
327.0118266082185
 10
-1219.997067704678
 20
326.994084886168
 10
-1219.978484557658
 20
326.9771698988994
 10
-1219.959027024482
 20
326.9611495968982
 10
-1219.938763539771
 20
326.9460919306497
 10
-1219.917762538145
 20
326.9320648506394
 10
-1219.896092454222
 20
326.9191363073527
 10
-1219.874822646178
 20
326.9078611169198
 10
-1219.852916694019
 20
326.897582874261
 10
-1219.830459023376
 20
326.8883372669525
 10
-1219.807534059878
 20
326.8801599825701
 10
-1219.784226229155
 20
326.87308670869
 10
-1219.760619956838
 20
326.8671531328883
 10
-1219.736799668558
 20
326.8623949427409
 10
-1219.71376066448
 20
326.8589498313906
 10
-1219.690502086615
 20
326.8565850014115
 10
-1219.667107678681
 20
326.8553013017662
 10
-1219.643661184397
 20
326.8550995814174
 10
-1219.620246347482
 20
326.8559806893275
 10
-1219.596946911655
 20
326.8579454744591
 10
-1219.573846620634
 20
326.8609947857749
 10
-1219.556318692813
 20
326.8640562481741
 10
-1219.538916251046
 20
326.867737691574
 10
-1219.52167500897
 20
326.8720301571637
  0
LINE
  5
89
330
1F
100
AcDbEntity
  8
0
  6
CONTINUOUS
 62
     7
100
AcDbLine
 10
-1219.521675008972
 20
326.8720301571631
 30
0.0
 11
-1208.374627396216
 21
329.8588725629922
 31
0.0
  0
LINE
  5
8A
330
1F
100
AcDbEntity
  8
0
  6
CONTINUOUS
 62
     7
100
AcDbLine
 10
-840.1510845315531
 20
369.1926655514721
 30
0.0
 11
-858.1510845315531
 21
372.8218555907995
 31
0.0
  0
LINE
  5
8B
330
1F
100
AcDbEntity
  8
0
  6
CONTINUOUS
 62
     7
100
AcDbLine
 10
-858.1510845315531
 20
372.8218555907996
 30
0.0
 11
-858.1510845315531
 21
372.8322124510444
 31
0.0
  0
LINE
  5
8C
330
1F
100
AcDbEntity
  8
0
  6
CONTINUOUS
 62
     7
100
AcDbLine
 10
-1111.151084531521
 20
222.4716879361978
 30
0.0
 11
-1111.151084531521
 21
155.0676815817237
 31
0.0
  0
LINE
  5
8D
330
1F
100
AcDbEntity
  8
0
  6
CONTINUOUS
 62
     7
100
AcDbLine
 10
-840.1510845315531
 20
369.1926655514721
 30
0.0
 11
-840.1510845315531
 21
159.2033803838896
 31
0.0
  0
LINE
  5
8E
330
1F
100
AcDbEntity
  8
0
  6
CONTINUOUS
 62
     7
100
AcDbLine
 10
-1111.151084531522
 20
264.2033803838897
 30
0.0
 11
-1111.151084531522
 21
263.8014193030287
 31
0.0
  0
ARC
  5
8F
330
1F
100
AcDbEntity
  8
0
  6
CONTINUOUS
 62
     7
100
AcDbCircle
 10
-1209.151321894719
 20
332.7568321770476
 30
0.0
 40
3.000237368725972
100
AcDbArc
 50
285.0034782506383
 51
359.9965217493581
  0
ARC
  5
90
330
1F
100
AcDbEntity
  8
0
  6
CONTINUOUS
 62
     7
100
AcDbCircle
 10
56272.41493354232
 20
-2478.978764935777
 30
0.0
 40
55480.87550610529
210
0.0
220
0.0
230
-1.0
100
AcDbArc
 50
177.0521835493117
 51
177.2567775212375
  0
LINE
  5
91
330
1F
100
AcDbEntity
  8
0
  6
CONTINUOUS
 62
     7
100
AcDbLine
 10
-1251.151084531521
 20
305.9612524380764
 30
0.0
 11
-1251.151084531521
 21
376.3389649552479
 31
0.0
  0
LINE
  5
92
330
1F
100
AcDbEntity
  8
0
  6
CONTINUOUS
 62
     7
100
AcDbLine
 10
-1208.374627396216
 20
198.5478882047868
 30
0.0
 11
-1219.521675008972
 21
201.5347306106159
 31
0.0
  0
LWPOLYLINE
  5
93
330
1F
100
AcDbEntity
  8
0
  6
CONTINUOUS
 62
     7
100
AcDbPolyline
 90
       40
 70
     0
 43
0.0
 10
-1219.52167500897
 20
201.5347306106153
 10
-1219.543933719372
 20
201.540139184835
 10
-1219.566506140351
 20
201.5445284106112
 10
-1219.589313072543
 20
201.5478888438989
 10
-1219.612275316583
 20
201.5502110406536
 10
-1219.635313673104
 20
201.5514855568306
 10
-1219.658348942742
 20
201.5517029483852
 10
-1219.681301926132
 20
201.5508537712726
 10
-1219.70418195499
 20
201.5489286049136
 10
-1219.72700130595
 20
201.5459377713542
 10
-1219.749683896264
 20
201.5419015192432
 10
-1219.772153643183
 20
201.536840097229
 10
-1219.794334463958
 20
201.5307737539603
 10
-1219.81615027584
 20
201.5237227380858
 10
-1219.83752499608
 20
201.5157072982541
 10
-1219.858552072741
 20
201.5066817279066
 10
-1219.879159122933
 20
201.4966866307054
 10
-1219.89928606641
 20
201.4857653276577
 10
-1219.918872822929
 20
201.4739611397706
 10
-1219.937859312243
 20
201.4613173880511
 10
-1219.956185454106
 20
201.4478773935064
 10
-1219.973791168274
 20
201.4336844771435
 10
-1219.991204743256
 20
201.4182487908207
 10
-1220.007880005022
 20
201.4020097637195
 10
-1220.023775055745
 20
201.3850274430848
 10
-1220.038847997597
 20
201.3673618761617
 10
-1220.053056932749
 20
201.3490731101953
 10
-1220.066359963373
 20
201.3302211924304
 10
-1220.078715191642
 20
201.310866170112
 10
-1220.090630965063
 20
201.2900720197418
 10
-1220.101535684595
 20
201.2687144839376
 10
-1220.111406577162
 20
201.2468660879583
 10
-1220.120220869691
 20
201.2245993570627
 10
-1220.127955789107
 20
201.2019868165095
 10
-1220.134588562335
 20
201.1791009915575
 10
-1220.1400964163
 20
201.1560144074657
 10
-1220.144892224147
 20
201.1301927648443
 10
-1220.148327287105
 20
201.1041457541312
 10
-1220.150393943466
 20
201.0779713925867
 10
-1220.151084531522
 20
201.0517676974708
  0
LWPOLYLINE
  5
94
330
1F
100
AcDbEntity
  8
0
  6
CONTINUOUS
 62
     7
100
AcDbPolyline
 90
        5
 70
     0
 43
0.0
 10
-1220.151084531521
 20
155.5638809703038
 10
-1220.076321512852
 20
155.4787088731166
 10
-1219.978484557658
 20
155.4418341307102
 10
-1219.978484557658
 20
155.4418341307102
 42
0.0833088717410404
 10
-1219.52167500897
 20
155.4082854244927
  0
LWPOLYLINE
  5
95
330
1F
100
AcDbEntity
  8
0
  6
CONTINUOUS
 62
     7
100
AcDbPolyline
 90
        8
 70
     0
 43
0.0
 10
-1206.151084531521
 20
370.8353229389216
 10
-1206.166709777061
 20
370.9616852562095
 10
-1206.213353272522
 20
371.085960782984
 10
-1206.29066665617
 20
371.2065158611373
 10
-1206.398631073323
 20
371.3220545521435
 10
-1206.537747173815
 20
371.4324016763857
 10
-1206.537747173815
 20
371.4324016763857
 42
0.1174669683362787
 10
-1208.374627396214
 20
371.9742933164403
  0
LINE
  5
96
330
1F
100
AcDbEntity
  8
0
  6
CONTINUOUS
 62
     7
100
AcDbLine
 10
-855.1174686140777
 20
176.334513683384
 30
0.0
 11
-854.1640325311996
 21
156.3783451029987
 31
0.0
  0
ELLIPSE
  5
97
330
1F
100
AcDbEntity
  8
0
  6
CONTINUOUS
 62
     7
100
AcDbEllipse
 10
-1299.874078926018
 20
223.0650923500872
 30
0.0
 11
264.9756073373895
 21
0.0
 31
0.0
210
0.0
220
0.0
230
1.0
 40
0.2679491924311145
 41
5.02048465514136
 42
5.064960977398182
  0
ELLIPSE
  5
98
330
1F
100
AcDbEntity
  8
0
  6
CONTINUOUS
 62
     7
100
AcDbEllipse
 10
-1293.904702050728
 20
221.4656026370364
 30
0.0
 11
-235.8055912933254
 21
-1.421330428343004
 31
0.0
210
0.0
220
0.0
230
1.0
 40
0.2735251099434993
 41
1.890069765705991
 42
1.940326078080679
  0
LINE
  5
99
330
1F
100
AcDbEntity
  8
0
  6
CONTINUOUS
 62
     7
100
AcDbLine
 10
-837.151084531553
 20
357.759065423668
 30
0.0
 11
-837.151084531553
 21
344.6380469113822
 31
0.0
  0
LINE
  5
9A
330
1F
100
AcDbEntity
  8
0
  6
CONTINUOUS
 62
     7
100
AcDbLine
 10
-834.1510845315531
 20
311.8723828565419
 30
0.0
 11
-837.1510845315532
 21
311.8723828565419
 31
0.0
  0
LINE
  5
9B
330
1F
100
AcDbEntity
  8
0
  6
CONTINUOUS
 62
     7
100
AcDbLine
 10
-1091.822657406807
 20
279.2033803838895
 30
0.0
 11
-1082.396134498178
 21
279.2033803838895
 31
0.0
  0
LINE
  5
9C
330
1F
100
AcDbEntity
  8
0
  6
CONTINUOUS
 62
     7
100
AcDbLine
 10
-1075.651084531553
 20
277.7033803838895
 30
0.0
 11
-1075.651084531553
 21
264.2033803838895
 31
0.0
  0
LINE
  5
9D
330
1F
100
AcDbEntity
  8
0
  6
CONTINUOUS
 62
     7
100
AcDbLine
 10
-1251.151084531521
 20
152.0677958125331
 30
0.0
 11
-1251.15108453152
 21
151.7033803838929
 31
0.0
  0
LINE
  5
9E
330
1F
100
AcDbEntity
  8
0
  6
CONTINUOUS
 62
     7
100
AcDbLine
 10
-1111.15108453152
 20
373.703266148729
 30
0.0
 11
-1111.15108453152
 21
373.6997582875193
 31
0.0
  0
LWPOLYLINE
  5
9F
330
1F
100
AcDbEntity
  8
0
  6
CONTINUOUS
 62
     7
100
AcDbPolyline
 90
        8
 70
     0
 43
0.0
 10
-1208.374627396214
 20
156.4324674513387
 42
0.121247746366445
 10
-1206.480707556583
 20
157.0160005218868
 10
-1206.365442567525
 20
157.1163921969989
 10
-1206.266593575906
 20
157.232505405666
 10
-1206.192818849092
 20
157.3654906004222
 10
-1206.155738462539
 20
157.5022808891683
 10
-1206.151084531521
 20
157.5714378288573
 10
-1206.151084531521
 20
157.5714378288573
  0
LWPOLYLINE
  5
A0
330
1F
100
AcDbEntity
  8
0
  6
CONTINUOUS
 62
     7
100
AcDbPolyline
 90
        6
 70
     0
 43
0.0
 10
-1220.151084531521
 20
160.8304370850949
 10
-1220.088809544192
 20
160.7490421076686
 10
-1219.9961719012
 20
160.7093831073076
 10
-1219.894790095226
 20
160.6851579585177
 10
-1219.894790095226
 20
160.6851579585177
 42
0.0651724100578287
 10
-1219.52167500897
 20
160.6725019466549
  0
LINE
  5
A1
330
1F
100
AcDbEntity
  8
0
  6
CONTINUOUS
 62
     7
100
AcDbLine
 10
-1110.651084531553
 20
264.2033803838895
 30
0.0
 11
-1110.651084531553
 21
277.7033803838895
 31
0.0
  0
LINE
  5
A2
330
1F
100
AcDbEntity
  8
0
  6
CONTINUOUS
 62
     7
100
AcDbLine
 10
-1110.651084531553
 20
277.7033803838895
 30
0.0
 11
-1110.651084531553
 21
358.7033803838897
 31
0.0
  0
LWPOLYLINE
  5
A3
330
1F
100
AcDbEntity
  8
0
  6
CONTINUOUS
 62
     7
100
AcDbPolyline
 90
        8
 70
     0
 43
0.0
 10
-1208.374627396214
 20
161.8340444910655
 42
0.1255976374030492
 10
-1206.515495419906
 20
162.4397817677676
 10
-1206.376052481557
 20
162.564143807886
 10
-1206.267815803638
 20
162.6978124590603
 10
-1206.193241510082
 20
162.8407756819396
 10
-1206.155783498094
 20
162.9876338876898
 10
-1206.151084531521
 20
163.0618157857772
 10
-1206.151084531521
 20
163.0618157857772
  0
LINE
  5
A4
330
1F
100
AcDbEntity
  8
0
  6
CONTINUOUS
 62
     7
100
AcDbLine
 10
-1111.15108453152
 20
373.6997582875193
 30
0.0
 11
-1111.151084531521
 21
373.3390791860534
 31
0.0
  0
LINE
  5
A5
330
1F
100
AcDbEntity
  8
0
  6
CONTINUOUS
 62
     7
100
AcDbLine
 10
-834.1510845315531
 20
216.5343779112371
 30
0.0
 11
-837.151084531553
 21
216.5343779112371
 31
0.0
  0
ELLIPSE
  5
A6
330
1F
100
AcDbEntity
  8
0
  6
CONTINUOUS
 62
     7
100
AcDbEllipse
 10
-1114.15108453152
 20
373.703266148729
 30
0.0
 11
0.0
 21
-3.000114235157024
 31
0.0
210
0.0
220
0.0
230
1.0
 40
0.9999619230641674
 41
1.570796326794897
 42
3.141592653589793
  0
LINE
  5
A7
330
1F
100
AcDbEntity
  8
0
  6
CONTINUOUS
 62
     7
100
AcDbLine
 10
-837.151084531553
 20
216.5343779112372
 30
0.0
 11
-837.151084531553
 21
196.710681366803
 31
0.0
  0
LINE
  5
A8
330
1F
100
AcDbEntity
  8
0
  6
CONTINUOUS
 62
     7
100
AcDbLine
 10
-1251.15108453152
 20
376.7033803838861
 30
0.0
 11
-1114.15108453152
 21
376.7033803838861
 31
0.0
  0
ELLIPSE
  5
A9
330
1F
100
AcDbEntity
  8
0
  6
CONTINUOUS
 62
     7
100
AcDbEllipse
 10
-1114.15108453152
 20
154.70349461905
 30
0.0
 11
0.0
 21
-3.000114235157024
 31
0.0
210
0.0
220
0.0
230
1.0
 40
0.999961923064172
 41
0.0
 42
1.570796326794897
  0
LINE
  5
AA
330
1F
100
AcDbEntity
  8
0
  6
CONTINUOUS
 62
     7
100
AcDbLine
 10
-1082.396134498178
 20
279.2033803838895
 30
0.0
 11
-1080.130365030587
 21
279.2033803838895
 31
0.0
  0
ARC
  5
AB
330
1F
100
AcDbEntity
  8
0
  6
CONTINUOUS
 62
     7
100
AcDbCircle
 10
-1077.151084531553
 20
277.7033803838895
 30
0.0
 40
1.500000000000001
100
AcDbArc
 50
0.0
 51
67.88918966319903
  0
LWPOLYLINE
  5
AC
330
1F
100
AcDbEntity
  8
0
  6
CONTINUOUS
 62
     7
100
AcDbPolyline
 90
        6
 70
     0
 43
0.0
 10
-1219.52167500897
 20
367.7342588211241
 42
0.0848388418706392
 10
-1219.972240146433
 20
367.7043738184909
 10
-1220.077199108252
 20
367.6643777988705
 10
-1220.150346721621
 20
367.5855489608333
 10
-1220.151084531521
 20
367.5763236826841
 10
-1220.151084531521
 20
367.5763236826841
  0
LINE
  5
AD
330
1F
100
AcDbEntity
  8
0
  6
CONTINUOUS
 62
     7
100
AcDbLine
 10
-1107.651084531553
 20
279.2033803838895
 30
0.0
 11
-1097.479511656299
 21
279.2033803838895
 31
0.0
  0
ELLIPSE
  5
AE
330
1F
100
AcDbEntity
  8
0
  6
CONTINUOUS
 62
     7
100
AcDbEllipse
 10
-1293.904702050728
 20
306.9411581307426
 30
0.0
 11
-235.8055912933254
 21
1.421330428343021
 31
0.0
210
0.0
220
0.0
230
1.0
 40
0.2735251099434993
 41
4.342859229098908
 42
4.393115541473596
  0
LWPOLYLINE
  5
AF
330
1F
100
AcDbEntity
  8
0
  6
CONTINUOUS
 62
     7
100
AcDbPolyline
 90
        8
 70
     0
 43
0.0
 10
-1206.151084531521
 20
365.3449449820018
 10
-1206.166979077607
 20
365.4810076661904
 10
-1206.214451352519
 20
365.6149617636355
 10
-1206.293184311234
 20
365.7450491224166
 10
-1206.403214348839
 20
365.8698896485533
 10
-1206.545132881313
 20
365.989295352354
 10
-1206.545132881313
 20
365.989295352354
 42
0.1197580190877785
 10
-1208.374627396214
 20
366.5727162767135
  0
ARC
  5
B0
330
1F
100
AcDbEntity
  8
0
  6
CONTINUOUS
 62
     7
100
AcDbCircle
 10
-1209.151424217579
 20
195.6498500756391
 30
0.0
 40
3.000339697379764
100
AcDbArc
 50
0.0049774900475084
 51
74.99502250995671
  0
ARC
  5
B1
330
1F
100
AcDbEntity
  8
0
  6
CONTINUOUS
 62
     7
100
AcDbCircle
 10
-1109.151084531553
 20
277.7033803838895
 30
0.0
 40
1.500000000000001
100
AcDbArc
 50
90.0
 51
180.0
  0
LINE
  5
B2
330
1F
100
AcDbEntity
  8
0
  6
CONTINUOUS
 62
     7
100
AcDbLine
 10
-1107.651084531553
 20
264.2033803838895
 30
0.0
 11
-1110.651084531553
 21
264.2033803838895
 31
0.0
  0
LINE
  5
B3
330
1F
100
AcDbEntity
  8
0
  6
CONTINUOUS
 62
     7
100
AcDbLine
 10
-1082.396134498178
 20
264.2033803838895
 30
0.0
 11
-1107.651084531553
 21
264.2033803838895
 31
0.0
  0
LINE
  5
B4
330
1F
100
AcDbEntity
  8
0
  6
CONTINUOUS
 62
     7
100
AcDbLine
 10
-1077.291622850998
 20
279.2033803838895
 30
0.0
 11
-1077.182627570481
 21
279.2033803838895
 31
0.0
  0
LINE
  5
B5
330
1F
100
AcDbEntity
  8
0
  6
CONTINUOUS
 62
     7
100
AcDbLine
 10
-1075.932161170443
 20
264.2033803838895
 30
0.0
 11
-1078.770903350031
 21
264.2033803838895
 31
0.0
  0
LINE
  5
B6
330
1F
100
AcDbEntity
  8
0
  6
CONTINUOUS
 62
     7
100
AcDbLine
 10
-1109.151084531553
 20
279.2033803838895
 30
0.0
 11
-1107.651084531553
 21
279.2033803838895
 31
0.0
  0
LINE
  5
B7
330
1F
100
AcDbEntity
  8
0
  6
CONTINUOUS
 62
     7
100
AcDbLine
 10
-1080.130365030587
 20
279.2033803838895
 30
0.0
 11
-1077.291622850998
 21
279.2033803838895
 31
0.0
  0
LINE
  5
B8
330
1F
100
AcDbEntity
  8
0
  6
CONTINUOUS
 62
     7
100
AcDbLine
 10
-1075.651084531553
 20
358.7033803838896
 30
0.0
 11
-1075.651084531553
 21
277.7033803838895
 31
0.0
  0
LINE
  5
B9
330
1F
100
AcDbEntity
  8
0
  6
CONTINUOUS
 62
     7
100
AcDbLine
 10
-834.1510845315531
 20
369.1926655514721
 30
0.0
 11
-840.1510845315531
 21
369.1926655514721
 31
0.0
  0
LINE
  5
BA
330
1F
100
AcDbEntity
  8
0
  6
CONTINUOUS
 62
     7
100
AcDbLine
 10
-1206.151084531521
 20
157.5714378288554
 30
0.0
 11
-1206.151084531521
 21
195.6501107259182
 31
0.0
  0
LINE
  5
BB
330
1F
100
AcDbEntity
  8
0
  6
CONTINUOUS
 62
     7
100
AcDbLine
 10
-1251.15108453152
 20
151.7033803838929
 30
0.0
 11
-1114.15108453152
 21
151.7033803838929
 31
0.0
  0
LINE
  5
BC
330
1F
100
AcDbEntity
  8
0
  6
CONTINUOUS
 62
     7
100
AcDbLine
 10
-837.151084531553
 20
344.6380469113822
 30
0.0
 11
-834.1510845315531
 21
344.6380469113822
 31
0.0
  0
LINE
  5
BD
330
1F
100
AcDbEntity
  8
0
  6
CONTINUOUS
 62
     7
100
AcDbLine
 10
-837.1510845315532
 20
311.8723828565418
 30
0.0
 11
-837.1510845315532
 21
331.696079400976
 31
0.0
  0
LINE
  5
BE
330
1F
100
AcDbEntity
  8
0
  6
CONTINUOUS
 62
     7
100
AcDbLine
 10
-837.1510845315532
 20
183.7687138563968
 30
0.0
 11
-834.1510845315531
 21
183.7687138563968
 31
0.0
  0
LINE
  5
BF
330
1F
100
AcDbEntity
  8
0
  6
CONTINUOUS
 62
     7
100
AcDbLine
 10
-840.1510845315531
 20
369.192665551472
 30
0.0
 11
-840.1510845315531
 21
159.2033803838897
 31
0.0
  0
LINE
  5
C0
330
1F
100
AcDbEntity
  8
0
  6
CONTINUOUS
 62
     7
100
AcDbLine
 10
-1251.15108453152
 20
376.7033803838861
 30
0.0
 11
-1251.151084531521
 21
376.3389649552458
 31
0.0
  0
LINE
  5
C1
330
1F
100
AcDbEntity
  8
0
  6
CONTINUOUS
 62
     7
100
AcDbLine
 10
-834.1510845315531
 20
357.7590654236681
 30
0.0
 11
-837.151084531553
 21
357.7590654236681
 31
0.0
  0
LINE
  5
C2
330
1F
100
AcDbEntity
  8
0
  6
CONTINUOUS
 62
     7
100
AcDbLine
 10
-834.1510845315531
 20
170.6476953441109
 30
0.0
 11
-837.1510845315532
 21
170.6476953441109
 31
0.0
  0
LINE
  5
C3
330
1F
100
AcDbEntity
  8
0
  6
CONTINUOUS
 62
     7
100
AcDbLine
 10
-1111.151084531521
 20
155.0676815817256
 30
0.0
 11
-1111.15108453152
 21
154.70349461905
 31
0.0
  0
LINE
  5
C4
330
1F
100
AcDbEntity
  8
0
  6
CONTINUOUS
 62
     7
100
AcDbLine
 10
-1075.651084531553
 20
264.2033803838895
 30
0.0
 11
-1075.932161170443
 21
264.2033803838895
 31
0.0
  0
LINE
  5
C5
330
1F
100
AcDbEntity
  8
0
  6
CONTINUOUS
 62
     7
100
AcDbLine
 10
-837.1510845315532
 20
170.6476953441109
 30
0.0
 11
-837.1510845315532
 21
183.7687138563968
 31
0.0
  0
LINE
  5
C6
330
1F
100
AcDbEntity
  8
0
  6
CONTINUOUS
 62
     7
100
AcDbLine
 10
-1078.770903350031
 20
264.2033803838895
 30
0.0
 11
-1082.396134498178
 21
264.2033803838895
 31
0.0
  0
LINE
  5
C7
330
1F
100
AcDbEntity
  8
0
  6
CONTINUOUS
 62
     7
100
AcDbLine
 10
-837.1510845315532
 20
331.6960794009761
 30
0.0
 11
-834.1510845315531
 21
331.696079400976
 31
0.0
  0
LINE
  5
C8
330
1F
100
AcDbEntity
  8
0
  6
CONTINUOUS
 62
     7
100
AcDbLine
 10
-837.151084531553
 20
196.7106813668029
 30
0.0
 11
-834.1510845315531
 21
196.7106813668029
 31
0.0
  0
LINE
  5
C9
330
1F
100
AcDbEntity
  8
0
  6
CONTINUOUS
 62
     7
100
AcDbLine
 10
-1251.151084531521
 20
152.0677958125311
 30
0.0
 11
-1251.151084531521
 21
222.4455083297027
 31
0.0
  0
INSERT
  5
CB
330
1F
100
AcDbEntity
  8
0
  6
CONTINUOUS
 62
     7
100
AcDbBlockReference
  2
D_FRAME_VIEW_1983
 10
0.0
 20
0.0
 30
0.0
  0
INSERT
  5
CF
330
1F
100
AcDbEntity
  8
0
  6
CONTINUOUS
 62
     7
100
AcDbBlockReference
  2
D_FRAME_VIEW_1316
 10
0.0
 20
0.0
 30
0.0
  0
LINE
  5
D0
330
1F
100
AcDbEntity
  8
0
  6
CONTINUOUS
 62
     7
100
AcDbLine
 10
-1008.151084531553
 20
177.2053885770914
 30
0.0
 11
-1008.151084531553
 21
183.1579309397403
 31
0.0
  0
ELLIPSE
  5
D1
330
1F
100
AcDbEntity
  8
0
  6
CONTINUOUS
 62
     7
100
AcDbEllipse
 10
-976.1510845315531
 20
167.7483888681467
 30
0.0
 11
-1.000000000000001
 21
0.0
 31
0.0
210
0.0
220
0.0
230
1.0
 40
0.9995335908367128
 41
3.141592653589793
 42
4.71238898038469
  0
LINE
  5
D2
330
1F
100
AcDbEntity
  8
0
  6
CONTINUOUS
 62
     7
100
AcDbLine
 10
-854.1634667558515
 20
156.3784591642915
 30
0.0
 11
-840.1510845315531
 21
159.2033803838895
 31
0.0
  0
LINE
  5
D3
330
1F
100
AcDbEntity
  8
0
  6
CONTINUOUS
 62
     7
100
AcDbLine
 10
-1008.151084531553
 20
345.2488298280387
 30
0.0
 11
-1008.151084531553
 21
317.6644548693582
 31
0.0
  0
LINE
  5
D4
330
1F
100
AcDbEntity
  8
0
  6
CONTINUOUS
 62
     7
100
AcDbLine
 10
-1005.151084531553
 20
356.5186323260735
 30
0.0
 11
-1005.151084531553
 21
356.5187489896739
 31
0.0
  0
LWPOLYLINE
  5
D5
330
1F
100
AcDbEntity
  8
0
  6
CONTINUOUS
 62
     7
100
AcDbPolyline
 90
        5
 70
     0
 43
0.0
 10
1008.151084531553
 20
345.2488298280387
 10
1008.081648514429
 20
345.3320730225456
 10
1007.987505241148
 20
345.3697698624387
 10
1007.987505241149
 20
345.3697698624387
 42
0.0664079889838121
 10
1007.651084531553
 20
345.4120178709658
210
0.0
220
0.0
230
-1.0
  0
ARC
  5
D6
330
1F
100
AcDbEntity
  8
0
  6
CONTINUOUS
 62
     7
100
AcDbCircle
 10
-1077.651084531553
 20
358.7033803838896
 30
0.0
 40
2.000000000000002
100
AcDbArc
 50
0.0
 51
90.0
  0
LINE
  5
D7
330
1F
100
AcDbEntity
  8
0
  6
CONTINUOUS
 62
     7
100
AcDbLine
 10
-1008.151084531553
 20
174.5902644499812
 30
0.0
 11
-1008.119733494008
 21
174.2093745357706
 31
0.0
  0
LINE
  5
D8
330
1F
100
AcDbEntity
  8
0
  6
CONTINUOUS
 62
     7
100
AcDbLine
 10
-1005.151084531553
 20
171.8880117781052
 30
0.0
 11
-1005.151084531553
 21
171.8881284330605
 31
0.0
  0
LINE
  5
D9
330
1F
100
AcDbEntity
  8
0
  6
CONTINUOUS
 62
     7
100
AcDbLine
 10
-1008.151084531553
 20
359.1730255850966
 30
0.0
 11
-1008.151084531553
 21
354.1826526390817
 31
0.0
  0
LINE
  5
DA
330
1F
100
AcDbEntity
  8
0
  6
CONTINUOUS
 62
     7
100
AcDbLine
 10
-1077.651084531553
 20
360.7033803838896
 30
0.0
 11
-1108.651084531553
 21
360.7033803838896
 31
0.0
  0
LINE
  5
DB
330
1F
100
AcDbEntity
  8
0
  6
CONTINUOUS
 62
     7
100
AcDbLine
 10
-860.1510845315532
 20
175.2033803838895
 30
0.0
 11
-858.1510845315531
 21
173.2033803838895
 31
0.0
  0
ARC
  5
DC
330
1F
100
AcDbEntity
  8
0
  6
CONTINUOUS
 62
     7
100
AcDbCircle
 10
1109.15108453152
 20
179.7033803838946
 30
0.0
 40
2.000000000000002
210
0.0
220
0.0
230
-1.0
100
AcDbArc
 50
359.9999999999273
 51
42.39840871021664
  0
LINE
  5
DD
330
1F
100
AcDbEntity
  8
0
  6
CONTINUOUS
 62
     7
100
AcDbLine
 10
-1040.266151663107
 20
353.2521816356423
 30
0.0
 11
-1040.717927930754
 21
350.7033499767773
 31
0.0
  0
LINE
  5
DE
330
1F
100
AcDbEntity
  8
0
  6
CONTINUOUS
 62
     7
100
AcDbLine
 10
-1020.266195213288
 20
353.2515198057523
 30
0.0
 11
-1020.717858720487
 21
350.7033499151356
 31
0.0
  0
LINE
  5
DF
330
1F
100
AcDbEntity
  8
0
  6
CONTINUOUS
 62
     7
100
AcDbLine
 10
-1008.151084531553
 20
177.2053885770914
 30
0.0
 11
-1008.151084531553
 21
174.5902644499813
 31
0.0
  0
LINE
  5
E0
330
1F
100
AcDbEntity
  8
0
  6
CONTINUOUS
 62
     7
100
AcDbLine
 10
-930.2664771188048
 20
353.2506374048018
 30
0.0
 11
-930.717994904215
 21
350.7033500366701
 31
0.0
  0
LINE
  5
E1
330
1F
100
AcDbEntity
  8
0
  6
CONTINUOUS
 62
     7
100
AcDbLine
 10
-890.2664353589737
 20
353.2514950088102
 30
0.0
 11
-890.7180925239844
 21
350.7033501725959
 31
0.0
  0
LINE
  5
E2
330
1F
100
AcDbEntity
  8
0
  6
CONTINUOUS
 62
     7
100
AcDbLine
 10
-880.2655189407537
 20
353.2565873045779
 30
0.0
 11
-880.718075756353
 21
350.7033505410271
 31
0.0
  0
LINE
  5
E3
330
1F
100
AcDbEntity
  8
0
  6
CONTINUOUS
 62
     7
100
AcDbLine
 10
-905.8037584748835
 20
178.1867028222209
 30
0.0
 11
-905.2657806639814
 21
175.1516861783502
 31
0.0
  0
LINE
  5
E4
330
1F
100
AcDbEntity
  8
0
  6
CONTINUOUS
 62
     7
100
AcDbLine
 10
-858.1510845315531
 20
173.2033803838895
 30
0.0
 11
-854.9674348274671
 21
173.2033803838895
 31
0.0
  0
LINE
  5
E5
330
1F
100
AcDbEntity
  8
0
  6
CONTINUOUS
 62
     7
100
AcDbLine
 10
-925.8046139406715
 20
178.1918785148414
 30
0.0
 11
-925.2666885105718
 21
175.1571947198666
 31
0.0
  0
LINE
  5
E6
330
1F
100
AcDbEntity
  8
0
  6
CONTINUOUS
 62
     7
100
AcDbLine
 10
-935.8044730033903
 20
178.1913162966299
 30
0.0
 11
-935.266526313626
 21
175.1565231773868
 31
0.0
  0
LINE
  5
E7
330
1F
100
AcDbEntity
  8
0
  6
CONTINUOUS
 62
     7
100
AcDbLine
 10
-1008.151084531553
 20
353.8164963177978
 30
0.0
 11
-1008.151084531553
 21
351.2013721906877
 31
0.0
  0
LINE
  5
E8
330
1F
100
AcDbEntity
  8
0
  6
CONTINUOUS
 62
     7
100
AcDbLine
 10
-945.8045010139105
 20
178.1917086655339
 30
0.0
 11
-945.2665855635834
 21
175.1570972711912
 31
0.0
  0
LINE
  5
E9
330
1F
100
AcDbEntity
  8
0
  6
CONTINUOUS
 62
     7
100
AcDbLine
 10
-1030.266242114253
 20
353.2514461658603
 30
0.0
 11
-1030.717890140041
 21
350.7033499111634
 31
0.0
  0
LINE
  5
EA
330
1F
100
AcDbEntity
  8
0
  6
CONTINUOUS
 62
     7
100
AcDbLine
 10
-955.8045897712368
 20
178.192425884369
 30
0.0
 11
-955.2666449757406
 21
175.1576497229257
 31
0.0
  0
LINE
  5
EB
330
1F
100
AcDbEntity
  8
0
  6
CONTINUOUS
 62
     7
100
AcDbLine
 10
-910.2663575359455
 20
353.2517500165552
 30
0.0
 11
-910.7180676550798
 21
350.7033502293716
 31
0.0
  0
LINE
  5
EC
330
1F
100
AcDbEntity
  8
0
  6
CONTINUOUS
 62
     7
100
AcDbLine
 10
-915.8034170266878
 20
178.184943730169
 30
0.0
 11
-915.265487305995
 21
175.1502182714431
 31
0.0
  0
LINE
  5
ED
330
1F
100
AcDbEntity
  8
0
  6
CONTINUOUS
 62
     7
100
AcDbLine
 10
-840.1510845315531
 20
159.2033803838895
 30
0.0
 11
-834.1510845315531
 21
159.2033803838895
 31
0.0
  0
LINE
  5
EE
330
1F
100
AcDbEntity
  8
0
  6
CONTINUOUS
 62
     7
100
AcDbLine
 10
-1008.151084531553
 20
162.2369097879147
 30
0.0
 11
-1008.151084531553
 21
169.2337351826822
 31
0.0
  0
LINE
  5
EF
330
1F
100
AcDbEntity
  8
0
  6
CONTINUOUS
 62
     7
100
AcDbLine
 10
-940.2658922089856
 20
353.2536829090039
 30
0.0
 11
-940.7179510732884
 21
350.7033503273732
 31
0.0
  0
LINE
  5
F0
330
1F
100
AcDbEntity
  8
0
  6
CONTINUOUS
 62
     7
100
AcDbLine
 10
-965.8042548104086
 20
178.1907208101267
 30
0.0
 11
-965.2662777639762
 21
175.1557581722845
 31
0.0
  0
LINE
  5
F1
330
1F
100
AcDbEntity
  8
0
  6
CONTINUOUS
 62
     7
100
AcDbLine
 10
-1008.151084531553
 20
174.5902644499813
 30
0.0
 11
-1008.151084531553
 21
174.1258360121161
 31
0.0
  0
LINE
  5
F2
330
1F
100
AcDbEntity
  8
0
  6
CONTINUOUS
 62
     7
100
AcDbLine
 10
-1010.266274521239
 20
353.2509281003478
 30
0.0
 11
-1010.717835739479
 21
350.7033498796532
 31
0.0
  0
LINE
  5
F3
330
1F
100
AcDbEntity
  8
0
  6
CONTINUOUS
 62
     7
100
AcDbLine
 10
-1015.804205777578
 20
178.1905405467284
 30
0.0
 11
-1015.266249464152
 21
175.1556257393761
 31
0.0
  0
LINE
  5
F4
330
1F
100
AcDbEntity
  8
0
  6
CONTINUOUS
 62
     7
100
AcDbLine
 10
-1025.803915242058
 20
178.1887503746532
 30
0.0
 11
-1025.265940358461
 21
175.1537133525337
 31
0.0
  0
LINE
  5
F5
330
1F
100
AcDbEntity
  8
0
  6
CONTINUOUS
 62
     7
100
AcDbLine
 10
-1008.151084531553
 20
345.2488298280387
 30
0.0
 11
-1008.151084531553
 21
351.2013721906876
 31
0.0
  0
LINE
  5
F6
330
1F
100
AcDbEntity
  8
0
  6
CONTINUOUS
 62
     7
100
AcDbLine
 10
-900.2663418778292
 20
353.2519782648379
 30
0.0
 11
-900.7180889320098
 21
350.703350224858
 31
0.0
  0
LINE
  5
F7
330
1F
100
AcDbEntity
  8
0
  6
CONTINUOUS
 62
     7
100
AcDbLine
 10
-1035.803783555509
 20
178.1878138218784
 30
0.0
 11
-1035.265847052753
 21
175.1529773658095
 31
0.0
  0
ARC
  5
F8
330
1F
100
AcDbEntity
  8
0
  6
CONTINUOUS
 62
     7
100
AcDbCircle
 10
1109.15108453152
 20
348.7033803838845
 30
0.0
 40
2.0
210
0.0
220
0.0
230
-1.0
100
AcDbArc
 50
317.5953419933988
 51
0.0000000000727596
  0
ARC
  5
F9
330
1F
100
AcDbEntity
  8
0
  6
CONTINUOUS
 62
     7
100
AcDbCircle
 10
-1108.651084531553
 20
358.7033803838896
 30
0.0
 40
2.000000000000002
100
AcDbArc
 50
90.0
 51
180.0
  0
LINE
  5
FA
330
1F
100
AcDbEntity
  8
0
  6
CONTINUOUS
 62
     7
100
AcDbLine
 10
-885.8044993708223
 20
178.1908450062979
 30
0.0
 11
-885.2665970124808
 21
175.1562009866455
 31
0.0
  0
LINE
  5
FB
330
1F
100
AcDbEntity
  8
0
  6
CONTINUOUS
 62
     7
100
AcDbLine
 10
-1008.151084531553
 20
354.1826526390818
 30
0.0
 11
-1008.151084531553
 21
353.8164963177978
 31
0.0
  0
LWPOLYLINE
  5
FC
330
1F
100
AcDbEntity
  8
0
  6
CONTINUOUS
 62
     7
100
AcDbPolyline
 90
       37
 70
     0
 43
0.0
 10
1008.151084531553
 20
359.1730255850967
 10
1008.151074583781
 20
359.1760983722111
 10
1008.150086777825
 20
359.2037794709415
 10
1008.147475685944
 20
359.2314291976494
 10
1008.143232242951
 20
359.2589780323743
 10
1008.137347383657
 20
359.2863564551556
 10
1008.129549525567
 20
359.3143381218322
 10
1008.119949427826
 20
359.3420799367739
 10
1008.10852157001
 20
359.3694854388655
 10
1008.095240431691
 20
359.3964581669918
 10
1008.081648514429
 20
359.4203364757685
 10
1008.066464332759
 20
359.443769485726
 10
1008.04966585024
 20
359.4666574157048
 10
1008.03564714227
 20
359.4838107750721
 10
1008.020616538678
 20
359.500574677359
 10
1008.004570438594
 20
359.5168848247949
 10
1007.987505241148
 20
359.5326769196097
 10
1007.970007905042
 20
359.547413035999
 10
1007.951510595717
 20
359.5615753824995
 10
1007.932028615463
 20
359.5750844372423
 10
1007.916380050509
 20
359.584982670618
 10
1007.900130396728
 20
359.5944349332881
 10
1007.883303292251
 20
359.603396245241
 10
1007.865922375213
 20
359.6118216264654
 10
1007.847312832785
 20
359.6199576419115
 10
1007.828118020059
 20
359.6274458681942
 10
1007.808392844005
 20
359.6342315802793
 10
1007.79285315644
 20
359.6389513908407
 10
1007.777017908121
 20
359.6432149905457
 10
1007.760927252039
 20
359.6470001229125
 10
1007.744621341191
 20
359.6502845314591
 10
1007.729443117095
 20
359.6528508083969
 10
1007.714112342699
 20
359.6549728585477
 10
1007.698669609194
 20
359.6566391570087
 10
1007.682863618394
 20
359.6578579831663
 10
1007.666986088082
 20
359.6585924961796
 10
1007.651084531553
 20
359.6588383087956
210
0.0
220
0.0
230
-1.0
  0
LINE
  5
FD
330
1F
100
AcDbEntity
  8
0
  6
CONTINUOUS
 62
     7
100
AcDbLine
 10
-1008.151084531553
 20
162.2369097879146
 30
0.0
 11
-1008.151084531553
 21
162.2033803838895
 31
0.0
  0
LINE
  5
FE
330
1F
100
AcDbEntity
  8
0
  6
CONTINUOUS
 62
     7
100
AcDbLine
 10
-950.2666333571827
 20
353.2492813477663
 30
0.0
 11
-950.7179071357355
 21
350.7033793934678
 31
0.0
  0
LINE
  5
FF
330
1F
100
AcDbEntity
  8
0
  6
CONTINUOUS
 62
     7
100
AcDbLine
 10
-1008.151084531553
 20
317.6644548693581
 30
0.0
 11
-1008.151084531553
 21
317.4605875180517
 31
0.0
  0
LINE
  5
100
330
1F
100
AcDbEntity
  8
0
  6
CONTINUOUS
 62
     7
100
AcDbLine
 10
-895.8044113687496
 20
178.1903073056278
 30
0.0
 11
-895.2664857020378
 21
175.1555575351502
 31
0.0
  0
LINE
  5
101
330
1F
100
AcDbEntity
  8
0
  6
CONTINUOUS
 62
     7
100
AcDbLine
 10
-1008.13272688751
 20
354.1082753197181
 30
0.0
 11
-1008.151084531553
 21
353.8164963177978
 31
0.0
  0
LINE
  5
102
330
1F
100
AcDbEntity
  8
0
  6
CONTINUOUS
 62
     7
100
AcDbLine
 10
-960.266606872256
 20
353.249231004245
 30
0.0
 11
-960.7178766661626
 21
350.7033498566074
 31
0.0
  0
LINE
  5
103
330
1F
100
AcDbEntity
  8
0
  6
CONTINUOUS
 62
     7
100
AcDbLine
 10
-920.2666230131002
 20
353.2500510116316
 30
0.0
 11
-920.7180348092846
 21
350.7033500500467
 31
0.0
  0
LINE
  5
104
330
1F
100
AcDbEntity
  8
0
  6
CONTINUOUS
 62
     7
100
AcDbLine
 10
-1008.151084531553
 20
359.1730255850967
 30
0.0
 11
-1008.151084531553
 21
366.1698509798643
 31
0.0
  0
LINE
  5
105
330
1F
100
AcDbEntity
  8
0
  6
CONTINUOUS
 62
     7
100
AcDbLine
 10
-976.1510845315531
 20
345.4120178709657
 30
0.0
 11
-1007.651084531553
 21
345.4120178709658
 31
0.0
  0
ELLIPSE
  5
106
330
1F
100
AcDbEntity
  8
0
  6
CONTINUOUS
 62
     7
100
AcDbEllipse
 10
-976.1510845315531
 20
360.6583718996323
 30
0.0
 11
-1.000000000000001
 21
0.0
 31
0.0
210
0.0
220
0.0
230
-1.0
 40
0.9995335908367128
 41
3.141592653589793
 42
4.71238898038469
  0
LWPOLYLINE
  5
107
330
1F
100
AcDbEntity
  8
0
  6
CONTINUOUS
 62
     7
100
AcDbPolyline
 90
       37
 70
     0
 43
0.0
 10
1007.651084531553
 20
168.7479224589835
 10
1007.667484199298
 20
168.7481849729917
 10
1007.683865995439
 20
168.7489681577087
 10
1007.700178509786
 20
168.7502654771729
 10
1007.716370332152
 20
168.7520703954228
 10
1007.732981063383
 20
168.7544676920653
 10
1007.749429890114
 20
168.7573904132397
 10
1007.765670388014
 20
168.7608195427916
 10
1007.781656132751
 20
168.7647360645664
 10
1007.796857284231
 20
168.7689740107758
 10
1007.811803851248
 20
168.7736400965485
 10
1007.826467510227
 20
168.7787122502036
 10
1007.840819937598
 20
168.7841684000604
 10
1007.859922287398
 20
168.7922192605884
 10
1007.878427989575
 20
168.8009182764951
 10
1007.896295779428
 20
168.810209374264
 10
1007.914024708623
 20
168.8203568953297
 10
1007.931081097291
 20
168.831055843351
 10
1007.947446955349
 20
168.8422541416039
 10
1007.963104292713
 20
168.8538997133643
 10
1007.983446921466
 20
168.8705420191285
 10
1008.002519648391
 20
168.8878980998783
 10
1008.020317434823
 20
168.9058667327853
 10
1008.037083551231
 20
168.9246355673783
 10
1008.052614861737
 20
168.9439239995893
 10
1008.066923298973
 20
168.9636583231164
 10
1008.080020795571
 20
168.9837648316577
 10
1008.096072260038
 20
169.0118730905646
 10
1008.109988454655
 20
169.0405395782421
 10
1008.121804343375
 20
169.069633111864
 10
1008.130601266879
 20
169.0958397368262
 10
1008.137807326678
 20
169.1222904758547
 10
1008.143439174944
 20
169.1489138210929
 10
1008.147567676851
 20
169.1760781539109
 10
1008.150110561968
 20
169.2033495521542
 10
1008.151074583781
 20
169.2306623955679
 10
1008.151084531553
 20
169.2337351826823
210
0.0
220
0.0
230
-1.0
  0
LINE
  5
108
330
1F
100
AcDbEntity
  8
0
  6
CONTINUOUS
 62
     7
100
AcDbLine
 10
-976.1510845315531
 20
359.6588383087956
 30
0.0
 11
-1007.651084531553
 21
359.6588383087956
 31
0.0
  0
LINE
  5
109
330
1F
100
AcDbEntity
  8
0
  6
CONTINUOUS
 62
     7
100
AcDbLine
 10
-1075.151084531553
 20
346.703380383887
 30
0.0
 11
-1075.651084531553
 21
346.703380383887
 31
0.0
  0
LINE
  5
10A
330
1F
100
AcDbEntity
  8
0
  6
CONTINUOUS
 62
     7
100
AcDbLine
 10
-976.1510845315531
 20
182.9947428968133
 30
0.0
 11
-1007.651084531553
 21
182.9947428968133
 31
0.0
  0
LINE
  5
10B
330
1F
100
AcDbEntity
  8
0
  6
CONTINUOUS
 62
     7
100
AcDbLine
 10
-976.1510845315531
 20
168.7479224589835
 30
0.0
 11
-1007.651084531553
 21
168.7479224589835
 31
0.0
  0
LINE
  5
10C
330
1F
100
AcDbEntity
  8
0
  6
CONTINUOUS
 62
     7
100
AcDbLine
 10
-1008.151084531553
 20
174.125836012116
 30
0.0
 11
-1008.151084531553
 21
169.2337351826823
 31
0.0
  0
LINE
  5
10D
330
1F
100
AcDbEntity
  8
0
  6
CONTINUOUS
 62
     7
100
AcDbLine
 10
-1008.151084531553
 20
366.2033803838895
 30
0.0
 11
-1008.151084531553
 21
366.1698509798643
 31
0.0
  0
LINE
  5
10E
330
1F
100
AcDbEntity
  8
0
  6
CONTINUOUS
 62
     7
100
AcDbLine
 10
-858.1510845315531
 20
372.8322124510444
 30
0.0
 11
-864.9466167751017
 21
374.2022038576429
 31
0.0
  0
LINE
  5
10F
330
1F
100
AcDbEntity
  8
0
  6
CONTINUOUS
 62
     7
100
AcDbLine
 10
-1075.651084531553
 20
181.703380383892
 30
0.0
 11
-1075.151084531554
 21
181.703380383892
 31
0.0
  0
LINE
  5
110
330
1F
100
AcDbEntity
  8
0
  6
CONTINUOUS
 62
     7
100
AcDbLine
 10
-916.3063873470678
 20
353.7017794541737
 30
0.0
 11
-920.1063873470578
 21
353.7017881830715
 31
0.0
  0
LINE
  5
111
330
1F
100
AcDbEntity
  8
0
  6
CONTINUOUS
 62
     7
100
AcDbLine
 10
-896.3064176487622
 20
353.7019220312666
 30
0.0
 11
-900.1064176487522
 21
353.7019307601782
 31
0.0
  0
LINE
  5
112
330
1F
100
AcDbEntity
  8
0
  6
CONTINUOUS
 62
     7
100
AcDbLine
 10
-1026.306135208983
 20
353.7033300427111
 30
0.0
 11
-1030.106135208973
 21
353.7033387717601
 31
0.0
  0
LINE
  5
113
330
1F
100
AcDbEntity
  8
0
  6
CONTINUOUS
 62
     7
100
AcDbLine
 10
-886.3064169186486
 20
353.7020788264751
 30
0.0
 11
-890.1064169186384
 21
353.702087555402
 31
0.0
  0
LINE
  5
114
330
1F
100
AcDbEntity
  8
0
  6
CONTINUOUS
 62
     7
100
AcDbLine
 10
-905.1065392705725
 20
174.7048879547837
 30
0.0
 11
-901.3065392705826
 21
174.7048966836898
 31
0.0
  0
LINE
  5
115
330
1F
100
AcDbEntity
  8
0
  6
CONTINUOUS
 62
     7
100
AcDbLine
 10
-1008.151084531553
 20
353.7033073443901
 30
0.0
 11
-1010.106278727884
 21
353.7033118357008
 31
0.0
  0
LINE
  5
116
330
1F
100
AcDbEntity
  8
0
  6
CONTINUOUS
 62
     7
100
AcDbLine
 10
-956.3062368377067
 20
353.7022218850811
 30
0.0
 11
-960.1062368376967
 21
353.702230614022
 31
0.0
  0
LINE
  5
117
330
1F
100
AcDbEntity
  8
0
  6
CONTINUOUS
 62
     7
100
AcDbLine
 10
-915.1064562433227
 20
174.7049600599498
 30
0.0
 11
-911.3064562433327
 21
174.7049687888488
 31
0.0
  0
LINE
  5
118
330
1F
100
AcDbEntity
  8
0
  6
CONTINUOUS
 62
     7
100
AcDbLine
 10
-965.1062675153274
 20
174.7044208998581
 30
0.0
 11
-961.3062675153375
 21
174.7044296288096
 31
0.0
  0
LINE
  5
119
330
1F
100
AcDbEntity
  8
0
  6
CONTINUOUS
 62
     7
100
AcDbLine
 10
-1015.106396914215
 20
174.7034002167223
 30
0.0
 11
-1011.306396914225
 21
174.7034089457734
 31
0.0
  0
LINE
  5
11A
330
1F
100
AcDbEntity
  8
0
  6
CONTINUOUS
 62
     7
100
AcDbLine
 10
-925.1065287134197
 20
174.7049692198655
 30
0.0
 11
-921.3065287134298
 21
174.7049779487635
 31
0.0
  0
LINE
  5
11B
330
1F
100
AcDbEntity
  8
0
  6
CONTINUOUS
 62
     7
100
AcDbLine
 10
-926.3064157024097
 20
353.7018026086672
 30
0.0
 11
-930.1064157023995
 21
353.7018113375672
 31
0.0
  0
LINE
  5
11C
330
1F
100
AcDbEntity
  8
0
  6
CONTINUOUS
 62
     7
100
AcDbLine
 10
-966.3067183348883
 20
353.7024416561637
 30
0.0
 11
-970.1067183348782
 21
353.702450385126
 31
0.0
  0
LINE
  5
11D
330
1F
100
AcDbEntity
  8
0
  6
CONTINUOUS
 62
     7
100
AcDbLine
 10
-895.1062274094799
 20
174.704759973414
 30
0.0
 11
-891.3062274094899
 21
174.7047687023325
 31
0.0
  0
LINE
  5
11E
330
1F
100
AcDbEntity
  8
0
  6
CONTINUOUS
 62
     7
100
AcDbLine
 10
-1045.80407478988
 20
178.1892320191739
 30
0.0
 11
-1045.266129357191
 21
175.1543332631792
 31
0.0
  0
LINE
  5
11F
330
1F
100
AcDbEntity
  8
0
  6
CONTINUOUS
 62
     7
100
AcDbLine
 10
-1036.306575798889
 20
353.7031955424621
 30
0.0
 11
-1040.106575798879
 21
353.7032042714978
 31
0.0
  0
LINE
  5
120
330
1F
100
AcDbEntity
  8
0
  6
CONTINUOUS
 62
     7
100
AcDbLine
 10
-935.1063322059298
 20
174.7049141271303
 30
0.0
 11
-931.3063322059398
 21
174.7049228560337
 31
0.0
  0
LINE
  5
121
330
1F
100
AcDbEntity
  8
0
  6
CONTINUOUS
 62
     7
100
AcDbLine
 10
-955.1063374802857
 20
174.7046310734421
 30
0.0
 11
-951.3063374802958
 21
174.7046398023732
 31
0.0
  0
LINE
  5
122
330
1F
100
AcDbEntity
  8
0
  6
CONTINUOUS
 62
     7
100
AcDbLine
 10
-1025.10669016688
 20
174.7033846793341
 30
0.0
 11
-1021.30669016689
 21
174.7033934083866
 31
0.0
  0
LINE
  5
123
330
1F
100
AcDbEntity
  8
0
  6
CONTINUOUS
 62
     7
100
AcDbLine
 10
-885.1065768547513
 20
174.7045762126207
 30
0.0
 11
-881.3065768547613
 21
174.7045849415567
 31
0.0
  0
LINE
  5
124
330
1F
100
AcDbEntity
  8
0
  6
CONTINUOUS
 62
     7
100
AcDbLine
 10
-936.3063461664256
 20
353.701888270619
 30
0.0
 11
-940.1063461664155
 21
353.7018969995273
 31
0.0
  0
LINE
  5
125
330
1F
100
AcDbEntity
  8
0
  6
CONTINUOUS
 62
     7
100
AcDbLine
 10
-906.3064853737097
 20
353.7018203064023
 30
0.0
 11
-910.1064853736997
 21
353.7018290353041
 31
0.0
  0
LINE
  5
126
330
1F
100
AcDbEntity
  8
0
  6
CONTINUOUS
 62
     7
100
AcDbLine
 10
-1035.106390075204
 20
174.703478600813
 30
0.0
 11
-1031.306390075214
 21
174.7034873298564
 31
0.0
  0
LINE
  5
127
330
1F
100
AcDbEntity
  8
0
  6
CONTINUOUS
 62
     7
100
AcDbLine
 10
-1045.106609232891
 20
174.7036509476012
 30
0.0
 11
-1041.306609232901
 21
174.7036596766278
 31
0.0
  0
LINE
  5
128
330
1F
100
AcDbEntity
  8
0
  6
CONTINUOUS
 62
     7
100
AcDbLine
 10
-945.106541018097
 20
174.7048003601774
 30
0.0
 11
-941.306541018107
 21
174.7048090890919
 31
0.0
  0
LINE
  5
129
330
1F
100
AcDbEntity
  8
0
  6
CONTINUOUS
 62
     7
100
AcDbLine
 10
-1045.608539265776
 20
350.2152907279087
 30
0.0
 11
-1046.146478993536
 21
353.250155031285
 31
0.0
  0
LINE
  5
12A
330
1F
100
AcDbEntity
  8
0
  6
CONTINUOUS
 62
     7
100
AcDbLine
 10
-1025.608557179575
 20
350.2155055391365
 30
0.0
 11
-1026.146482553522
 21
353.2503222760554
 31
0.0
  0
LINE
  5
12B
330
1F
100
AcDbEntity
  8
0
  6
CONTINUOUS
 62
     7
100
AcDbLine
 10
-1035.608602676192
 20
350.2156755621868
 30
0.0
 11
-1036.146535507436
 21
353.250517263042
 31
0.0
  0
LINE
  5
12C
330
1F
100
AcDbEntity
  8
0
  6
CONTINUOUS
 62
     7
100
AcDbLine
 10
-1046.306623690906
 20
353.7029945092036
 30
0.0
 11
-1048.151084531553
 21
353.7029987461322
 31
0.0
  0
LINE
  5
12D
330
1F
100
AcDbEntity
  8
0
  6
CONTINUOUS
 62
     7
100
AcDbLine
 10
-1016.306518675185
 20
353.7033746223398
 30
0.0
 11
-1020.106518675174
 21
353.7033833513931
 31
0.0
  0
LINE
  5
12E
330
1F
100
AcDbEntity
  8
0
  6
CONTINUOUS
 62
     7
100
AcDbLine
 10
-946.30661126246
 20
353.7020285710062
 30
0.0
 11
-950.10661126245
 21
353.7020372999283
 31
0.0
  0
LINE
  5
12F
330
1F
100
AcDbEntity
  8
0
  6
CONTINUOUS
 62
     7
100
AcDbLine
 10
-920.6351736497426
 20
350.7033803838895
 30
0.0
 11
-925.6948228791673
 21
350.7033803838895
 31
0.0
  0
LINE
  5
130
330
1F
100
AcDbEntity
  8
0
  6
CONTINUOUS
 62
     7
100
AcDbLine
 10
-1010.635382854625
 20
350.7033803838895
 30
0.0
 11
-1015.695015853763
 21
350.7033803838895
 31
0.0
  0
LINE
  5
131
330
1F
100
AcDbEntity
  8
0
  6
CONTINUOUS
 62
     7
100
AcDbLine
 10
-930.6351802251658
 20
350.7033803838895
 30
0.0
 11
-935.6948012065113
 21
350.7033803838895
 31
0.0
  0
LINE
  5
132
330
1F
100
AcDbEntity
  8
0
  6
CONTINUOUS
 62
     7
100
AcDbLine
 10
-941.1465536445014
 20
175.1546222887015
 30
0.0
 11
-940.6947911401999
 21
177.7034104933675
 31
0.0
  0
LINE
  5
133
330
1F
100
AcDbEntity
  8
0
  6
CONTINUOUS
 62
     7
100
AcDbLine
 10
-865.1510845315531
 20
175.7033803838895
 30
0.0
 11
-861.1510845315531
 21
175.7033803838895
 31
0.0
  0
LINE
  5
134
330
1F
100
AcDbEntity
  8
0
  6
CONTINUOUS
 62
     7
100
AcDbLine
 10
-930.7777145257703
 20
177.7033803838895
 30
0.0
 11
-925.7180154538624
 21
177.7033803838895
 31
0.0
  0
LINE
  5
135
330
1F
100
AcDbEntity
  8
0
  6
CONTINUOUS
 62
     7
100
AcDbLine
 10
-940.7776828299287
 20
177.7033803838895
 30
0.0
 11
-935.7179738867674
 21
177.7033803838895
 31
0.0
  0
LINE
  5
136
330
1F
100
AcDbEntity
  8
0
  6
CONTINUOUS
 62
     7
100
AcDbLine
 10
-1040.63538963941
 20
350.7033803838895
 30
0.0
 11
-1045.695062530501
 21
350.7033803838895
 31
0.0
  0
LINE
  5
137
330
1F
100
AcDbEntity
  8
0
  6
CONTINUOUS
 62
     7
100
AcDbLine
 10
-911.1470860941454
 20
175.1521747493384
 30
0.0
 11
-910.6948806906314
 21
177.7034103307623
 31
0.0
  0
LINE
  5
138
330
1F
100
AcDbEntity
  8
0
  6
CONTINUOUS
 62
     7
100
AcDbLine
 10
-945.6091833559641
 20
350.2204517410691
 30
0.0
 11
-946.1471458320087
 21
353.2554957721302
 31
0.0
  0
LINE
  5
139
330
1F
100
AcDbEntity
  8
0
  6
CONTINUOUS
 62
     7
100
AcDbLine
 10
-915.6084758786488
 20
350.2160867624898
 30
0.0
 11
-916.1464023164814
 21
353.2508603608463
 31
0.0
  0
LINE
  5
13A
330
1F
100
AcDbEntity
  8
0
  6
CONTINUOUS
 62
     7
100
AcDbLine
 10
-905.6084136518651
 20
350.2155073430418
 30
0.0
 11
-906.1463021847153
 21
353.2500551926111
 31
0.0
  0
LINE
  5
13B
330
1F
100
AcDbEntity
  8
0
  6
CONTINUOUS
 62
     7
100
AcDbLine
 10
-961.1465406599451
 20
175.154767795056
 30
0.0
 11
-960.6948108115047
 21
177.7034106583006
 31
0.0
  0
LINE
  5
13C
330
1F
100
AcDbEntity
  8
0
  6
CONTINUOUS
 62
     7
100
AcDbLine
 10
-921.1464236976069
 20
175.1556676383949
 30
0.0
 11
-920.6948396831272
 21
177.7034106700666
 31
0.0
  0
LINE
  5
13D
330
1F
100
AcDbEntity
  8
0
  6
CONTINUOUS
 62
     7
100
AcDbLine
 10
-1011.146702477746
 20
175.1549424485203
 30
0.0
 11
-1010.69499999315
 21
177.7034108298
 31
0.0
  0
LINE
  5
13E
330
1F
100
AcDbEntity
  8
0
  6
CONTINUOUS
 62
     7
100
AcDbLine
 10
-875.1510845315531
 20
353.7033803838895
 30
0.0
 11
-880.1510845315531
 21
353.7033803838895
 31
0.0
  0
LINE
  5
13F
330
1F
100
AcDbEntity
  8
0
  6
CONTINUOUS
 62
     7
100
AcDbLine
 10
-891.1462101786323
 20
175.1575825055431
 30
0.0
 11
-890.6949614671546
 21
177.7034108825273
 31
0.0
  0
LINE
  5
140
330
1F
100
AcDbEntity
  8
0
  6
CONTINUOUS
 62
     7
100
AcDbLine
 10
-1015.608733613375
 20
350.2166421514153
 30
0.0
 11
-1016.146678149334
 21
353.2515846795793
 31
0.0
  0
LINE
  5
141
330
1F
100
AcDbEntity
  8
0
  6
CONTINUOUS
 62
     7
100
AcDbLine
 10
-900.6351889603573
 20
350.7033803838895
 30
0.0
 11
-905.6948992614775
 21
350.7033803838895
 31
0.0
  0
LINE
  5
142
330
1F
100
AcDbEntity
  8
0
  6
CONTINUOUS
 62
     7
100
AcDbLine
 10
-965.6084376656393
 20
350.2160399284613
 30
0.0
 11
-966.1463259057804
 21
353.2507021345039
 31
0.0
  0
LINE
  5
143
330
1F
100
AcDbEntity
  8
0
  6
CONTINUOUS
 62
     7
100
AcDbLine
 10
-880.6352350551241
 20
350.7033803838895
 30
0.0
 11
-885.6949809810177
 21
350.7033803838895
 31
0.0
  0
LINE
  5
144
330
1F
100
AcDbEntity
  8
0
  6
CONTINUOUS
 62
     7
100
AcDbLine
 10
-955.608610914207
 20
350.2171662709948
 30
0.0
 11
-956.1465263833318
 21
353.2519698594235
 31
0.0
  0
LINE
  5
145
330
1F
100
AcDbEntity
  8
0
  6
CONTINUOUS
 62
     7
100
AcDbLine
 10
-890.7776729100714
 20
177.7033803838895
 30
0.0
 11
-885.7180866766303
 21
177.7033803838895
 31
0.0
  0
LINE
  5
146
330
1F
100
AcDbEntity
  8
0
  6
CONTINUOUS
 62
     7
100
AcDbLine
 10
-1040.777519726166
 20
177.7033803838895
 30
0.0
 11
-1035.71790819364
 21
177.7033803838895
 31
0.0
  0
LINE
  5
147
330
1F
100
AcDbEntity
  8
0
  6
CONTINUOUS
 62
     7
100
AcDbLine
 10
-1048.151084531553
 20
177.7033803838895
 30
0.0
 11
-1045.717948341002
 21
177.7033803838895
 31
0.0
  0
LINE
  5
148
330
1F
100
AcDbEntity
  8
0
  6
CONTINUOUS
 62
     7
100
AcDbLine
 10
-872.1510845315532
 20
175.7033803838895
 30
0.0
 11
-868.1510845315532
 21
175.7033803838895
 31
0.0
  0
ARC
  5
149
330
1F
100
AcDbEntity
  8
0
  6
CONTINUOUS
 62
     7
100
AcDbCircle
 10
874.6510845315531
 20
177.7033803838895
 30
0.0
 40
0.5000000000000004
210
0.0
220
0.0
230
-1.0
100
AcDbArc
 50
0.0
 51
90.0
  0
ARC
  5
14A
330
1F
100
AcDbEntity
  8
0
  6
CONTINUOUS
 62
     7
100
AcDbCircle
 10
872.6510845315531
 20
350.7033803838895
 30
0.0
 40
0.5000000000000004
210
0.0
220
0.0
230
-1.0
100
AcDbArc
 50
180.0
 51
270.0000000000024
  0
ARC
  5
14B
330
1F
100
AcDbEntity
  8
0
  6
CONTINUOUS
 62
     7
100
AcDbCircle
 10
872.6510845315531
 20
177.7033803838895
 30
0.0
 40
0.5000000000000004
210
0.0
220
0.0
230
-1.0
100
AcDbArc
 50
89.99999999999763
 51
180.0
  0
LINE
  5
14C
330
1F
100
AcDbEntity
  8
0
  6
CONTINUOUS
 62
     7
100
AcDbLine
 10
-951.1466465251381
 20
175.1540796203766
 30
0.0
 11
-950.6947919665056
 21
177.7034105335642
 31
0.0
  0
LINE
  5
14D
330
1F
100
AcDbEntity
  8
0
  6
CONTINUOUS
 62
     7
100
AcDbLine
 10
-881.1463620906856
 20
175.1569337024226
 30
0.0
 11
-880.6949985277809
 21
177.7034108411562
 31
0.0
  0
LINE
  5
14E
330
1F
100
AcDbEntity
  8
0
  6
CONTINUOUS
 62
     7
100
AcDbLine
 10
-910.6351941135924
 20
350.7033803838895
 30
0.0
 11
-915.6948584200658
 21
350.7033803838895
 31
0.0
  0
LINE
  5
14F
330
1F
100
AcDbEntity
  8
0
  6
CONTINUOUS
 62
     7
100
AcDbLine
 10
-1030.635345759196
 20
350.7033803838895
 30
0.0
 11
-1035.695057257822
 21
350.7033803838895
 31
0.0
  0
LINE
  5
150
330
1F
100
AcDbEntity
  8
0
  6
CONTINUOUS
 62
     7
100
AcDbLine
 10
-1021.146640384968
 20
175.1554745666303
 30
0.0
 11
-1020.695029720037
 21
177.7034108735168
 31
0.0
  0
LINE
  5
151
330
1F
100
AcDbEntity
  8
0
  6
CONTINUOUS
 62
     7
100
AcDbLine
 10
-880.7776586408451
 20
177.7033803838895
 30
0.0
 11
-880.1510845315531
 21
177.7033803838895
 31
0.0
  0
LINE
  5
152
330
1F
100
AcDbEntity
  8
0
  6
CONTINUOUS
 62
     7
100
AcDbLine
 10
-910.777711893256
 20
177.7033803838895
 30
0.0
 11
-905.7180786581272
 21
177.7033803838895
 31
0.0
  0
LINE
  5
153
330
1F
100
AcDbEntity
  8
0
  6
CONTINUOUS
 62
     7
100
AcDbLine
 10
-885.608599722872
 20
350.2160973620743
 30
0.0
 11
-886.1465642146263
 21
353.2510652189331
 31
0.0
  0
LINE
  5
154
330
1F
100
AcDbEntity
  8
0
  6
CONTINUOUS
 62
     7
100
AcDbLine
 10
-925.6083226152099
 20
350.2154199638552
 30
0.0
 11
-926.1462249413679
 21
353.2500747026752
 31
0.0
  0
LINE
  5
155
330
1F
100
AcDbEntity
  8
0
  6
CONTINUOUS
 62
     7
100
AcDbLine
 10
-900.7777012621196
 20
177.7033803838895
 30
0.0
 11
-895.7180932907945
 21
177.7033803838895
 31
0.0
  0
LINE
  5
156
330
1F
100
AcDbEntity
  8
0
  6
CONTINUOUS
 62
     7
100
AcDbLine
 10
-920.7776913315492
 20
177.7033803838895
 30
0.0
 11
-915.718048512654
 21
177.7033803838895
 31
0.0
  0
LINE
  5
157
330
1F
100
AcDbEntity
  8
0
  6
CONTINUOUS
 62
     7
100
AcDbLine
 10
-935.6094691699149
 20
350.2220057515921
 30
0.0
 11
-936.1473852402027
 21
353.2567614941962
 31
0.0
  0
LINE
  5
158
330
1F
100
AcDbEntity
  8
0
  6
CONTINUOUS
 62
     7
100
AcDbLine
 10
-950.777642715435
 20
177.7033803838895
 30
0.0
 11
-945.7179321701526
 21
177.7033803838895
 31
0.0
  0
LINE
  5
159
330
1F
100
AcDbEntity
  8
0
  6
CONTINUOUS
 62
     7
100
AcDbLine
 10
-1010.777540660647
 20
177.7033803838895
 30
0.0
 11
-1008.151084531553
 21
177.7033803838895
 31
0.0
  0
LINE
  5
15A
330
1F
100
AcDbEntity
  8
0
  6
CONTINUOUS
 62
     7
100
AcDbLine
 10
-1030.777526070135
 20
177.7033803838895
 30
0.0
 11
-1025.717873392585
 21
177.7033803838895
 31
0.0
  0
ARC
  5
15B
330
1F
100
AcDbEntity
  8
0
  6
CONTINUOUS
 62
     7
100
AcDbCircle
 10
874.6510845315531
 20
350.7033803838895
 30
0.0
 40
0.5000000000000004
210
0.0
220
0.0
230
-1.0
100
AcDbArc
 50
270.0
 51
0.0
  0
ARC
  5
15C
330
1F
100
AcDbEntity
  8
0
  6
CONTINUOUS
 62
     7
100
AcDbCircle
 10
865.6510845315531
 20
350.7033803838895
 30
0.0
 40
0.5000000000000004
210
0.0
220
0.0
230
-1.0
100
AcDbArc
 50
180.0
 51
269.9999999999984
  0
LINE
  5
15D
330
1F
100
AcDbEntity
  8
0
  6
CONTINUOUS
 62
     7
100
AcDbLine
 10
-868.1510845315531
 20
352.7033803838895
 30
0.0
 11
-872.1510845315531
 21
352.7033803838895
 31
0.0
  0
ARC
  5
15E
330
1F
100
AcDbEntity
  8
0
  6
CONTINUOUS
 62
     7
100
AcDbCircle
 10
865.6510845315531
 20
177.7033803838895
 30
0.0
 40
0.5000000000000004
210
0.0
220
0.0
230
-1.0
100
AcDbArc
 50
90.00000000000159
 51
180.0
  0
ARC
  5
15F
330
1F
100
AcDbEntity
  8
0
  6
CONTINUOUS
 62
     7
100
AcDbCircle
 10
867.6510845315531
 20
350.7033803838895
 30
0.0
 40
0.5000000000000004
210
0.0
220
0.0
230
-1.0
100
AcDbArc
 50
270.0
 51
0.0
  0
LINE
  5
160
330
1F
100
AcDbEntity
  8
0
  6
CONTINUOUS
 62
     7
100
AcDbLine
 10
-863.8492641711952
 20
352.7033803838895
 30
0.0
 11
-865.1510845315531
 21
352.7033803838895
 31
0.0
  0
LINE
  5
161
330
1F
100
AcDbEntity
  8
0
  6
CONTINUOUS
 62
     7
100
AcDbLine
 10
-970.1510845315531
 20
177.7033803838895
 30
0.0
 11
-965.7178612015261
 21
177.7033803838895
 31
0.0
  0
LINE
  5
162
330
1F
100
AcDbEntity
  8
0
  6
CONTINUOUS
 62
     7
100
AcDbLine
 10
-960.7776483143219
 20
177.7033803838895
 30
0.0
 11
-955.7178937418915
 21
177.7033803838895
 31
0.0
  0
LINE
  5
163
330
1F
100
AcDbEntity
  8
0
  6
CONTINUOUS
 62
     7
100
AcDbLine
 10
-1020.63540284316
 20
350.7033803838895
 30
0.0
 11
-1025.695041422219
 21
350.7033803838895
 31
0.0
  0
LINE
  5
164
330
1F
100
AcDbEntity
  8
0
  6
CONTINUOUS
 62
     7
100
AcDbLine
 10
-931.14632940774
 20
175.1560080303082
 30
0.0
 11
-930.6948139185096
 21
177.7033815720276
 31
0.0
  0
LINE
  5
165
330
1F
100
AcDbEntity
  8
0
  6
CONTINUOUS
 62
     7
100
AcDbLine
 10
-890.6352194677509
 20
350.7033803838895
 30
0.0
 11
-895.6949412093929
 21
350.7033803838895
 31
0.0
  0
LINE
  5
166
330
1F
100
AcDbEntity
  8
0
  6
CONTINUOUS
 62
     7
100
AcDbLine
 10
-1020.777472321271
 20
177.7033803838895
 30
0.0
 11
-1015.717846059639
 21
177.7033803838895
 31
0.0
  0
LINE
  5
167
330
1F
100
AcDbEntity
  8
0
  6
CONTINUOUS
 62
     7
100
AcDbLine
 10
-901.146216776901
 20
175.1573096626262
 30
0.0
 11
-900.69492519095
 21
177.70338327711
 31
0.0
  0
LINE
  5
168
330
1F
100
AcDbEntity
  8
0
  6
CONTINUOUS
 62
     7
100
AcDbLine
 10
-1031.14687298737
 20
175.1542957728643
 30
0.0
 11
-1030.695050812587
 21
177.7034107360298
 31
0.0
  0
LINE
  5
169
330
1F
100
AcDbEntity
  8
0
  6
CONTINUOUS
 62
     7
100
AcDbLine
 10
-950.6352046779209
 20
350.7033803838895
 30
0.0
 11
-955.6947994829477
 21
350.7033803838895
 31
0.0
  0
LINE
  5
16A
330
1F
100
AcDbEntity
  8
0
  6
CONTINUOUS
 62
     7
100
AcDbLine
 10
-960.6352480288846
 20
350.7033803838895
 30
0.0
 11
-965.6948255855893
 21
350.7033803838895
 31
0.0
  0
LINE
  5
16B
330
1F
100
AcDbEntity
  8
0
  6
CONTINUOUS
 62
     7
100
AcDbLine
 10
-880.1510845315531
 20
174.7033803838895
 30
0.0
 11
-875.1510845315531
 21
174.7033803838895
 31
0.0
  0
LINE
  5
16C
330
1F
100
AcDbEntity
  8
0
  6
CONTINUOUS
 62
     7
100
AcDbLine
 10
-940.6352058807661
 20
350.7033803838895
 30
0.0
 11
-945.694790142252
 21
350.7033803838895
 31
0.0
  0
LINE
  5
16D
330
1F
100
AcDbEntity
  8
0
  6
CONTINUOUS
 62
     7
100
AcDbLine
 10
-1041.146651662415
 20
175.1556179322937
 30
0.0
 11
-1040.695061289071
 21
177.7034108574871
 31
0.0
  0
LINE
  5
16E
330
1F
100
AcDbEntity
  8
0
  6
CONTINUOUS
 62
     7
100
AcDbLine
 10
-895.6082583843155
 20
350.2143961173762
 30
0.0
 11
-896.146179405649
 21
353.24912009032
 31
0.0
  0
ARC
  5
16F
330
1F
100
AcDbEntity
  8
0
  6
CONTINUOUS
 62
     7
100
AcDbCircle
 10
-949.6210502083445
 20
353.2756968993829
 30
0.0
 40
0.6461700083812416
100
AcDbArc
 50
138.7156819441348
 51
182.3618966052237
  0
ARC
  5
170
330
1F
100
AcDbEntity
  8
0
  6
CONTINUOUS
 62
     7
100
AcDbCircle
 10
-1019.623683899434
 20
353.2786033208252
 30
0.0
 40
0.6430921356921543
100
AcDbArc
 50
138.6598858421022
 51
182.4178696701528
  0
SPLINE
  5
171
330
1F
100
AcDbEntity
  8
0
  6
CONTINUOUS
 62
     7
100
AcDbSpline
210
0.0
220
0.0
230
1.0
 70
     8
 71
     3
 72
    19
 73
    15
 74
     0
 42
0.000000001
 43
0.0001
 40
1.443809375406163
 40
1.443809375406163
 40
1.443809375406163
 40
1.443809375406163
 40
1.446547070940304
 40
1.454003499141027
 40
1.46145992734175
 40
1.468916355542473
 40
1.476372783743196
 40
1.48382921194392
 40
1.491285640144643
 40
1.498742068345366
 40
1.506198496546089
 40
1.513654924746812
 40
1.521111352947536
 40
1.523031886317863
 40
1.523031886317863
 40
1.523031886317863
 40
1.523031886317863
 10
-965.2662962018055
 20
175.1558620105721
 30
0.0
 10
-965.322053090029
 20
175.4698920368385
 30
0.0
 10
-965.5296702667871
 20
177.247982530651
 30
0.0
 10
-965.8891477320802
 20
184.2254644609106
 30
0.0
 10
-966.3447285976836
 20
199.5770051652896
 30
0.0
 10
-966.8003094632867
 20
220.1879069267881
 30
0.0
 10
-967.2558903288917
 20
244.3808333063764
 30
0.0
 10
-967.711471194494
 20
270.1869390078704
 30
0.0
 10
-968.1670520600975
 20
295.506096538382
 30
0.0
 10
-968.6226329257025
 20
318.2778067493099
 30
0.0
 10
-969.0782137913052
 20
336.6488843818154
 30
0.0
 10
-969.5337946569082
 20
349.1242721941622
 30
0.0
 10
-969.8766295047666
 20
353.3116369900497
 30
0.0
 10
-970.0676040640898
 20
353.7032464439725
 30
0.0
 10
-970.1067183348782
 20
353.702450385126
 30
0.0
  0
ARC
  5
172
330
1F
100
AcDbEntity
  8
0
  6
CONTINUOUS
 62
     7
100
AcDbCircle
 10
-909.6317484894198
 20
353.2797180523867
 30
0.0
 40
0.6352580467141592
100
AcDbArc
 50
138.3581929522834
 51
182.5367889687033
  0
ARC
  5
173
330
1F
100
AcDbEntity
  8
0
  6
CONTINUOUS
 62
     7
100
AcDbCircle
 10
954.6236633738962
 20
175.1303754800976
 30
0.0
 40
0.6436090413577291
210
0.0
220
0.0
230
-1.0
100
AcDbArc
 50
318.5859811648822
 51
2.448729707736391
  0
SPLINE
  5
174
330
1F
100
AcDbEntity
  8
0
  6
CONTINUOUS
 62
     7
100
AcDbSpline
210
0.0
220
0.0
230
1.0
 70
     8
 71
     3
 72
    18
 73
    14
 74
     0
 42
0.000000001
 43
0.0001
 40
0.1344656818239449
 40
0.1344656818239449
 40
0.1344656818239449
 40
0.1344656818239449
 40
0.1416721358137408
 40
0.149128564014464
 40
0.1565849922151872
 40
0.1640414204159104
 40
0.1714978486166336
 40
0.1789542768173568
 40
0.18641070501808
 40
0.1938671332188031
 40
0.2013235614195264
 40
0.2087799896202495
 40
0.213678160942579
 40
0.213678160942579
 40
0.213678160942579
 40
0.213678160942579
 10
-885.2666077132883
 20
175.156261476385
 30
0.0
 10
-885.413376937479
 20
175.9859492467873
 30
0.0
 10
-885.7120064501856
 20
179.9980927784144
 30
0.0
 10
-886.1624962514433
 20
192.7244384608006
 30
0.0
 10
-886.6180771170457
 20
211.4116368123525
 30
0.0
 10
-887.0736579826495
 20
234.3950816938671
 30
0.0
 10
-887.5292388482532
 20
259.804356660686
 30
0.0
 10
-887.9848197138566
 20
285.5716287143111
 30
0.0
 10
-888.4404005794604
 20
309.5999306841632
 30
0.0
 10
-888.8959814450642
 20
329.9338145782802
 30
0.0
 10
-889.3515623106674
 20
344.9184879573378
 30
0.0
 10
-889.7550408000077
 20
352.3719898077517
 30
0.0
 10
-890.0066590008129
 20
353.701239366932
 30
0.0
 10
-890.1064169130835
 20
353.7020875553548
 30
0.0
  0
SPLINE
  5
175
330
1F
100
AcDbEntity
  8
0
  6
CONTINUOUS
 62
     7
100
AcDbSpline
210
0.0
220
0.0
230
1.0
 70
     8
 71
     3
 72
    19
 73
    15
 74
     0
 42
0.000000001
 43
0.0001
 40
0.7891414233749248
 40
0.7891414233749248
 40
0.7891414233749248
 40
0.7891414233749248
 40
0.7903813892766615
 40
0.7978378174773847
 40
0.8052942456781079
 40
0.8127506738788312
 40
0.8202071020795545
 40
0.8276635302802777
 40
0.8351199584810011
 40
0.8425763866817244
 40
0.8500328148824476
 40
0.857489243083171
 40
0.8649456712838942
 40
0.8683525372418928
 40
0.8683525372418928
 40
0.8683525372418928
 40
0.8683525372418928
 10
-925.266689923772
 20
175.1572026936915
 30
0.0
 10
-925.2919435136333
 20
175.2996938871039
 30
0.0
 10
-925.4690573920292
 20
176.5351609637137
 30
0.0
 10
-925.7980315589593
 20
181.9050352278998
 30
0.0
 10
-926.2536124245631
 20
196.039045964886
 30
0.0
 10
-926.709193290167
 20
215.7203405270147
 30
0.0
 10
-927.16477415577
 20
239.3472348677405
 30
0.0
 10
-927.6203550213738
 20
264.9969479618858
 30
0.0
 10
-928.0759358869776
 20
290.5820797082177
 30
0.0
 10
-928.5315167525812
 20
314.0204857021839
 30
0.0
 10
-928.987097618185
 20
333.4047242946332
 30
0.0
 10
-929.4426784837884
 20
347.1572861601516
 30
0.0
 10
-929.8157845137118
 20
352.8914422954673
 30
0.0
 10
-930.0370302551001
 20
353.7019307394398
 30
0.0
 10
-930.1064157079542
 20
353.7018113375577
 30
0.0
  0
LWPOLYLINE
  5
176
330
1F
100
AcDbEntity
  8
0
  6
CONTINUOUS
 62
     7
100
AcDbPolyline
 90
        7
 70
     0
 43
0.0
 10
-945.8009212703064
 20
178.1715173796046
 42
-0.0163776238122701
 10
-947.1310633673919
 20
213.1773294801527
 42
0.002689208327078
 10
-949.9428041771032
 20
342.6432700345102
 42
0.030205104196344
 10
-950.5456127260757
 20
350.5659291773046
 10
-950.611893409694
 20
350.694047912015
 10
-950.6351939452148
 20
350.7033803838245
 10
-950.6351939452148
 20
350.7033803838245
  0
SPLINE
  5
177
330
1F
100
AcDbEntity
  8
0
  6
CONTINUOUS
 62
     7
100
AcDbSpline
210
0.0
220
0.0
230
1.0
 70
     8
 71
     3
 72
    19
 73
    15
 74
     0
 42
0.000000001
 43
0.0001
 40
0.2981323141868897
 40
0.2981323141868897
 40
0.2981323141868897
 40
0.2981323141868897
 40
0.2982571280289278
 40
0.305713556229651
 40
0.3131699844303742
 40
0.3206264126310974
 40
0.3280828408318206
 40
0.3355392690325438
 40
0.342995697233267
 40
0.3504521254339902
 40
0.3579085536347134
 40
0.3653649818354365
 40
0.3728214100361598
 40
0.3773467718981289
 40
0.3773467718981289
 40
0.3773467718981289
 40
0.3773467718981289
 10
-895.2664875532237
 20
175.1555679826114
 30
0.0
 10
-895.2690295566541
 20
175.1699142649406
 30
0.0
 10
-895.4234318486192
 20
176.0621375785791
 30
0.0
 10
-895.7296944291188
 20
180.3412975795244
 30
0.0
 10
-896.1852752947226
 20
193.5315443117201
 30
0.0
 10
-896.6408561603258
 20
212.4731379392946
 30
0.0
 10
-897.0964370259297
 20
235.624592040525
 30
0.0
 10
-897.5520178915335
 20
261.1018174071918
 30
0.0
 10
-898.0075987571365
 20
286.8314511671916
 30
0.0
 10
-898.4631796227407
 20
310.7195891930909
 30
0.0
 10
-898.9187604883442
 20
330.822190179222
 30
0.0
 10
-899.3743413539477
 20
345.5032837278088
 30
0.0
 10
-899.7702270722323
 20
352.511366631434
 30
0.0
 10
-900.0142525019822
 20
353.7013518343138
 30
0.0
 10
-900.1064176431978
 20
353.7019307601434
 30
0.0
  0
ARC
  5
178
330
1F
100
AcDbEntity
  8
0
  6
CONTINUOUS
 62
     7
100
AcDbCircle
 10
-939.6329544441102
 20
353.2808407291033
 30
0.0
 40
0.6335519796042659
100
AcDbArc
 50
138.348641681117
 51
182.469839830927
  0
ARC
  5
179
330
1F
100
AcDbEntity
  8
0
  6
CONTINUOUS
 62
     7
100
AcDbCircle
 10
924.6262560158747
 20
175.129538456167
 30
0.0
 40
0.6410311228190391
210
0.0
220
0.0
230
-1.0
100
AcDbArc
 50
318.5227705802193
 51
2.473415743291525
  0
LWPOLYLINE
  5
17A
330
1F
100
AcDbEntity
  8
0
  6
CONTINUOUS
 62
     7
100
AcDbPolyline
 90
        7
 70
     0
 43
0.0
 10
-925.8011356203764
 20
178.1722592681888
 42
-0.0166829890451615
 10
-927.1104917079373
 20
212.2777894458438
 42
0.0025217978913492
 10
-929.9203815507857
 20
342.1208747698556
 42
0.0268757997385599
 10
-930.5235502405455
 20
350.4900261404642
 10
-930.5896038392812
 20
350.6678912562634
 10
-930.6351581472501
 20
350.7033803837955
 10
-930.6351581472501
 20
350.7033803837955
  0
LWPOLYLINE
  5
17B
330
1F
100
AcDbEntity
  8
0
  6
CONTINUOUS
 62
     7
100
AcDbPolyline
 90
        3
 70
     0
 43
0.0
 10
-880.1510845315531
 20
346.7334784509171
 42
0.0511863685394147
 10
-880.5750557546787
 20
350.6416895025287
 10
-880.6352392752686
 20
350.7033803838209
  0
ARC
  5
17C
330
1F
100
AcDbEntity
  8
0
  6
CONTINUOUS
 62
     7
100
AcDbCircle
 10
884.0105952456495
 20
175.3470714052296
 30
0.0
 40
1.270423452164634
210
0.0
220
0.0
230
-1.0
100
AcDbArc
 50
329.6199706314563
 51
351.3618330264866
  0
SPLINE
  5
17D
330
1F
100
AcDbEntity
  8
0
  6
CONTINUOUS
 62
     7
100
AcDbSpline
210
0.0
220
0.0
230
1.0
 70
     8
 71
     3
 72
    13
 73
     9
 74
     0
 42
0.000000001
 43
0.0001
 40
2.145698697865477
 40
2.145698697865477
 40
2.145698697865477
 40
2.145698697865477
 40
2.147451321808278
 40
2.154907750009002
 40
2.162364178209725
 40
2.169820606410448
 40
2.177277034611171
 40
2.177699087537156
 40
2.177699087537156
 40
2.177699087537156
 40
2.177699087537156
 10
-1008.151084531553
 20
294.2370452789211
 30
0.0
 10
-1008.186779098775
 20
296.1280261168983
 30
0.0
 10
-1008.374333954532
 20
305.9449388248302
 30
0.0
 10
-1008.713749098823
 20
322.3579440102412
 30
0.0
 10
-1009.169329964426
 20
339.6556648136875
 30
0.0
 10
-1009.624910830029
 20
350.8130009048779
 30
0.0
 10
-1009.93722708822
 20
353.6298306204065
 30
0.0
 10
-1010.097683057876
 20
353.7033096988749
 30
0.0
 10
-1010.106278738998
 20
353.7033118357036
 30
0.0
  0
ARC
  5
17E
330
1F
100
AcDbEntity
  8
0
  6
CONTINUOUS
 62
     7
100
AcDbCircle
 10
-959.6247269797107
 20
353.2768494700559
 30
0.0
 40
0.6424958103515405
100
AcDbArc
 50
138.5415963612659
 51
182.4726152283808
  0
LWPOLYLINE
  5
17F
330
1F
100
AcDbEntity
  8
0
  6
CONTINUOUS
 62
     7
100
AcDbPolyline
 90
        7
 70
     0
 43
0.0
 10
-935.8009392409961
 20
178.1713842802509
 42
-0.0159080313463918
 10
-937.1510243297009
 20
214.0541810420424
 42
0.0028600153640557
 10
-939.9686245995318
 20
343.2224375975763
 42
0.0342786881053486
 10
-940.5658996008331
 20
350.620857602931
 10
-940.6339396473875
 20
350.7027741497927
 10
-940.6351702938871
 20
350.7033803838798
 10
-940.6351702938871
 20
350.7033803838798
  0
SPLINE
  5
180
330
1F
100
AcDbEntity
  8
0
  6
CONTINUOUS
 62
     7
100
AcDbSpline
210
0.0
220
0.0
230
1.0
 70
     8
 71
     3
 72
    19
 73
    15
 74
     0
 42
0.000000001
 43
0.0001
 40
0.952808029428521
 40
0.952808029428521
 40
0.952808029428521
 40
0.952808029428521
 40
0.9544228096925732
 40
0.9618792378932965
 40
0.9693356660940197
 40
0.9767920942947429
 40
0.984248522495466
 40
0.9917049506961891
 40
0.9991613788969125
 40
1.006617807097635
 40
1.014074235298359
 40
1.021530663499082
 40
1.028987091699805
 40
1.032019998162057
 40
1.032019998162057
 40
1.032019998162057
 40
1.032019998162057
 10
-935.2665681562315
 20
175.1567590454694
 30
0.0
 10
-935.2994553496998
 20
175.3421693721137
 30
0.0
 10
-935.4842028317025
 20
176.7040680931757
 30
0.0
 10
-935.8208106022396
 20
182.4601436089246
 30
0.0
 10
-936.2763914678435
 20
196.9030371602835
 30
0.0
 10
-936.7319723334464
 20
216.8229020423678
 30
0.0
 10
-937.1875531990503
 20
240.5986391099829
 30
0.0
 10
-937.6431340646544
 20
266.2953543633533
 30
0.0
 10
-938.0987149302576
 20
291.8218226170596
 30
0.0
 10
-938.5542957958614
 20
315.1006735620737
 30
0.0
 10
-939.0098766614651
 20
334.2374503036571
 30
0.0
 10
-939.4654575270685
 20
347.6747822170009
 30
0.0
 10
-939.8309473639039
 20
353.0052077899231
 30
0.0
 10
-940.0445769122042
 20
353.7020141109172
 30
0.0
 10
-940.10634617197
 20
353.7018969995167
 30
0.0
  0
ARC
  5
181
330
1F
100
AcDbEntity
  8
0
  6
CONTINUOUS
 62
     7
100
AcDbCircle
 10
964.6265498165811
 20
175.1285575409909
 30
0.0
 40
0.6403287994981964
210
0.0
220
0.0
230
-1.0
100
AcDbArc
 50
318.5188807454571
 51
2.443909058416352
  0
SPLINE
  5
182
330
1F
100
AcDbEntity
  8
0
  6
CONTINUOUS
 62
     7
100
AcDbSpline
210
0.0
220
0.0
230
1.0
 70
     8
 71
     3
 72
    19
 73
    15
 74
     0
 42
0.000000001
 43
0.0001
 40
0.6254538440417994
 40
0.6254538440417994
 40
0.6254538440417994
 40
0.6254538440417994
 40
0.6263399688607496
 40
0.633796397061473
 40
0.6412528252621961
 40
0.6487092534629194
 40
0.6561656816636428
 40
0.6636221098643659
 40
0.6710785380650892
 40
0.6785349662658124
 40
0.6859913944665357
 40
0.693447822667259
 40
0.7009042508679822
 40
0.7046834742390737
 40
0.7046834742390737
 40
0.7046834742390737
 40
0.7046834742390737
 10
-915.2655302433343
 20
175.1504588176365
 30
0.0
 10
-915.2835773789147
 20
175.2515772420762
 30
0.0
 10
-915.4534848030296
 20
176.3656825893319
 30
0.0
 10
-915.7752525156793
 20
181.3667851704406
 30
0.0
 10
-916.230833381283
 20
195.1890178255258
 30
0.0
 10
-916.6864142468856
 20
214.6277104722724
 30
0.0
 10
-917.1419951124906
 20
238.1009222581756
 30
0.0
 10
-917.5975759780938
 20
263.6983790028453
 30
0.0
 10
-918.0531568436973
 20
289.3369332806551
 30
0.0
 10
-918.5087377093008
 20
312.9300931063515
 30
0.0
 10
-918.9643185749045
 20
332.5578228043781
 30
0.0
 10
-919.4198994405086
 20
346.6227974920637
 30
0.0
 10
-919.80058903493
 20
352.7709064941697
 30
0.0
 10
-920.0294183408173
 20
353.7016306409469
 30
0.0
 10
-920.10638735817
 20
353.7017881830942
 30
0.0
  0
ARC
  5
183
330
1F
100
AcDbEntity
  8
0
  6
CONTINUOUS
 62
     7
100
AcDbCircle
 10
1044.821269770247
 20
175.0583097550791
 30
0.0
 40
0.455193891285079
210
0.0
220
0.0
230
-1.0
100
AcDbArc
 50
308.8182910462787
 51
12.20785372703426
  0
ARC
  5
184
330
1F
100
AcDbEntity
  8
0
  6
CONTINUOUS
 62
     7
100
AcDbCircle
 10
944.6235134367532
 20
175.1301993570416
 30
0.0
 40
0.6436458271993458
210
0.0
220
0.0
230
-1.0
100
AcDbArc
 50
318.6298541991351
 51
2.399727394394859
  0
SPLINE
  5
185
330
1F
100
AcDbEntity
  8
0
  6
CONTINUOUS
 62
     7
100
AcDbSpline
210
0.0
220
0.0
230
1.0
 70
     8
 71
     3
 72
     9
 73
     5
 74
     0
 42
0.000000001
 43
0.0001
 40
2.586872407366872
 40
2.586872407366872
 40
2.586872407366872
 40
2.586872407366872
 40
2.587380585650948
 40
2.589482525013648
 40
2.589482525013648
 40
2.589482525013648
 40
2.589482525013648
 10
-1035.10639008076
 20
174.7034786007704
 30
0.0
 10
-1035.116739821785
 20
174.7033993495305
 30
0.0
 10
-1035.169898413041
 20
174.7322752695353
 30
0.0
 10
-1035.223057004296
 20
174.9119166764881
 30
0.0
 10
-1035.265865854527
 20
175.1530832806905
 30
0.0
  0
ARC
  5
186
330
1F
100
AcDbEntity
  8
0
  6
CONTINUOUS
 62
     7
100
AcDbCircle
 10
-929.628492742201
 20
353.2782219364094
 30
0.0
 40
0.6386222216298206
100
AcDbArc
 50
138.4490073894039
 51
182.4926019447046
  0
SPLINE
  5
187
330
1F
100
AcDbEntity
  8
0
  6
CONTINUOUS
 62
     7
100
AcDbSpline
210
0.0
220
0.0
230
1.0
 70
     8
 71
     3
 72
     9
 73
     5
 74
     0
 42
0.000000001
 43
0.0001
 40
0.213678160942579
 40
0.213678160942579
 40
0.213678160942579
 40
0.213678160942579
 40
0.2162364178209727
 40
0.2162973367292588
 40
0.2162973367292588
 40
0.2162973367292588
 40
0.2162973367292588
 10
-890.1064169130835
 20
353.7020875553548
 30
0.0
 10
-890.1585192893474
 20
353.7025305541239
 30
0.0
 10
-890.2118623619259
 20
353.5560396693886
 30
0.0
 10
-890.2652054345043
 20
353.2584377718892
 30
0.0
 10
-890.2664461308192
 20
353.2514342052197
 30
0.0
  0
SPLINE
  5
188
330
1F
100
AcDbEntity
  8
0
  6
CONTINUOUS
 62
     7
100
AcDbSpline
210
0.0
220
0.0
230
1.0
 70
     8
 71
     3
 72
    19
 73
    15
 74
     0
 42
0.000000001
 43
0.0001
 40
2.750544593204952
 40
2.750544593204952
 40
2.750544593204952
 40
2.750544593204952
 40
2.751422006066858
 40
2.758878434267582
 40
2.766334862468305
 40
2.773791290669028
 40
2.781247718869751
 40
2.788704147070474
 40
2.796160575271197
 40
2.803617003471921
 40
2.811073431672644
 40
2.818529859873367
 40
2.82598628807409
 40
2.829757564500772
 40
2.829757564500772
 40
2.829757564500772
 40
2.829757564500772
 10
-1041.306609232901
 20
174.7036596766279
 30
0.0
 10
-1041.324478937642
 20
174.7036123840243
 30
0.0
 10
-1041.494208930918
 20
174.8643281962028
 30
0.0
 10
-1041.815799212728
 20
178.0798971806719
 30
0.0
 10
-1042.271380078332
 20
189.6440507837239
 30
0.0
 10
-1042.726960943936
 20
207.2759195141936
 30
0.0
 10
-1043.18254180954
 20
229.5406037130538
 30
0.0
 10
-1043.638122675142
 20
254.6261804211655
 30
0.0
 10
-1044.093703540748
 20
280.4911595381208
 30
0.0
 10
-1044.549284406351
 20
305.0306223917707
 30
0.0
 10
-1045.004865271954
 20
326.2475221903287
 30
0.0
 10
-1045.460446137558
 20
342.4152057496122
 30
0.0
 10
-1045.840973881662
 20
350.6030137647145
 30
0.0
 10
-1046.069641337232
 20
352.8165060109571
 30
0.0
 10
-1046.146448504267
 20
353.2499829751449
 30
0.0
  0
SPLINE
  5
189
330
1F
100
AcDbEntity
  8
0
  6
CONTINUOUS
 62
     7
100
AcDbSpline
210
0.0
220
0.0
230
1.0
 70
     8
 71
     3
 72
    19
 73
    15
 74
     0
 42
0.000000001
 43
0.0001
 40
2.586872407275946
 40
2.586872407275946
 40
2.586872407275946
 40
2.586872407275946
 40
2.587380585650948
 40
2.594837013851671
 40
2.602293442052394
 40
2.609749870253117
 40
2.617206298453841
 40
2.624662726654564
 40
2.632119154855287
 40
2.63957558305601
 40
2.647032011256734
 40
2.654488439457457
 40
2.66194486765818
 40
2.666089841923846
 40
2.666089841923846
 40
2.666089841923846
 40
2.666089841923846
 10
-1031.306390075215
 20
174.7034873298564
 30
0.0
 10
-1031.316739818091
 20
174.7034080765699
 30
0.0
 10
-1031.478949849502
 20
174.791521069627
 30
0.0
 10
-1031.793020169448
 20
177.6801883715964
 30
0.0
 10
-1032.248601035052
 20
188.9117479983157
 30
0.0
 10
-1032.704181900656
 20
206.2706183082694
 30
0.0
 10
-1033.159762766259
 20
228.3441165354053
 30
0.0
 10
-1033.615343631863
 20
253.3358786321104
 30
0.0
 10
-1034.070924497466
 20
279.2120492277936
 30
0.0
 10
-1034.52650536307
 20
303.8667988762273
 30
0.0
 10
-1034.982086228675
 20
325.2936986273823
 30
0.0
 10
-1035.437667094276
 20
341.7490052843858
 30
0.0
 10
-1035.825805702475
 20
350.3918108707375
 30
0.0
 10
-1036.062084022138
 20
352.7738261647552
 30
0.0
 10
-1036.146502053266
 20
353.2503284487194
 30
0.0
  0
SPLINE
  5
18A
330
1F
100
AcDbEntity
  8
0
  6
CONTINUOUS
 62
     7
100
AcDbSpline
210
0.0
220
0.0
230
1.0
 70
     8
 71
     3
 72
    18
 73
    14
 74
     0
 42
0.000000001
 43
0.0001
 40
2.259535321108389
 40
2.259535321108389
 40
2.259535321108389
 40
2.259535321108389
 40
2.26675417301985
 40
2.274210601220573
 40
2.281667029421296
 40
2.289123457622019
 40
2.296579885822743
 40
2.304036314023466
 40
2.311492742224189
 40
2.318949170424912
 40
2.326405598625636
 40
2.333862026826359
 40
2.338754903746427
 40
2.338754903746427
 40
2.338754903746427
 40
2.338754903746427
 10
-1011.306396908791
 20
174.7034089457632
 30
0.0
 10
-1011.45341863349
 20
174.7036846126475
 30
0.0
 10
-1011.752300646723
 20
177.0461694087114
 30
0.0
 10
-1012.203042948491
 20
187.4935583971676
 30
0.0
 10
-1012.658623814096
 20
204.2958209344356
 30
0.0
 10
-1013.114204679699
 20
225.973422435552
 30
0.0
 10
-1013.569785545301
 20
250.7622173367106
 30
0.0
 10
-1014.025366410906
 20
276.644867946992
 30
0.0
 10
-1014.48094727651
 20
301.5150174698969
 30
0.0
 10
-1014.936528142112
 20
323.3487074914952
 30
0.0
 10
-1015.392109007717
 20
340.369089803228
 30
0.0
 10
-1015.795479669363
 20
349.9508188821537
 30
0.0
 10
-1016.046990042475
 20
352.6889045269224
 30
0.0
 10
-1016.146640127052
 20
353.2513700917214
 30
0.0
  0
SPLINE
  5
18B
330
1F
100
AcDbEntity
  8
0
  6
CONTINUOUS
 62
     7
100
AcDbSpline
210
0.0
220
0.0
230
1.0
 70
     8
 71
     3
 72
    18
 73
    14
 74
     0
 42
0.000000001
 43
0.0001
 40
1.277522754506212
 40
1.277522754506212
 40
1.277522754506212
 40
1.277522754506212
 40
1.282505650524393
 40
1.289962078725117
 40
1.29741850692584
 40
1.304874935126563
 40
1.312331363327286
 40
1.319787791528009
 40
1.327244219728733
 40
1.334700647929456
 40
1.342157076130179
 40
1.349613504330902
 40
1.356740773764945
 40
1.356740773764945
 40
1.356740773764945
 40
1.356740773764945
 10
-951.3063374858508
 20
174.7046398024003
 30
0.0
 10
-951.4078209316359
 20
174.705135550418
 30
0.0
 10
-951.6611646659555
 20
176.0659050301453
 30
0.0
 10
-952.0663686888106
 20
183.6204849284686
 30
0.0
 10
-952.521949554413
 20
198.672204352828
 30
0.0
 10
-952.9775304200165
 20
219.0569184574432
 30
0.0
 10
-953.4331112856213
 20
243.1156981880427
 30
0.0
 10
-953.8886921512241
 20
268.8906152410686
 30
0.0
 10
-954.3442730168279
 20
294.284080288005
 30
0.0
 10
-954.7998538824315
 20
317.2295469579402
 30
0.0
 10
-955.2554347480351
 20
335.8596895122257
 30
0.0
 10
-955.7043118482525
 20
348.470038195924
 30
0.0
 10
-956.0013286599344
 20
352.432176055356
 30
0.0
 10
-956.1464851830821
 20
353.2517372706795
 30
0.0
  0
ARC
  5
18C
330
1F
100
AcDbEntity
  8
0
  6
CONTINUOUS
 62
     7
100
AcDbCircle
 10
-919.6292104713398
 20
353.278189444096
 30
0.0
 40
0.6380702727801856
100
AcDbArc
 50
138.4039433722707
 51
182.5425279126206
  0
LINE
  5
18D
330
1F
100
AcDbEntity
  8
0
  6
CONTINUOUS
 62
     7
100
AcDbLine
 10
-880.1512060766863
 20
353.6672982864759
 30
0.0
 11
-880.242666341708
 21
353.3757084497454
 31
0.0
  0
SPLINE
  5
18E
330
1F
100
AcDbEntity
  8
0
  6
CONTINUOUS
 62
     7
100
AcDbSpline
210
0.0
220
0.0
230
1.0
 70
     8
 71
     3
 72
     8
 73
     4
 74
     0
 42
0.000000001
 43
0.0001
 40
0.0522395417752473
 40
0.0522395417752473
 40
0.0522395417752473
 40
0.0522395417752473
 40
0.0523153046904187
 40
0.0523153046904187
 40
0.0523153046904187
 40
0.0523153046904187
 10
-880.2426663417081
 20
353.3757084497454
 30
0.0
 10
-880.2442091963438
 20
353.3682903532505
 30
0.0
 10
-880.2457520538325
 20
353.3607456856911
 30
0.0
 10
-880.2472949141371
 20
353.3530745301566
 30
0.0
  0
SPLINE
  5
18F
330
1F
100
AcDbEntity
  8
0
  6
CONTINUOUS
 62
     7
100
AcDbSpline
210
0.0
220
0.0
230
1.0
 70
     8
 71
     3
 72
    19
 73
    15
 74
     0
 42
0.000000001
 43
0.0001
 40
2.423208719839442
 40
2.423208719839442
 40
2.423208719839442
 40
2.423208719839442
 40
2.423339165235037
 40
2.43079559343576
 40
2.438252021636484
 40
2.445708449837207
 40
2.45316487803793
 40
2.460621306238653
 40
2.468077734439377
 40
2.4755341626401
 40
2.482990590840823
 40
2.490447019041546
 40
2.497903447242269
 40
2.502420524953903
 40
2.502420524953903
 40
2.502420524953903
 40
2.502420524953903
 10
-1021.30669016756
 20
174.7033934083915
 30
0.0
 10
-1021.309346865228
 20
174.7034125219184
 30
0.0
 10
-1021.463863851431
 20
174.7264144924783
 30
0.0
 10
-1021.770241126168
 20
177.298203320686
 30
0.0
 10
-1022.225821991771
 20
188.1948682532883
 30
0.0
 10
-1022.681402857374
 20
205.2771842820113
 30
0.0
 10
-1023.136983722979
 20
227.154974913389
 30
0.0
 10
-1023.592564588583
 20
252.0478029857626
 30
0.0
 10
-1024.048145454185
 20
277.9298644814598
 30
0.0
 10
-1024.503726319791
 20
302.6948505467356
 30
0.0
 10
-1024.959307185393
 20
324.3273610782829
 30
0.0
 10
-1025.414888050997
 20
341.0669200618989
 30
0.0
 10
-1025.810605051308
 20
350.1735922219808
 30
0.0
 10
-1026.054461763083
 20
352.7305316275817
 30
0.0
 10
-1026.146458186324
 20
353.25018464537
 30
0.0
  0
SPLINE
  5
190
330
1F
100
AcDbEntity
  8
0
  6
CONTINUOUS
 62
     7
100
AcDbSpline
210
0.0
220
0.0
230
1.0
 70
     8
 71
     3
 72
    18
 73
    14
 74
     0
 42
0.000000001
 43
0.0001
 40
2.589482525013648
 40
2.589482525013648
 40
2.589482525013648
 40
2.589482525013648
 40
2.594837013851671
 40
2.602293442052394
 40
2.609749870253117
 40
2.617206298453841
 40
2.624662726654564
 40
2.632119154855287
 40
2.63957558305601
 40
2.647032011256734
 40
2.654488439457457
 40
2.66194486765818
 40
2.668709746492291
 40
2.668709746492291
 40
2.668709746492291
 40
2.668709746492291
 10
-1035.265865854527
 20
175.1530832806906
 30
0.0
 10
-1035.374917292831
 20
175.7674320641145
 30
0.0
 10
-1035.635829019669
 20
178.735558323659
 30
0.0
 10
-1036.048601035042
 20
188.9117406550228
 30
0.0
 10
-1036.504181900646
 20
206.2706126580102
 30
0.0
 10
-1036.959762766249
 20
228.3441130380037
 30
0.0
 10
-1037.415343631853
 20
253.3358775721885
 30
0.0
 10
-1037.870924497456
 20
279.212050691609
 30
0.0
 10
-1038.32650536306
 20
303.8668027446533
 30
0.0
 10
-1038.782086228664
 20
325.2937045856022
 30
0.0
 10
-1039.237667094266
 20
341.7490128475137
 30
0.0
 10
-1039.679163617674
 20
351.5799570267881
 30
0.0
 10
-1039.968799852546
 20
353.7028435485612
 30
0.0
 10
-1040.106575798883
 20
353.7032042714979
 30
0.0
  0
SPLINE
  5
191
330
1F
100
AcDbEntity
  8
0
  6
CONTINUOUS
 62
     7
100
AcDbSpline
210
0.0
220
0.0
230
1.0
 70
     8
 71
     3
 72
    19
 73
    15
 74
     0
 42
0.000000001
 43
0.0001
 40
1.11385748686612
 40
1.11385748686612
 40
1.11385748686612
 40
1.11385748686612
 40
1.118464230108483
 40
1.125920658309207
 40
1.13337708650993
 40
1.140833514710653
 40
1.148289942911376
 40
1.155746371112099
 40
1.163202799312823
 40
1.170659227513546
 40
1.178115655714269
 40
1.185572083914992
 40
1.193028512115715
 40
1.19308284909401
 40
1.19308284909401
 40
1.19308284909401
 40
1.19308284909401
 10
-941.3065410292187
 20
174.7048090892026
 30
0.0
 10
-941.4003636127877
 20
174.7057441140877
 30
0.0
 10
-941.6460464848913
 20
175.926358446726
 30
0.0
 10
-942.04358964553
 20
183.0320045196345
 30
0.0
 10
-942.4991705111328
 20
197.7808209065696
 30
0.0
 10
-942.954751376737
 20
217.9351736777986
 30
0.0
 10
-943.4103322423415
 20
241.8548808219081
 30
0.0
 10
-943.8659131079442
 20
267.5933319058373
 30
0.0
 10
-944.3214939735477
 20
293.0559052392381
 30
0.0
 10
-944.7770748391513
 20
316.170430347585
 30
0.0
 10
-945.2326557047555
 20
335.0558233421779
 30
0.0
 10
-945.6882365703588
 20
348.1751714667611
 30
0.0
 10
-945.9930637937977
 20
352.3808646213158
 30
0.0
 10
-946.1460307287024
 20
353.2492310296882
 30
0.0
 10
-946.1471373750725
 20
353.2554482616197
 30
0.0
  0
ARC
  5
192
330
1F
100
AcDbEntity
  8
0
  6
CONTINUOUS
 62
     7
100
AcDbCircle
 10
934.628201581069
 20
175.1288060472737
 30
0.0
 40
0.638978289453516
210
0.0
220
0.0
230
-1.0
100
AcDbArc
 50
318.4410576761528
 51
2.507284093372903
  0
SPLINE
  5
193
330
1F
100
AcDbEntity
  8
0
  6
CONTINUOUS
 62
     7
100
AcDbSpline
210
0.0
220
0.0
230
1.0
 70
     8
 71
     3
 72
    19
 73
    15
 74
     0
 42
0.000000001
 43
0.0001
 40
0.9501854700789012
 40
0.9501854700789012
 40
0.9501854700789012
 40
0.9501854700789012
 40
0.9544228096925732
 40
0.9618792378932965
 40
0.9693356660940197
 40
0.9767920942947429
 40
0.984248522495466
 40
0.9917049506961891
 40
0.9991613788969125
 40
1.006617807097635
 40
1.014074235298359
 40
1.021530663499082
 40
1.028987091699805
 40
1.029417668038018
 40
1.029417668038018
 40
1.029417668038018
 40
1.029417668038018
 10
-931.3063322059402
 20
174.7049228560337
 30
0.0
 10
-931.3926313828422
 20
174.7049332910278
 30
0.0
 10
-931.6307908482788
 20
175.7907186864469
 30
0.0
 10
-932.0208106022496
 20
182.4601515814503
 30
0.0
 10
-932.4763914678534
 20
196.9030437241748
 30
0.0
 10
-932.9319723334565
 20
216.8229066634483
 30
0.0
 10
-933.3875531990604
 20
240.5986414121845
 30
0.0
 10
-933.8431340646646
 20
266.2953541593203
 30
0.0
 10
-934.2987149302677
 20
291.8218199233965
 30
0.0
 10
-934.7542957958714
 20
315.1006685979935
 30
0.0
 10
-935.2098766614754
 20
334.2374434731419
 30
0.0
 10
-935.6654575270784
 20
347.674774075925
 30
0.0
 10
-935.9779473761369
 20
352.2322297213764
 30
0.0
 10
-936.1385769366601
 20
353.2073801614364
 30
0.0
 10
-936.147346208649
 20
353.2565427013026
 30
0.0
  0
SPLINE
  5
194
330
1F
100
AcDbEntity
  8
0
  6
CONTINUOUS
 62
     7
100
AcDbSpline
210
0.0
220
0.0
230
1.0
 70
     8
 71
     3
 72
    19
 73
    15
 74
     0
 42
0.000000001
 43
0.0001
 40
0.7865200872836089
 40
0.7865200872836089
 40
0.7865200872836089
 40
0.7865200872836089
 40
0.7903813892766615
 40
0.7978378174773847
 40
0.8052942456781079
 40
0.8127506738788312
 40
0.8202071020795545
 40
0.8276635302802777
 40
0.8351199584810011
 40
0.8425763866817244
 40
0.8500328148824476
 40
0.857489243083171
 40
0.8649456712838942
 40
0.8657303889344601
 40
0.8657303889344601
 40
0.8657303889344601
 40
0.8657303889344601
 10
-921.3065287134315
 20
174.7049779487635
 30
0.0
 10
-921.3851693734097
 20
174.7053179021252
 30
0.0
 10
-921.6156703219224
 20
175.6637277575274
 30
0.0
 10
-921.9980315589693
 20
181.905043254566
 30
0.0
 10
-922.4536124245732
 20
196.0390526130434
 30
0.0
 10
-922.9091932901772
 20
215.7203452556296
 30
0.0
 10
-923.3647741557801
 20
239.3472372919931
 30
0.0
 10
-923.8203550213839
 20
264.9969478844881
 30
0.0
 10
-924.2759358869877
 20
290.5820771354684
 30
0.0
 10
-924.7315167525912
 20
314.0204808434559
 30
0.0
 10
-925.187097618195
 20
333.4047175453349
 30
0.0
 10
-925.6426784837986
 20
347.1572780695477
 30
0.0
 10
-925.9623809017205
 20
352.0706894201564
 30
0.0
 10
-926.1302230311077
 20
353.1597682960701
 30
0.0
 10
-926.1462048719603
 20
353.2499614485345
 30
0.0
  0
SPLINE
  5
195
330
1F
100
AcDbEntity
  8
0
  6
CONTINUOUS
 62
     7
100
AcDbSpline
210
0.0
220
0.0
230
1.0
 70
     8
 71
     3
 72
    18
 73
    14
 74
     0
 42
0.000000001
 43
0.0001
 40
2.425815760831263
 40
2.425815760831263
 40
2.425815760831263
 40
2.425815760831263
 40
2.43079559343576
 40
2.438252021636484
 40
2.445708449837207
 40
2.45316487803793
 40
2.460621306238653
 40
2.468077734439377
 40
2.4755341626401
 40
2.482990590840823
 40
2.490447019041546
 40
2.497903447242269
 40
2.505033936499014
 40
2.505033936499014
 40
2.505033936499014
 40
2.505033936499014
 10
-1025.265977960545
 20
175.1539252538474
 30
0.0
 10
-1025.367399015749
 20
175.7255363749453
 30
0.0
 10
-1025.620680359488
 20
178.5046096003713
 30
0.0
 10
-1026.025821991761
 20
188.1948608400772
 30
0.0
 10
-1026.481402857364
 20
205.2771785348611
 30
0.0
 10
-1026.936983722969
 20
227.1549713000088
 30
0.0
 10
-1027.392564588573
 20
252.047801800213
 30
0.0
 10
-1027.848145454175
 20
277.9298658202221
 30
0.0
 10
-1028.303726319781
 20
302.6948543008598
 30
0.0
 10
-1028.759307185383
 20
324.3273669422545
 30
0.0
 10
-1029.214888050987
 20
341.066927558502
 30
0.0
 10
-1029.663830727267
 20
351.3984881613744
 30
0.0
 10
-1029.960913115012
 20
353.7011886239158
 30
0.0
 10
-1030.106135214222
 20
353.7033387718378
 30
0.0
  0
SPLINE
  5
196
330
1F
100
AcDbEntity
  8
0
  6
CONTINUOUS
 62
     7
100
AcDbSpline
210
0.0
220
0.0
230
1.0
 70
     8
 71
     3
 72
    19
 73
    15
 74
     0
 42
0.000000001
 43
0.0001
 40
0.6228503021697576
 40
0.6228503021697576
 40
0.6228503021697576
 40
0.6228503021697576
 40
0.6263399688607496
 40
0.633796397061473
 40
0.6412528252621961
 40
0.6487092534629194
 40
0.6561656816636428
 40
0.6636221098643659
 40
0.6710785380650892
 40
0.6785349662658124
 40
0.6859913944665357
 40
0.693447822667259
 40
0.7009042508679822
 40
0.7020644388313577
 40
0.7020644388313577
 40
0.7020644388313577
 40
0.7020644388313577
 10
-911.3064562433312
 20
174.7049687888487
 30
0.0
 10
-911.3775280455827
 20
174.7048971664573
 30
0.0
 10
-911.6004601363685
 20
175.5415507560174
 30
0.0
 10
-911.9752525156895
 20
181.3667932496029
 30
0.0
 10
-912.4308333812932
 20
195.1890245565876
 30
0.0
 10
-912.8864142468957
 20
214.6277153074528
 30
0.0
 10
-913.3419951125006
 20
238.1009248039827
 30
0.0
 10
-913.7975759781039
 20
263.6983790520988
 30
0.0
 10
-914.2531568437073
 20
289.3369308293466
 30
0.0
 10
-914.7087377093109
 20
312.930088353971
 30
0.0
 10
-915.1643185749147
 20
332.5578161376793
 30
0.0
 10
-915.6198994405187
 20
346.6227894535892
 30
0.0
 10
-915.9472488213697
 20
351.9094574068185
 30
0.0
 10
-916.1227379136868
 20
353.1174870237732
 30
0.0
 10
-916.1463667174692
 20
353.2506597459401
 30
0.0
  0
LWPOLYLINE
  5
197
330
1F
100
AcDbEntity
  8
0
  6
CONTINUOUS
 62
     7
100
AcDbPolyline
 90
        7
 70
     0
 43
0.0
 10
-895.8010059423109
 20
178.1710988542995
 42
-0.0166966787837807
 10
-897.1138247707842
 20
212.4172586943839
 42
0.0025452498051011
 10
-899.9235957471087
 20
342.196388261588
 42
0.027289539242678
 10
-900.52640953923
 20
350.5013759901856
 10
-900.5927655891211
 20
350.6727071225739
 10
-900.6351758854333
 20
350.7033803838311
 10
-900.6351758854333
 20
350.7033803838311
  0
LWPOLYLINE
  5
198
330
1F
100
AcDbEntity
  8
0
  6
CONTINUOUS
 62
     7
100
AcDbPolyline
 90
        7
 70
     0
 43
0.0
 10
-885.8010601320831
 20
178.1714456680044
 42
-0.0162013603778314
 10
-887.1448678406928
 20
213.7804090973363
 42
0.0026570646445048
 10
-889.9387803650649
 20
342.5496317184725
 42
0.0309947505464877
 10
-890.5484780937874
 20
350.5744550811389
 10
-890.6166086638683
 20
350.6971548848729
 10
-890.6351974124509
 20
350.7033803837545
 10
-890.6351974124509
 20
350.7033803837545
  0
SPLINE
  5
199
330
1F
100
AcDbEntity
  8
0
  6
CONTINUOUS
 62
     7
100
AcDbSpline
210
0.0
220
0.0
230
1.0
 70
     8
 71
     3
 72
    19
 73
    15
 74
     0
 42
0.000000001
 43
0.0001
 40
1.280147134995334
 40
1.280147134995334
 40
1.280147134995334
 40
1.280147134995334
 40
1.282505650524393
 40
1.289962078725117
 40
1.29741850692584
 40
1.304874935126563
 40
1.312331363327286
 40
1.319787791528009
 40
1.327244219728733
 40
1.334700647929456
 40
1.342157076130179
 40
1.349613504330902
 40
1.357069932531625
 40
1.359355406806
 40
1.359355406806
 40
1.359355406806
 40
1.359355406806
 10
-955.266684706081
 20
175.1578739250142
 30
0.0
 10
-955.3147190784526
 20
175.4289699309343
 30
0.0
 10
-955.5146137393591
 20
177.0623952646942
 30
0.0
 10
-955.8663686888007
 20
183.6204770691118
 30
0.0
 10
-956.3219495544031
 20
198.6721979614854
 30
0.0
 10
-956.7775304200065
 20
219.0569140542488
 30
0.0
 10
-957.2331112856114
 20
243.115696131333
 30
0.0
 10
-957.688692151214
 20
268.8906156982208
 30
0.0
 10
-958.1442730168179
 20
294.2840832218156
 30
0.0
 10
-958.5998538824216
 20
317.2295521296526
 30
0.0
 10
-959.055434748025
 20
335.8596965009608
 30
0.0
 10
-959.5110156136293
 20
348.6583759756533
 30
0.0
 10
-959.8612829787046
 20
353.2142301890287
 30
0.0
 10
-960.0596900552456
 20
353.7023320627675
 30
0.0
 10
-960.1062368432521
 20
353.7022306140099
 30
0.0
  0
SPLINE
  5
19A
330
1F
100
AcDbEntity
  8
0
  6
CONTINUOUS
 62
     7
100
AcDbSpline
210
0.0
220
0.0
230
1.0
 70
     8
 71
     3
 72
    19
 73
    15
 74
     0
 42
0.000000001
 43
0.0001
 40
0.4617895345155409
 40
0.4617895345155409
 40
0.4617895345155409
 40
0.4617895345155409
 40
0.4622985484448379
 40
0.4697549766455612
 40
0.4772114048462844
 40
0.4846678330470077
 40
0.492124261247731
 40
0.4995806894484542
 40
0.5070371176491776
 40
0.5144935458499006
 40
0.5219499740506239
 40
0.5294064022513472
 40
0.5368628304520704
 40
0.5410164793487267
 40
0.5410164793487267
 40
0.5410164793487267
 40
0.5410164793487267
 10
-905.2657923265709
 20
175.1517516609052
 30
0.0
 10
-905.2761590866457
 20
175.2099605878074
 30
0.0
 10
-905.438386135255
 20
176.209919561693
 30
0.0
 10
-905.7524734723994
 20
180.8455036938512
 30
0.0
 10
-906.208054338002
 20
194.3531268653824
 30
0.0
 10
-906.6636352036065
 20
213.5452356968714
 30
0.0
 10
-907.1192160692096
 20
236.8599565809715
 30
0.0
 10
-907.5747969348133
 20
262.3999134903162
 30
0.0
 10
-908.0303778004171
 20
288.08663839517
 30
0.0
 10
-908.4859586660209
 20
311.8297191349782
 30
0.0
 10
-908.9415395316247
 20
331.6969193155981
 30
0.0
 10
-909.3971203972277
 20
346.0714256995446
 30
0.0
 10
-909.7854356760685
 20
352.6447649800427
 30
0.0
 10
-910.0218906663741
 20
353.7017155399453
 30
0.0
 10
-910.1064853681452
 20
353.7018290352966
 30
0.0
  0
SPLINE
  5
19B
330
1F
100
AcDbEntity
  8
0
  6
CONTINUOUS
 62
     7
100
AcDbSpline
210
0.0
220
0.0
230
1.0
 70
     8
 71
     3
 72
     9
 73
     5
 74
     0
 42
0.000000001
 43
0.0001
 40
2.668709746492291
 40
2.668709746492291
 40
2.668709746492291
 40
2.668709746492291
 40
2.669401295858903
 40
2.671321796222371
 40
2.671321796222371
 40
2.671321796222371
 40
2.671321796222371
 10
-1040.106575798883
 20
353.7032042714979
 30
0.0
 10
-1040.12066014108
 20
353.7032411469135
 30
0.0
 10
-1040.173858081837
 20
353.6635351648077
 30
0.0
 10
-1040.227056022593
 20
353.4728653293803
 30
0.0
 10
-1040.266169621152
 20
353.2520802732874
 30
0.0
  0
LWPOLYLINE
  5
19C
330
1F
100
AcDbEntity
  8
0
  6
CONTINUOUS
 62
     7
100
AcDbPolyline
 90
        7
 70
     0
 43
0.0
 10
-955.8009895491517
 20
178.1721191864166
 42
-0.0167471076530012
 10
-957.1072005772336
 20
212.1385479275856
 42
0.0024981128993266
 10
-959.9171188715274
 20
342.0450512651891
 42
0.0264156038112878
 10
-960.5204374866769
 20
350.4776279216571
 10
-960.5865163013647
 20
350.6627245882058
 10
-960.6352314949124
 20
350.7033803837595
 10
-960.6352314949124
 20
350.7033803837595
  0
LINE
  5
19D
330
1F
100
AcDbEntity
  8
0
  6
CONTINUOUS
 62
     7
100
AcDbLine
 10
-1025.10669016755
 20
174.7033846793389
 30
0.0
 11
-1025.265977960545
 21
175.1539252538474
 31
0.0
  0
ARC
  5
19E
330
1F
100
AcDbEntity
  8
0
  6
CONTINUOUS
 62
     7
100
AcDbCircle
 10
904.6368989155724
 20
175.1240672549478
 30
0.0
 40
0.6295024612585589
210
0.0
220
0.0
230
-1.0
100
AcDbArc
 50
318.2493714006794
 51
2.520580093540843
  0
ARC
  5
19F
330
1F
100
AcDbEntity
  8
0
  6
CONTINUOUS
 62
     7
100
AcDbCircle
 10
-899.6339625607184
 20
353.2805898316986
 30
0.0
 40
0.6330418492827284
100
AcDbArc
 50
138.273049876797
 51
182.5968333109464
  0
SPLINE
  5
1A0
330
1F
100
AcDbEntity
  8
0
  6
CONTINUOUS
 62
     7
100
AcDbSpline
210
0.0
220
0.0
230
1.0
 70
     8
 71
     3
 72
    18
 73
    14
 74
     0
 42
0.000000001
 43
0.0001
 40
1.441190208405429
 40
1.441190208405429
 40
1.441190208405429
 40
1.441190208405429
 40
1.446547070940304
 40
1.454003499141027
 40
1.46145992734175
 40
1.468916355542473
 40
1.476372783743196
 40
1.48382921194392
 40
1.491285640144643
 40
1.498742068345366
 40
1.506198496546089
 40
1.513654924746812
 40
1.520406754246097
 40
1.520406754246097
 40
1.520406754246097
 40
1.520406754246097
 10
-961.3062675208932
 20
174.7044296288315
 30
0.0
 10
-961.4153673027574
 20
174.7048596965555
 30
0.0
 10
-961.6763273731564
 20
176.212601936768
 30
0.0
 10
-962.0891477320903
 20
184.2254722612622
 30
0.0
 10
-962.5447285976935
 20
199.5770114683852
 30
0.0
 10
-963.0003094632966
 20
220.1879112196753
 30
0.0
 10
-963.4558903289018
 20
244.3808352396955
 30
0.0
 10
-963.9114711945041
 20
270.1869384242861
 30
0.0
 10
-964.3670520601075
 20
295.5060934853868
 30
0.0
 10
-964.8226329257126
 20
318.2778014753598
 30
0.0
 10
-965.2782137913152
 20
336.6488773161099
 30
0.0
 10
-965.7194445472919
 20
348.7313080639296
 30
0.0
 10
-966.0088150147352
 20
352.473061063716
 30
0.0
 10
-966.1463251936435
 20
353.2506981072912
 30
0.0
  0
SPLINE
  5
1A1
330
1F
100
AcDbEntity
  8
0
  6
CONTINUOUS
 62
     7
100
AcDbSpline
210
0.0
220
0.0
230
1.0
 70
     8
 71
     3
 72
    19
 73
    15
 74
     0
 42
0.000000001
 43
0.0001
 40
0.4591830620592712
 40
0.4591830620592712
 40
0.4591830620592712
 40
0.4591830620592712
 40
0.4622985484448379
 40
0.4697549766455612
 40
0.4772114048462844
 40
0.4846678330470077
 40
0.492124261247731
 40
0.4995806894484542
 40
0.5070371176491776
 40
0.5144935458499006
 40
0.5219499740506239
 40
0.5294064022513472
 40
0.5368628304520704
 40
0.5383943315087114
 40
0.5383943315087114
 40
0.5383943315087114
 40
0.5383943315087114
 10
-901.3065392705826
 20
174.7048966836898
 30
0.0
 10
-901.3699903826566
 20
174.7048488037068
 30
0.0
 10
-901.5853017832653
 20
175.426461487586
 30
0.0
 10
-901.9524734724093
 20
180.8455118238549
 30
0.0
 10
-902.4080543380121
 20
194.3531336779698
 30
0.0
 10
-902.8636352036167
 20
213.545240637627
 30
0.0
 10
-903.3192160692197
 20
236.8599592478117
 30
0.0
 10
-903.7747969348233
 20
262.3999136662108
 30
0.0
 10
-904.2303778004273
 20
288.0866360658044
 30
0.0
 10
-904.685958666031
 20
311.8297144899186
 30
0.0
 10
-905.1415395316346
 20
331.6969127328643
 30
0.0
 10
-905.5971203972377
 20
346.0714177148461
 30
0.0
 10
-905.9320320735967
 20
351.7407487531866
 30
0.0
 10
-906.1150834614207
 20
353.0740227271296
 30
0.0
 10
-906.14627456071
 20
353.2498994430206
 30
0.0
  0
SPLINE
  5
1A2
330
1F
100
AcDbEntity
  8
0
  6
CONTINUOUS
 62
     7
100
AcDbSpline
210
0.0
220
0.0
230
1.0
 70
     8
 71
     3
 72
    19
 73
    15
 74
     0
 42
0.000000001
 43
0.0001
 40
0.2955093587756521
 40
0.2955093587756521
 40
0.2955093587756521
 40
0.2955093587756521
 40
0.2982571280289278
 40
0.305713556229651
 40
0.3131699844303742
 40
0.3206264126310974
 40
0.3280828408318206
 40
0.3355392690325438
 40
0.342995697233267
 40
0.3504521254339902
 40
0.3579085536347134
 40
0.3653649818354365
 40
0.3728214100361598
 40
0.3747238266828561
 40
0.3747238266828561
 40
0.3747238266828561
 40
0.3747238266828561
 10
-891.3062274039338
 20
174.704768702411
 30
0.0
 10
-891.362189457131
 20
174.7039775176381
 30
0.0
 10
-891.5700117988627
 20
175.3157509819991
 30
0.0
 10
-891.9296944291289
 20
180.3413057587038
 30
0.0
 10
-892.3852752947325
 20
193.5315512044375
 30
0.0
 10
-892.840856160336
 20
212.4731429846133
 30
0.0
 10
-893.2964370259398
 20
235.6245948278519
 30
0.0
 10
-893.7520178915436
 20
261.1018177096914
 30
0.0
 10
-894.2075987571465
 20
286.8314489602459
 30
0.0
 10
-894.6631796227507
 20
310.7195846563038
 30
0.0
 10
-895.1187604883544
 20
330.8221836818017
 30
0.0
 10
-895.5743413539577
 20
345.503275798522
 30
0.0
 10
-895.9168072301303
 20
351.5657046939164
 30
0.0
 10
-896.1074128177684
 20
353.0303541364357
 30
0.0
 10
-896.1461581168719
 20
353.2489999623558
 30
0.0
  0
SPLINE
  5
1A3
330
1F
100
AcDbEntity
  8
0
  6
CONTINUOUS
 62
     7
100
AcDbSpline
210
0.0
220
0.0
230
1.0
 70
     8
 71
     3
 72
    19
 73
    15
 74
     0
 42
0.000000001
 43
0.0001
 40
0.131846479091742
 40
0.131846479091742
 40
0.131846479091742
 40
0.131846479091742
 40
0.1342157076130176
 40
0.1416721358137408
 40
0.149128564014464
 40
0.1565849922151872
 40
0.1640414204159104
 40
0.1714978486166336
 40
0.1789542768173568
 40
0.18641070501808
 40
0.1938671332188031
 40
0.2013235614195264
 40
0.2087799896202495
 40
0.2110613624672063
 40
0.2110613624672063
 40
0.2110613624672063
 40
0.2110613624672063
 10
-881.3065768492055
 20
174.7045849415777
 30
0.0
 10
-881.3548294062186
 20
174.7044028522856
 30
0.0
 10
-881.5549422517796
 20
175.2143496738906
 30
0.0
 10
-881.9069153858447
 20
179.8542783377654
 30
0.0
 10
-882.3624962514533
 20
192.7244454322361
 30
0.0
 10
-882.8180771170557
 20
211.4116419612008
 30
0.0
 10
-883.2736579826595
 20
234.3950846011098
 30
0.0
 10
-883.7292388482631
 20
259.8043570897286
 30
0.0
 10
-884.1848197138667
 20
285.5716266302377
 30
0.0
 10
-884.6404005794705
 20
309.5999262565778
 30
0.0
 10
-885.0959814450742
 20
329.9338081675043
 30
0.0
 10
-885.5515623106776
 20
344.9184800850869
 30
0.0
 10
-885.9017461446131
 20
351.3874633608139
 30
0.0
 10
-886.1000696900136
 20
352.9892453111721
 30
0.0
 10
-886.1465329468797
 20
353.250889161179
 30
0.0
  0
SPLINE
  5
1A4
330
1F
100
AcDbEntity
  8
0
  6
CONTINUOUS
 62
     7
100
AcDbSpline
210
0.0
220
0.0
230
1.0
 70
     8
 71
     3
 72
    19
 73
    15
 74
     0
 42
0.000000001
 43
0.0001
 40
1.116477064598226
 40
1.116477064598226
 40
1.116477064598226
 40
1.116477064598226
 40
1.118464230108483
 40
1.125920658309207
 40
1.13337708650993
 40
1.140833514710653
 40
1.148289942911376
 40
1.155746371112099
 40
1.163202799312823
 40
1.170659227513546
 40
1.178115655714269
 40
1.185572083914992
 40
1.193028512115715
 40
1.195692935957597
 40
1.195692935957597
 40
1.195692935957597
 40
1.195692935957597
 10
-945.266594805438
 20
175.1571493871315
 30
0.0
 10
-945.3070661302638
 20
175.3853786694356
 30
0.0
 10
-945.4993977436243
 20
176.8799449095911
 30
0.0
 10
-945.84358964552
 20
183.0319966028824
 30
0.0
 10
-946.2991705111227
 20
197.7808144282891
 30
0.0
 10
-946.7547513767269
 20
217.935169165199
 30
0.0
 10
-947.2103322423314
 20
241.8548786422292
 30
0.0
 10
-947.6659131079341
 20
267.5933322364638
 30
0.0
 10
-948.1214939735376
 20
293.0559080532632
 30
0.0
 10
-948.5770748391413
 20
316.1704354160004
 30
0.0
 10
-949.0326557047455
 20
335.0558302525108
 30
0.0
 10
-949.4882365703486
 20
348.1751796566413
 30
0.0
 10
-949.8462217581016
 20
353.1142923232207
 30
0.0
 10
-950.0523466573206
 20
353.702772500909
 30
0.0
 10
-950.1066112680047
 20
353.702037299853
 30
0.0
  0
LWPOLYLINE
  5
1A5
330
1F
100
AcDbEntity
  8
0
  6
CONTINUOUS
 62
     7
100
AcDbPolyline
 90
        7
 70
     0
 43
0.0
 10
-915.7999571083224
 20
178.165427408617
 42
-0.0163330997649148
 10
-917.1343925936242
 20
213.3181477646749
 42
0.0027127387569669
 10
-919.9459146533821
 20
342.7122282936327
 42
0.0302343631373564
 10
-920.5453435068687
 20
350.5647908438035
 10
-920.613379158955
 20
350.6949441418531
 10
-920.635148697834
 20
350.7033803837887
 10
-920.635148697834
 20
350.7033803837887
  0
LINE
  5
1A6
330
1F
100
AcDbEntity
  8
0
  6
CONTINUOUS
 62
     7
100
AcDbLine
 10
-880.2472949141371
 20
353.3530745301566
 30
0.0
 11
-880.2655402508466
 21
353.2564676042513
 31
0.0
  0
LINE
  5
1A7
330
1F
100
AcDbEntity
  8
0
  6
CONTINUOUS
 62
     7
100
AcDbLine
 10
-915.1064562433213
 20
174.7049600599498
 30
0.0
 11
-915.2655302433343
 21
175.1504588176365
 31
0.0
  0
ARC
  5
1A8
330
1F
100
AcDbEntity
  8
0
  6
CONTINUOUS
 62
     7
100
AcDbCircle
 10
894.6356071815951
 20
175.1259531455809
 30
0.0
 40
0.6315750801596537
210
0.0
220
0.0
230
-1.0
100
AcDbArc
 50
318.1722634579012
 51
2.687610135914838
  0
SPLINE
  5
1A9
330
1F
100
AcDbEntity
  8
0
  6
CONTINUOUS
 62
     7
100
AcDbSpline
210
0.0
220
0.0
230
1.0
 70
     8
 71
     3
 72
    14
 73
    10
 74
     0
 42
0.000000001
 43
0.0001
 40
2.753156107241599
 40
2.753156107241599
 40
2.753156107241599
 40
2.753156107241599
 40
2.758878434267582
 40
2.766334862468305
 40
2.773791290669028
 40
2.781247718869751
 40
2.788704147070474
 40
2.796160575271197
 40
2.800373093888956
 40
2.800373093888956
 40
2.800373093888956
 40
2.800373093888956
 10
-1045.266170324787
 20
175.1545644964363
 30
0.0
 10
-1045.382713287431
 20
175.8124514248581
 30
0.0
 10
-1045.651116538609
 20
178.9763597526443
 30
0.0
 10
-1046.071380078322
 20
189.6440435118534
 30
0.0
 10
-1046.526960943926
 20
207.2759139619827
 30
0.0
 10
-1046.98254180953
 20
229.5406003323472
 30
0.0
 10
-1047.438122675132
 20
254.6261794870884
 30
0.0
 10
-1047.827636915808
 20
276.7403186971653
 30
0.0
 10
-1048.065290867948
 20
289.6917497381079
 30
0.0
 10
-1048.151084531553
 20
294.2367210856311
 30
0.0
  0
ARC
  5
1AA
330
1F
100
AcDbEntity
  8
0
  6
CONTINUOUS
 62
     7
100
AcDbCircle
 10
-1009.624445632707
 20
353.27834248417
 30
0.0
 40
0.6424656349260411
100
AcDbArc
 50
138.5882045050577
 51
182.4665103629792
  0
ARC
  5
1AB
330
1F
100
AcDbEntity
  8
0
  6
CONTINUOUS
 62
     7
100
AcDbCircle
 10
1014.623855366105
 20
175.128377878436
 30
0.0
 40
0.6430026033377647
210
0.0
220
0.0
230
-1.0
100
AcDbArc
 50
318.629404781461
 51
2.441242715531018
  0
SPLINE
  5
1AC
330
1F
100
AcDbEntity
  8
0
  6
CONTINUOUS
 62
     7
100
AcDbSpline
210
0.0
220
0.0
230
1.0
 70
     8
 71
     3
 72
     9
 73
     5
 74
     0
 42
0.000000001
 43
0.0001
 40
2.505033936499014
 40
2.505033936499014
 40
2.505033936499014
 40
2.505033936499014
 40
2.505359875442993
 40
2.50765503139917
 40
2.50765503139917
 40
2.50765503139917
 40
2.50765503139917
 10
-1030.106135214222
 20
353.7033387718378
 30
0.0
 10
-1030.112773403546
 20
353.7034370563899
 30
0.0
 10
-1030.166155561477
 20
353.6853499836229
 30
0.0
 10
-1030.219537719408
 20
353.515209317219
 30
0.0
 10
-1030.266281688016
 20
353.251222700467
 30
0.0
  0
SPLINE
  5
1AD
330
1F
100
AcDbEntity
  8
0
  6
CONTINUOUS
 62
     7
100
AcDbSpline
210
0.0
220
0.0
230
1.0
 70
     8
 71
     3
 72
    19
 73
    15
 74
     0
 42
0.000000001
 43
0.0001
 40
2.262152013583243
 40
2.262152013583243
 40
2.262152013583243
 40
2.262152013583243
 40
2.26675417301985
 40
2.274210601220573
 40
2.281667029421296
 40
2.289123457622019
 40
2.296579885822743
 40
2.304036314023466
 40
2.311492742224189
 40
2.318949170424912
 40
2.326405598625636
 40
2.333862026826359
 40
2.341318455027082
 40
2.341371613544059
 40
2.341371613544059
 40
2.341371613544059
 40
2.341371613544059
 10
-1015.266274398461
 20
175.1557664666809
 30
0.0
 10
-1015.3600036266
 20
175.6848079094599
 30
0.0
 10
-1015.605593143273
 20
178.2813844357597
 30
0.0
 10
-1016.003042948481
 20
187.4935509155567
 30
0.0
 10
-1016.458623814085
 20
204.2958150915718
 30
0.0
 10
-1016.914204679689
 20
225.9734187069334
 30
0.0
 10
-1017.369785545291
 20
250.7622160257761
 30
0.0
 10
-1017.825366410896
 20
276.6448691604268
 30
0.0
 10
-1018.2809472765
 20
301.5150211089504
 30
0.0
 10
-1018.736528142103
 20
323.3487132600176
 30
0.0
 10
-1019.192109007707
 20
340.3690972317708
 30
0.0
 10
-1019.64768987331
 20
351.1910366254037
 30
0.0
 10
-1019.952493095784
 20
353.6951271786949
 30
0.0
 10
-1020.105436029723
 20
353.7033874087305
 30
0.0
 10
-1020.106518675128
 20
353.7033833513933
 30
0.0
  0
LWPOLYLINE
  5
1AE
330
1F
100
AcDbEntity
  8
0
  6
CONTINUOUS
 62
     7
100
AcDbPolyline
 90
        5
 70
     0
 43
0.0
 10
-905.8003334999638
 20
178.1673835581207
 42
-0.0158597139780402
 10
-907.1542745781152
 20
214.196252051699
 42
0.0028543261647737
 10
-909.9641261920727
 20
343.1229024954929
 42
0.0351128102544011
 10
-910.5690063650038
 20
350.6282772842223
 10
-910.635158359834
 20
350.7033803838713
  0
LWPOLYLINE
  5
1AF
330
1F
100
AcDbEntity
  8
0
  6
CONTINUOUS
 62
     7
100
AcDbPolyline
 90
        7
 70
     0
 43
0.0
 10
-915.6119611315545
 20
350.2357458073433
 42
-0.0159021459276934
 10
-914.2568385383018
 20
314.1325626770314
 42
0.0028802025370124
 10
-911.4453233140821
 20
185.2079240942714
 42
0.0343440772802374
 10
-910.8459006885714
 20
177.7835282909039
 10
-910.7778604880331
 20
177.7037062314223
 10
-910.7777310912257
 20
177.7033803838901
 10
-910.7777310912257
 20
177.7033803838901
  0
ARC
  5
1B0
330
1F
100
AcDbEntity
  8
0
  6
CONTINUOUS
 62
     7
100
AcDbCircle
 10
1041.787936260399
 20
175.1282991890544
 30
0.0
 40
0.6418679170311795
210
0.0
220
0.0
230
-1.0
100
AcDbArc
 50
177.5599910655471
 51
221.4195956622638
  0
SPLINE
  5
1B1
330
1F
100
AcDbEntity
  8
0
  6
CONTINUOUS
 62
     7
100
AcDbSpline
210
0.0
220
0.0
230
1.0
 70
     8
 71
     3
 72
     9
 73
     5
 74
     0
 42
0.000000001
 43
0.0001
 40
2.338754903746427
 40
2.338754903746427
 40
2.338754903746427
 40
2.338754903746427
 40
2.341318455027082
 40
2.341371613544059
 40
2.341371613544059
 40
2.341371613544059
 40
2.341371613544059
 10
-1016.146640127052
 20
353.2513700917214
 30
0.0
 10
-1016.19885033101
 20
353.5460656956616
 30
0.0
 10
-1016.252143180371
 20
353.7005004090649
 30
0.0
 10
-1016.305436029734
 20
353.7033786796767
 30
0.0
 10
-1016.306518675138
 20
353.70337462234
 30
0.0
  0
LWPOLYLINE
  5
1B2
330
1F
100
AcDbEntity
  8
0
  6
CONTINUOUS
 62
     7
100
AcDbPolyline
 90
        7
 70
     0
 43
0.0
 10
-1025.612247150481
 20
350.2363194771051
 42
-0.0161778402693092
 10
-1024.275653673357
 20
314.9577323256332
 42
0.0027444285331779
 10
-1021.462031198416
 20
185.5776199176371
 42
0.0320657255258372
 10
-1020.856699159099
 20
177.8107312545756
 10
-1020.788582548062
 20
177.7054920203428
 10
-1020.777465113472
 20
177.703380384008
 10
-1020.777465113472
 20
177.703380384008
  0
LINE
  5
1B3
330
1F
100
AcDbEntity
  8
0
  6
CONTINUOUS
 62
     7
100
AcDbLine
 10
-861.1510845315531
 20
299.40589468414
 30
0.0
 11
-861.1510845315531
 21
175.7033803838896
 31
0.0
  0
LINE
  5
1B4
330
1F
100
AcDbEntity
  8
0
  6
CONTINUOUS
 62
     7
100
AcDbLine
 10
-880.1510845315531
 20
353.7033803838895
 30
0.0
 11
-880.1510845315531
 21
174.7033803838896
 31
0.0
  0
LINE
  5
1B5
330
1F
100
AcDbEntity
  8
0
  6
CONTINUOUS
 62
     7
100
AcDbLine
 10
-872.1510845315532
 20
352.7033803838895
 30
0.0
 11
-872.1510845315532
 21
175.7033803838895
 31
0.0
  0
ARC
  5
1B6
330
1F
100
AcDbEntity
  8
0
  6
CONTINUOUS
 62
     7
100
AcDbCircle
 10
-896.7888482609441
 20
353.2764076355768
 30
0.0
 40
0.6432742819661061
100
AcDbArc
 50
357.5580875127854
 51
41.41300110978863
  0
ARC
  5
1B7
330
1F
100
AcDbEntity
  8
0
  6
CONTINUOUS
 62
     7
100
AcDbCircle
 10
1031.788714686658
 20
175.1278549836793
 30
0.0
 40
0.6424367178289144
210
0.0
220
0.0
230
-1.0
100
AcDbArc
 50
177.6205433929922
 51
221.3425546437773
  0
LINE
  5
1B8
330
1F
100
AcDbEntity
  8
0
  6
CONTINUOUS
 62
     7
100
AcDbLine
 10
-832.6510845315531
 20
217.2153636608465
 30
0.0
 11
-832.6510845315531
 21
203.9558014174769
 31
0.0
  0
ARC
  5
1B9
330
1F
100
AcDbEntity
  8
0
  6
CONTINUOUS
 62
     7
100
AcDbCircle
 10
-946.7708362362492
 20
353.2844895321363
 30
0.0
 40
0.6243746189800289
100
AcDbArc
 50
357.3340639832901
 51
41.96924450430197
  0
ARC
  5
1BA
330
1F
100
AcDbEntity
  8
0
  6
CONTINUOUS
 62
     7
100
AcDbCircle
 10
-906.7851842420131
 20
353.2777577471659
 30
0.0
 40
0.6395167440909315
100
AcDbArc
 50
357.503320261065
 51
41.53660820965501
  0
LINE
  5
1BB
330
1F
100
AcDbEntity
  8
0
  6
CONTINUOUS
 62
     7
100
AcDbLine
 10
-875.1510845315531
 20
353.7033803838895
 30
0.0
 11
-875.1510845315531
 21
174.7033803838896
 31
0.0
  0
LINE
  5
1BC
330
1F
100
AcDbEntity
  8
0
  6
CONTINUOUS
 62
     7
100
AcDbLine
 10
-832.6510845315531
 20
311.1913971069326
 30
0.0
 11
-832.6510845315531
 21
324.4509593503022
 31
0.0
  0
ARC
  5
1BD
330
1F
100
AcDbEntity
  8
0
  6
CONTINUOUS
 62
     7
100
AcDbCircle
 10
-1046.789543171683
 20
353.277421485841
 30
0.0
 40
0.6436797519947928
100
AcDbArc
 50
357.5568792393266
 51
41.38813041251955
  0
LWPOLYLINE
  5
1BE
330
1F
100
AcDbEntity
  8
0
  6
CONTINUOUS
 62
     7
100
AcDbPolyline
 90
        7
 70
     0
 43
0.0
 10
-1015.612367672403
 20
350.2371408062719
 42
-0.0165399447791558
 10
-1014.299354260006
 20
315.9991306638879
 42
0.0025694897227171
 10
-1011.484119727756
 20
186.084696458534
 42
0.0278186278012846
 10
-1010.880600464131
 20
177.8843795212418
 10
-1010.814384420829
 20
177.7268410873208
 10
-1010.777465341195
 20
177.7033803838996
 10
-1010.777465341195
 20
177.7033803838996
  0
ARC
  5
1BF
330
1F
100
AcDbEntity
  8
0
  6
CONTINUOUS
 62
     7
100
AcDbCircle
 10
-967.1055738620238
 20
353.1644593122936
 30
0.0
 40
0.9631174059023341
100
AcDbArc
 50
5.137219595990934
 51
33.95795494605954
  0
LINE
  5
1C0
330
1F
100
AcDbEntity
  8
0
  6
CONTINUOUS
 62
     7
100
AcDbLine
 10
-936.147346208649
 20
353.2565427013026
 30
0.0
 11
-936.3063461719801
 21
353.7018882706084
 31
0.0
  0
ARC
  5
1C1
330
1F
100
AcDbEntity
  8
0
  6
CONTINUOUS
 62
     7
100
AcDbCircle
 10
-1036.789573055921
 20
353.2777477962306
 30
0.0
 40
0.6436552921202594
100
AcDbArc
 50
357.5584937265523
 51
41.37518645314617
  0
ARC
  5
1C2
330
1F
100
AcDbEntity
  8
0
  6
CONTINUOUS
 62
     7
100
AcDbCircle
 10
921.7812284811314
 20
175.1274670244599
 30
0.0
 40
0.6354816193543048
210
0.0
220
0.0
230
-1.0
100
AcDbArc
 50
177.4359157378504
 51
221.669505743005
  0
LWPOLYLINE
  5
1C3
330
1F
100
AcDbEntity
  8
0
  6
CONTINUOUS
 62
     7
100
AcDbPolyline
 90
        7
 70
     0
 43
0.0
 10
-935.6129096232687
 20
350.2414124838708
 42
-0.016307870007689
 10
-934.2774072985129
 20
315.0423953801099
 42
0.0027080108176537
 10
-931.467642932932
 20
185.7088391301424
 42
0.03077133425276
 10
-930.8648332787303
 20
177.8330197377159
 10
-930.7984720931172
 20
177.7107242730405
 10
-930.7777269041794
 20
177.7033803839817
 10
-930.7777269041794
 20
177.7033803839817
  0
LINE
  5
1C4
330
1F
100
AcDbEntity
  8
0
  6
CONTINUOUS
 62
     7
100
AcDbLine
 10
-1026.146458186324
 20
353.25018464537
 30
0.0
 11
-1026.30613521454
 21
353.7033300427934
 31
0.0
  0
SPLINE
  5
1C5
330
1F
100
AcDbEntity
  8
0
  6
CONTINUOUS
 62
     7
100
AcDbSpline
210
0.0
220
0.0
230
1.0
 70
     8
 71
     3
 72
     9
 73
     5
 74
     0
 42
0.000000001
 43
0.0001
 40
1.274908707660767
 40
1.274908707660767
 40
1.274908707660767
 40
1.274908707660767
 40
1.27504922232367
 40
1.277522754506212
 40
1.277522754506212
 40
1.277522754506212
 40
1.277522754506212
 10
-951.1466216416802
 20
175.1542199263585
 30
0.0
 10
-951.1494834136543
 20
175.1380824962978
 30
0.0
 10
-951.2027220283778
 20
174.8459550234806
 30
0.0
 10
-951.2559606431013
 20
174.7043937108359
 30
0.0
 10
-951.3063374858508
 20
174.7046398024003
 30
0.0
  0
LWPOLYLINE
  5
1C6
330
1F
100
AcDbEntity
  8
0
  6
CONTINUOUS
 62
     7
100
AcDbPolyline
 90
        7
 70
     0
 43
0.0
 10
-905.6119448742214
 20
350.2354255448032
 42
-0.0162698019886065
 10
-904.2807397558281
 20
315.1832740867071
 42
0.0026849948865875
 10
-901.4708552910198
 20
185.7822078464906
 42
0.0302716522659042
 10
-900.8676931530135
 20
177.8421941729352
 10
-900.8016392161455
 20
177.7131704528906
 10
-900.7777200879971
 20
177.7033803839676
 10
-900.7777200879971
 20
177.7033803839676
  0
ARC
  5
1C7
330
1F
100
AcDbEntity
  8
0
  6
CONTINUOUS
 62
     7
100
AcDbCircle
 10
962.2236567131738
 20
175.2833323569924
 30
0.0
 40
1.084772464061138
210
0.0
220
0.0
230
-1.0
100
AcDbArc
 50
186.7965360686769
 51
212.2532722763495
  0
ARC
  5
1C8
330
1F
100
AcDbEntity
  8
0
  6
CONTINUOUS
 62
     7
100
AcDbCircle
 10
-916.7839649628762
 20
353.2784326814603
 30
0.0
 40
0.6382028349148959
100
AcDbArc
 50
357.5058483280822
 51
41.55525687114857
  0
ARC
  5
1C9
330
1F
100
AcDbEntity
  8
0
  6
CONTINUOUS
 62
     7
100
AcDbCircle
 10
901.7862458061226
 20
175.1295783894624
 30
0.0
 40
0.6406815991253616
210
0.0
220
0.0
230
-1.0
100
AcDbArc
 50
177.498097124018
 51
221.5182995247579
  0
LWPOLYLINE
  5
1CA
330
1F
100
AcDbEntity
  8
0
  6
CONTINUOUS
 62
     7
100
AcDbPolyline
 90
        7
 70
     0
 43
0.0
 10
-955.6120282585805
 20
350.2364426246655
 42
-0.0166684708171193
 10
-954.2999285285472
 20
316.0269782205029
 42
0.0025395403348713
 10
-951.4900961138048
 20
186.2291589543896
 42
0.0273228594283886
 10
-950.8871105534809
 20
177.9076124547753
 10
-950.8209561504555
 20
177.7356084086695
 10
-950.7776755194703
 20
177.70338038396
 10
-950.7776755194703
 20
177.70338038396
  0
ARC
  5
1CB
330
1F
100
AcDbEntity
  8
0
  6
CONTINUOUS
 62
     7
100
AcDbCircle
 10
1021.785432869256
 20
175.1272707127307
 30
0.0
 40
0.6394267304088314
210
0.0
220
0.0
230
-1.0
100
AcDbArc
 50
177.4671404696312
 51
221.5215786492965
  0
ARC
  5
1CC
330
1F
100
AcDbEntity
  8
0
  6
CONTINUOUS
 62
     7
100
AcDbCircle
 10
-957.3449713253331
 20
353.0802959998426
 30
0.0
 40
1.210686227936024
100
AcDbArc
 50
8.140829218629156
 51
30.91040047138626
  0
ARC
  5
1CD
330
1F
100
AcDbEntity
  8
0
  6
CONTINUOUS
 62
     7
100
AcDbCircle
 10
941.7775621307572
 20
175.1257653231893
 30
0.0
 40
0.6317159401398522
210
0.0
220
0.0
230
-1.0
100
AcDbArc
 50
177.3622792446056
 51
221.7874755153037
  0
ARC
  5
1CE
330
1F
100
AcDbEntity
  8
0
  6
CONTINUOUS
 62
     7
100
AcDbCircle
 10
-926.7835701420374
 20
353.2782925333229
 30
0.0
 40
0.6379946221292505
100
AcDbArc
 50
357.4548601259858
 51
41.59144052907448
  0
LWPOLYLINE
  5
1CF
330
1F
100
AcDbEntity
  8
0
  6
CONTINUOUS
 62
     7
100
AcDbPolyline
 90
        7
 70
     0
 43
0.0
 10
-885.6122214783956
 20
350.2365261533526
 42
-0.0162745231055301
 10
-884.2759891974055
 20
314.9730025610021
 42
0.0027416942347066
 10
-881.4622503751393
 20
185.5851338610601
 42
0.0314553760938706
 10
-880.859238344073
 20
177.8174091361906
 10
-880.7934189323705
 20
177.7076323122129
 10
-880.7776666224968
 20
177.7033803840184
 10
-880.7776666224968
 20
177.7033803840184
  0
LWPOLYLINE
  5
1D0
330
1F
100
AcDbEntity
  8
0
  6
CONTINUOUS
 62
     7
100
AcDbPolyline
 90
        7
 70
     0
 43
0.0
 10
-965.6118992494166
 20
350.2355658054969
 42
-0.0161808537029305
 10
-964.2818512070565
 20
315.2395266479843
 42
0.0027233040506131
 10
-961.4649343370054
 20
185.6457280609303
 42
0.0308003704086656
 10
-960.8633052598984
 20
177.8287638670602
 10
-960.7952032658675
 20
177.7086292901451
 10
-960.7776447846989
 20
177.7033803840094
 10
-960.7776447846989
 20
177.7033803840094
  0
ARC
  5
1D1
330
1F
100
AcDbEntity
  8
0
  6
CONTINUOUS
 62
     7
100
AcDbCircle
 10
891.7919897445976
 20
175.1311622340241
 30
0.0
 40
0.6463563223242041
210
0.0
220
0.0
230
-1.0
100
AcDbArc
 50
177.6424827973102
 51
221.27608483996
  0
LWPOLYLINE
  5
1D2
330
1F
100
AcDbEntity
  8
0
  6
CONTINUOUS
 62
     7
100
AcDbPolyline
 90
        7
 70
     0
 43
0.0
 10
-1045.612219052319
 20
350.2360469929642
 42
-0.0166222617534594
 10
-1044.296254321397
 20
315.8594663349293
 42
0.0025878290815258
 10
-1041.48256549947
 20
186.0489928688899
 42
0.028389813008968
 10
-1040.877269643193
 20
177.8732875007719
 10
-1040.811309477968
 20
177.7229558696898
 10
-1040.777506478277
 20
177.7033803838901
 10
-1040.777506478277
 20
177.7033803838901
  0
LINE
  5
1D3
330
1F
100
AcDbEntity
  8
0
  6
CONTINUOUS
 62
     7
100
AcDbLine
 10
-865.1510845315531
 20
352.7033803838895
 30
0.0
 11
-865.1510845315531
 21
175.7033803838895
 31
0.0
  0
LINE
  5
1D4
330
1F
100
AcDbEntity
  8
0
  6
CONTINUOUS
 62
     7
100
AcDbLine
 10
-868.1510845315531
 20
352.7033803838895
 30
0.0
 11
-868.1510845315531
 21
175.7033803838895
 31
0.0
  0
ARC
  5
1D5
330
1F
100
AcDbEntity
  8
0
  6
CONTINUOUS
 62
     7
100
AcDbCircle
 10
931.7830523980285
 20
175.1279681372214
 30
0.0
 40
0.6373613194099023
210
0.0
220
0.0
230
-1.0
100
AcDbArc
 50
177.4698988422882
 51
221.5861041514856
  0
ARC
  5
1D6
330
1F
100
AcDbEntity
  8
0
  6
CONTINUOUS
 62
     7
100
AcDbCircle
 10
881.787485464208
 20
175.1294673001119
 30
0.0
 40
0.641714979236997
210
0.0
220
0.0
230
-1.0
100
AcDbArc
 50
177.5454677835705
 51
221.4605700838282
  0
LWPOLYLINE
  5
1D7
330
1F
100
AcDbEntity
  8
0
  6
CONTINUOUS
 62
     7
100
AcDbPolyline
 90
        7
 70
     0
 43
0.0
 10
-925.6117569968623
 20
350.2347920182615
 42
-0.0166896735683788
 10
-924.3032308889684
 20
316.1663957213922
 42
0.0025156350066257
 10
-921.4932452407387
 20
186.3047508237691
 42
0.02689646437028
 10
-920.8902242842776
 20
177.9197558970086
 10
-920.8222350298137
 20
177.7375702321086
 10
-920.7777309427516
 20
177.7033803839738
 10
-920.7777309427516
 20
177.7033803839738
  0
ARC
  5
1D8
330
1F
100
AcDbEntity
  8
0
  6
CONTINUOUS
 62
     7
100
AcDbCircle
 10
-886.7871953804034
 20
353.2777866023185
 30
0.0
 40
0.6412268132793629
100
AcDbArc
 50
357.5959175077382
 51
41.42875293762461
  0
SPLINE
  5
1D9
330
1F
100
AcDbEntity
  8
0
  6
CONTINUOUS
 62
     7
100
AcDbSpline
210
0.0
220
0.0
230
1.0
 70
     8
 71
     3
 72
     9
 73
     5
 74
     0
 42
0.000000001
 43
0.0001
 40
2.256920998797663
 40
2.256920998797663
 40
2.256920998797663
 40
2.256920998797663
 40
2.259297744819127
 40
2.259535321108389
 40
2.259535321108389
 40
2.259535321108389
 40
2.259535321108389
 10
-1011.146664233947
 20
175.1551582881789
 30
0.0
 10
-1011.195069895059
 20
174.8819348235452
 30
0.0
 10
-1011.248314120007
 20
174.7170303569881
 30
0.0
 10
-1011.301558344955
 20
174.7033998734182
 30
0.0
 10
-1011.306396908791
 20
174.7034089457632
 30
0.0
  0
LWPOLYLINE
  5
1DA
330
1F
100
AcDbEntity
  8
0
  6
CONTINUOUS
 62
     7
100
AcDbPolyline
 90
        5
 70
     0
 43
0.0
 10
-895.6118107700933
 20
350.2344335514173
 42
-0.0168445832039147
 10
-894.3100137098945
 20
316.4567384939186
 42
0.0024658356618536
 10
-891.5000863593862
 20
186.465044488505
 42
0.0396971154916979
 10
-890.8307590272838
 20
177.7516027711356
 10
-890.7776920916142
 20
177.7033803840464
  0
LWPOLYLINE
  5
1DB
330
1F
100
AcDbEntity
  8
0
  6
CONTINUOUS
 62
     7
100
AcDbPolyline
 90
        5
 70
     0
 43
0.0
 10
-945.61259737994
 20
350.2397098544358
 42
-0.0158323712419492
 10
-944.2593585850929
 20
314.2464386121258
 42
0.002855296697474
 10
-941.4477260103324
 20
185.2606825747003
 42
0.035130994101354
 10
-940.8427613032743
 20
177.7762312699125
 10
-940.7777042987251
 20
177.7033803839206
  0
LWPOLYLINE
  5
1DC
330
1F
100
AcDbEntity
  8
0
  6
CONTINUOUS
 62
     7
100
AcDbPolyline
 90
        5
 70
     0
 43
0.0
 10
-1035.6122790768
 20
350.2364128249542
 42
-0.016952538926856
 10
-1034.319912213839
 20
316.8882055566016
 42
0.0024154654435637
 10
-1031.50638892678
 20
186.6116631438655
 42
0.0377077533198433
 10
-1030.836832740832
 20
177.7639170877907
 10
-1030.777475538918
 20
177.7033803839723
  0
ARC
  5
1DD
330
1F
100
AcDbEntity
  8
0
  6
CONTINUOUS
 62
     7
100
AcDbCircle
 10
911.777580681197
 20
175.1248817034042
 30
0.0
 40
0.6310983217889399
210
0.0
220
0.0
230
-1.0
100
AcDbArc
 50
177.5159120789183
 51
221.7105983724026
  0
ARC
  5
1DE
330
1F
100
AcDbEntity
  8
0
  6
CONTINUOUS
 62
     7
100
AcDbCircle
 10
-1077.151084531553
 20
250.7033803838895
 30
0.0
 40
1.500000000000014
100
AcDbArc
 50
292.110810336801
 51
0.0
  0
ARC
  5
1DF
330
1F
100
AcDbEntity
  8
0
  6
CONTINUOUS
 62
     7
100
AcDbCircle
 10
-834.1514256668029
 20
367.6922767069195
 30
0.0
 40
1.500388883333628
100
AcDbArc
 50
11.9670240847762
 51
89.98697297051524
  0
LINE
  5
1E0
330
1F
100
AcDbEntity
  8
0
  6
CONTINUOUS
 62
     7
100
AcDbLine
 10
-1048.151084531553
 20
265.7033803838895
 30
0.0
 11
-1048.151084531553
 21
262.7033803838895
 31
0.0
  0
LINE
  5
1E1
330
1F
100
AcDbEntity
  8
0
  6
CONTINUOUS
 62
     7
100
AcDbLine
 10
-1095.151084531553
 20
282.2555081874079
 30
0.0
 11
-1095.151084531553
 21
282.4222729498957
 31
0.0
  0
LINE
  5
1E2
330
1F
100
AcDbEntity
  8
0
  6
CONTINUOUS
 62
     7
100
AcDbLine
 10
-1110.651084531553
 20
264.2033803838895
 30
0.0
 11
-1107.651084531553
 21
264.2033803838895
 31
0.0
  0
LINE
  5
1E3
330
1F
100
AcDbEntity
  8
0
  6
CONTINUOUS
 62
     7
100
AcDbLine
 10
-832.6510845315531
 20
201.8604377009699
 30
0.0
 11
-832.651084531553
 21
197.6748627813327
 31
0.0
  0
LINE
  5
1E4
330
1F
100
AcDbEntity
  8
0
  6
CONTINUOUS
 62
     7
100
AcDbLine
 10
-832.6813906858832
 20
368.0033803838895
 30
0.0
 11
-832.6836445852355
 21
368.0033803838895
 31
0.0
  0
LINE
  5
1E5
330
1F
100
AcDbEntity
  8
0
  6
CONTINUOUS
 62
     7
100
AcDbLine
 10
-1077.182627570481
 20
249.2033803838895
 30
0.0
 11
-1077.291622850998
 21
249.2033803838895
 31
0.0
  0
LINE
  5
1E6
330
1F
100
AcDbEntity
  8
0
  6
CONTINUOUS
 62
     7
100
AcDbLine
 10
-832.6510845315531
 20
367.7033803838895
 30
0.0
 11
-832.6510845315531
 21
356.4225556373855
 31
0.0
  0
LINE
  5
1E7
330
1F
100
AcDbEntity
  8
0
  6
CONTINUOUS
 62
     7
100
AcDbLine
 10
-1110.651084531553
 20
169.7033803838895
 30
0.0
 11
-1110.651084531553
 21
250.7033803838895
 31
0.0
  0
LINE
  5
1E8
330
1F
100
AcDbEntity
  8
0
  6
CONTINUOUS
 62
     7
100
AcDbLine
 10
-832.6510845315531
 20
197.6748627813326
 30
0.0
 11
-832.6510845315531
 21
184.9177805210752
 31
0.0
  0
LINE
  5
1E9
330
1F
100
AcDbEntity
  8
0
  6
CONTINUOUS
 62
     7
100
AcDbLine
 10
-832.651084531553
 20
356.4225556373855
 30
0.0
 11
-832.6510845315531
 21
350.6206787737438
 31
0.0
  0
LINE
  5
1EA
330
1F
100
AcDbEntity
  8
0
  6
CONTINUOUS
 62
     7
100
AcDbLine
 10
-1082.396134498178
 20
264.2033803838895
 30
0.0
 11
-1107.651084531553
 21
264.2033803838895
 31
0.0
  0
LINE
  5
1EB
330
1F
100
AcDbEntity
  8
0
  6
CONTINUOUS
 62
     7
100
AcDbLine
 10
-832.6510845315531
 20
179.7928870112772
 30
0.0
 11
-832.6510845315531
 21
177.7860819940352
 31
0.0
  0
LINE
  5
1EC
330
1F
100
AcDbEntity
  8
0
  6
CONTINUOUS
 62
     7
100
AcDbLine
 10
-1075.932161170443
 20
264.2033803838895
 30
0.0
 11
-1075.651084531553
 21
264.2033803838895
 31
0.0
  0
LINE
  5
1ED
330
1F
100
AcDbEntity
  8
0
  6
CONTINUOUS
 62
     7
100
AcDbLine
 10
-1075.651084531553
 20
250.7033803838895
 30
0.0
 11
-1075.651084531553
 21
169.7033803838894
 31
0.0
  0
LINE
  5
1EE
330
1F
100
AcDbEntity
  8
0
  6
CONTINUOUS
 62
     7
100
AcDbLine
 10
-1090.307633321616
 20
280.6648788520061
 30
0.0
 11
-1090.266993258038
 21
280.2033803838895
 31
0.0
  0
ELLIPSE
  5
1EF
330
1F
100
AcDbEntity
  8
0
  6
CONTINUOUS
 62
     7
100
AcDbEllipse
 10
-834.1510845315531
 20
343.4889802467037
 30
0.0
 11
-1.500000000000001
 21
0.0
 31
0.0
210
0.0
220
0.0
230
-1.0
 40
0.7660444431189745
 41
1.570796326794897
 42
3.141592653589793
  0
LINE
  5
1F0
330
1F
100
AcDbEntity
  8
0
  6
CONTINUOUS
 62
     7
100
AcDbLine
 10
-832.6510845315531
 20
201.8604377009699
 30
0.0
 11
-832.6510845315531
 21
203.9558014174768
 31
0.0
  0
ELLIPSE
  5
1F1
330
1F
100
AcDbEntity
  8
0
  6
CONTINUOUS
 62
     7
100
AcDbEllipse
 10
-834.1510845315531
 20
171.9842051303934
 30
0.0
 11
1.500000000000001
 21
0.0
 31
0.0
210
0.0
220
0.0
230
-1.0
 40
0.891006524188368
 41
0.0
 42
1.570796326794943
  0
ARC
  5
1F2
330
1F
100
AcDbEntity
  8
0
  6
CONTINUOUS
 62
     7
100
AcDbCircle
 10
1091.903232449888
 20
280.5208376671541
 30
0.0
 40
1.602087526035043
210
0.0
220
0.0
230
-1.0
100
AcDbArc
 50
105.144680108566
 51
174.8416604574806
  0
LINE
  5
1F3
330
1F
100
AcDbEntity
  8
0
  6
CONTINUOUS
 62
     7
100
AcDbLine
 10
-1094.151084531553
 20
282.4222729498958
 30
0.0
 11
-1094.151084531553
 21
282.2555081874079
 31
0.0
  0
LINE
  5
1F4
330
1F
100
AcDbEntity
  8
0
  6
CONTINUOUS
 62
     7
100
AcDbLine
 10
-832.6510845315532
 20
171.9842051303934
 30
0.0
 11
-832.6510845315532
 21
160.7033803838894
 31
0.0
  0
LINE
  5
1F5
330
1F
100
AcDbEntity
  8
0
  6
CONTINUOUS
 62
     7
100
AcDbLine
 10
-1090.266993258038
 20
280.2033803838895
 30
0.0
 11
-1090.238573195079
 21
280.2033803838895
 31
0.0
  0
LINE
  5
1F6
330
1F
100
AcDbEntity
  8
0
  6
CONTINUOUS
 62
     7
100
AcDbLine
 10
-1093.351084531553
 20
282.4222729498958
 30
0.0
 11
-1094.151084531553
 21
282.4222729498958
 31
0.0
  0
ARC
  5
1F7
330
1F
100
AcDbEntity
  8
0
  6
CONTINUOUS
 62
     7
100
AcDbCircle
 10
-1074.651084531553
 20
265.7033803838895
 30
0.0
 40
0.5000000000000004
100
AcDbArc
 50
90.0
 51
180.0
  0
LINE
  5
1F8
330
1F
100
AcDbEntity
  8
0
  6
CONTINUOUS
 62
     7
100
AcDbLine
 10
-1095.151084531553
 20
282.4222729498958
 30
0.0
 11
-1095.951084531553
 21
282.4222729498958
 31
0.0
  0
LINE
  5
1F9
330
1F
100
AcDbEntity
  8
0
  6
CONTINUOUS
 62
     7
100
AcDbLine
 10
-832.6510845315531
 20
348.6138737565018
 30
0.0
 11
-832.6510845315531
 21
350.6206787737438
 31
0.0
  0
LINE
  5
1FA
330
1F
100
AcDbEntity
  8
0
  6
CONTINUOUS
 62
     7
100
AcDbLine
 10
-1099.035175805069
 20
280.2033803838895
 30
0.0
 11
-1098.994535741487
 21
280.6648788520063
 31
0.0
  0
LINE
  5
1FB
330
1F
100
AcDbEntity
  8
0
  6
CONTINUOUS
 62
     7
100
AcDbLine
 10
-1091.822657406807
 20
279.2033803838895
 30
0.0
 11
-1097.479511656299
 21
279.2033803838895
 31
0.0
  0
ARC
  5
1FC
330
1F
100
AcDbEntity
  8
0
  6
CONTINUOUS
 62
     7
100
AcDbCircle
 10
-1109.151084531553
 20
250.7033803838895
 30
0.0
 40
1.500000000000001
100
AcDbArc
 50
180.0
 51
270.0
  0
LINE
  5
1FD
330
1F
100
AcDbEntity
  8
0
  6
CONTINUOUS
 62
     7
100
AcDbLine
 10
-1099.063595868027
 20
280.2033803838895
 30
0.0
 11
-1099.035175805069
 21
280.2033803838895
 31
0.0
  0
LINE
  5
1FE
330
1F
100
AcDbEntity
  8
0
  6
CONTINUOUS
 62
     7
100
AcDbLine
 10
-1082.396134498178
 20
249.2033803838895
 30
0.0
 11
-1107.651084531553
 21
249.2033803838895
 31
0.0
  0
LINE
  5
1FF
330
1F
100
AcDbEntity
  8
0
  6
CONTINUOUS
 62
     7
100
AcDbLine
 10
-1075.932161170443
 20
264.2033803838895
 30
0.0
 11
-1078.770903350031
 21
264.2033803838895
 31
0.0
  0
ELLIPSE
  5
200
330
1F
100
AcDbEntity
  8
0
  6
CONTINUOUS
 62
     7
100
AcDbEllipse
 10
-834.1510845315531
 20
184.9177805210753
 30
0.0
 11
-1.500000000000001
 21
0.0
 31
0.0
210
0.0
220
0.0
230
1.0
 40
0.766044443118979
 41
1.570796326794897
 42
3.141592653589793
  0
ARC
  5
201
330
1F
100
AcDbEntity
  8
0
  6
CONTINUOUS
 62
     7
100
AcDbCircle
 10
1097.399725144184
 20
280.5214994833904
 30
0.0
 40
1.601242793774162
210
0.0
220
0.0
230
-1.0
100
AcDbArc
 50
5.137291086655999
 51
74.87636834714121
  0
ELLIPSE
  5
202
330
1F
100
AcDbEntity
  8
0
  6
CONTINUOUS
 62
     7
100
AcDbEllipse
 10
-834.1510845315531
 20
197.6748627813327
 30
0.0
 11
-1.500000000000001
 21
0.0
 31
0.0
210
0.0
220
0.0
230
1.0
 40
0.6427876096865481
 41
1.570796326794897
 42
3.141592653589793
  0
LINE
  5
203
330
1F
100
AcDbEntity
  8
0
  6
CONTINUOUS
 62
     7
100
AcDbLine
 10
-1074.651084531553
 20
266.2033803838895
 30
0.0
 11
-1072.151084531553
 21
266.2033803838895
 31
0.0
  0
LINE
  5
204
330
1F
100
AcDbEntity
  8
0
  6
CONTINUOUS
 62
     7
100
AcDbLine
 10
-1072.151084531553
 20
266.2033803838895
 30
0.0
 11
-1048.151084531553
 21
266.2033803838895
 31
0.0
  0
LINE
  5
205
330
1F
100
AcDbEntity
  8
0
  6
CONTINUOUS
 62
     7
100
AcDbLine
 10
-1048.151084531553
 20
266.2033803838895
 30
0.0
 11
-1048.151084531553
 21
265.7033803838895
 31
0.0
  0
LINE
  5
206
330
1F
100
AcDbEntity
  8
0
  6
CONTINUOUS
 62
     7
100
AcDbLine
 10
-1107.651084531553
 20
249.2033803838895
 30
0.0
 11
-1109.151084531553
 21
249.2033803838895
 31
0.0
  0
LINE
  5
207
330
1F
100
AcDbEntity
  8
0
  6
CONTINUOUS
 62
     7
100
AcDbLine
 10
-832.6510845315531
 20
179.7928870112771
 30
0.0
 11
-832.6510845315531
 21
184.9177805210751
 31
0.0
  0
ARC
  5
208
330
1F
100
AcDbEntity
  8
0
  6
CONTINUOUS
 62
     7
100
AcDbCircle
 10
-1094.651084531553
 20
270.5033803838895
 30
0.0
 40
11.98957880828179
100
AcDbArc
 50
96.22467549480064
 51
105.3132903196988
  0
ARC
  5
209
330
1F
100
AcDbEntity
  8
0
  6
CONTINUOUS
 62
     7
100
AcDbCircle
 10
-1074.651084531553
 20
262.7033803838895
 30
0.0
 40
0.5000000000000004
100
AcDbArc
 50
180.0
 51
270.0
  0
ELLIPSE
  5
20A
330
1F
100
AcDbEntity
  8
0
  6
CONTINUOUS
 62
     7
100
AcDbEllipse
 10
-834.1510845315531
 20
330.7318979864463
 30
0.0
 11
-1.500000000000001
 21
0.0
 31
0.0
210
0.0
220
0.0
230
-1.0
 40
0.6427876096865327
 41
1.570796326794897
 42
3.141592653589793
  0
LINE
  5
20B
330
1F
100
AcDbEntity
  8
0
  6
CONTINUOUS
 62
     7
100
AcDbLine
 10
-1075.151084531553
 20
265.7033803838895
 30
0.0
 11
-1075.151084531553
 21
262.7033803838895
 31
0.0
  0
LINE
  5
20C
330
1F
100
AcDbEntity
  8
0
  6
CONTINUOUS
 62
     7
100
AcDbLine
 10
-832.6510845315531
 20
326.5463230668091
 30
0.0
 11
-832.6510845315531
 21
324.4509593503021
 31
0.0
  0
ELLIPSE
  5
20D
330
1F
100
AcDbEntity
  8
0
  6
CONTINUOUS
 62
     7
100
AcDbEllipse
 10
-834.1510845315531
 20
356.4225556373855
 30
0.0
 11
1.500000000000001
 21
0.0
 31
0.0
210
0.0
220
0.0
230
1.0
 40
0.8910065241883678
 41
0.0
 42
1.570796326794897
  0
LINE
  5
20E
330
1F
100
AcDbEntity
  8
0
  6
CONTINUOUS
 62
     7
100
AcDbLine
 10
-1048.151084531553
 20
262.2033803838895
 30
0.0
 11
-1072.151084531553
 21
262.2033803838895
 31
0.0
  0
LINE
  5
20F
330
1F
100
AcDbEntity
  8
0
  6
CONTINUOUS
 62
     7
100
AcDbLine
 10
-1094.151084531553
 20
282.2555081874079
 30
0.0
 11
-1095.151084531553
 21
282.2555081874079
 31
0.0
  0
LINE
  5
210
330
1F
100
AcDbEntity
  8
0
  6
CONTINUOUS
 62
     7
100
AcDbLine
 10
-832.6510845315531
 20
326.5463230668091
 30
0.0
 11
-832.6510845315531
 21
330.7318979864463
 31
0.0
  0
LINE
  5
211
330
1F
100
AcDbEntity
  8
0
  6
CONTINUOUS
 62
     7
100
AcDbLine
 10
-832.6510845315531
 20
348.6138737565018
 30
0.0
 11
-832.6510845315531
 21
343.4889802467038
 31
0.0
  0
LINE
  5
212
330
1F
100
AcDbEntity
  8
0
  6
CONTINUOUS
 62
     7
100
AcDbLine
 10
-1110.651084531553
 20
250.7033803838895
 30
0.0
 11
-1110.651084531553
 21
264.2033803838895
 31
0.0
  0
LINE
  5
213
330
1F
100
AcDbEntity
  8
0
  6
CONTINUOUS
 62
     7
100
AcDbLine
 10
-1082.396134498178
 20
264.2033803838895
 30
0.0
 11
-1078.770903350031
 21
264.2033803838895
 31
0.0
  0
LINE
  5
214
330
1F
100
AcDbEntity
  8
0
  6
CONTINUOUS
 62
     7
100
AcDbLine
 10
-832.6510845315532
 20
171.9842051303934
 30
0.0
 11
-832.6510845315531
 21
177.7860819940352
 31
0.0
  0
LINE
  5
215
330
1F
100
AcDbEntity
  8
0
  6
CONTINUOUS
 62
     7
100
AcDbLine
 10
-1080.130365030587
 20
249.2033803838895
 30
0.0
 11
-1082.396134498178
 21
249.2033803838895
 31
0.0
  0
LINE
  5
216
330
1F
100
AcDbEntity
  8
0
  6
CONTINUOUS
 62
     7
100
AcDbLine
 10
-1075.651084531553
 20
264.2033803838895
 30
0.0
 11
-1075.651084531553
 21
250.7033803838895
 31
0.0
  0
LINE
  5
217
330
1F
100
AcDbEntity
  8
0
  6
CONTINUOUS
 62
     7
100
AcDbLine
 10
-1072.151084531553
 20
262.2033803838895
 30
0.0
 11
-1074.651084531553
 21
262.2033803838895
 31
0.0
  0
ARC
  5
218
330
1F
100
AcDbEntity
  8
0
  6
CONTINUOUS
 62
     7
100
AcDbCircle
 10
-1094.651084531553
 20
270.5033803838895
 30
0.0
 40
11.98957880828179
100
AcDbArc
 50
74.6867096803013
 51
83.77532450519914
  0
LINE
  5
219
330
1F
100
AcDbEntity
  8
0
  6
CONTINUOUS
 62
     7
100
AcDbLine
 10
-832.6510845315531
 20
343.4889802467038
 30
0.0
 11
-832.6510845315531
 21
330.7318979864464
 31
0.0
  0
LINE
  5
21A
330
1F
100
AcDbEntity
  8
0
  6
CONTINUOUS
 62
     7
100
AcDbLine
 10
-1077.291622850998
 20
249.2033803838895
 30
0.0
 11
-1080.130365030586
 21
249.2033803838895
 31
0.0
  0
LINE
  5
21B
330
1F
100
AcDbEntity
  8
0
  6
CONTINUOUS
 62
     7
100
AcDbLine
 10
-1048.151084531553
 20
262.7033803838895
 30
0.0
 11
-1048.151084531553
 21
262.2033803838895
 31
0.0
  0
LINE
  5
21C
330
1F
100
AcDbEntity
  8
0
  6
CONTINUOUS
 62
     7
100
AcDbLine
 10
-1008.151084531553
 20
215.4849090140291
 30
0.0
 11
-1008.151084531553
 21
218.7981894255754
 31
0.0
  0
LINE
  5
21D
330
1F
100
AcDbEntity
  8
0
  6
CONTINUOUS
 62
     7
100
AcDbLine
 10
-1048.151084531553
 20
262.2033803838895
 30
0.0
 11
-1048.151084531553
 21
183.3823103591091
 31
0.0
  0
LINE
  5
21E
330
1F
100
AcDbEntity
  8
0
  6
CONTINUOUS
 62
     7
100
AcDbLine
 10
-1048.151084531553
 20
345.0244504086698
 30
0.0
 11
-1048.151084531553
 21
266.2033803838895
 31
0.0
  0
LINE
  5
21F
330
1F
100
AcDbEntity
  8
0
  6
CONTINUOUS
 62
     7
100
AcDbLine
 10
-1075.151084531553
 20
180.9489162167989
 30
0.0
 11
-1075.151084531553
 21
179.4489162167989
 31
0.0
  0
LINE
  5
220
330
1F
100
AcDbEntity
  8
0
  6
CONTINUOUS
 62
     7
100
AcDbLine
 10
-1075.151084531553
 20
180.9489162167989
 30
0.0
 11
-1075.151084531553
 21
183.9904258923444
 31
0.0
  0
LINE
  5
221
330
1F
100
AcDbEntity
  8
0
  6
CONTINUOUS
 62
     7
100
AcDbLine
 10
-1048.151084531553
 20
358.7033803838896
 30
0.0
 11
-1048.151084531553
 21
351.6229080604412
 31
0.0
  0
LINE
  5
222
330
1F
100
AcDbEntity
  8
0
  6
CONTINUOUS
 62
     7
100
AcDbLine
 10
-975.1510845315531
 20
209.3787613062062
 30
0.0
 11
-975.1510845315531
 21
174.6530529529587
 31
0.0
  0
LINE
  5
223
330
1F
100
AcDbEntity
  8
0
  6
CONTINUOUS
 62
     7
100
AcDbLine
 10
-1048.151084531553
 20
350.0559207623334
 30
0.0
 11
-1048.151084531553
 21
349.3729080604412
 31
0.0
  0
LINE
  5
224
330
1F
100
AcDbEntity
  8
0
  6
CONTINUOUS
 62
     7
100
AcDbLine
 10
-1005.151084531553
 20
267.3868784279136
 30
0.0
 11
-1005.151084531553
 21
267.3948516893665
 31
0.0
  0
LINE
  5
225
330
1F
100
AcDbEntity
  8
0
  6
CONTINUOUS
 62
     7
100
AcDbLine
 10
-1075.151084531553
 20
253.7033803838895
 30
0.0
 11
-1075.651084531553
 21
253.7033803838895
 31
0.0
  0
LINE
  5
226
330
1F
100
AcDbEntity
  8
0
  6
CONTINUOUS
 62
     7
100
AcDbLine
 10
-1074.151084531553
 20
345.0244504086698
 30
0.0
 11
-1048.151084531553
 21
345.0244504086698
 31
0.0
  0
LINE
  5
227
330
1F
100
AcDbEntity
  8
0
  6
CONTINUOUS
 62
     7
100
AcDbLine
 10
-1075.151084531553
 20
344.4163348754346
 30
0.0
 11
-1075.151084531553
 21
347.4578445509801
 31
0.0
  0
LINE
  5
228
330
1F
100
AcDbEntity
  8
0
  6
CONTINUOUS
 62
     7
100
AcDbLine
 10
-1075.151084531553
 20
183.9904258923444
 30
0.0
 11
-1075.151084531553
 21
262.7033803838895
 31
0.0
  0
LINE
  5
229
330
1F
100
AcDbEntity
  8
0
  6
CONTINUOUS
 62
     7
100
AcDbLine
 10
-1074.151084531553
 20
183.3823103591092
 30
0.0
 11
-1074.651084531553
 21
183.4983617933476
 31
0.0
  0
LINE
  5
22A
330
1F
100
AcDbEntity
  8
0
  6
CONTINUOUS
 62
     7
100
AcDbLine
 10
-1048.151084531553
 20
178.3508400054457
 30
0.0
 11
-1048.151084531553
 21
176.8508400054457
 31
0.0
  0
LINE
  5
22B
330
1F
100
AcDbEntity
  8
0
  6
CONTINUOUS
 62
     7
100
AcDbLine
 10
-1075.151084531553
 20
265.7033803838895
 30
0.0
 11
-1075.151084531553
 21
344.4163348754346
 31
0.0
  0
LINE
  5
22C
330
1F
100
AcDbEntity
  8
0
  6
CONTINUOUS
 62
     7
100
AcDbLine
 10
-1075.151084531553
 20
348.95784455098
 30
0.0
 11
-1075.151084531553
 21
347.4578445509801
 31
0.0
  0
LINE
  5
22D
330
1F
100
AcDbEntity
  8
0
  6
CONTINUOUS
 62
     7
100
AcDbLine
 10
-1074.151084531553
 20
345.0244504086698
 30
0.0
 11
-1074.651084531553
 21
344.9083989744312
 31
0.0
  0
LINE
  5
22E
330
1F
100
AcDbEntity
  8
0
  6
CONTINUOUS
 62
     7
100
AcDbLine
 10
-1075.151084531553
 20
170.7033803838895
 30
0.0
 11
-1075.151084531553
 21
179.448916216799
 31
0.0
  0
LINE
  5
22F
330
1F
100
AcDbEntity
  8
0
  6
CONTINUOUS
 62
     7
100
AcDbLine
 10
-1048.151084531553
 20
179.0338527073378
 30
0.0
 11
-1048.151084531553
 21
178.3508400054457
 31
0.0
  0
LINE
  5
230
330
1F
100
AcDbEntity
  8
0
  6
CONTINUOUS
 62
     7
100
AcDbLine
 10
-1048.151084531553
 20
351.6229080604411
 30
0.0
 11
-1048.151084531553
 21
351.5559207623334
 31
0.0
  0
LINE
  5
231
330
1F
100
AcDbEntity
  8
0
  6
CONTINUOUS
 62
     7
100
AcDbLine
 10
-1048.151084531553
 20
176.7838527073379
 30
0.0
 11
-1048.151084531553
 21
169.7033803838896
 31
0.0
  0
LINE
  5
232
330
1F
100
AcDbEntity
  8
0
  6
CONTINUOUS
 62
     7
100
AcDbLine
 10
-975.1510845315531
 20
261.4990312252762
 30
0.0
 11
-975.1510845315531
 21
214.0628314503305
 31
0.0
  0
LINE
  5
233
330
1F
100
AcDbEntity
  8
0
  6
CONTINUOUS
 62
     7
100
AcDbLine
 10
-975.1510845315531
 20
171.9487037943453
 30
0.0
 11
-975.1510845315531
 21
159.2382123726472
 31
0.0
  0
LINE
  5
234
330
1F
100
AcDbEntity
  8
0
  6
CONTINUOUS
 62
     7
100
AcDbLine
 10
-1048.151084531553
 20
351.5559207623334
 30
0.0
 11
-1048.151084531553
 21
350.0559207623334
 31
0.0
  0
LINE
  5
235
330
1F
100
AcDbEntity
  8
0
  6
CONTINUOUS
 62
     7
100
AcDbLine
 10
-1075.151084531553
 20
271.7033803838895
 30
0.0
 11
-1075.651084531553
 21
271.7033803838895
 31
0.0
  0
LWPOLYLINE
  5
236
330
1F
100
AcDbEntity
  8
0
  6
CONTINUOUS
 62
     7
100
AcDbPolyline
 90
       34
 70
     0
 43
0.0
 10
1075.651084531553
 20
307.6294999415844
 10
1075.627067315644
 20
307.6289797255475
 10
1075.603037783009
 20
307.6274272702528
 10
1075.579078116765
 20
307.6248548649244
 10
1075.555270500028
 20
307.6212747987862
 10
1075.531697115913
 20
307.6166993610622
 10
1075.508440147538
 20
307.6111408409765
 10
1075.485581778017
 20
307.6046115277529
 10
1075.463113472581
 20
307.5970999367992
 10
1075.441020521093
 20
307.5886100686857
 10
1075.419375841446
 20
307.579177439708
 10
1075.39825235153
 20
307.5688375661611
 10
1075.377722969239
 20
307.5576259643401
 10
1075.357860612464
 20
307.5455781505405
 10
1075.338738199099
 20
307.5327296410572
 10
1075.32035196391
 20
307.5190669986924
 10
1075.302686434882
 20
307.5045896252745
 10
1075.285797043349
 20
307.4893523476728
 10
1075.269739220644
 20
307.4734099927567
 10
1075.2545683981
 20
307.4568173873955
 10
1075.24034000705
 20
307.4396293584583
 10
1075.227109478829
 20
307.4219007328145
 10
1075.21487825634
 20
307.4036177593765
 10
1075.203631827136
 20
307.3847753233496
 10
1075.193401883978
 20
307.3654414810742
 10
1075.184220119627
 20
307.3456842888909
 10
1075.176118226845
 20
307.3255718031401
 10
1075.169127898395
 20
307.3051720801624
 10
1075.163280827037
 20
307.2845531762982
 10
1075.15890924982
 20
307.2653734881316
 10
1075.155496673228
 20
307.2460104781095
 10
1075.153050255698
 20
307.2265211664898
 10
1075.151577155662
 20
307.2069625735306
 10
1075.151084531553
 20
307.1873917194897
210
0.0
220
0.0
230
-1.0
  0
LINE
  5
237
330
1F
100
AcDbEntity
  8
0
  6
CONTINUOUS
 62
     7
100
AcDbLine
 10
-1075.151084531553
 20
348.95784455098
 30
0.0
 11
-1075.151084531553
 21
348.9852945923624
 31
0.0
  0
LINE
  5
238
330
1F
100
AcDbEntity
  8
0
  6
CONTINUOUS
 62
     7
100
AcDbLine
 10
-975.1510845315531
 20
353.7537078148203
 30
0.0
 11
-975.1510845315531
 21
319.0279994615728
 31
0.0
  0
ELLIPSE
  5
239
330
1F
100
AcDbEntity
  8
0
  6
CONTINUOUS
 62
     7
100
AcDbEllipse
 10
-976.1510845315531
 20
218.5280325005521
 30
0.0
 11
-1.000000000000001
 21
0.0
 31
0.0
210
0.0
220
0.0
230
1.0
 40
0.4733196671848437
 41
3.141592653589793
 42
4.71238898038469
  0
LINE
  5
23A
330
1F
100
AcDbEntity
  8
0
  6
CONTINUOUS
 62
     7
100
AcDbLine
 10
-1008.151084531553
 20
261.5701915202825
 30
0.0
 11
-1008.151084531553
 21
218.7981894255755
 31
0.0
  0
LWPOLYLINE
  5
23B
330
1F
100
AcDbEntity
  8
0
  6
CONTINUOUS
 62
     7
100
AcDbPolyline
 90
       34
 70
     0
 43
0.0
 10
-1075.151084531553
 20
184.8308410519518
 10
-1075.151847931251
 20
184.8472194806869
 10
-1075.154132929379
 20
184.8636288529367
 10
-1075.157931724494
 20
184.8800115691122
 10
-1075.163236515151
 20
184.8963100296243
 10
-1075.170039499905
 20
184.9124666348843
 10
-1075.178332877309
 20
184.9284237853029
 10
-1075.188108845921
 20
184.9441238812913
 10
-1075.199359604295
 20
184.9595093232604
 10
-1075.210499426609
 20
184.9727737010001
 10
-1075.22284518582
 20
184.9858165436237
 10
-1075.236367921849
 20
184.9985874877246
 10
-1075.25103867462
 20
185.0110361698962
 10
-1075.266828484055
 20
185.0231122267319
 10
-1075.283708390077
 20
185.0347652948251
 10
-1075.301649432608
 20
185.0459450107692
 10
-1075.320622651572
 20
185.0566010111576
 10
-1075.337442513256
 20
185.0651652503221
 10
-1075.355048971255
 20
185.0733514546023
 10
-1075.373391219605
 20
185.0811254538288
 10
-1075.392418452337
 20
185.0884530778326
 10
-1075.412079863484
 20
185.0953001564445
 10
-1075.432324647081
 20
185.1016325194952
 10
-1075.453101997161
 20
185.1074159968156
 10
-1075.471822676481
 20
185.1120323955917
 10
-1075.490998141378
 20
185.1162120962203
 10
-1075.510565536651
 20
185.1199401955032
 10
-1075.530462007094
 20
185.1232017902419
 10
-1075.550624697502
 20
185.1259819772381
 10
-1075.570990752672
 20
185.1282658532934
 10
-1075.591497317399
 20
185.1300385152095
 10
-1075.612081536479
 20
185.1312850597879
 10
-1075.631562717181
 20
185.1319783229574
 10
-1075.651084531553
 20
185.1322099107012
  0
LINE
  5
23C
330
1F
100
AcDbEntity
  8
0
  6
CONTINUOUS
 62
     7
100
AcDbLine
 10
-1074.151084531553
 20
183.3823103591092
 30
0.0
 11
-1048.151084531553
 21
183.3823103591092
 31
0.0
  0
LWPOLYLINE
  5
23D
330
1F
100
AcDbEntity
  8
0
  6
CONTINUOUS
 62
     7
100
AcDbPolyline
 90
       37
 70
     0
 43
0.0
 10
-1008.151084531553
 20
309.6085713422036
 10
-1008.151074583781
 20
309.6072937186547
 10
-1008.150086777825
 20
309.5957800211399
 10
-1008.147475685944
 20
309.584271758357
 10
-1008.143232242951
 20
309.5727979579104
 10
-1008.137347383657
 20
309.5613876474047
 10
-1008.129549525567
 20
309.5497181426724
 10
-1008.119949427826
 20
309.5381409735354
 10
-1008.10852157001
 20
309.526696684068
 10
-1008.095240431691
 20
309.5154258183443
 10
-1008.081648514429
 20
309.505441893802
 10
-1008.066464332759
 20
309.4956386469224
 10
-1008.04966585024
 20
309.4860581671231
 10
-1008.03564714227
 20
309.4788746298295
 10
-1008.020616538678
 20
309.4718513606845
 10
-1008.004570438593
 20
309.4650155259632
 10
-1007.987505241148
 20
309.4583942919404
 10
-1007.970007905042
 20
309.4522135437729
 10
-1007.951510595717
 20
309.4462714173467
 10
-1007.932028615463
 20
309.4406015366066
 10
-1007.916380050509
 20
309.4364459902645
 10
-1007.900130396728
 20
309.4324767639927
 10
-1007.883303292251
 20
309.4287128824239
 10
-1007.865922375213
 20
309.4251733701913
 10
-1007.847312832785
 20
309.4217547456917
 10
-1007.828118020059
 20
309.4186077294679
 10
-1007.808392844005
 20
309.4157554707909
 10
-1007.79285315644
 20
309.4137713089573
 10
-1007.777017908121
 20
309.4119787427947
 10
-1007.760927252039
 20
309.4103871873851
 10
-1007.744621341191
 20
309.4090060578108
 10
-1007.729443117095
 20
309.4079268374408
 10
-1007.714112342699
 20
309.4070343816482
 10
-1007.698669609194
 20
309.4063335658295
 10
-1007.682863618394
 20
309.4058209332458
 10
-1007.666986088082
 20
309.4055119926675
 10
-1007.651084531553
 20
309.4054086000421
  0
LINE
  5
23E
330
1F
100
AcDbEntity
  8
0
  6
CONTINUOUS
 62
     7
100
AcDbLine
 10
-1008.151084531553
 20
309.6085713422036
 30
0.0
 11
-1008.151084531553
 21
266.8411324290183
 31
0.0
  0
LINE
  5
23F
330
1F
100
AcDbEntity
  8
0
  6
CONTINUOUS
 62
     7
100
AcDbLine
 10
-1048.151084531553
 20
176.8508400054457
 30
0.0
 11
-1048.151084531553
 21
176.7838527073379
 31
0.0
  0
LINE
  5
240
330
1F
100
AcDbEntity
  8
0
  6
CONTINUOUS
 62
     7
100
AcDbLine
 10
-1075.151084531553
 20
274.7033803838895
 30
0.0
 11
-1075.651084531553
 21
274.7033803838895
 31
0.0
  0
LINE
  5
241
330
1F
100
AcDbEntity
  8
0
  6
CONTINUOUS
 62
     7
100
AcDbLine
 10
-1075.151084531553
 20
256.7033803838895
 30
0.0
 11
-1075.651084531553
 21
256.7033803838895
 31
0.0
  0
LINE
  5
242
330
1F
100
AcDbEntity
  8
0
  6
CONTINUOUS
 62
     7
100
AcDbLine
 10
-1075.151084531553
 20
348.9852945923624
 30
0.0
 11
-1075.151084531553
 21
357.7033803838896
 31
0.0
  0
LINE
  5
243
330
1F
100
AcDbEntity
  8
0
  6
CONTINUOUS
 62
     7
100
AcDbLine
 10
-975.1510845315531
 20
369.1685483951317
 30
0.0
 11
-975.1510845315531
 21
356.4580569734336
 31
0.0
  0
ELLIPSE
  5
244
330
1F
100
AcDbEntity
  8
0
  6
CONTINUOUS
 62
     7
100
AcDbEllipse
 10
-976.1510845315531
 20
309.8787282672269
 30
0.0
 11
-1.000000000000001
 21
0.0
 31
0.0
210
0.0
220
0.0
230
-1.0
 40
0.4733196671848436
 41
3.141592653589793
 42
4.71238898038469
  0
LWPOLYLINE
  5
245
330
1F
100
AcDbEntity
  8
0
  6
CONTINUOUS
 62
     7
100
AcDbPolyline
 90
       37
 70
     0
 43
0.0
 10
-1007.651084531553
 20
219.0013521677369
 10
-1007.667487612879
 20
219.0012417023227
 10
-1007.683872811346
 20
219.0009121508694
 10
-1007.70018868527
 20
219.0003662805609
 10
-1007.716383792968
 20
218.9996068585813
 10
-1007.732998069559
 20
218.9985982234051
 10
-1007.749450339198
 20
218.9973686016816
 10
-1007.765694151076
 20
218.9959260443156
 10
-1007.781683054384
 20
218.9942786022122
 10
-1007.796884173667
 20
218.9924964984807
 10
-1007.811830659314
 20
218.9905346053336
 10
-1007.826494191432
 20
218.9884022606922
 10
-1007.840846450131
 20
218.9861088024782
 10
-1007.859948485331
 20
218.9827252699999
 10
-1007.87845380827
 20
218.9790701134173
 10
-1007.896321163561
 20
218.9751670523289
 10
-1007.914050258081
 20
218.9709050852603
 10
-1007.931106713681
 20
218.9664126598207
 10
-1007.947472545664
 20
218.9617118017196
 10
-1007.963129769333
 20
218.9568245366663
 10
-1007.983472106317
 20
218.9498427110788
 10
-1008.00254439657
 20
218.9425644142413
 10
-1008.020341611606
 20
218.9350324345493
 10
-1008.037107011374
 20
218.9271685362981
 10
-1008.052637481532
 20
218.9190906201097
 10
-1008.066944960128
 20
218.9108298039021
 10
-1008.080041385209
 20
218.9024172055937
 10
-1008.096091202998
 20
218.8906635053692
 10
-1008.110005544874
 20
218.878684507536
 10
-1008.121819378308
 20
218.8665354487592
 10
-1008.130611749871
 20
218.8556027154189
 10
-1008.137814099593
 20
218.8445751237685
 10
-1008.143443063214
 20
218.8334826325465
 10
-1008.147569431425
 20
218.8221721649547
 10
-1008.150111022716
 20
218.8108245204551
 10
-1008.151074583781
 20
218.7994670491244
 10
-1008.151084531553
 20
218.7981894255754
  0
LINE
  5
246
330
1F
100
AcDbEntity
  8
0
  6
CONTINUOUS
 62
     7
100
AcDbLine
 10
-1008.151084531553
 20
317.451379610004
 30
0.0
 11
-1008.151084531553
 21
312.92185175375
 31
0.0
  0
LINE
  5
247
330
1F
100
AcDbEntity
  8
0
  6
CONTINUOUS
 62
     7
100
AcDbLine
 10
-1008.151084531553
 20
210.955381157775
 30
0.0
 11
-1008.119799312674
 21
210.7282879805264
 31
0.0
  0
LINE
  5
248
330
1F
100
AcDbEntity
  8
0
  6
CONTINUOUS
 62
     7
100
AcDbLine
 10
-1008.151084531553
 20
215.4849090140291
 30
0.0
 11
-1008.151084531553
 21
210.9553811577753
 31
0.0
  0
LINE
  5
249
330
1F
100
AcDbEntity
  8
0
  6
CONTINUOUS
 62
     7
100
AcDbLine
 10
-970.1510845315531
 20
369.2033803838895
 30
0.0
 11
-970.1510845315531
 21
159.2033803838895
 31
0.0
  0
LINE
  5
24A
330
1F
100
AcDbEntity
  8
0
  6
CONTINUOUS
 62
     7
100
AcDbLine
 10
-1008.151084531553
 20
309.6085713422036
 30
0.0
 11
-1008.151084531553
 21
312.9218517537499
 31
0.0
  0
LWPOLYLINE
  5
24B
330
1F
100
AcDbEntity
  8
0
  6
CONTINUOUS
 62
     7
100
AcDbPolyline
 90
       34
 70
     0
 43
0.0
 10
1075.151084531553
 20
343.5759197158272
 10
1075.151847931251
 20
343.5595412870921
 10
1075.154132929379
 20
343.5431319148424
 10
1075.157931724494
 20
343.5267491986669
 10
1075.163236515151
 20
343.5104507381547
 10
1075.170039499905
 20
343.4942941328948
 10
1075.178332877309
 20
343.4783369824762
 10
1075.188108845921
 20
343.4626368864878
 10
1075.199359604295
 20
343.4472514445187
 10
1075.210499426609
 20
343.433987066779
 10
1075.22284518582
 20
343.4209442241553
 10
1075.236367921849
 20
343.4081732800544
 10
1075.25103867462
 20
343.3957245978828
 10
1075.266828484055
 20
343.3836485410471
 10
1075.283708390077
 20
343.3719954729539
 10
1075.301649432608
 20
343.3608157570098
 10
1075.320622651572
 20
343.3501597566214
 10
1075.337442513256
 20
343.3415955174569
 10
1075.355048971255
 20
343.3334093131767
 10
1075.373391219605
 20
343.3256353139502
 10
1075.392418452337
 20
343.3183076899464
 10
1075.412079863484
 20
343.3114606113346
 10
1075.432324647081
 20
343.3051282482838
 10
1075.453101997161
 20
343.2993447709634
 10
1075.471822676481
 20
343.2947283721874
 10
1075.490998141378
 20
343.2905486715587
 10
1075.510565536651
 20
343.2868205722758
 10
1075.530462007094
 20
343.2835589775371
 10
1075.550624697502
 20
343.2807787905409
 10
1075.570990752672
 20
343.2784949144856
 10
1075.591497317399
 20
343.2767222525695
 10
1075.612081536479
 20
343.2754757079912
 10
1075.631562717181
 20
343.2747824448216
 10
1075.651084531553
 20
343.2745508570778
210
0.0
220
0.0
230
-1.0
  0
LWPOLYLINE
  5
24C
330
1F
100
AcDbEntity
  8
0
  6
CONTINUOUS
 62
     7
100
AcDbPolyline
 90
        6
 70
     0
 43
0.0
 10
1075.151084531553
 20
344.4163348754346
 10
1075.130203910054
 20
344.5188390662082
 10
1075.066006882424
 20
344.6222156525371
 10
1074.980549993822
 20
344.7062225519918
 10
1074.980549993822
 20
344.7062225519918
 42
0.0534537309159818
 10
1074.651084531553
 20
344.9083989744312
210
0.0
220
0.0
230
-1.0
  0
LINE
  5
24D
330
1F
100
AcDbEntity
  8
0
  6
CONTINUOUS
 62
     7
100
AcDbLine
 10
-1048.151084531553
 20
349.3729080604412
 30
0.0
 11
-1048.151084531553
 21
345.0244504086698
 31
0.0
  0
LINE
  5
24E
330
1F
100
AcDbEntity
  8
0
  6
CONTINUOUS
 62
     7
100
AcDbLine
 10
-1008.151084531553
 20
261.5882562567793
 30
0.0
 11
-1008.138748283369
 21
261.5801778292232
 31
0.0
  0
LINE
  5
24F
330
1F
100
AcDbEntity
  8
0
  6
CONTINUOUS
 62
     7
100
AcDbLine
 10
-1008.151084531553
 20
266.8185045109997
 30
0.0
 11
-1008.151084531553
 21
261.5882562567797
 31
0.0
  0
LINE
  5
250
330
1F
100
AcDbEntity
  8
0
  6
CONTINUOUS
 62
     7
100
AcDbLine
 10
-975.1510845315531
 20
314.3439293174486
 30
0.0
 11
-975.1510845315531
 21
266.9077295425028
 31
0.0
  0
LINE
  5
251
330
1F
100
AcDbEntity
  8
0
  6
CONTINUOUS
 62
     7
100
AcDbLine
 10
-1048.151084531553
 20
179.0338527073378
 30
0.0
 11
-1048.151084531553
 21
183.3823103591092
 31
0.0
  0
LWPOLYLINE
  5
252
330
1F
100
AcDbEntity
  8
0
  6
CONTINUOUS
 62
     7
100
AcDbPolyline
 90
       28
 70
     0
 43
0.0
 10
1074.651084531553
 20
183.4983617933476
 10
1074.678049295021
 20
183.5119668532156
 10
1074.704490779327
 20
183.5255683469245
 10
1074.730312671521
 20
183.5391463583429
 10
1074.755418658654
 20
183.5526809713391
 10
1074.780775979995
 20
183.5667442855627
 10
1074.805336146796
 20
183.5807927374607
 10
1074.829050509999
 20
183.594811235577
 10
1074.851870420545
 20
183.6087846884554
 10
1074.876818385487
 20
183.6246891393938
 10
1074.900631834356
 20
183.640569330542
 10
1074.923289935481
 20
183.6564114908068
 10
1074.944771857188
 20
183.672201849095
 10
1074.972343038937
 20
183.6937837127902
 10
1074.997807757428
 20
183.7153167415955
 10
1075.021169769726
 20
183.7367792050751
 10
1075.042857673338
 20
183.7585906542341
 10
1075.062476716774
 20
183.7803734787154
 10
1075.080048617733
 20
183.8021130990187
 10
1075.09559509392
 20
183.8237949356438
 10
1075.113705299042
 20
183.8534709376183
 10
1075.128192700114
 20
183.8831193279516
 10
1075.139102354238
 20
183.9127133255431
 10
1075.144192285365
 20
183.9314567779912
 10
1075.147879153535
 20
183.9501945176481
 10
1075.150176152162
 20
183.9690020493179
 10
1075.151070994251
 20
183.9878099404962
 10
1075.151084531553
 20
183.9904258923444
210
0.0
220
0.0
230
-1.0
  0
LINE
  5
253
330
1F
100
AcDbEntity
  8
0
  6
CONTINUOUS
 62
     7
100
AcDbLine
 10
-1005.151084531553
 20
261.0119090784125
 30
0.0
 11
-1005.151084531553
 21
261.0198822692478
 31
0.0
  0
LINE
  5
254
330
1F
100
AcDbEntity
  8
0
  6
CONTINUOUS
 62
     7
100
AcDbLine
 10
-976.1510845315531
 20
309.4054086000421
 30
0.0
 11
-1007.651084531553
 21
309.4054086000421
 31
0.0
  0
LINE
  5
255
330
1F
100
AcDbEntity
  8
0
  6
CONTINUOUS
 62
     7
100
AcDbLine
 10
-976.1510845315531
 20
219.0013521677369
 30
0.0
 11
-1007.651084531553
 21
219.0013521677369
 31
0.0
  0
LWPOLYLINE
  5
256
330
1F
100
AcDbEntity
  8
0
  6
CONTINUOUS
 62
     7
100
AcDbPolyline
 90
       34
 70
     0
 43
0.0
 10
-1075.651084531553
 20
220.7772608261947
 10
-1075.627067315644
 20
220.7777810422316
 10
-1075.603037783009
 20
220.7793334975262
 10
-1075.579078116765
 20
220.7819059028546
 10
-1075.555270500028
 20
220.7854859689928
 10
-1075.531697115913
 20
220.7900614067168
 10
-1075.508440147538
 20
220.7956199268025
 10
-1075.485581778017
 20
220.8021492400261
 10
-1075.463113472581
 20
220.8096608309799
 10
-1075.441020521093
 20
220.8181506990933
 10
-1075.419375841446
 20
220.827583328071
 10
-1075.39825235153
 20
220.837923201618
 10
-1075.377722969239
 20
220.8491348034389
 10
-1075.357860612464
 20
220.8611826172386
 10
-1075.338738199099
 20
220.8740311267218
 10
-1075.32035196391
 20
220.8876937690866
 10
-1075.302686434882
 20
220.9021711425045
 10
-1075.285797043349
 20
220.9174084201062
 10
-1075.269739220644
 20
220.9333507750223
 10
-1075.2545683981
 20
220.9499433803836
 10
-1075.24034000705
 20
220.9671314093208
 10
-1075.227109478829
 20
220.9848600349645
 10
-1075.21487825634
 20
221.0031430084025
 10
-1075.203631827136
 20
221.0219854444295
 10
-1075.193401883978
 20
221.0413192867048
 10
-1075.184220119627
 20
221.0610764788881
 10
-1075.176118226845
 20
221.0811889646389
 10
-1075.169127898395
 20
221.1015886876166
 10
-1075.163280827037
 20
221.1222075914809
 10
-1075.15890924982
 20
221.1413872796474
 10
-1075.155496673228
 20
221.1607502896695
 10
-1075.153050255698
 20
221.1802396012892
 10
-1075.151577155662
 20
221.1997981942484
 10
-1075.151084531553
 20
221.2193690482893
  0
LINE
  5
257
330
1F
100
AcDbEntity
  8
0
  6
CONTINUOUS
 62
     7
100
AcDbLine
 10
-1008.132731221482
 20
317.6255046328956
 30
0.0
 11
-1008.151084531553
 21
317.451379610004
 31
0.0
  0
LWPOLYLINE
  5
258
330
1F
100
AcDbEntity
  8
0
  6
CONTINUOUS
 62
     7
100
AcDbPolyline
 90
       37
 70
     0
 43
0.0
 10
1007.651084531553
 20
182.9947428968133
 10
1007.667487612879
 20
182.9948307456566
 10
1007.683872811346
 20
182.9950928395153
 10
1007.70018868527
 20
182.9955269993826
 10
1007.716383792968
 20
182.9961310462517
 10
1007.732998069559
 20
182.9969333791436
 10
1007.749450339198
 20
182.9979116067455
 10
1007.765694151076
 20
182.9990593893672
 10
1007.781683054384
 20
183.000370387319
 10
1007.796884173667
 20
183.0017887793526
 10
1007.811830659314
 20
183.0033505521021
 10
1007.826494191432
 20
183.0050483521469
 10
1007.840846450131
 20
183.0068748260668
 10
1007.859948485331
 20
183.0095701639326
 10
1007.87845380827
 20
183.0124828750072
 10
1007.896321163561
 20
183.0155942783877
 10
1007.914050258081
 20
183.0189931519612
 10
1007.931106713681
 20
183.0225773404659
 10
1007.947472545664
 20
183.0263294909101
 10
1007.963129769333
 20
183.0302322503022
 10
1007.983472106317
 20
183.0358108884442
 10
1008.00254439657
 20
183.0416304486302
 10
1008.020341611606
 20
183.0476571901786
 10
1008.037107011374
 20
183.0539542911382
 10
1008.052637481532
 20
183.0604278048535
 10
1008.066944960128
 20
183.0670531411486
 10
1008.080041385209
 20
183.0738057098477
 10
1008.096091202998
 20
183.0832494820772
 10
1008.110005544874
 20
183.0928854401786
 10
1008.121819378308
 20
183.1026697327129
 10
1008.130611749871
 20
183.1114844792462
 10
1008.137814099593
 20
183.1203852859575
 10
1008.143443063214
 20
183.1293481991231
 10
1008.147569431425
 20
183.1384973526592
 10
1008.150111022716
 20
183.1476868084733
 10
1008.151074583781
 20
183.1568945015725
 10
1008.151084531553
 20
183.1579309397403
210
0.0
220
0.0
230
-1.0
  0
LINE
  5
259
330
1F
100
AcDbEntity
  8
0
  6
CONTINUOUS
 62
     7
100
AcDbLine
 10
-1008.151084531553
 20
210.9479656245565
 30
0.0
 11
-1008.151084531553
 21
210.6885968975365
 31
0.0
  0
LINE
  5
25A
330
1F
100
AcDbEntity
  8
0
  6
CONTINUOUS
 62
     7
100
AcDbLine
 10
-1008.151084531553
 20
210.6885968975365
 30
0.0
 11
-1008.151084531553
 21
183.1579309397404
 31
0.0
  0
ELLIPSE
  5
25B
330
1F
100
AcDbEntity
  8
0
  6
CONTINUOUS
 62
     7
100
AcDbEllipse
 10
-976.1510845315531
 20
182.1443906718177
 30
0.0
 11
-1.000000000000001
 21
0.0
 31
0.0
210
0.0
220
0.0
230
1.0
 40
0.8503522249955632
 41
3.141592653589793
 42
4.71238898038469
  0
ELLIPSE
  5
25C
330
1F
100
AcDbEntity
  8
0
  6
CONTINUOUS
 62
     7
100
AcDbEllipse
 10
-976.1510845315531
 20
346.2623700959613
 30
0.0
 11
-1.000000000000001
 21
0.0
 31
0.0
210
0.0
220
0.0
230
-1.0
 40
0.8503522249955627
 41
3.141592653589793
 42
4.71238898038469
  0
MTEXT
  5
25D
330
1F
100
AcDbEntity
  8
0
 62
     7
100
AcDbMText
 10
-808.0909090909092
 20
118.9454545454546
 30
0.0
 40
8.0
 41
0.0
 71
     1
 72
     1
  1
{\fＭＳ ゴシック;ＫＦＥＫＨ－１５０Ｐ}
  0
ARC
  5
25E
330
1F
100
AcDbEntity
  8
0
  6
CONTINUOUS
 62
     7
100
AcDbCircle
 10
-1108.651084531553
 20
169.7033803838895
 30
0.0
 40
2.000000000000002
100
AcDbArc
 50
180.0
 51
270.0
  0
LINE
  5
25F
330
1F
100
AcDbEntity
  8
0
  6
CONTINUOUS
 62
     7
100
AcDbLine
 10
-975.1510845315531
 20
319.2669298469172
 30
0.0
 11
-1005.151084531553
 21
319.2669298469172
 31
0.0
  0
ARC
  5
260
330
1F
100
AcDbEntity
  8
0
  6
CONTINUOUS
 62
     7
100
AcDbCircle
 10
-1005.264720044704
 20
174.801704168646
 30
0.0
 40
2.915790904698204
100
AcDbArc
 50
191.7109496806505
 51
272.2335225029325
  0
ARC
  5
261
330
1F
100
AcDbEntity
  8
0
  6
CONTINUOUS
 62
     7
100
AcDbCircle
 10
-834.1510845315531
 20
367.7033803838895
 30
0.0
 40
1.500000000000001
100
AcDbArc
 50
0.0
 51
11.53702088495058
  0
ARC
  5
262
330
1F
100
AcDbEntity
  8
0
  6
CONTINUOUS
 62
     7
100
AcDbCircle
 10
-834.1510845315531
 20
160.7033803838895
 30
0.0
 40
1.500000000000001
100
AcDbArc
 50
270.0000000000005
 51
0.0
  0
LINE
  5
263
330
1F
100
AcDbEntity
  8
0
  6
CONTINUOUS
 62
     7
100
AcDbLine
 10
-867.6510845315531
 20
178.2033803838895
 30
0.0
 11
-865.6510845315531
 21
178.2033803838895
 31
0.0
  0
ARC
  5
264
330
1F
100
AcDbEntity
  8
0
  6
CONTINUOUS
 62
     7
100
AcDbCircle
 10
-1072.306279715177
 20
179.6398043255864
 30
0.0
 40
2.860165238372836
100
AcDbArc
 50
186.7437607950058
 51
273.110449033676
  0
LINE
  5
265
330
1F
100
AcDbEntity
  8
0
  6
CONTINUOUS
 62
     7
100
AcDbLine
 10
-1048.151084531553
 20
358.7033803838896
 30
0.0
 11
-1074.151084531553
 21
358.7033803838896
 31
0.0
  0
LINE
  5
266
330
1F
100
AcDbEntity
  8
0
  6
CONTINUOUS
 62
     7
100
AcDbLine
 10
-1090.151084531553
 20
279.2033803838895
 30
0.0
 11
-1090.238573195079
 21
280.2033803838895
 31
0.0
  0
LINE
  5
267
330
1F
100
AcDbEntity
  8
0
  6
CONTINUOUS
 62
     7
100
AcDbLine
 10
-1099.063595868027
 20
280.2033803838895
 30
0.0
 11
-1099.151084531553
 21
279.2033803838895
 31
0.0
  0
LWPOLYLINE
  5
268
330
1F
100
AcDbEntity
  8
0
  6
CONTINUOUS
 62
     7
100
AcDbPolyline
 90
       10
 70
     0
 43
0.0
 10
-1005.151084531553
 20
267.3868784999903
 42
0.0195734215016964
 10
-1007.73840313196
 20
267.3126056646113
 10
-1007.837899370489
 20
267.2792756809609
 10
-1007.930912964627
 20
267.2277010226131
 10
-1008.010452657724
 20
267.1603909904918
 10
-1008.081350045773
 20
267.067691225207
 10
-1008.128617927893
 20
266.9616051790715
 10
-1008.149864116975
 20
266.8450260195866
 10
-1008.150710022273
 20
266.8199134044028
 10
-1008.150710022273
 20
266.8199134044028
  0
LINE
  5
269
330
1F
100
AcDbEntity
  8
0
  6
CONTINUOUS
 62
     7
100
AcDbLine
 10
-970.1510845315531
 20
369.2033803838895
 30
0.0
 11
-1005.151084531553
 21
369.2033803838895
 31
0.0
  0
LINE
  5
26A
330
1F
100
AcDbEntity
  8
0
  6
CONTINUOUS
 62
     7
100
AcDbLine
 10
-1075.146098672732
 20
349.1116719786085
 30
0.0
 11
-1075.151084531553
 21
348.95784455098
 31
0.0
  0
ARC
  5
26B
330
1F
100
AcDbEntity
  8
0
  6
CONTINUOUS
 62
     7
100
AcDbCircle
 10
-1074.151084531553
 20
170.7033803838895
 30
0.0
 40
1.000000000000001
100
AcDbArc
 50
180.0
 51
270.0
  0
ARC
  5
26C
330
1F
100
AcDbEntity
  8
0
  6
CONTINUOUS
 62
     7
100
AcDbCircle
 10
-1005.58227088742
 20
211.9024714605311
 30
0.0
 40
2.796015144141188
100
AcDbArc
 50
204.8300041582481
 51
278.8712484557203
  0
LINE
  5
26D
330
1F
100
AcDbEntity
  8
0
  6
CONTINUOUS
 62
     7
100
AcDbLine
 10
-975.1510845315531
 20
356.5187489896739
 30
0.0
 11
-1005.151084531553
 21
356.5187489896739
 31
0.0
  0
LINE
  5
26E
330
1F
100
AcDbEntity
  8
0
  6
CONTINUOUS
 62
     7
100
AcDbLine
 10
-1005.151084531553
 20
171.8880117781052
 30
0.0
 11
-975.1510845315531
 21
171.8880117781052
 31
0.0
  0
ARC
  5
26F
330
1F
100
AcDbEntity
  8
0
  6
CONTINUOUS
 62
     7
100
AcDbCircle
 10
-1005.151084531553
 20
366.2033803838895
 30
0.0
 40
3.000000000000003
100
AcDbArc
 50
90.0
 51
179.9999999999997
  0
ARC
  5
270
330
1F
100
AcDbEntity
  8
0
  6
CONTINUOUS
 62
     7
100
AcDbCircle
 10
-1005.151084531553
 20
162.2033803838895
 30
0.0
 40
3.000000000000003
100
AcDbArc
 50
180.0000000000002
 51
270.0
  0
LINE
  5
271
330
1F
100
AcDbEntity
  8
0
  6
CONTINUOUS
 62
     7
100
AcDbLine
 10
-586.6343591935157
 20
369.1926655514721
 30
0.0
 11
-586.6343591935157
 21
372.8218555907995
 31
0.0
  0
CIRCLE
  5
272
330
1F
100
AcDbEntity
  8
0
  6
CONTINUOUS
 62
     7
100
AcDbCircle
 10
-588.1103345667426
 20
265.2721495829832
 30
0.0
 40
108.9022992119604
  0
LINE
  5
273
330
1F
100
AcDbEntity
  8
0
  6
CONTINUOUS
 62
     7
100
AcDbLine
 10
-860.6510845315531
 20
178.2033803838895
 30
0.0
 11
-860.1510845315532
 21
178.2033803838895
 31
0.0
  0
LINE
  5
274
330
1F
100
AcDbEntity
  8
0
  6
CONTINUOUS
 62
     7
100
AcDbLine
 10
-1005.151084531553
 20
261.0119090784125
 30
0.0
 11
-975.1510845315531
 21
261.0119090784125
 31
0.0
  0
LINE
  5
275
330
1F
100
AcDbEntity
  8
0
  6
CONTINUOUS
 62
     7
100
AcDbLine
 10
-475.9987746221593
 20
305.9612524380764
 30
0.0
 11
-475.6380955206934
 21
264.6315210712454
 31
0.0
  0
LINE
  5
276
330
1F
100
AcDbEntity
  8
0
  6
CONTINUOUS
 62
     7
100
AcDbLine
 10
-1108.651084531553
 20
167.7033803838895
 30
0.0
 11
-1077.651084531553
 21
167.7033803838895
 31
0.0
  0
LINE
  5
277
330
1F
100
AcDbEntity
  8
0
  6
CONTINUOUS
 62
     7
100
AcDbLine
 10
-475.6380955206935
 20
264.6315210712454
 30
0.0
 11
-475.634359193519
 21
264.2033803838896
 31
0.0
  0
LINE
  5
278
330
1F
100
AcDbEntity
  8
0
  6
CONTINUOUS
 62
     7
100
AcDbLine
 10
-478.6344734286761
 20
264.2033803838896
 30
0.0
 11
-475.6343591935199
 21
264.2033803838896
 31
0.0
  0
LINE
  5
279
330
1F
100
AcDbEntity
  8
0
  6
CONTINUOUS
 62
     7
100
AcDbLine
 10
-975.1510845315531
 20
267.3948516893665
 30
0.0
 11
-1005.151084531553
 21
267.3948516893665
 31
0.0
  0
LINE
  5
27A
330
1F
100
AcDbEntity
  8
0
  6
CONTINUOUS
 62
     7
100
AcDbLine
 10
-546.3764871393288
 20
152.0677958125332
 30
0.0
 11
-587.7062185061598
 21
151.7071167110673
 31
0.0
  0
LINE
  5
27B
330
1F
100
AcDbEntity
  8
0
  6
CONTINUOUS
 62
     7
100
AcDbLine
 10
-629.8922312477024
 20
376.3389649552458
 30
0.0
 11
-588.5624998808715
 21
376.6996440567117
 31
0.0
  0
LINE
  5
27C
330
1F
100
AcDbEntity
  8
0
  6
CONTINUOUS
 62
     7
100
AcDbLine
 10
-589.6343591935156
 20
369.1926655514721
 30
0.0
 11
-589.6343591935156
 21
372.8218555907995
 31
0.0
  0
LINE
  5
27D
330
1F
100
AcDbEntity
  8
0
  6
CONTINUOUS
 62
     7
100
AcDbLine
 10
-587.7062185061598
 20
151.7071167110673
 30
0.0
 11
-588.1343591935156
 21
151.7033803838929
 31
0.0
  0
ARC
  5
27E
330
1F
100
AcDbEntity
  8
0
  6
CONTINUOUS
 62
     7
100
AcDbCircle
 10
860.6510845315531
 20
177.7033803838895
 30
0.0
 40
0.5000000000000004
210
0.0
220
0.0
230
-1.0
100
AcDbArc
 50
0.0
 51
90.0
  0
LINE
  5
27F
330
1F
100
AcDbEntity
  8
0
  6
CONTINUOUS
 62
     7
100
AcDbLine
 10
-588.5624998808715
 20
376.6996440567117
 30
0.0
 11
-588.1343591935156
 21
376.7033803838861
 31
0.0
  0
LINE
  5
280
330
1F
100
AcDbEntity
  8
0
  6
CONTINUOUS
 62
     7
100
AcDbLine
 10
-700.2699437648721
 20
222.4455083297027
 30
0.0
 11
-700.630622866338
 21
263.7752396965336
 31
0.0
  0
LINE
  5
281
330
1F
100
AcDbEntity
  8
0
  6
CONTINUOUS
 62
     7
100
AcDbLine
 10
-1005.151084531553
 20
209.1398309208618
 30
0.0
 11
-975.1510845315531
 21
209.1398309208618
 31
0.0
  0
LINE
  5
282
330
1F
100
AcDbEntity
  8
0
  6
CONTINUOUS
 62
     7
100
AcDbLine
 10
-700.630622866338
 20
263.7752396965336
 30
0.0
 11
-700.6343591935122
 21
264.2033803838895
 31
0.0
  0
LINE
  5
283
330
1F
100
AcDbEntity
  8
0
  6
CONTINUOUS
 62
     7
100
AcDbLine
 10
-1072.151084531553
 20
176.7838527073379
 30
0.0
 11
-1048.151084531553
 21
176.7838527073379
 31
0.0
  0
ARC
  5
284
330
1F
100
AcDbEntity
  8
0
  6
CONTINUOUS
 62
     7
100
AcDbCircle
 10
546.9960711597133
 20
305.3416684176918
 30
0.0
 40
70.99999999999996
210
0.0
220
0.0
230
-1.0
100
AcDbArc
 50
90.5
 51
179.5
  0
LINE
  5
285
330
1F
100
AcDbEntity
  8
0
  6
CONTINUOUS
 62
     7
100
AcDbLine
 10
-475.634359193519
 20
264.2033803838895
 30
0.0
 11
-475.9987746221593
 21
222.4455083297027
 31
0.0
  0
LINE
  5
286
330
1F
100
AcDbEntity
  8
0
  6
CONTINUOUS
 62
     7
100
AcDbLine
 10
-1048.151084531553
 20
351.6229080604411
 30
0.0
 11
-1072.151084531553
 21
351.6229080604411
 31
0.0
  0
LINE
  5
287
330
1F
100
AcDbEntity
  8
0
  6
CONTINUOUS
 62
     7
100
AcDbLine
 10
-1005.151084531553
 20
159.2033803838895
 30
0.0
 11
-970.1510845315532
 21
159.2033803838895
 31
0.0
  0
LINE
  5
288
330
1F
100
AcDbEntity
  8
0
  6
CONTINUOUS
 62
     7
100
AcDbLine
 10
-700.6343591935114
 20
264.2033803838895
 30
0.0
 11
-697.6342449583552
 21
264.2033803838895
 31
0.0
  0
ARC
  5
289
330
1F
100
AcDbEntity
  8
0
  6
CONTINUOUS
 62
     7
100
AcDbCircle
 10
-1072.298839263665
 20
348.7575141127206
 30
0.0
 40
2.869200922991405
100
AcDbArc
 50
87.04814371905373
 51
172.9096512615249
  0
LWPOLYLINE
  5
28A
330
1F
100
AcDbEntity
  8
0
  6
CONTINUOUS
 62
     7
100
AcDbPolyline
 90
        9
 70
     0
 43
0.0
 10
-1008.138747880086
 20
261.5801776974441
 10
-1008.12527239289
 20
261.4714202177901
 10
-1008.086838704934
 20
261.3667906431629
 10
-1008.022474987514
 20
261.2700960519615
 10
-1007.943382343037
 20
261.1959858234083
 10
-1007.855773816567
 20
261.1435576736386
 10
-1007.733175951509
 20
261.1043821670222
 10
-1007.733175951508
 20
261.1043821670222
 42
0.0233848921966042
 10
-1005.151084531553
 20
261.0198822677887
  0
ARC
  5
28B
330
1F
100
AcDbEntity
  8
0
  6
CONTINUOUS
 62
     7
100
AcDbCircle
 10
-1005.252569776844
 20
353.5948305372405
 30
0.0
 40
2.925562545740079
100
AcDbArc
 50
88.01205992092673
 51
169.8930234174313
  0
ARC
  5
28C
330
1F
100
AcDbEntity
  8
0
  6
CONTINUOUS
 62
     7
100
AcDbCircle
 10
588.1343591935156
 20
264.2033803838895
 30
0.0
 40
108.6288320671549
210
0.0
220
0.0
230
-1.0
100
AcDbArc
 50
89.20880673134837
 51
90.79119326865163
  0
ARC
  5
28D
330
1F
100
AcDbEntity
  8
0
  6
CONTINUOUS
 62
     7
100
AcDbCircle
 10
546.9960711597133
 20
223.0650923500872
 30
0.0
 40
71.0
210
0.0
220
0.0
230
-1.0
100
AcDbArc
 50
180.5
 51
269.5000000000001
  0
LINE
  5
28E
330
1F
100
AcDbEntity
  8
0
  6
CONTINUOUS
 62
     7
100
AcDbLine
 10
-588.1343591935156
 20
151.7033803838929
 30
0.0
 11
-629.8922312477024
 21
152.0677958125332
 31
0.0
  0
ARC
  5
28F
330
1F
100
AcDbEntity
  8
0
  6
CONTINUOUS
 62
     7
100
AcDbCircle
 10
629.2726472273179
 20
223.0650923500872
 30
0.0
 40
71.0
210
0.0
220
0.0
230
-1.0
100
AcDbArc
 50
270.5000000000001
 51
359.5000000000001
  0
ARC
  5
290
330
1F
100
AcDbEntity
  8
0
  6
CONTINUOUS
 62
     7
100
AcDbCircle
 10
-1074.151084531553
 20
357.7033803838896
 30
0.0
 40
1.000000000000001
100
AcDbArc
 50
90.0
 51
180.0
  0
ARC
  5
291
330
1F
100
AcDbEntity
  8
0
  6
CONTINUOUS
 62
     7
100
AcDbCircle
 10
629.272647227318
 20
305.3416684176918
 30
0.0
 40
70.99999999999999
210
0.0
220
0.0
230
-1.0
100
AcDbArc
 50
0.5000000000000023
 51
89.5
  0
ARC
  5
292
330
1F
100
AcDbEntity
  8
0
  6
CONTINUOUS
 62
     7
100
AcDbCircle
 10
867.6510845315531
 20
177.7033803838895
 30
0.0
 40
0.5000000000000004
210
0.0
220
0.0
230
-1.0
100
AcDbArc
 50
0.0
 51
90.0
  0
LINE
  5
293
330
1F
100
AcDbEntity
  8
0
  6
CONTINUOUS
 62
     7
100
AcDbLine
 10
-874.6510845315531
 20
178.2033803838895
 30
0.0
 11
-872.6510845315531
 21
178.2033803838895
 31
0.0
  0
LINE
  5
294
330
1F
100
AcDbEntity
  8
0
  6
CONTINUOUS
 62
     7
100
AcDbLine
 10
-1075.151084531553
 20
179.4489162167989
 30
0.0
 11
-1075.146656186059
 21
179.3039372470348
 31
0.0
  0
LINE
  5
295
330
1F
100
AcDbEntity
  8
0
  6
CONTINUOUS
 62
     7
100
AcDbLine
 10
-586.6343591935157
 20
371.6080693545222
 30
0.0
 11
-589.6343591935157
 21
371.6080693545222
 31
0.0
  0
LINE
  5
296
330
1F
100
AcDbEntity
  8
0
  6
CONTINUOUS
 62
     7
100
AcDbLine
 10
-588.1343591935156
 20
374.1794211879194
 30
0.0
 11
-588.1343591935156
 21
376.7033803838852
 31
0.0
  0
LINE
  5
297
330
1F
100
AcDbEntity
  8
0
  6
CONTINUOUS
 62
     7
100
AcDbLine
 10
-588.1343591935156
 20
151.7033803838938
 30
0.0
 11
-588.1343591935156
 21
154.70349461905
 31
0.0
  0
ARC
  5
298
330
1F
100
AcDbEntity
  8
0
  6
CONTINUOUS
 62
     7
100
AcDbCircle
 10
-1077.651084531553
 20
169.7033803838895
 30
0.0
 40
2.000000000000002
100
AcDbArc
 50
270.0
 51
0.0
  0
LINE
  5
299
330
1F
100
AcDbEntity
  8
0
  6
CONTINUOUS
 62
     7
100
AcDbLine
 10
-588.1343591935156
 20
376.7033803838861
 30
0.0
 11
-546.3764871393288
 21
376.3389649552458
 31
0.0
  0
LINE
  5
29A
330
1F
100
AcDbEntity
  8
0
  6
CONTINUOUS
 62
     7
100
AcDbLine
 10
-872.6510845315531
 20
350.2033803838895
 30
0.0
 11
-874.6510845315531
 21
350.2033803838895
 31
0.0
  0
LINE
  5
29B
330
1F
100
AcDbEntity
  8
0
  6
CONTINUOUS
 62
     7
100
AcDbLine
 10
-1074.151084531553
 20
169.7033803838895
 30
0.0
 11
-1048.151084531553
 21
169.7033803838895
 31
0.0
  0
LINE
  5
29C
330
1F
100
AcDbEntity
  8
0
  6
CONTINUOUS
 62
     7
100
AcDbLine
 10
-865.6510845315531
 20
350.2033803838895
 30
0.0
 11
-867.6510845315531
 21
350.2033803838895
 31
0.0
  0
LWPOLYLINE
  5
29D
330
1F
100
AcDbEntity
  8
0
  6
CONTINUOUS
 62
     7
100
AcDbPolyline
 90
        3
 70
     0
 43
0.0
 10
-1005.151084531553
 20
319.2668567748007
 42
0.2524381873970508
 10
-1007.996385534271
 20
318.0428501447456
 42
0.0867957710461502
 10
-1008.132732914242
 20
317.6254966273781
  0
LINE
  5
29E
330
1F
100
AcDbEntity
  8
0
  6
CONTINUOUS
 62
     7
100
AcDbLine
 10
-668.5690257210084
 20
331.696079400976
 30
0.0
 11
-667.4199590563298
 21
330.7318979864463
 31
0.0
  0
LINE
  5
29F
330
1F
100
AcDbEntity
  8
0
  6
CONTINUOUS
 62
     7
100
AcDbLine
 10
-525.791416510596
 20
189.9059544686251
 30
0.0
 11
-521.6058415909588
 21
184.9177805210753
 31
0.0
  0
LINE
  5
2A0
330
1F
100
AcDbEntity
  8
0
  6
CONTINUOUS
 62
     7
100
AcDbLine
 10
-650.4773018764353
 20
338.5008062991539
 30
0.0
 11
-654.6628767960725
 21
343.4889802467037
 31
0.0
  0
ARC
  5
2A1
330
1F
100
AcDbEntity
  8
0
  6
CONTINUOUS
 62
     7
100
AcDbCircle
 10
-673.8706718337605
 20
309.5717029763567
 30
0.0
 40
1.500000000000011
100
AcDbArc
 50
242.9999999999996
 51
332.1139474746099
  0
ARC
  5
2A2
330
1F
100
AcDbEntity
  8
0
  6
CONTINUOUS
 62
     7
100
AcDbCircle
 10
-588.1343591935156
 20
264.2033803838895
 30
0.0
 40
105.0
100
AcDbArc
 50
243.0
 51
297.0
  0
LINE
  5
2A3
330
1F
100
AcDbEntity
  8
0
  6
CONTINUOUS
 62
     7
100
AcDbLine
 10
-700.6343591935122
 20
264.2033803838895
 30
0.0
 11
-700.269943764872
 21
305.9612524380763
 31
0.0
  0
ARC
  5
2A4
330
1F
100
AcDbEntity
  8
0
  6
CONTINUOUS
 62
     7
100
AcDbCircle
 10
512.8727518637215
 20
325.3972564021307
 30
0.0
 40
1.499999999999989
210
0.0
220
0.0
230
-1.0
100
AcDbArc
 50
320.886052525385
 51
49.99999999999978
  0
ARC
  5
2A5
330
1F
100
AcDbEntity
  8
0
  6
CONTINUOUS
 62
     7
100
AcDbCircle
 10
502.3980465532707
 20
309.5717029763568
 30
0.0
 40
1.500000000000023
210
0.0
220
0.0
230
-1.0
100
AcDbArc
 50
242.9999999999997
 51
332.1139474746097
  0
LINE
  5
2A6
330
1F
100
AcDbEntity
  8
0
  6
CONTINUOUS
 62
     7
100
AcDbLine
 10
-650.4773018764353
 20
189.9059544686251
 30
0.0
 11
-654.6628767960725
 21
184.9177805210753
 31
0.0
  0
ARC
  5
2A7
330
1F
100
AcDbEntity
  8
0
  6
CONTINUOUS
 62
     7
100
AcDbCircle
 10
673.8706718337605
 20
218.8350577914223
 30
0.0
 40
1.500000000000035
210
0.0
220
0.0
230
-1.0
100
AcDbArc
 50
62.99999999999974
 51
152.1139474746097
  0
ARC
  5
2A8
330
1F
100
AcDbEntity
  8
0
  6
CONTINUOUS
 62
     7
100
AcDbCircle
 10
649.3282352117568
 20
339.4649877136837
 30
0.0
 40
1.500000000000006
210
0.0
220
0.0
230
-1.0
100
AcDbArc
 50
230.886052525385
 51
319.9999999999997
  0
LINE
  5
2A9
330
1F
100
AcDbEntity
  8
0
  6
CONTINUOUS
 62
     7
100
AcDbLine
 10
-635.1223759165587
 20
356.4225556373855
 30
0.0
 11
-632.1661719997003
 21
350.6206787737438
 31
0.0
  0
LINE
  5
2AA
330
1F
100
AcDbEntity
  8
0
  6
CONTINUOUS
 62
     7
100
AcDbLine
 10
-513.8369332782513
 20
201.8604377009699
 30
0.0
 11
-508.8487593307014
 21
197.6748627813327
 31
0.0
  0
ARC
  5
2AB
330
1F
100
AcDbEntity
  8
0
  6
CONTINUOUS
 62
     7
100
AcDbCircle
 10
-588.1343591935156
 20
264.2033803838895
 30
0.0
 40
105.0
100
AcDbArc
 50
63.00000000000003
 51
89.18146102102692
  0
ARC
  5
2AC
330
1F
100
AcDbEntity
  8
0
  6
CONTINUOUS
 62
     7
100
AcDbCircle
 10
-588.1343591935156
 20
264.2033803838895
 30
0.0
 40
95.49999999999994
100
AcDbArc
 50
27.88605252538693
 51
39.11394747461306
  0
ARC
  5
2AD
330
1F
100
AcDbEntity
  8
0
  6
CONTINUOUS
 62
     7
100
AcDbCircle
 10
-502.3980465532707
 20
218.8350577914223
 30
0.0
 40
1.500000000000011
100
AcDbArc
 50
62.99999999999962
 51
152.1139474746097
  0
ARC
  5
2AE
330
1F
100
AcDbEntity
  8
0
  6
CONTINUOUS
 62
     7
100
AcDbCircle
 10
-633.5026817859828
 20
178.4670677436446
 30
0.0
 40
1.500000000000029
100
AcDbArc
 50
332.9999999999997
 51
62.11394747460969
  0
LINE
  5
2AF
330
1F
100
AcDbEntity
  8
0
  6
CONTINUOUS
 62
     7
100
AcDbLine
 10
-495.9151839400195
 20
311.1913971069326
 30
0.0
 11
-501.7170608036613
 21
308.2351931900743
 31
0.0
  0
ARC
  5
2B0
330
1F
100
AcDbEntity
  8
0
  6
CONTINUOUS
 62
     7
100
AcDbCircle
 10
588.1343591935156
 20
264.2033803838895
 30
0.0
 40
95.49999999999996
210
0.0
220
0.0
230
-1.0
100
AcDbArc
 50
27.88605252538688
 51
39.11394747461294
  0
LINE
  5
2B1
330
1F
100
AcDbEntity
  8
0
  6
CONTINUOUS
 62
     7
100
AcDbLine
 10
-525.791416510596
 20
338.5008062991539
 30
0.0
 11
-521.6058415909588
 21
343.4889802467038
 31
0.0
  0
LINE
  5
2B2
330
1F
100
AcDbEntity
  8
0
  6
CONTINUOUS
 62
     7
100
AcDbLine
 10
-680.3535344470117
 20
217.2153636608464
 30
0.0
 11
-674.55165758337
 21
220.1715675777048
 31
0.0
  0
ARC
  5
2B3
330
1F
100
AcDbEntity
  8
0
  6
CONTINUOUS
 62
     7
100
AcDbCircle
 10
542.7660366010484
 20
178.4670677436446
 30
0.0
 40
1.500000000000004
210
0.0
220
0.0
230
-1.0
100
AcDbArc
 50
332.9999999999998
 51
62.11394747460969
  0
LINE
  5
2B4
330
1F
100
AcDbEntity
  8
0
  6
CONTINUOUS
 62
     7
100
AcDbLine
 10
-668.5690257210083
 20
196.7106813668029
 30
0.0
 11
-667.4199590563298
 21
197.6748627813327
 31
0.0
  0
LINE
  5
2B5
330
1F
100
AcDbEntity
  8
0
  6
CONTINUOUS
 62
     7
100
AcDbLine
 10
-541.1463424704725
 20
356.4225556373856
 30
0.0
 11
-544.102546387331
 21
350.6206787737438
 31
0.0
  0
LINE
  5
2B6
330
1F
100
AcDbEntity
  8
0
  6
CONTINUOUS
 62
     7
100
AcDbLine
 10
-655.6270582106023
 20
183.7687138563968
 30
0.0
 11
-654.6628767960725
 21
184.9177805210753
 31
0.0
  0
LINE
  5
2B7
330
1F
100
AcDbEntity
  8
0
  6
CONTINUOUS
 62
     7
100
AcDbLine
 10
-520.6416601764291
 20
344.6380469113822
 30
0.0
 11
-521.6058415909589
 21
343.4889802467038
 31
0.0
  0
LINE
  5
2B8
330
1F
100
AcDbEntity
  8
0
  6
CONTINUOUS
 62
     7
100
AcDbLine
 10
-495.9151839400195
 20
217.2153636608464
 30
0.0
 11
-501.7170608036613
 21
220.1715675777048
 31
0.0
  0
LINE
  5
2B9
330
1F
100
AcDbEntity
  8
0
  6
CONTINUOUS
 62
     7
100
AcDbLine
 10
-586.6343591935157
 20
369.1926655514721
 30
0.0
 11
-586.6343591935157
 21
368.0033803838895
 31
0.0
  0
ARC
  5
2BA
330
1F
100
AcDbEntity
  8
0
  6
CONTINUOUS
 62
     7
100
AcDbCircle
 10
526.9404831752744
 20
188.9417730540953
 30
0.0
 40
1.499999999999989
210
0.0
220
0.0
230
-1.0
100
AcDbArc
 50
50.88605252538501
 51
139.9999999999997
  0
ARC
  5
2BB
330
1F
100
AcDbEntity
  8
0
  6
CONTINUOUS
 62
     7
100
AcDbCircle
 10
-588.1343591935156
 20
264.2033803838895
 30
0.0
 40
95.49999999999999
100
AcDbArc
 50
297.8860525253869
 51
309.1139474746131
  0
ARC
  5
2BC
330
1F
100
AcDbEntity
  8
0
  6
CONTINUOUS
 62
     7
100
AcDbCircle
 10
-588.1343591935156
 20
264.2033803838895
 30
0.0
 40
105.0
100
AcDbArc
 50
90.81853897897308
 51
117.0
  0
ARC
  5
2BD
330
1F
100
AcDbEntity
  8
0
  6
CONTINUOUS
 62
     7
100
AcDbCircle
 10
-663.3959665233098
 20
325.3972564021306
 30
0.0
 40
1.499999999999971
100
AcDbArc
 50
320.8860525253855
 51
50.00000000000011
  0
LINE
  5
2BE
330
1F
100
AcDbEntity
  8
0
  6
CONTINUOUS
 62
     7
100
AcDbLine
 10
-662.43178510878
 20
201.8604377009699
 30
0.0
 11
-667.4199590563298
 21
197.6748627813327
 31
0.0
  0
ARC
  5
2BF
330
1F
100
AcDbEntity
  8
0
  6
CONTINUOUS
 62
     7
100
AcDbCircle
 10
-588.1343591935156
 20
264.2033803838895
 30
0.0
 40
95.49999999999997
100
AcDbArc
 50
117.8860525253869
 51
129.113947474613
  0
ARC
  5
2C0
330
1F
100
AcDbEntity
  8
0
  6
CONTINUOUS
 62
     7
100
AcDbCircle
 10
633.5026817859829
 20
349.9396930241344
 30
0.0
 40
1.500000000000035
210
0.0
220
0.0
230
-1.0
100
AcDbArc
 50
152.9999999999997
 51
242.1139474746095
  0
ARC
  5
2C1
330
1F
100
AcDbEntity
  8
0
  6
CONTINUOUS
 62
     7
100
AcDbCircle
 10
-542.7660366010485
 20
349.9396930241344
 30
0.0
 40
1.500000000000011
100
AcDbArc
 50
152.9999999999996
 51
242.1139474746097
  0
ARC
  5
2C2
330
1F
100
AcDbEntity
  8
0
  6
CONTINUOUS
 62
     7
100
AcDbCircle
 10
588.1343591935156
 20
264.2033803838895
 30
0.0
 40
95.49999999999993
210
0.0
220
0.0
230
-1.0
100
AcDbArc
 50
117.8860525253869
 51
129.113947474613
  0
LINE
  5
2C3
330
1F
100
AcDbEntity
  8
0
  6
CONTINUOUS
 62
     7
100
AcDbLine
 10
-680.3535344470117
 20
311.1913971069325
 30
0.0
 11
-681.6900442332942
 21
311.8723828565418
 31
0.0
  0
LINE
  5
2C4
330
1F
100
AcDbEntity
  8
0
  6
CONTINUOUS
 62
     7
100
AcDbLine
 10
-513.8369332782513
 20
326.5463230668091
 30
0.0
 11
-508.8487593307014
 21
330.7318979864464
 31
0.0
  0
LINE
  5
2C5
330
1F
100
AcDbEntity
  8
0
  6
CONTINUOUS
 62
     7
100
AcDbLine
 10
-541.1463424704725
 20
171.9842051303935
 30
0.0
 11
-540.4653567208632
 21
170.6476953441109
 31
0.0
  0
ARC
  5
2C6
330
1F
100
AcDbEntity
  8
0
  6
CONTINUOUS
 62
     7
100
AcDbCircle
 10
588.1343591935156
 20
264.2033803838895
 30
0.0
 40
95.49999999999996
210
0.0
220
0.0
230
-1.0
100
AcDbArc
 50
297.8860525253869
 51
309.1139474746129
  0
ARC
  5
2C7
330
1F
100
AcDbEntity
  8
0
  6
CONTINUOUS
 62
     7
100
AcDbCircle
 10
663.3959665233098
 20
203.0095043656484
 30
0.0
 40
1.499999999999946
210
0.0
220
0.0
230
-1.0
100
AcDbArc
 50
140.886052525385
 51
229.9999999999997
  0
LINE
  5
2C8
330
1F
100
AcDbEntity
  8
0
  6
CONTINUOUS
 62
     7
100
AcDbLine
 10
-680.3535344470117
 20
311.1913971069326
 30
0.0
 11
-674.55165758337
 21
308.2351931900742
 31
0.0
  0
LINE
  5
2C9
330
1F
100
AcDbEntity
  8
0
  6
CONTINUOUS
 62
     7
100
AcDbLine
 10
-586.6343591935157
 20
368.0033803838895
 30
0.0
 11
-589.6343591935157
 21
368.0033803838895
 31
0.0
  0
ARC
  5
2CA
330
1F
100
AcDbEntity
  8
0
  6
CONTINUOUS
 62
     7
100
AcDbCircle
 10
-588.1343591935156
 20
264.2033803838895
 30
0.0
 40
105.0
100
AcDbArc
 50
220.0
 51
230.0
  0
LINE
  5
2CB
330
1F
100
AcDbEntity
  8
0
  6
CONTINUOUS
 62
     7
100
AcDbLine
 10
-541.1463424704725
 20
356.4225556373856
 30
0.0
 11
-540.4653567208633
 21
357.7590654236681
 31
0.0
  0
ARC
  5
2CC
330
1F
100
AcDbEntity
  8
0
  6
CONTINUOUS
 62
     7
100
AcDbCircle
 10
-588.1343591935156
 20
264.2033803838895
 30
0.0
 40
105.0
100
AcDbArc
 50
130.0
 51
140.0
  0
LINE
  5
2CD
330
1F
100
AcDbEntity
  8
0
  6
CONTINUOUS
 62
     7
100
AcDbLine
 10
-635.1223759165587
 20
171.9842051303934
 30
0.0
 11
-635.803361666168
 21
170.6476953441109
 31
0.0
  0
LINE
  5
2CE
330
1F
100
AcDbEntity
  8
0
  6
CONTINUOUS
 62
     7
100
AcDbLine
 10
-507.699692666023
 20
331.6960794009761
 30
0.0
 11
-508.8487593307014
 21
330.7318979864463
 31
0.0
  0
ARC
  5
2CF
330
1F
100
AcDbEntity
  8
0
  6
CONTINUOUS
 62
     7
100
AcDbCircle
 10
-512.8727518637215
 20
203.0095043656484
 30
0.0
 40
1.499999999999989
100
AcDbArc
 50
140.8860525253856
 51
230.0000000000001
  0
LINE
  5
2D0
330
1F
100
AcDbEntity
  8
0
  6
CONTINUOUS
 62
     7
100
AcDbLine
 10
-541.1463424704725
 20
171.9842051303935
 30
0.0
 11
-544.102546387331
 21
177.7860819940352
 31
0.0
  0
LINE
  5
2D1
330
1F
100
AcDbEntity
  8
0
  6
CONTINUOUS
 62
     7
100
AcDbLine
 10
-635.1223759165587
 20
356.4225556373855
 30
0.0
 11
-635.803361666168
 21
357.7590654236681
 31
0.0
  0
LINE
  5
2D2
330
1F
100
AcDbEntity
  8
0
  6
CONTINUOUS
 62
     7
100
AcDbLine
 10
-635.1223759165587
 20
171.9842051303934
 30
0.0
 11
-632.1661719997003
 21
177.7860819940352
 31
0.0
  0
ARC
  5
2D3
330
1F
100
AcDbEntity
  8
0
  6
CONTINUOUS
 62
     7
100
AcDbCircle
 10
-649.3282352117567
 20
188.9417730540953
 30
0.0
 40
1.499999999999982
100
AcDbArc
 50
50.88605252538554
 51
140.0000000000001
  0
LINE
  5
2D4
330
1F
100
AcDbEntity
  8
0
  6
CONTINUOUS
 62
     7
100
AcDbLine
 10
-662.43178510878
 20
326.5463230668091
 30
0.0
 11
-667.4199590563298
 21
330.7318979864463
 31
0.0
  0
ARC
  5
2D5
330
1F
100
AcDbEntity
  8
0
  6
CONTINUOUS
 62
     7
100
AcDbCircle
 10
-526.9404831752745
 20
339.4649877136837
 30
0.0
 40
1.499999999999989
100
AcDbArc
 50
230.8860525253856
 51
320.0000000000001
  0
LINE
  5
2D6
330
1F
100
AcDbEntity
  8
0
  6
CONTINUOUS
 62
     7
100
AcDbLine
 10
-680.3535344470117
 20
217.2153636608464
 30
0.0
 11
-681.6900442332942
 21
216.5343779112371
 31
0.0
  0
ARC
  5
2D7
330
1F
100
AcDbEntity
  8
0
  6
CONTINUOUS
 62
     7
100
AcDbCircle
 10
-588.1343591935156
 20
264.2033803838895
 30
0.0
 40
105.0
100
AcDbArc
 50
153.0
 51
207.0
  0
LINE
  5
2D8
330
1F
100
AcDbEntity
  8
0
  6
CONTINUOUS
 62
     7
100
AcDbLine
 10
-589.6343591935156
 20
368.0033803838895
 30
0.0
 11
-589.6343591935156
 21
369.1926655514721
 31
0.0
  0
ARC
  5
2D9
330
1F
100
AcDbEntity
  8
0
  6
CONTINUOUS
 62
     7
100
AcDbCircle
 10
588.1343591935156
 20
264.2033803838895
 30
0.0
 40
95.49999999999996
210
0.0
220
0.0
230
-1.0
100
AcDbArc
 50
207.8860525253869
 51
219.113947474613
  0
LINE
  5
2DA
330
1F
100
AcDbEntity
  8
0
  6
CONTINUOUS
 62
     7
100
AcDbLine
 10
-655.6270582106023
 20
344.6380469113822
 30
0.0
 11
-654.6628767960725
 21
343.4889802467037
 31
0.0
  0
ARC
  5
2DB
330
1F
100
AcDbEntity
  8
0
  6
CONTINUOUS
 62
     7
100
AcDbCircle
 10
-588.1343591935156
 20
264.2033803838895
 30
0.0
 40
95.49999999999997
100
AcDbArc
 50
207.8860525253869
 51
219.113947474613
  0
ARC
  5
2DC
330
1F
100
AcDbEntity
  8
0
  6
CONTINUOUS
 62
     7
100
AcDbCircle
 10
-588.1343591935156
 20
264.2033803838895
 30
0.0
 40
105.0
100
AcDbArc
 50
310.0
 51
320.0
  0
ARC
  5
2DD
330
1F
100
AcDbEntity
  8
0
  6
CONTINUOUS
 62
     7
100
AcDbCircle
 10
588.1343591935156
 20
264.2033803838895
 30
0.0
 40
105.0
210
0.0
220
0.0
230
-1.0
100
AcDbArc
 50
297.0
 51
309.9999999999999
  0
ARC
  5
2DE
330
1F
100
AcDbEntity
  8
0
  6
CONTINUOUS
 62
     7
100
AcDbCircle
 10
-588.1343591935156
 20
264.2033803838895
 30
0.0
 40
105.0
100
AcDbArc
 50
333.0
 51
0.0
  0
ARC
  5
2DF
330
1F
100
AcDbEntity
  8
0
  6
CONTINUOUS
 62
     7
100
AcDbCircle
 10
-588.1343591935156
 20
264.2033803838895
 30
0.0
 40
105.0
100
AcDbArc
 50
27.00000000000001
 51
39.99999999999998
  0
LINE
  5
2E0
330
1F
100
AcDbEntity
  8
0
  6
CONTINUOUS
 62
     7
100
AcDbLine
 10
-507.6996926660229
 20
196.7106813668029
 30
0.0
 11
-508.8487593307014
 21
197.6748627813327
 31
0.0
  0
ARC
  5
2E1
330
1F
100
AcDbEntity
  8
0
  6
CONTINUOUS
 62
     7
100
AcDbCircle
 10
588.1343591935156
 20
264.2033803838895
 30
0.0
 40
105.0
210
0.0
220
0.0
230
-1.0
100
AcDbArc
 50
117.0
 51
130.0
  0
ARC
  5
2E2
330
1F
100
AcDbEntity
  8
0
  6
CONTINUOUS
 62
     7
100
AcDbCircle
 10
-588.1343591935156
 20
264.2033803838895
 30
0.0
 40
105.0
100
AcDbArc
 50
40.00000000000001
 51
49.99999999999999
  0
ARC
  5
2E3
330
1F
100
AcDbEntity
  8
0
  6
CONTINUOUS
 62
     7
100
AcDbCircle
 10
588.1343591935156
 20
264.2033803838895
 30
0.0
 40
105.0
210
0.0
220
0.0
230
-1.0
100
AcDbArc
 50
26.99999999999999
 51
40.00000000000002
  0
ARC
  5
2E4
330
1F
100
AcDbEntity
  8
0
  6
CONTINUOUS
 62
     7
100
AcDbCircle
 10
-588.1343591935156
 20
264.2033803838895
 30
0.0
 40
105.0
100
AcDbArc
 50
117.0
 51
130.0
  0
ARC
  5
2E5
330
1F
100
AcDbEntity
  8
0
  6
CONTINUOUS
 62
     7
100
AcDbCircle
 10
-588.1343591935156
 20
264.2033803838895
 30
0.0
 40
74.99999999999999
100
AcDbArc
 50
0.0
 51
180.0
  0
LINE
  5
2E6
330
1F
100
AcDbEntity
  8
0
  6
CENTER
 62
     1
100
AcDbLine
 10
-588.1343591935156
 20
141.2033803838895
 30
0.0
 11
-588.1343591935156
 21
387.2033803838895
 31
0.0
  0
ARC
  5
2E8
330
1F
100
AcDbEntity
  8
0
  6
CONTINUOUS
 62
     7
100
AcDbCircle
 10
-588.1343591935156
 20
264.2033803838895
 30
0.0
 40
105.0
100
AcDbArc
 50
0.0
 51
27.00000000000001
  0
ARC
  5
2E9
330
1F
100
AcDbEntity
  8
0
  6
CONTINUOUS
 62
     7
100
AcDbCircle
 10
588.1343591935156
 20
264.2033803838895
 30
0.0
 40
105.0
210
0.0
220
0.0
230
-1.0
100
AcDbArc
 50
207.0
 51
219.9999999999999
  0
LINE
  5
2EA
330
1F
100
AcDbEntity
  8
0
  6
CENTER
 62
     1
100
AcDbLine
 10
-1273.15108453152
 20
264.2033803838895
 30
0.0
 11
-812.15108453152
 21
264.2033803838895
 31
0.0
  0
ARC
  5
2EB
330
1F
100
AcDbEntity
  8
0
  6
CONTINUOUS
 62
     7
100
AcDbCircle
 10
-588.1343591935156
 20
264.2033803838895
 30
0.0
 40
105.0
100
AcDbArc
 50
207.0
 51
220.0
  0
LINE
  5
2EC
330
1F
100
AcDbEntity
  8
0
  6
CONTINUOUS
 62
     7
100
AcDbLine
 10
-495.9151839400195
 20
217.2153636608465
 30
0.0
 11
-494.578674153737
 21
216.5343779112371
 31
0.0
  0
LINE
  5
2ED
330
1F
100
AcDbEntity
  8
0
  6
CONTINUOUS
 62
     7
100
AcDbLine
 10
-495.9151839400195
 20
311.1913971069326
 30
0.0
 11
-494.578674153737
 21
311.8723828565419
 31
0.0
  0
CIRCLE
  5
2EE
330
1F
100
AcDbEntity
  8
0
  6
CONTINUOUS
 62
     7
100
AcDbCircle
 10
-588.1343591935156
 20
264.2033803838895
 30
0.0
 40
81.00000000000001
  0
ARC
  5
2EF
330
1F
100
AcDbEntity
  8
0
  6
CONTINUOUS
 62
     7
100
AcDbCircle
 10
-588.1343591935156
 20
264.2033803838895
 30
0.0
 40
74.99999999999999
100
AcDbArc
 50
180.0
 51
0.0
  0
ARC
  5
2F0
330
1F
100
AcDbEntity
  8
0
  6
CONTINUOUS
 62
     7
100
AcDbCircle
 10
-588.1343591935156
 20
264.2033803838895
 30
0.0
 40
105.0
100
AcDbArc
 50
297.0
 51
310.0
  0
LINE
  5
2F1
330
1F
100
AcDbEntity
  8
0
  6
CENTER
 62
     1
100
AcDbLine
 10
-711.1343591935157
 20
264.2033803838895
 30
0.0
 11
-465.1343591935156
 21
264.2033803838895
 31
0.0
  0
LINE
  5
2F2
330
1F
100
AcDbEntity
  8
0
  6
CONTINUOUS
 62
     7
100
AcDbLine
 10
-520.641660176429
 20
183.7687138563968
 30
0.0
 11
-521.6058415909588
 21
184.9177805210753
 31
0.0
  0
ENDSEC
  0
SECTION
  2
OBJECTS
  0
DICTIONARY
  5
C
330
0
100
AcDbDictionary
  3
ACAD_GROUP
350
D
  3
ACAD_LAYOUT
350
1A
  3
ACAD_MATERIAL
350
43
  3
ACAD_MLEADERSTYLE
350
6B
  3
ACAD_MLINESTYLE
350
17
  3
ACAD_PLOTSETTINGS
350
19
  3
ACAD_SCALELIST
350
47
  3
ACAD_VISUALSTYLE
350
2A
  3
ACDBHEADERROUNDTRIPXREC
350
2F3
  3
ACDBVARIABLEDICTIONARY
350
314
  0
DICTIONARY
  5
31D
330
8
100
AcDbDictionary
280
     1
  3
ACAD_XREC_ROUNDTRIP
360
31E
  0
DICTIONARY
  5
D
102
{ACAD_REACTORS
330
C
102
}
330
C
100
AcDbDictionary
  0
DICTIONARY
  5
1A
102
{ACAD_REACTORS
330
C
102
}
330
C
100
AcDbDictionary
  0
DICTIONARY
  5
43
102
{ACAD_REACTORS
330
C
102
}
330
C
100
AcDbDictionary
  3
BYBLOCK
350
45
  3
BYLAYER
350
44
  3
GLOBAL
350
46
  0
DICTIONARY
  5
6B
102
{ACAD_REACTORS
330
C
102
}
330
C
100
AcDbDictionary
  3
STANDARD
350
6C
  0
DICTIONARY
  5
17
102
{ACAD_REACTORS
330
C
102
}
330
C
100
AcDbDictionary
  3
STANDARD
350
18
  0
DICTIONARY
  5
19
102
{ACAD_REACTORS
330
C
102
}
330
C
100
AcDbDictionary
  0
DICTIONARY
  5
47
102
{ACAD_REACTORS
330
C
102
}
330
C
100
AcDbDictionary
  3
A0
350
48
  3
A1
350
49
  3
A2
350
4A
  3
A3
350
4B
  3
A4
350
4C
  3
A5
350
4D
  3
A6
350
4E
  3
A7
350
4F
  3
A8
350
50
  3
A9
350
51
  3
B0
350
52
  3
B1
350
53
  3
B2
350
54
  3
B3
350
55
  3
B4
350
56
  3
B5
350
57
  3
B6
350
58
  3
B7
350
59
  3
B8
350
5A
  3
B9
350
5B
  3
C0
350
5C
  3
C1
350
5D
  3
C2
350
5E
  3
C3
350
5F
  3
C4
350
60
  3
C5
350
61
  3
C6
350
62
  3
C7
350
63
  3
C8
350
64
  3
C9
350
65
  3
D0
350
66
  3
D1
350
67
  3
D2
350
68
  0
DICTIONARY
  5
2A
102
{ACAD_REACTORS
330
C
102
}
330
C
100
AcDbDictionary
  3
2DWIREFRAME
350
2F
  3
BASIC
350
32
  3
BRIGHTEN
350
36
  3
COLORCHANGE
350
3A
  3
CONCEPTUAL
350
34
  3
DIM
350
35
  3
EDGECOLOROFF
350
3D
  3
FACEPATTERN
350
39
  3
FLAT
350
2B
  3
FLATWITHEDGES
350
2C
  3
GOURAUD
350
2D
  3
GOURAUDWITHEDGES
350
2E
  3
HIDDEN
350
31
  3
JITTEROFF
350
3B
  3
LINEPATTERN
350
38
  3
OVERHANGOFF
350
3C
  3
REALISTIC
350
33
  3
SHADED
350
42
  3
SHADED_WITH_EDGES
350
41
  3
SHADES_OF_GRAY
350
3E
  3
SKETCHY
350
3F
  3
THICKEN
350
37
  3
WIREFRAME
350
30
  3
X-RAY
350
40
  0
DICTIONARY
  5
2F3
102
{ACAD_REACTORS
330
C
102
}
330
C
100
AcDbDictionary
  3
CEPSNID
350
2FD
  3
CEPSNTYPE
350
2FC
  3
DIMSTYLEDATA
350
313
  3
FINGERPRINTGUID
350
2FE
  3
HYPERLINKBASE
350
2F6
  3
INSUNITS
350
2FB
  3
LAYOUTDICT
350
2F8
  3
LWETCUNION
350
2FA
  3
PLOTSETDICT
350
2F9
  3
PSVPSCALE
350
300
  3
PUCSBASE
350
303
  3
PUCSORGBACK
350
309
  3
PUCSORGBOTTOM
350
305
  3
PUCSORGFRONT
350
308
  3
PUCSORGLEFT
350
306
  3
PUCSORGRIGHT
350
307
  3
PUCSORGTOP
350
304
  3
PUCSORTHOREF
350
301
  3
PUCSORTHOVIEW
350
302
  3
STYLESHEET
350
2F7
  3
TSTACKALIGN
350
2F4
  3
TSTACKSIZE
350
2F5
  3
UCSBASE
350
30C
  3
UCSORGBACK
350
312
  3
UCSORGBOTTOM
350
30E
  3
UCSORGFRONT
350
311
  3
UCSORGLEFT
350
30F
  3
UCSORGRIGHT
350
310
  3
UCSORGTOP
350
30D
  3
UCSORTHOREF
350
30A
  3
UCSORTHOVIEW
350
30B
  3
VERSIONGUID
350
2FF
  0
DICTIONARY
  5
314
102
{ACAD_REACTORS
330
C
102
}
330
C
100
AcDbDictionary
  3
CANNOSCALE
350
31F
  3
CMLEADERSTYLE
350
316
  3
CTABLESTYLE
350
315
  3
DIMASSOC
350
319
  3
HIDETEXT
350
31A
  3
MSLTSCALE
350
320
  0
XRECORD
  5
31E
102
{ACAD_REACTORS
330
31D
102
}
330
31D
100
AcDbXrecord
102
VTR_0.000_0.000_1.000_1.000_VISUALSTYLE
340
2F
102
VTR_0.000_0.000_1.000_1.000_GRIDDISPLAY
 70
     3
102
VTR_0.000_0.000_1.000_1.000_GRIDMAJOR
 70
     5
102
VTR_0.000_0.000_1.000_1.000_DEFAULTLIGHTING
280
     1
102
VTR_0.000_0.000_1.000_1.000_DEFAULTLIGHTINGTYPE
 70
     1
102
VTR_0.000_0.000_1.000_1.000_BRIGHTNESS
141
0.0
102
VTR_0.000_0.000_1.000_1.000_CONTRAST
142
0.0
  0
MATERIAL
  5
45
102
{ACAD_REACTORS
330
43
102
}
102
{ACAD_XDICTIONARY
360
323
102
}
330
43
100
AcDbMaterial
  1
BYBLOCK
  0
MATERIAL
  5
44
102
{ACAD_REACTORS
330
43
102
}
102
{ACAD_XDICTIONARY
360
321
102
}
330
43
100
AcDbMaterial
  1
BYLAYER
  0
MATERIAL
  5
46
102
{ACAD_REACTORS
330
43
102
}
102
{ACAD_XDICTIONARY
360
325
102
}
330
43
100
AcDbMaterial
  1
GLOBAL
  0
ACAD_PROXY_OBJECT
  5
6C
102
{ACAD_REACTORS
330
6B
102
}
330
6B
100
AcDbProxyObject
 90
      499
 91
      505
 93
      610
310
40901902A4063FBFFFFFE056BD1B81E855B9FC0AD7A3703D0AD73F4214DD185B99185C9900AD7A3703D0AC73F90141901A02B5E8DC0F42B1CFC02B5E8DC0F42B1CFE5764000000000000300FC0
340
14
340
0
340
11
340
0
 94
        0
1001
ACAD_MLEADERVER
1070
     2
  0
MLINESTYLE
  5
18
102
{ACAD_REACTORS
330
17
102
}
330
17
100
AcDbMlineStyle
  2
Standard
 70
     0
  3

 62
   256
 51
90.0
 52
90.0
 71
     2
 49
0.5
 62
   256
  6
BYLAYER
 49
-0.5
 62
   256
  6
BYLAYER
  0
ACAD_PROXY_OBJECT
  5
48
102
{ACAD_REACTORS
330
47
102
}
330
47
100
AcDbProxyObject
 90
      499
 91
      503
 93
       41
310
903313A31580
  0
ACAD_PROXY_OBJECT
  5
49
102
{ACAD_REACTORS
330
47
102
}
330
47
100
AcDbProxyObject
 90
      499
 91
      503
 93
      105
310
903313A324000000000000004000
  0
ACAD_PROXY_OBJECT
  5
4A
102
{ACAD_REACTORS
330
47
102
}
330
47
100
AcDbProxyObject
 90
      499
 91
      503
 93
      105
310
903313A344000000000000104000
  0
ACAD_PROXY_OBJECT
  5
4B
102
{ACAD_REACTORS
330
47
102
}
330
47
100
AcDbProxyObject
 90
      499
 91
      503
 93
      105
310
903313A354000000000000144000
  0
ACAD_PROXY_OBJECT
  5
4C
102
{ACAD_REACTORS
330
47
102
}
330
47
100
AcDbProxyObject
 90
      499
 91
      503
 93
      105
310
903313A384000000000000204000
  0
ACAD_PROXY_OBJECT
  5
4D
102
{ACAD_REACTORS
330
47
102
}
330
47
100
AcDbProxyObject
 90
      499
 91
      503
 93
      113
310
904313A31304000000000000244000
  0
ACAD_PROXY_OBJECT
  5
4E
102
{ACAD_REACTORS
330
47
102
}
330
47
100
AcDbProxyObject
 90
      499
 91
      503
 93
      113
310
904313A31364000000000000304000
  0
ACAD_PROXY_OBJECT
  5
4F
102
{ACAD_REACTORS
330
47
102
}
330
47
100
AcDbProxyObject
 90
      499
 91
      503
 93
      113
310
904313A32304000000000000344000
  0
ACAD_PROXY_OBJECT
  5
50
102
{ACAD_REACTORS
330
47
102
}
330
47
100
AcDbProxyObject
 90
      499
 91
      503
 93
      113
310
904313A333040000000000003E4000
  0
ACAD_PROXY_OBJECT
  5
51
102
{ACAD_REACTORS
330
47
102
}
330
47
100
AcDbProxyObject
 90
      499
 91
      503
 93
      113
310
904313A34304000000000000444000
  0
ACAD_PROXY_OBJECT
  5
52
102
{ACAD_REACTORS
330
47
102
}
330
47
100
AcDbProxyObject
 90
      499
 91
      503
 93
      113
310
904313A35304000000000000494000
  0
ACAD_PROXY_OBJECT
  5
53
102
{ACAD_REACTORS
330
47
102
}
330
47
100
AcDbProxyObject
 90
      499
 91
      503
 93
      121
310
905313A3130304000000000000594000
  0
ACAD_PROXY_OBJECT
  5
54
102
{ACAD_REACTORS
330
47
102
}
330
47
100
AcDbProxyObject
 90
      499
 91
      503
 93
      105
310
903323A310000000000000010100
  0
ACAD_PROXY_OBJECT
  5
55
102
{ACAD_REACTORS
330
47
102
}
330
47
100
AcDbProxyObject
 90
      499
 91
      503
 93
      105
310
903343A310000000000000410100
  0
ACAD_PROXY_OBJECT
  5
56
102
{ACAD_REACTORS
330
47
102
}
330
47
100
AcDbProxyObject
 90
      499
 91
      503
 93
      105
310
903383A310000000000000810100
  0
ACAD_PROXY_OBJECT
  5
57
102
{ACAD_REACTORS
330
47
102
}
330
47
100
AcDbProxyObject
 90
      499
 91
      503
 93
      113
310
90431303A310000000000000910100
  0
ACAD_PROXY_OBJECT
  5
58
102
{ACAD_REACTORS
330
47
102
}
330
47
100
AcDbProxyObject
 90
      499
 91
      503
 93
      121
310
9053130303A310000000000001650100
  0
ACAD_PROXY_OBJECT
  5
59
102
{ACAD_REACTORS
330
47
102
}
330
47
100
AcDbProxyObject
 90
      499
 91
      503
 93
      257
310
90E312F31323822203D2031272D3022000000000000200FC000000000000284000
  0
ACAD_PROXY_OBJECT
  5
5A
102
{ACAD_REACTORS
330
47
102
}
330
47
100
AcDbProxyObject
 90
      499
 91
      503
 93
      249
310
90D312F363422203D2031272D3022000000000000240FC000000000000284000
  0
ACAD_PROXY_OBJECT
  5
5B
102
{ACAD_REACTORS
330
47
102
}
330
47
100
AcDbProxyObject
 90
      499
 91
      503
 93
      249
310
90D312F333222203D2031272D3022000000000000280FC000000000000284000
  0
ACAD_PROXY_OBJECT
  5
5C
102
{ACAD_REACTORS
330
47
102
}
330
47
100
AcDbProxyObject
 90
      499
 91
      503
 93
      249
310
90D312F313622203D2031272D30220000000000002C0FC000000000000284000
  0
ACAD_PROXY_OBJECT
  5
5D
102
{ACAD_REACTORS
330
47
102
}
330
47
100
AcDbProxyObject
 90
      499
 91
      503
 93
      249
310
90D332F333222203D2031272D30220000000000002E0FC000000000000284000
  0
ACAD_PROXY_OBJECT
  5
5E
102
{ACAD_REACTORS
330
47
102
}
330
47
100
AcDbProxyObject
 90
      499
 91
      503
 93
      241
310
90C312F3822203D2031272D3022000000000000300FC000000000000284000
  0
ACAD_PROXY_OBJECT
  5
5F
102
{ACAD_REACTORS
330
47
102
}
330
47
100
AcDbProxyObject
 90
      499
 91
      503
 93
      249
310
90D332F313622203D2031272D3022000000000000320FC000000000000284000
  0
ACAD_PROXY_OBJECT
  5
60
102
{ACAD_REACTORS
330
47
102
}
330
47
100
AcDbProxyObject
 90
      499
 91
      503
 93
      241
310
90C312F3422203D2031272D3022000000000000340FC000000000000284000
  0
ACAD_PROXY_OBJECT
  5
61
102
{ACAD_REACTORS
330
47
102
}
330
47
100
AcDbProxyObject
 90
      499
 91
      503
 93
      241
310
90C332F3822203D2031272D3022000000000000360FC000000000000284000
  0
ACAD_PROXY_OBJECT
  5
62
102
{ACAD_REACTORS
330
47
102
}
330
47
100
AcDbProxyObject
 90
      499
 91
      503
 93
      241
310
90C312F3222203D2031272D3022000000000000380FC000000000000284000
  0
ACAD_PROXY_OBJECT
  5
63
102
{ACAD_REACTORS
330
47
102
}
330
47
100
AcDbProxyObject
 90
      499
 91
      503
 93
      241
310
90C332F3422203D2031272D30220000000000003A0FC000000000000284000
  0
ACAD_PROXY_OBJECT
  5
64
102
{ACAD_REACTORS
330
47
102
}
330
47
100
AcDbProxyObject
 90
      499
 91
      503
 93
      161
310
90A3122203D2031272D30224000000000000284000
  0
ACAD_PROXY_OBJECT
  5
65
102
{ACAD_REACTORS
330
47
102
}
330
47
100
AcDbProxyObject
 90
      499
 91
      503
 93
      257
310
90E312D312F3222203D2031272D30220000000000003E0FC000000000000284000
  0
ACAD_PROXY_OBJECT
  5
66
102
{ACAD_REACTORS
330
47
102
}
330
47
100
AcDbProxyObject
 90
      499
 91
      503
 93
      225
310
90A3322203D2031272D302200000000000002100000000000000284000
  0
ACAD_PROXY_OBJECT
  5
67
102
{ACAD_REACTORS
330
47
102
}
330
47
100
AcDbProxyObject
 90
      499
 91
      503
 93
      225
310
90A3622203D2031272D302200000000000006100000000000000284000
  0
ACAD_PROXY_OBJECT
  5
68
102
{ACAD_REACTORS
330
47
102
}
330
47
100
AcDbProxyObject
 90
      499
 91
      503
 93
      249
310
90D31272D3022203D2031272D30220000000000000A100000000000000284000
  0
ACAD_PROXY_OBJECT
  5
2F
102
{ACAD_REACTORS
330
2A
102
}
330
2A
100
AcDbProxyObject
 90
      499
 91
      501
 93
      436
310
42CC9915DA5C99599C985B595049028333333333333E33F0000000000000F90107901411070040501600405405064090741402480A0340
1001
ACAD
1000
AcDbSavedByObjectVersion
1070
     0
  0
ACAD_PROXY_OBJECT
  5
32
102
{ACAD_REACTORS
330
2A
102
}
330
2A
100
AcDbProxyObject
 90
      499
 91
      501
 93
      388
310
4150985CDA58D07406404333333333333E33F0000000000000F90107A41107004050150841D405064090741402480A0350
1001
ACAD
1000
AcDbSavedByObjectVersion
1070
     0
  0
ACAD_PROXY_OBJECT
  5
36
102
{ACAD_REACTORS
330
2A
102
}
330
2A
100
AcDbProxyObject
 90
      499
 91
      501
 93
      428
310
42109C9A59DA1D195B90C409028333333333333E33F0000000000000F9010790141107004050150841D405064090741402480A029950
1001
ACAD
1000
AcDbSavedByObjectVersion
1070
     0
  0
ACAD_PROXY_OBJECT
  5
3A
102
{ACAD_REACTORS
330
2A
102
}
330
2A
100
AcDbProxyObject
 90
      499
 91
      501
 93
      452
310
42D0DBDB1BDC90DA185B99D95104090240C333333333333E33F0000000000000F90108901411070040501508421405064090741402480A0350
1001
ACAD
1000
AcDbSavedByObjectVersion
1070
     0
  0
ACAD_PROXY_OBJECT
  5
34
102
{ACAD_REACTORS
330
2A
102
}
330
2A
100
AcDbProxyObject
 90
      499
 91
      501
 93
      500
310
4290DBDB98D95C1D1D585B10940D028333333333333E33F0000000000000F90107902409070040501000000000018199010841D405064090740C02480A0340
1001
ACAD
1000
AcDbSavedByObjectVersion
1070
     0
  0
ACAD_PROXY_OBJECT
  5
35
102
{ACAD_REACTORS
330
2A
102
}
330
2A
100
AcDbProxyObject
 90
      499
 91
      501
 93
      412
310
40D11A5B50B409028333333333333E33F0000000000000F9010790141107004050150841D405064090741402480A02677FFFFFD0
1001
ACAD
1000
AcDbSavedByObjectVersion
1070
     0
  0
ACAD_PROXY_OBJECT
  5
3D
102
{ACAD_REACTORS
330
2A
102
}
330
2A
100
AcDbProxyObject
 90
      499
 91
      501
 93
      452
310
43115919D950DBDB1BDC93D999916409028333333333333E33F0000000000000F9010790141107004050150841D405064090741402480A0350
1001
ACAD
1000
AcDbSavedByObjectVersion
1070
     0
  0
ACAD_PROXY_OBJECT
  5
39
102
{ACAD_REACTORS
330
2A
102
}
330
2A
100
AcDbProxyObject
 90
      499
 91
      501
 93
      444
310
42D19858D95C185D1D195C9B90F409028333333333333E33F0000000000000F9010790141107004050150841D405064090741402480A0350
1001
ACAD
1000
AcDbSavedByObjectVersion
1070
     0
  0
ACAD_PROXY_OBJECT
  5
2B
102
{ACAD_REACTORS
330
2A
102
}
330
2A
100
AcDbProxyObject
 90
      499
 91
      501
 93
      380
310
41119B185D240901404333333333333E33F0000000000000F9010740A907004050150841D405064090741402480A1B50
1001
ACAD
1000
AcDbSavedByObjectVersion
1070
     0
  0
ACAD_PROXY_OBJECT
  5
2C
102
{ACAD_REACTORS
330
2A
102
}
330
2A
100
AcDbProxyObject
 90
      499
 91
      501
 93
      468
310
43519B185D15DA5D1A115919D95CD0140901404333333333333E33F0000000000000F90107409019070040501600405405064090741402480A1B50
1001
ACAD
1000
AcDbSavedByObjectVersion
1070
     0
  0
ACAD_PROXY_OBJECT
  5
2D
102
{ACAD_REACTORS
330
2A
102
}
330
2A
100
AcDbProxyObject
 90
      499
 91
      501
 93
      404
310
41D1DBDD5C985D5910240902404333333333333E33F0000000000000F9010740A9070040501641D405064090741402480A1B50
1001
ACAD
1000
AcDbSavedByObjectVersion
1070
     0
  0
ACAD_PROXY_OBJECT
  5
2E
102
{ACAD_REACTORS
330
2A
102
}
330
2A
100
AcDbProxyObject
 90
      499
 91
      501
 93
      492
310
4411DBDD5C985D5915DA5D1A115919D95CD0340902404333333333333E33F0000000000000F90107409019070040501600405405064090741402480A1B50
1001
ACAD
1000
AcDbSavedByObjectVersion
1070
     0
  0
ACAD_PROXY_OBJECT
  5
31
102
{ACAD_REACTORS
330
2A
102
}
330
2A
100
AcDbProxyObject
 90
      499
 91
      501
 93
      476
310
41921A5919195B90640502408333333333333E33F0000000000000F901079024090700405020000000000001110200405405064090740C02480A0340
1001
ACAD
1000
AcDbSavedByObjectVersion
1070
     0
  0
ACAD_PROXY_OBJECT
  5
3B
102
{ACAD_REACTORS
330
2A
102
}
330
2A
100
AcDbProxyObject
 90
      499
 91
      501
 93
      428
310
42529A5D1D195C93D999914409028333333333333E33F0000000000000F9010790141107004050150A41D405064090741402480A0350
1001
ACAD
1000
AcDbSavedByObjectVersion
1070
     0
  0
ACAD_PROXY_OBJECT
  5
38
102
{ACAD_REACTORS
330
2A
102
}
330
2A
100
AcDbProxyObject
 90
      499
 91
      501
 93
      444
310
42D31A5B995C185D1D195C9B90E409028333333333333E33F0000000000000F9010790141107004050750841D405064090741402483A0350
1001
ACAD
1000
AcDbSavedByObjectVersion
1070
     0
  0
ACAD_PROXY_OBJECT
  5
3C
102
{ACAD_REACTORS
330
2A
102
}
330
2A
100
AcDbProxyObject
 90
      499
 91
      501
 93
      444
310
42D3DD995C9A185B99D3D999915409028333333333333E33F0000000000000F9010790141107004050150941D405064090741402480A0350
1001
ACAD
1000
AcDbSavedByObjectVersion
1070
     0
  0
ACAD_PROXY_OBJECT
  5
33
102
{ACAD_REACTORS
330
2A
102
}
330
2A
100
AcDbProxyObject
 90
      499
 91
      501
 93
      428
310
425499585B1A5CDD1A58D08409038333333333333E33F0000000000000F9010740A907004050150800405405064090740C02480A1B40
1001
ACAD
1000
AcDbSavedByObjectVersion
1070
     0
  0
ACAD_PROXY_OBJECT
  5
42
102
{ACAD_REACTORS
330
2A
102
}
330
2A
100
AcDbProxyObject
 90
      499
 91
      501
 93
      420
310
4194DA1859195911B40902404333333333333E33F0000000000000F9010740A41107004050150800405405064090840C02480A0B40
1001
ACAD
1000
AcDbSavedByObjectVersion
1070
     0
  0
ACAD_PROXY_OBJECT
  5
41
102
{ACAD_REACTORS
330
2A
102
}
330
2A
100
AcDbProxyObject
 90
      499
 91
      501
 93
      516
310
4454DA18591959081DDA5D1A08195919D95CD1A40902404333333333333E33F0000000000000F901074090142907004050250800405405064090740C02480A0B40
1001
ACAD
1000
AcDbSavedByObjectVersion
1070
     0
  0
ACAD_PROXY_OBJECT
  5
3E
102
{ACAD_REACTORS
330
2A
102
}
330
2A
100
AcDbProxyObject
 90
      499
 91
      501
 93
      532
310
4394DA1859195CC81BD98811DC985E5174090240C333333333333E33F0000000000000F901079024090741D01000000000000111010841D405064090740C02480A0340
1001
ACAD
1000
AcDbSavedByObjectVersion
1070
     0
  0
ACAD_PROXY_OBJECT
  5
3F
102
{ACAD_REACTORS
330
2A
102
}
330
2A
100
AcDbProxyObject
 90
      499
 91
      501
 93
      476
310
41D4DAD95D18DA1E51840502408333333333333E33F0000000000000F901079024090741D01000000000000111010B41D405064090741802480A0340
1001
ACAD
1000
AcDbSavedByObjectVersion
1070
     0
  0
ACAD_PROXY_OBJECT
  5
37
102
{ACAD_REACTORS
330
2A
102
}
330
2A
100
AcDbProxyObject
 90
      499
 91
      501
 93
      412
310
41D51A1A58DAD95B90D409028333333333333E33F0000000000000F9010790141107004050150C41D405064090741402480A0350
1001
ACAD
1000
AcDbSavedByObjectVersion
1070
     0
  0
ACAD_PROXY_OBJECT
  5
30
102
{ACAD_REACTORS
330
2A
102
}
330
2A
100
AcDbProxyObject
 90
      499
 91
      501
 93
      420
310
4255DA5C99599C985B595059028333333333333E33F0000000000000F90107901411070040501600405405064090740C02480A0340
1001
ACAD
1000
AcDbSavedByObjectVersion
1070
     0
  0
ACAD_PROXY_OBJECT
  5
40
102
{ACAD_REACTORS
330
2A
102
}
330
2A
100
AcDbProxyObject
 90
      499
 91
      501
 93
      404
310
41560B54985E51940902404000000000000E03F0000000000000F9010740501907004050150841D405064090740C02480A1B40
1001
ACAD
1000
AcDbSavedByObjectVersion
1070
     0
  0
XRECORD
  5
2FD
102
{ACAD_REACTORS
330
2F3
102
}
330
2F3
100
AcDbXrecord
340
0
  0
XRECORD
  5
2FC
102
{ACAD_REACTORS
330
2F3
102
}
330
2F3
100
AcDbXrecord
 90
        0
  0
XRECORD
  5
313
102
{ACAD_REACTORS
330
2F3
102
}
330
2F3
100
AcDbXrecord
1000
DSTYLE
1002
{
1070
   179
 70
     2
1070
   171
 70
     2
1070
   143
 40
25.4
1070
   274
 70
     2
1070
    41
 40
3.0
1070
   141
 40
0.09
1070
    43
 40
0.38
1070
   278
 70
    46
1070
    44
 40
1.5
1070
    42
 40
0.0625
1070
   147
 40
1.5
1070
   272
 70
     4
1070
    73
 70
     1
1070
   172
 70
     0
1070
    74
 70
     1
1070
   283
 70
     1
1070
   340
340
6E
1070
   140
 40
3.0
1070
   284
 70
     0
1070
    78
 70
     0
1002
}
  0
XRECORD
  5
2FE
102
{ACAD_REACTORS
330
2F3
102
}
330
2F3
100
AcDbXrecord
  1
{3BB556B0-D47F-4901-9FD3-5E300846ECB2}
  0
XRECORD
  5
2F6
102
{ACAD_REACTORS
330
2F3
102
}
330
2F3
100
AcDbXrecord
  1

  0
XRECORD
  5
2FB
102
{ACAD_REACTORS
330
2F3
102
}
330
2F3
100
AcDbXrecord
 90
        4
  0
XRECORD
  5
2F8
102
{ACAD_REACTORS
330
2F3
102
}
330
2F3
100
AcDbXrecord
340
1A
  0
XRECORD
  5
2FA
102
{ACAD_REACTORS
330
2F3
102
}
330
2F3
100
AcDbXrecord
 90
    10269
  0
XRECORD
  5
2F9
102
{ACAD_REACTORS
330
2F3
102
}
330
2F3
100
AcDbXrecord
340
19
  0
XRECORD
  5
300
102
{ACAD_REACTORS
330
2F3
102
}
330
2F3
100
AcDbXrecord
 40
0.0
  0
XRECORD
  5
303
102
{ACAD_REACTORS
330
2F3
102
}
330
2F3
100
AcDbXrecord
340
0
  0
XRECORD
  5
309
102
{ACAD_REACTORS
330
2F3
102
}
330
2F3
100
AcDbXrecord
 10
0.0
 20
0.0
 30
0.0
  0
XRECORD
  5
305
102
{ACAD_REACTORS
330
2F3
102
}
330
2F3
100
AcDbXrecord
 10
0.0
 20
0.0
 30
0.0
  0
XRECORD
  5
308
102
{ACAD_REACTORS
330
2F3
102
}
330
2F3
100
AcDbXrecord
 10
0.0
 20
0.0
 30
0.0
  0
XRECORD
  5
306
102
{ACAD_REACTORS
330
2F3
102
}
330
2F3
100
AcDbXrecord
 10
0.0
 20
0.0
 30
0.0
  0
XRECORD
  5
307
102
{ACAD_REACTORS
330
2F3
102
}
330
2F3
100
AcDbXrecord
 10
0.0
 20
0.0
 30
0.0
  0
XRECORD
  5
304
102
{ACAD_REACTORS
330
2F3
102
}
330
2F3
100
AcDbXrecord
 10
0.0
 20
0.0
 30
0.0
  0
XRECORD
  5
301
102
{ACAD_REACTORS
330
2F3
102
}
330
2F3
100
AcDbXrecord
340
0
  0
XRECORD
  5
302
102
{ACAD_REACTORS
330
2F3
102
}
330
2F3
100
AcDbXrecord
 70
     0
  0
XRECORD
  5
2F7
102
{ACAD_REACTORS
330
2F3
102
}
330
2F3
100
AcDbXrecord
  1

  0
XRECORD
  5
2F4
102
{ACAD_REACTORS
330
2F3
102
}
330
2F3
100
AcDbXrecord
 90
        1
  0
XRECORD
  5
2F5
102
{ACAD_REACTORS
330
2F3
102
}
330
2F3
100
AcDbXrecord
 90
       70
  0
XRECORD
  5
30C
102
{ACAD_REACTORS
330
2F3
102
}
330
2F3
100
AcDbXrecord
340
0
  0
XRECORD
  5
312
102
{ACAD_REACTORS
330
2F3
102
}
330
2F3
100
AcDbXrecord
 10
0.0
 20
0.0
 30
0.0
  0
XRECORD
  5
30E
102
{ACAD_REACTORS
330
2F3
102
}
330
2F3
100
AcDbXrecord
 10
0.0
 20
0.0
 30
0.0
  0
XRECORD
  5
311
102
{ACAD_REACTORS
330
2F3
102
}
330
2F3
100
AcDbXrecord
 10
0.0
 20
0.0
 30
0.0
  0
XRECORD
  5
30F
102
{ACAD_REACTORS
330
2F3
102
}
330
2F3
100
AcDbXrecord
 10
0.0
 20
0.0
 30
0.0
  0
XRECORD
  5
310
102
{ACAD_REACTORS
330
2F3
102
}
330
2F3
100
AcDbXrecord
 10
0.0
 20
0.0
 30
0.0
  0
XRECORD
  5
30D
102
{ACAD_REACTORS
330
2F3
102
}
330
2F3
100
AcDbXrecord
 10
0.0
 20
0.0
 30
0.0
  0
XRECORD
  5
30A
102
{ACAD_REACTORS
330
2F3
102
}
330
2F3
100
AcDbXrecord
340
0
  0
XRECORD
  5
30B
102
{ACAD_REACTORS
330
2F3
102
}
330
2F3
100
AcDbXrecord
 70
     0
  0
XRECORD
  5
2FF
102
{ACAD_REACTORS
330
2F3
102
}
330
2F3
100
AcDbXrecord
  1
{FAEB1C32-E019-11D5-929B-00C0DF256EC4}
  0
DICTIONARYVAR
  5
31F
102
{ACAD_REACTORS
330
314
102
}
330
314
100
DictionaryVariables
280
     0
  1
1:1
  0
DICTIONARYVAR
  5
316
102
{ACAD_REACTORS
330
314
102
}
330
314
100
DictionaryVariables
280
     0
  1
Standard
  0
DICTIONARYVAR
  5
315
102
{ACAD_REACTORS
330
314
102
}
330
314
100
DictionaryVariables
280
     0
  1
Standard
  0
DICTIONARYVAR
  5
319
102
{ACAD_REACTORS
330
314
102
}
330
314
100
DictionaryVariables
280
     0
  1
2
  0
DICTIONARYVAR
  5
31A
102
{ACAD_REACTORS
330
314
102
}
330
314
100
DictionaryVariables
280
     0
  1
1
  0
DICTIONARYVAR
  5
320
102
{ACAD_REACTORS
330
314
102
}
330
314
100
DictionaryVariables
280
     0
  1
1
  0
DICTIONARY
  5
323
330
45
100
AcDbDictionary
280
     1
  3
ACAD_XREC_ROUNDTRIP
360
324
  0
DICTIONARY
  5
321
330
44
100
AcDbDictionary
280
     1
  3
ACAD_XREC_ROUNDTRIP
360
322
  0
DICTIONARY
  5
325
330
46
100
AcDbDictionary
280
     1
  3
ACAD_XREC_ROUNDTRIP
360
326
  0
XRECORD
  5
324
102
{ACAD_REACTORS
330
323
102
}
330
323
100
AcDbXrecord
102
MATERIAL
148
0.0
149
0.0
149
0.0
 93
        0
 94
      127
282
     0
 72
     1
 77
     1
171
     1
175
     1
179
     1
273
     0
  0
XRECORD
  5
322
102
{ACAD_REACTORS
330
321
102
}
330
321
100
AcDbXrecord
102
MATERIAL
148
0.0
149
0.0
149
0.0
 93
        0
 94
      127
282
     0
 72
     1
 77
     1
171
     1
175
     1
179
     1
273
     0
  0
XRECORD
  5
326
102
{ACAD_REACTORS
330
325
102
}
330
325
100
AcDbXrecord
102
MATERIAL
148
0.0
149
0.0
149
0.0
 93
        0
 94
      127
282
     0
 72
     1
 77
     1
171
     1
175
     1
179
     1
273
     0
  0
ENDSEC
  0
EOF
