  0
SECTION
  2
HEADER
  9
$ACADVER
  1
AC1006
  9
$DWGCODEPAGE
  3
ansi_932
  9
$INSBASE
 10
0.0
 20
0.0
 30
0.0
  9
$EXTMIN
 10
0.0
 20
-0.0000000000000017
  9
$EXTMAX
 10
6006.197127300588
 20
525.1827969029
  9
$LIMMIN
 10
0.0
 20
0.0
  9
$LIMMAX
 10
12.0
 20
9.0
  9
$ORTHOMODE
 70
     0
  9
$REGENMODE
 70
     1
  9
$FILLMODE
 70
     1
  9
$QTEXTMODE
 70
     0
  9
$MIRRTEXT
 70
     1
  9
$DRAGMODE
 70
     2
  9
$LTSCALE
 40
1.0
  9
$OSMODE
 70
    37
  9
$ATTMODE
 70
     1
  9
$TEXTSIZE
 40
0.2
  9
$TRACEWID
 40
0.05
  9
$TEXTSTYLE
  7
STANDARD
  9
$CLAYER
  8
0
  9
$CELTYPE
  6
BYLAYER
  9
$CECOLOR
 62
   256
  9
$DIMSCALE
 40
1.0
  9
$DIMASZ
 40
0.9
  9
$DIMEXO
 40
0.0625
  9
$DIMDLI
 40
0.38
  9
$DIMRND
 40
0.0
  9
$DIMDLE
 40
0.0
  9
$DIMEXE
 40
0.45
  9
$DIMTP
 40
0.0
  9
$DIMTM
 40
0.0
  9
$DIMTXT
 40
3.0
  9
$DIMCEN
 40
0.09
  9
$DIMTSZ
 40
0.0
  9
$DIMTOL
 70
     0
  9
$DIMLIM
 70
     0
  9
$DIMTIH
 70
     1
  9
$DIMTOH
 70
     1
  9
$DIMSE1
 70
     0
  9
$DIMSE2
 70
     0
  9
$DIMTAD
 70
     1
  9
$DIMZIN
 70
     0
  9
$DIMBLK
  1

  9
$DIMASO
 70
     1
  9
$DIMSHO
 70
     1
  9
$DIMPOST
  1

  9
$DIMAPOST
  1

  9
$DIMALT
 70
     0
  9
$DIMALTD
 70
     2
  9
$DIMALTF
 40
25.4
  9
$DIMLFAC
 40
1.0
  9
$DIMTOFL
 70
     0
  9
$DIMTVP
 40
0.0
  9
$DIMTIX
 70
     0
  9
$DIMSOXD
 70
     0
  9
$DIMSAH
 70
     0
  9
$DIMBLK1
  1

  9
$DIMBLK2
  1

  9
$LUNITS
 70
     2
  9
$LUPREC
 70
     4
  9
$SKETCHINC
 40
0.1
  9
$FILLETRAD
 40
0.5
  9
$AUNITS
 70
     0
  9
$AUPREC
 70
     0
  9
$MENU
  1
.
  9
$ELEVATION
 40
0.0
  9
$THICKNESS
 40
0.0
  9
$LIMCHECK
 70
     0
  9
$CHAMFERA
 40
0.0
  9
$CHAMFERB
 40
0.0
  9
$SKPOLY
 70
     0
  9
$TDCREATE
 40
2459983.653381736
  9
$TDUPDATE
 40
2459983.653382303
  9
$TDINDWG
 40
0.0000000116
  9
$TDUSRTIMER
 40
0.0000000116
  9
$USRTIMER
 70
     1
  9
$ANGBASE
 50
0.0
  9
$ANGDIR
 70
     0
  9
$PDMODE
 70
     0
  9
$PDSIZE
 40
0.0
  9
$PLINEWID
 40
0.0
  9
$COORDS
 70
     1
  9
$SPLFRAME
 70
     0
  9
$SPLINETYPE
 70
     6
  9
$SPLINESEGS
 70
     8
  9
$ATTDIA
 70
     0
  9
$ATTREQ
 70
     1
  9
$HANDLING
 70
     1
  9
$HANDSEED
  5
3A5
  9
$SURFTAB1
 70
     6
  9
$SURFTAB2
 70
     6
  9
$SURFTYPE
 70
     6
  9
$SURFU
 70
     6
  9
$SURFV
 70
     6
  9
$UCSNAME
  2

  9
$UCSORG
 10
0.0
 20
0.0
 30
0.0
  9
$UCSXDIR
 10
1.0
 20
0.0
 30
0.0
  9
$UCSYDIR
 10
0.0
 20
1.0
 30
0.0
  9
$USERI1
 70
     0
  9
$USERI2
 70
     0
  9
$USERI3
 70
     0
  9
$USERI4
 70
     0
  9
$USERI5
 70
     0
  9
$USERR1
 40
0.0
  9
$USERR2
 40
0.0
  9
$USERR3
 40
0.0
  9
$USERR4
 40
0.0
  9
$USERR5
 40
0.0
  9
$WORLDVIEW
 70
     1
  0
ENDSEC
  0
SECTION
  2
TABLES
  0
TABLE
  2
VPORT
 70
     1
  0
VPORT
  2
*ACTIVE
 70
     0
 10
0.0
 20
0.0
 11
1.0
 21
1.0
 12
3003.098563650294
 22
262.59139845145
 13
0.0
 23
0.0
 14
0.5
 24
0.5
 15
0.5
 25
0.5
 16
0.0
 26
0.0
 36
1.0
 17
0.0
 27
0.0
 37
0.0
 40
525.1827969029
 41
1.6
 42
50.0
 43
0.0
 44
0.0
 50
0.0
 51
0.0
 71
     0
 72
   100
 73
     1
 74
     3
 75
     0
 76
     0
 77
     0
 78
     0
  0
ENDTAB
  0
TABLE
  2
LTYPE
 70
     2
  0
LTYPE
  2
CONTINUOUS
 70
     0
  3
Solid line
 72
    65
 73
     0
 40
0.0
  0
LTYPE
  2
CENTER
 70
     0
  3

 72
    65
 73
     0
 40
0.0
  0
ENDTAB
  0
TABLE
  2
LAYER
 70
     2
  0
LAYER
  2
0
 70
     0
 62
     7
  6
CONTINUOUS
  0
LAYER
  2
1
 70
     0
 62
     7
  6
CONTINUOUS
  0
ENDTAB
  0
TABLE
  2
STYLE
 70
     2
  0
STYLE
  2
STANDARD
 70
     0
 40
0.0
 41
1.0
 50
0.0
 71
     0
 42
0.2
  3
txt
  4

  0
STYLE
  2
ＭＳ_ゴシック
 70
     0
 40
0.0
 41
1.0
 50
0.0
 71
     0
 42
0.2
  3
ＭＳ ゴシック.shx
  4

  0
ENDTAB
  0
TABLE
  2
VIEW
 70
     0
  0
ENDTAB
  0
TABLE
  2
UCS
 70
     0
  0
ENDTAB
  0
ENDSEC
  0
SECTION
  2
BLOCKS
  0
BLOCK
  8
0
  2
D_FRAME_DRAWING_21
 70
     0
 10
0.0
 20
0.0
 30
0.0
  0
LINE
  5
72
  8
0
  6
CONTINUOUS
 62
     7
 10
0.0
 20
0.0
 30
0.0
 11
420.0
 21
0.0
 31
0.0
  0
LINE
  5
73
  8
0
  6
CONTINUOUS
 62
     7
 10
420.0
 20
0.0
 30
0.0
 11
420.0
 21
297.0
 31
0.0
  0
LINE
  5
74
  8
0
  6
CONTINUOUS
 62
     7
 10
420.0
 20
297.0
 30
0.0
 11
0.0
 21
297.0
 31
0.0
  0
LINE
  5
75
  8
0
  6
CONTINUOUS
 62
     7
 10
0.0
 20
297.0
 30
0.0
 11
0.0
 21
0.0
 31
0.0
  0
LINE
  5
76
  8
0
  6
CONTINUOUS
 62
     7
 10
10.0
 20
10.0
 30
0.0
 11
409.9999999999999
 21
10.0
 31
0.0
  0
LINE
  5
77
  8
0
  6
CONTINUOUS
 62
     7
 10
409.9999999999999
 20
10.0
 30
0.0
 11
409.9999999999999
 21
286.9999999999999
 31
0.0
  0
LINE
  5
78
  8
0
  6
CONTINUOUS
 62
     7
 10
409.9999999999999
 20
286.9999999999999
 30
0.0
 11
10.00000000000006
 21
286.9999999999999
 31
0.0
  0
LINE
  5
79
  8
0
  6
CONTINUOUS
 62
     7
 10
10.0
 20
286.9999999999999
 30
0.0
 11
10.0
 21
10.00000000000001
 31
0.0
  0
LINE
  5
7A
  8
0
  6
CONTINUOUS
 62
     7
 10
210.0
 20
0.0
 30
0.0
 11
210.0
 21
10.0
 31
0.0
  0
LINE
  5
7B
  8
0
  6
CONTINUOUS
 62
     7
 10
420.0
 20
148.5
 30
0.0
 11
409.9999999999999
 21
148.5
 31
0.0
  0
LINE
  5
7C
  8
0
  6
CONTINUOUS
 62
     7
 10
210.0
 20
297.0
 30
0.0
 11
210.0
 21
286.9999999999999
 31
0.0
  0
LINE
  5
7D
  8
0
  6
CONTINUOUS
 62
     7
 10
0.0
 20
148.5
 30
0.0
 11
10.0
 21
148.5
 31
0.0
  0
POLYLINE
  5
7E
  8
0
  6
CONTINUOUS
 62
     7
 66
     1
 10
0.0
 20
0.0
 30
0.0
 70
     1
  0
VERTEX
  5
32A
  8
0
  6
CONTINUOUS
 62
     7
 10
11.0
 20
152.5
 30
0.0
  0
VERTEX
  5
32B
  8
0
  6
CONTINUOUS
 62
     7
 10
0.0
 20
148.5
 30
0.0
  0
VERTEX
  5
32C
  8
0
  6
CONTINUOUS
 62
     7
 10
11.0
 20
144.5
 30
0.0
  0
VERTEX
  5
32D
  8
0
  6
CONTINUOUS
 62
     7
 10
11.0
 20
152.5
 30
0.0
  0
SEQEND
  5
3A3
  8
0
  6
CONTINUOUS
 62
     7
  0
INSERT
  5
7F
  8
0
 62
     7
  2
*U40
 10
0.0
 20
0.0
 30
0.0
  0
POLYLINE
  5
80
  8
0
  6
CONTINUOUS
 62
     7
 66
     1
 10
0.0
 20
0.0
 30
0.0
 70
     1
  0
VERTEX
  5
330
  8
0
  6
CONTINUOUS
 62
     7
 10
206.0
 20
11.0
 30
0.0
  0
VERTEX
  5
331
  8
0
  6
CONTINUOUS
 62
     7
 10
210.0
 20
0.0
 30
0.0
  0
VERTEX
  5
332
  8
0
  6
CONTINUOUS
 62
     7
 10
214.0
 20
11.0
 30
0.0
  0
VERTEX
  5
333
  8
0
  6
CONTINUOUS
 62
     7
 10
206.0
 20
11.0
 30
0.0
  0
SEQEND
  5
3A4
  8
0
  6
CONTINUOUS
 62
     7
  0
INSERT
  5
81
  8
0
 62
     7
  2
*U41
 10
0.0
 20
0.0
 30
0.0
  0
LINE
  5
82
  8
0
  6
CONTINUOUS
 62
     7
 10
367.5
 20
286.9999999999999
 30
0.0
 11
367.5
 21
292.0
 31
0.0
  0
TEXT
  5
83
  8
0
  6
CONTINUOUS
 62
     7
 10
391.6340909090909
 20
291.8324293485057
 30
0.0
 40
3.5
  1
A
 50
270.0
  0
LINE
  5
84
  8
0
  6
CONTINUOUS
 62
     7
 10
367.5
 20
10.0
 30
0.0
 11
367.5
 21
5.0
 31
0.0
  0
TEXT
  5
85
  8
0
  6
CONTINUOUS
 62
     7
 10
392.9868888333125
 20
4.602272727272727
 30
0.0
 40
3.5
  1
A
  0
LINE
  5
86
  8
0
  6
CONTINUOUS
 62
     7
 10
315.0
 20
286.9999999999999
 30
0.0
 11
315.0
 21
292.0
 31
0.0
  0
TEXT
  5
87
  8
0
  6
CONTINUOUS
 62
     7
 10
339.1340909090909
 20
291.9745607727899
 30
0.0
 40
3.5
  1
B
 50
270.0
  0
LINE
  5
88
  8
0
  6
CONTINUOUS
 62
     7
 10
315.0
 20
10.0
 30
0.0
 11
315.0
 21
5.0
 31
0.0
  0
TEXT
  5
89
  8
0
  6
CONTINUOUS
 62
     7
 10
340.3447574090284
 20
4.602272727272727
 30
0.0
 40
3.5
  1
B
  0
LINE
  5
8A
  8
0
  6
CONTINUOUS
 62
     7
 10
262.5
 20
286.9999999999999
 30
0.0
 11
262.5
 21
292.0
 31
0.0
  0
TEXT
  5
8B
  8
0
  6
CONTINUOUS
 62
     7
 10
286.6327779167187
 20
291.9399305989747
 30
0.0
 40
3.5
  1
C
 50
270.0
  0
LINE
  5
8C
  8
0
  6
CONTINUOUS
 62
     7
 10
262.5
 20
10.0
 30
0.0
 11
262.5
 21
5.0
 31
0.0
  0
TEXT
  5
8D
  8
0
  6
CONTINUOUS
 62
     7
 10
287.8793875828435
 20
4.600959734900587
 30
0.0
 40
3.5
  1
C
  0
LINE
  5
8E
  8
0
  6
CONTINUOUS
 62
     7
 10
210.0
 20
286.9999999999999
 30
0.0
 11
210.0
 21
292.0
 31
0.0
  0
TEXT
  5
8F
  8
0
  6
CONTINUOUS
 62
     7
 10
234.1340909090909
 20
291.9745607727898
 30
0.0
 40
3.5
  1
D
 50
270.0
  0
LINE
  5
90
  8
0
  6
CONTINUOUS
 62
     7
 10
157.5
 20
286.9999999999999
 30
0.0
 11
157.5
 21
292.0
 31
0.0
  0
TEXT
  5
91
  8
0
  6
CONTINUOUS
 62
     7
 10
181.6327779167188
 20
292.027463423784
 30
0.0
 40
3.5
  1
E
 50
270.0
  0
LINE
  5
92
  8
0
  6
CONTINUOUS
 62
     7
 10
157.5
 20
10.0
 30
0.0
 11
157.5
 21
5.0
 31
0.0
  0
LINE
  5
93
  8
0
  6
CONTINUOUS
 62
     7
 10
105.0
 20
286.9999999999999
 30
0.0
 11
105.0
 21
292.0
 31
0.0
  0
TEXT
  5
94
  8
0
  6
CONTINUOUS
 62
     7
 10
129.1327779167188
 20
291.9924502938602
 30
0.0
 40
3.5
  1
F
 50
270.0
  0
LINE
  5
95
  8
0
  6
CONTINUOUS
 62
     7
 10
105.0
 20
10.0
 30
0.0
 11
105.0
 21
5.0
 31
0.0
  0
TEXT
  5
96
  8
0
  6
CONTINUOUS
 62
     7
 10
130.326867887958
 20
4.600959734900587
 30
0.0
 40
3.5
  1
F
  0
LINE
  5
97
  8
0
  6
CONTINUOUS
 62
     7
 10
52.50000000000004
 20
286.9999999999999
 30
0.0
 11
52.50000000000004
 21
292.0
 31
0.0
  0
TEXT
  5
98
  8
0
  6
CONTINUOUS
 62
     7
 10
76.6327779167188
 20
291.9399305989746
 30
0.0
 40
3.5
  1
G
 50
270.0
  0
LINE
  5
99
  8
0
  6
CONTINUOUS
 62
     7
 10
52.50000000000004
 20
10.0
 30
0.0
 11
52.50000000000004
 21
5.0
 31
0.0
  0
TEXT
  5
9A
  8
0
  6
CONTINUOUS
 62
     7
 10
77.8793875828436
 20
4.600959734900587
 30
0.0
 40
3.5
  1
G
  0
TEXT
  5
9B
  8
0
  6
CONTINUOUS
 62
     7
 10
24.13277791671879
 20
291.9749437288983
 30
0.0
 40
3.5
  1
H
 50
270.0
  0
TEXT
  5
9C
  8
0
  6
CONTINUOUS
 62
     7
 10
25.34437445291988
 20
4.600959734900587
 30
0.0
 40
3.5
  1
H
  0
LINE
  5
9D
  8
0
  6
CONTINUOUS
 62
     7
 10
409.9999999999999
 20
74.25
 30
0.0
 11
414.9999999999999
 21
74.25
 31
0.0
  0
TEXT
  5
9E
  8
0
  6
CONTINUOUS
 62
     7
 10
412.9326059772414
 20
35.00777791671877
 30
0.0
 40
3.5
  1
1
  0
LINE
  5
9F
  8
0
  6
CONTINUOUS
 62
     7
 10
10.0
 20
74.25
 30
0.0
 11
5.0
 21
74.25
 31
0.0
  0
TEXT
  5
A0
  8
0
  6
CONTINUOUS
 62
     7
 10
4.600959734900584
 20
38.26171220457671
 30
0.0
 40
3.5
  1
1
 50
270.0
  0
LINE
  5
A1
  8
0
  6
CONTINUOUS
 62
     7
 10
409.9999999999999
 20
148.5
 30
0.0
 11
414.9999999999999
 21
148.5
 31
0.0
  0
TEXT
  5
A2
  8
0
  6
CONTINUOUS
 62
     7
 10
413.163692634738
 20
109.2577779167188
 30
0.0
 40
3.5
  1
2
  0
LINE
  5
A3
  8
0
  6
CONTINUOUS
 62
     7
 10
10.0
 20
148.5
 30
0.0
 11
5.0
 21
148.5
 31
0.0
  0
TEXT
  5
A4
  8
0
  6
CONTINUOUS
 62
     7
 10
4.600959734900599
 20
112.2806255470802
 30
0.0
 40
3.5
  1
2
 50
270.0
  0
LINE
  5
A5
  8
0
  6
CONTINUOUS
 62
     7
 10
409.9999999999999
 20
222.75
 30
0.0
 11
414.9999999999999
 21
222.75
 31
0.0
  0
TEXT
  5
A6
  8
0
  6
CONTINUOUS
 62
     7
 10
413.1811991996998
 20
183.5077779167188
 30
0.0
 40
3.5
  1
3
  0
LINE
  5
A7
  8
0
  6
CONTINUOUS
 62
     7
 10
10.0
 20
222.75
 30
0.0
 11
5.0
 21
222.75
 31
0.0
  0
TEXT
  5
A8
  8
0
  6
CONTINUOUS
 62
     7
 10
4.600959734900584
 20
186.5131189821183
 30
0.0
 40
3.5
  1
3
 50
270.0
  0
TEXT
  5
A9
  8
0
  6
CONTINUOUS
 62
     7
 10
413.2351413029886
 20
257.7590909090909
 30
0.0
 40
3.5
  1
4
  0
TEXT
  5
AA
  8
0
  6
CONTINUOUS
 62
     7
 10
4.60227272727272
 20
260.7091768788295
 30
0.0
 40
3.5
  1
4
 50
270.0
  0
LINE
  5
AB
  8
0
  6
CONTINUOUS
 62
     7
 10
220.0
 20
10.0
 30
0.0
 11
220.0
 21
7.0
 31
0.0
  0
LINE
  5
AC
  8
0
  6
CONTINUOUS
 62
     7
 10
200.0
 20
10.0
 30
0.0
 11
200.0
 21
7.0
 31
0.0
  0
LINE
  5
AD
  8
0
  6
CONTINUOUS
 62
     7
 10
230.0
 20
10.0
 30
0.0
 11
230.0
 21
7.0
 31
0.0
  0
LINE
  5
AE
  8
0
  6
CONTINUOUS
 62
     7
 10
190.0
 20
10.0
 30
0.0
 11
190.0
 21
7.0
 31
0.0
  0
LINE
  5
AF
  8
0
  6
CONTINUOUS
 62
     7
 10
240.0
 20
10.0
 30
0.0
 11
240.0
 21
7.0
 31
0.0
  0
LINE
  5
B0
  8
0
  6
CONTINUOUS
 62
     7
 10
180.0
 20
10.0
 30
0.0
 11
180.0
 21
7.0
 31
0.0
  0
LINE
  5
B1
  8
0
  6
CONTINUOUS
 62
     7
 10
250.0
 20
10.0
 30
0.0
 11
250.0
 21
7.0
 31
0.0
  0
LINE
  5
B2
  8
0
  6
CONTINUOUS
 62
     7
 10
170.0
 20
10.0
 30
0.0
 11
170.0
 21
7.0
 31
0.0
  0
LINE
  5
B3
  8
0
  6
CONTINUOUS
 62
     7
 10
260.0
 20
10.0
 30
0.0
 11
260.0
 21
5.0
 31
0.0
  0
LINE
  5
B4
  8
0
  6
CONTINUOUS
 62
     7
 10
160.0
 20
10.0
 30
0.0
 11
160.0
 21
5.0
 31
0.0
  0
LINE
  5
B5
  8
0
  6
CONTINUOUS
 62
     7
 10
260.0
 20
10.0
 30
0.0
 11
160.0
 21
10.0
 31
0.0
  0
LINE
  5
B6
  8
0
  6
CONTINUOUS
 62
     7
 10
260.0
 20
7.0
 30
0.0
 11
160.0
 21
7.0
 31
0.0
  0
INSERT
  5
B7
  8
0
 62
     7
  2
*U42
 10
0.0
 20
0.0
 30
0.0
  0
INSERT
  5
B8
  8
0
 62
     7
  2
*U43
 10
0.0
 20
0.0
 30
0.0
  0
INSERT
  5
B9
  8
0
 62
     7
  2
*U44
 10
0.0
 20
0.0
 30
0.0
  0
INSERT
  5
BA
  8
0
 62
     7
  2
*U45
 10
0.0
 20
0.0
 30
0.0
  0
ENDBLK
  8
0
  0
BLOCK
  8
0
  2
*U2
 70
     1
 10
0.0
 20
0.0
 30
0.0
  0
SOLID
  5
2DD
  8
0
  6
CONTINUOUS
 62
     7
 10
409.9999999999999
 20
0.0
 30
0.0
 11
409.9999999999999
 21
2.0
 31
0.0
 12
418.0
 22
0.0
 32
0.0
 13
418.0
 23
0.0
 33
0.0
  0
ENDBLK
  8
0
  0
BLOCK
  8
0
  2
*U3
 70
     1
 10
0.0
 20
0.0
 30
0.0
  0
SOLID
  5
2DF
  8
0
  6
CONTINUOUS
 62
     7
 10
420.0
 20
286.9999999999999
 30
0.0
 11
418.0
 21
297.0
 31
0.0
 12
420.0
 22
297.0
 32
0.0
 13
420.0
 23
297.0
 33
0.0
  0
ENDBLK
  8
0
  0
BLOCK
  8
0
  2
*U4
 70
     1
 10
0.0
 20
0.0
 30
0.0
  0
SOLID
  5
2E1
  8
0
  6
CONTINUOUS
 62
     7
 10
10.0
 20
295.0
 30
0.0
 11
2.0
 21
297.0
 31
0.0
 12
10.0
 22
297.0
 32
0.0
 13
10.0
 23
297.0
 33
0.0
  0
ENDBLK
  8
0
  0
BLOCK
  8
0
  2
*U5
 70
     1
 10
0.0
 20
0.0
 30
0.0
  0
SOLID
  5
2E3
  8
0
  6
CONTINUOUS
 62
     7
 10
420.0
 20
0.0
 30
0.0
 11
418.0
 21
10.0
 31
0.0
 12
420.0
 22
10.0
 32
0.0
 13
420.0
 23
10.0
 33
0.0
  0
ENDBLK
  8
0
  0
BLOCK
  8
0
  2
*U6
 70
     1
 10
0.0
 20
0.0
 30
0.0
  0
SOLID
  5
2E5
  8
0
  6
CONTINUOUS
 62
     7
 10
11.0
 20
144.5
 30
0.0
 11
6.999999999999999
 21
148.5
 31
0.0
 12
11.0
 22
152.5
 32
0.0
 13
11.0
 23
152.5
 33
0.0
  0
ENDBLK
  8
0
  0
BLOCK
  8
0
  2
*U7
 70
     1
 10
0.0
 20
0.0
 30
0.0
  0
SOLID
  5
2E7
  8
0
  6
CONTINUOUS
 62
     7
 10
210.0
 20
6.999999999999999
 30
0.0
 11
206.0
 21
11.0
 31
0.0
 12
210.0
 22
11.0
 32
0.0
 13
210.0
 23
11.0
 33
0.0
  0
ENDBLK
  8
0
  0
BLOCK
  8
0
  2
*U8
 70
     1
 10
0.0
 20
0.0
 30
0.0
  0
SOLID
  5
2E9
  8
0
  6
CONTINUOUS
 62
     7
 10
418.0
 20
0.0
 30
0.0
 11
418.0
 21
10.0
 31
0.0
 12
420.0
 22
0.0
 32
0.0
 13
420.0
 23
0.0
 33
0.0
  0
ENDBLK
  8
0
  0
BLOCK
  8
0
  2
*U9
 70
     1
 10
0.0
 20
0.0
 30
0.0
  0
SOLID
  5
2EB
  8
0
  6
CONTINUOUS
 62
     7
 10
11.0
 20
144.5
 30
0.0
 11
6.999999999999999
 21
148.5
 31
0.0
 12
11.0
 22
152.5
 32
0.0
 13
11.0
 23
152.5
 33
0.0
  0
ENDBLK
  8
0
  0
BLOCK
  8
0
  2
*U10
 70
     1
 10
0.0
 20
0.0
 30
0.0
  0
SOLID
  5
2ED
  8
0
  6
CONTINUOUS
 62
     7
 10
210.0
 20
6.999999999999999
 30
0.0
 11
206.0
 21
11.0
 31
0.0
 12
210.0
 22
11.0
 32
0.0
 13
210.0
 23
11.0
 33
0.0
  0
ENDBLK
  8
0
  0
BLOCK
  8
0
  2
*U11
 70
     1
 10
0.0
 20
0.0
 30
0.0
  0
SOLID
  5
2EF
  8
0
  6
CONTINUOUS
 62
     7
 10
210.0
 20
6.999999999999999
 30
0.0
 11
210.0
 21
11.0
 31
0.0
 12
214.0
 22
11.0
 32
0.0
 13
214.0
 23
11.0
 33
0.0
  0
ENDBLK
  8
0
  0
BLOCK
  8
0
  2
*U12
 70
     1
 10
0.0
 20
0.0
 30
0.0
  0
SOLID
  5
2F1
  8
0
  6
CONTINUOUS
 62
     7
 10
0.0
 20
0.0
 30
0.0
 11
0.0
 21
10.0
 31
0.0
 12
2.0
 22
0.0
 32
0.0
 13
2.0
 23
0.0
 33
0.0
  0
ENDBLK
  8
0
  0
BLOCK
  8
0
  2
*U13
 70
     1
 10
0.0
 20
0.0
 30
0.0
  0
SOLID
  5
2F3
  8
0
  6
CONTINUOUS
 62
     7
 10
2.0
 20
0.0
 30
0.0
 11
0.0
 21
10.0
 31
0.0
 12
2.0
 22
10.0
 32
0.0
 13
2.0
 23
10.0
 33
0.0
  0
ENDBLK
  8
0
  0
BLOCK
  8
0
  2
*U14
 70
     1
 10
0.0
 20
0.0
 30
0.0
  0
SOLID
  5
2F5
  8
0
  6
CONTINUOUS
 62
     7
 10
2.0
 20
0.0
 30
0.0
 11
2.0
 21
2.0
 31
0.0
 12
10.0
 22
0.0
 32
0.0
 13
10.0
 23
0.0
 33
0.0
  0
ENDBLK
  8
0
  0
BLOCK
  8
0
  2
*U15
 70
     1
 10
0.0
 20
0.0
 30
0.0
  0
SOLID
  5
2F7
  8
0
  6
CONTINUOUS
 62
     7
 10
10.0
 20
0.0
 30
0.0
 11
2.0
 21
2.0
 31
0.0
 12
10.0
 22
2.0
 32
0.0
 13
10.0
 23
2.0
 33
0.0
  0
ENDBLK
  8
0
  0
BLOCK
  8
0
  2
*U16
 70
     1
 10
0.0
 20
0.0
 30
0.0
  0
SOLID
  5
2F9
  8
0
  6
CONTINUOUS
 62
     7
 10
409.9999999999999
 20
0.0
 30
0.0
 11
409.9999999999999
 21
2.0
 31
0.0
 12
418.0
 22
0.0
 32
0.0
 13
418.0
 23
0.0
 33
0.0
  0
ENDBLK
  8
0
  0
BLOCK
  8
0
  2
*U17
 70
     1
 10
0.0
 20
0.0
 30
0.0
  0
SOLID
  5
2FB
  8
0
  6
CONTINUOUS
 62
     7
 10
418.0
 20
0.0
 30
0.0
 11
409.9999999999999
 21
2.0
 31
0.0
 12
418.0
 22
2.0
 32
0.0
 13
418.0
 23
2.0
 33
0.0
  0
ENDBLK
  8
0
  0
BLOCK
  8
0
  2
*U18
 70
     1
 10
0.0
 20
0.0
 30
0.0
  0
SOLID
  5
2FD
  8
0
  6
CONTINUOUS
 62
     7
 10
418.0
 20
0.0
 30
0.0
 11
418.0
 21
10.0
 31
0.0
 12
420.0
 22
0.0
 32
0.0
 13
420.0
 23
0.0
 33
0.0
  0
ENDBLK
  8
0
  0
BLOCK
  8
0
  2
*U19
 70
     1
 10
0.0
 20
0.0
 30
0.0
  0
SOLID
  5
2FF
  8
0
  6
CONTINUOUS
 62
     7
 10
420.0
 20
0.0
 30
0.0
 11
418.0
 21
10.0
 31
0.0
 12
420.0
 22
10.0
 32
0.0
 13
420.0
 23
10.0
 33
0.0
  0
ENDBLK
  8
0
  0
BLOCK
  8
0
  2
*U20
 70
     1
 10
0.0
 20
0.0
 30
0.0
  0
SOLID
  5
301
  8
0
  6
CONTINUOUS
 62
     7
 10
409.9999999999999
 20
295.0
 30
0.0
 11
409.9999999999999
 21
297.0
 31
0.0
 12
418.0
 22
295.0
 32
0.0
 13
418.0
 23
295.0
 33
0.0
  0
ENDBLK
  8
0
  0
BLOCK
  8
0
  2
*U21
 70
     1
 10
0.0
 20
0.0
 30
0.0
  0
SOLID
  5
303
  8
0
  6
CONTINUOUS
 62
     7
 10
418.0
 20
295.0
 30
0.0
 11
409.9999999999999
 21
297.0
 31
0.0
 12
418.0
 22
297.0
 32
0.0
 13
418.0
 23
297.0
 33
0.0
  0
ENDBLK
  8
0
  0
BLOCK
  8
0
  2
*U22
 70
     1
 10
0.0
 20
0.0
 30
0.0
  0
SOLID
  5
305
  8
0
  6
CONTINUOUS
 62
     7
 10
418.0
 20
286.9999999999999
 30
0.0
 11
418.0
 21
297.0
 31
0.0
 12
420.0
 22
286.9999999999999
 32
0.0
 13
420.0
 23
286.9999999999999
 33
0.0
  0
ENDBLK
  8
0
  0
BLOCK
  8
0
  2
*U23
 70
     1
 10
0.0
 20
0.0
 30
0.0
  0
SOLID
  5
307
  8
0
  6
CONTINUOUS
 62
     7
 10
420.0
 20
286.9999999999999
 30
0.0
 11
418.0
 21
297.0
 31
0.0
 12
420.0
 22
297.0
 32
0.0
 13
420.0
 23
297.0
 33
0.0
  0
ENDBLK
  8
0
  0
BLOCK
  8
0
  2
*U24
 70
     1
 10
0.0
 20
0.0
 30
0.0
  0
SOLID
  5
309
  8
0
  6
CONTINUOUS
 62
     7
 10
0.0
 20
286.9999999999999
 30
0.0
 11
0.0
 21
297.0
 31
0.0
 12
2.0
 22
286.9999999999999
 32
0.0
 13
2.0
 23
286.9999999999999
 33
0.0
  0
ENDBLK
  8
0
  0
BLOCK
  8
0
  2
*U25
 70
     1
 10
0.0
 20
0.0
 30
0.0
  0
SOLID
  5
30B
  8
0
  6
CONTINUOUS
 62
     7
 10
2.0
 20
286.9999999999999
 30
0.0
 11
0.0
 21
297.0
 31
0.0
 12
2.0
 22
297.0
 32
0.0
 13
2.0
 23
297.0
 33
0.0
  0
ENDBLK
  8
0
  0
BLOCK
  8
0
  2
*U26
 70
     1
 10
0.0
 20
0.0
 30
0.0
  0
SOLID
  5
30D
  8
0
  6
CONTINUOUS
 62
     7
 10
2.0
 20
295.0
 30
0.0
 11
2.0
 21
297.0
 31
0.0
 12
10.0
 22
295.0
 32
0.0
 13
10.0
 23
295.0
 33
0.0
  0
ENDBLK
  8
0
  0
BLOCK
  8
0
  2
*U27
 70
     1
 10
0.0
 20
0.0
 30
0.0
  0
SOLID
  5
30F
  8
0
  6
CONTINUOUS
 62
     7
 10
10.0
 20
295.0
 30
0.0
 11
2.0
 21
297.0
 31
0.0
 12
10.0
 22
297.0
 32
0.0
 13
10.0
 23
297.0
 33
0.0
  0
ENDBLK
  8
0
  0
BLOCK
  8
0
  2
*U28
 70
     1
 10
0.0
 20
0.0
 30
0.0
  0
SOLID
  5
311
  8
0
  6
CONTINUOUS
 62
     7
 10
409.9999999999999
 20
295.0
 30
0.0
 11
409.9999999999999
 21
297.0
 31
0.0
 12
418.0
 22
295.0
 32
0.0
 13
418.0
 23
295.0
 33
0.0
  0
ENDBLK
  8
0
  0
BLOCK
  8
0
  2
*U29
 70
     1
 10
0.0
 20
0.0
 30
0.0
  0
SOLID
  5
313
  8
0
  6
CONTINUOUS
 62
     7
 10
2.0
 20
286.9999999999999
 30
0.0
 11
0.0
 21
297.0
 31
0.0
 12
2.0
 22
297.0
 32
0.0
 13
2.0
 23
297.0
 33
0.0
  0
ENDBLK
  8
0
  0
BLOCK
  8
0
  2
*U30
 70
     1
 10
0.0
 20
0.0
 30
0.0
  0
SOLID
  5
315
  8
0
  6
CONTINUOUS
 62
     7
 10
10.0
 20
0.0
 30
0.0
 11
2.0
 21
2.0
 31
0.0
 12
10.0
 22
2.0
 32
0.0
 13
10.0
 23
2.0
 33
0.0
  0
ENDBLK
  8
0
  0
BLOCK
  8
0
  2
*U31
 70
     1
 10
0.0
 20
0.0
 30
0.0
  0
SOLID
  5
317
  8
0
  6
CONTINUOUS
 62
     7
 10
2.0
 20
295.0
 30
0.0
 11
2.0
 21
297.0
 31
0.0
 12
10.0
 22
295.0
 32
0.0
 13
10.0
 23
295.0
 33
0.0
  0
ENDBLK
  8
0
  0
BLOCK
  8
0
  2
*U32
 70
     1
 10
0.0
 20
0.0
 30
0.0
  0
SOLID
  5
319
  8
0
  6
CONTINUOUS
 62
     7
 10
2.0
 20
0.0
 30
0.0
 11
0.0
 21
10.0
 31
0.0
 12
2.0
 22
10.0
 32
0.0
 13
2.0
 23
10.0
 33
0.0
  0
ENDBLK
  8
0
  0
BLOCK
  8
0
  2
*U33
 70
     1
 10
0.0
 20
0.0
 30
0.0
  0
SOLID
  5
31B
  8
0
  6
CONTINUOUS
 62
     7
 10
418.0
 20
286.9999999999999
 30
0.0
 11
418.0
 21
297.0
 31
0.0
 12
420.0
 22
286.9999999999999
 32
0.0
 13
420.0
 23
286.9999999999999
 33
0.0
  0
ENDBLK
  8
0
  0
BLOCK
  8
0
  2
*U34
 70
     1
 10
0.0
 20
0.0
 30
0.0
  0
SOLID
  5
31D
  8
0
  6
CONTINUOUS
 62
     7
 10
210.0
 20
6.999999999999999
 30
0.0
 11
210.0
 21
11.0
 31
0.0
 12
214.0
 22
11.0
 32
0.0
 13
214.0
 23
11.0
 33
0.0
  0
ENDBLK
  8
0
  0
BLOCK
  8
0
  2
*U35
 70
     1
 10
0.0
 20
0.0
 30
0.0
  0
SOLID
  5
31F
  8
0
  6
CONTINUOUS
 62
     7
 10
418.0
 20
295.0
 30
0.0
 11
409.9999999999999
 21
297.0
 31
0.0
 12
418.0
 22
297.0
 32
0.0
 13
418.0
 23
297.0
 33
0.0
  0
ENDBLK
  8
0
  0
BLOCK
  8
0
  2
*U36
 70
     1
 10
0.0
 20
0.0
 30
0.0
  0
SOLID
  5
321
  8
0
  6
CONTINUOUS
 62
     7
 10
0.0
 20
0.0
 30
0.0
 11
0.0
 21
10.0
 31
0.0
 12
2.0
 22
0.0
 32
0.0
 13
2.0
 23
0.0
 33
0.0
  0
ENDBLK
  8
0
  0
BLOCK
  8
0
  2
*U37
 70
     1
 10
0.0
 20
0.0
 30
0.0
  0
SOLID
  5
323
  8
0
  6
CONTINUOUS
 62
     7
 10
2.0
 20
0.0
 30
0.0
 11
2.0
 21
2.0
 31
0.0
 12
10.0
 22
0.0
 32
0.0
 13
10.0
 23
0.0
 33
0.0
  0
ENDBLK
  8
0
  0
BLOCK
  8
0
  2
*U38
 70
     1
 10
0.0
 20
0.0
 30
0.0
  0
SOLID
  5
325
  8
0
  6
CONTINUOUS
 62
     7
 10
418.0
 20
0.0
 30
0.0
 11
409.9999999999999
 21
2.0
 31
0.0
 12
418.0
 22
2.0
 32
0.0
 13
418.0
 23
2.0
 33
0.0
  0
ENDBLK
  8
0
  0
BLOCK
  8
0
  2
*U39
 70
     1
 10
0.0
 20
0.0
 30
0.0
  0
SOLID
  5
327
  8
0
  6
CONTINUOUS
 62
     7
 10
0.0
 20
286.9999999999999
 30
0.0
 11
0.0
 21
297.0
 31
0.0
 12
2.0
 22
286.9999999999999
 32
0.0
 13
2.0
 23
286.9999999999999
 33
0.0
  0
ENDBLK
  8
0
  0
BLOCK
  8
0
  2
*U40
 70
     1
 10
0.0
 20
0.0
 30
0.0
  0
SOLID
  5
32F
  8
0
  6
CONTINUOUS
 62
     7
 10
11.0
 20
144.5
 30
0.0
 11
6.999999999999999
 21
148.5
 31
0.0
 12
11.0
 22
152.5
 32
0.0
 13
11.0
 23
152.5
 33
0.0
  0
ENDBLK
  8
0
  0
BLOCK
  8
0
  2
*U41
 70
     1
 10
0.0
 20
0.0
 30
0.0
  0
SOLID
  5
335
  8
0
  6
CONTINUOUS
 62
     7
 10
210.0
 20
6.999999999999999
 30
0.0
 11
206.0
 21
11.0
 31
0.0
 12
210.0
 22
11.0
 32
0.0
 13
210.0
 23
11.0
 33
0.0
  0
SOLID
  5
336
  8
0
  6
CONTINUOUS
 62
     7
 10
210.0
 20
6.999999999999999
 30
0.0
 11
210.0
 21
11.0
 31
0.0
 12
214.0
 22
11.0
 32
0.0
 13
214.0
 23
11.0
 33
0.0
  0
ENDBLK
  8
0
  0
BLOCK
  8
0
  2
*U42
 70
     1
 10
0.0
 20
0.0
 30
0.0
  0
SOLID
  5
338
  8
0
  6
CONTINUOUS
 62
     7
 10
0.0
 20
0.0
 30
0.0
 11
0.0
 21
10.0
 31
0.0
 12
2.0
 22
0.0
 32
0.0
 13
2.0
 23
0.0
 33
0.0
  0
SOLID
  5
339
  8
0
  6
CONTINUOUS
 62
     7
 10
2.0
 20
0.0
 30
0.0
 11
0.0
 21
10.0
 31
0.0
 12
2.0
 22
10.0
 32
0.0
 13
2.0
 23
10.0
 33
0.0
  0
SOLID
  5
33A
  8
0
  6
CONTINUOUS
 62
     7
 10
2.0
 20
0.0
 30
0.0
 11
2.0
 21
2.0
 31
0.0
 12
10.0
 22
0.0
 32
0.0
 13
10.0
 23
0.0
 33
0.0
  0
SOLID
  5
33B
  8
0
  6
CONTINUOUS
 62
     7
 10
10.0
 20
0.0
 30
0.0
 11
2.0
 21
2.0
 31
0.0
 12
10.0
 22
2.0
 32
0.0
 13
10.0
 23
2.0
 33
0.0
  0
ENDBLK
  8
0
  0
BLOCK
  8
0
  2
*U43
 70
     1
 10
0.0
 20
0.0
 30
0.0
  0
SOLID
  5
33D
  8
0
  6
CONTINUOUS
 62
     7
 10
409.9999999999999
 20
0.0
 30
0.0
 11
409.9999999999999
 21
2.0
 31
0.0
 12
418.0
 22
0.0
 32
0.0
 13
418.0
 23
0.0
 33
0.0
  0
SOLID
  5
33E
  8
0
  6
CONTINUOUS
 62
     7
 10
418.0
 20
0.0
 30
0.0
 11
409.9999999999999
 21
2.0
 31
0.0
 12
418.0
 22
2.0
 32
0.0
 13
418.0
 23
2.0
 33
0.0
  0
SOLID
  5
33F
  8
0
  6
CONTINUOUS
 62
     7
 10
418.0
 20
0.0
 30
0.0
 11
418.0
 21
10.0
 31
0.0
 12
420.0
 22
0.0
 32
0.0
 13
420.0
 23
0.0
 33
0.0
  0
SOLID
  5
340
  8
0
  6
CONTINUOUS
 62
     7
 10
420.0
 20
0.0
 30
0.0
 11
418.0
 21
10.0
 31
0.0
 12
420.0
 22
10.0
 32
0.0
 13
420.0
 23
10.0
 33
0.0
  0
ENDBLK
  8
0
  0
BLOCK
  8
0
  2
*U44
 70
     1
 10
0.0
 20
0.0
 30
0.0
  0
SOLID
  5
342
  8
0
  6
CONTINUOUS
 62
     7
 10
409.9999999999999
 20
295.0
 30
0.0
 11
409.9999999999999
 21
297.0
 31
0.0
 12
418.0
 22
295.0
 32
0.0
 13
418.0
 23
295.0
 33
0.0
  0
SOLID
  5
343
  8
0
  6
CONTINUOUS
 62
     7
 10
418.0
 20
295.0
 30
0.0
 11
409.9999999999999
 21
297.0
 31
0.0
 12
418.0
 22
297.0
 32
0.0
 13
418.0
 23
297.0
 33
0.0
  0
SOLID
  5
344
  8
0
  6
CONTINUOUS
 62
     7
 10
418.0
 20
286.9999999999999
 30
0.0
 11
418.0
 21
297.0
 31
0.0
 12
420.0
 22
286.9999999999999
 32
0.0
 13
420.0
 23
286.9999999999999
 33
0.0
  0
SOLID
  5
345
  8
0
  6
CONTINUOUS
 62
     7
 10
420.0
 20
286.9999999999999
 30
0.0
 11
418.0
 21
297.0
 31
0.0
 12
420.0
 22
297.0
 32
0.0
 13
420.0
 23
297.0
 33
0.0
  0
ENDBLK
  8
0
  0
BLOCK
  8
0
  2
*U45
 70
     1
 10
0.0
 20
0.0
 30
0.0
  0
SOLID
  5
347
  8
0
  6
CONTINUOUS
 62
     7
 10
0.0
 20
286.9999999999999
 30
0.0
 11
0.0
 21
297.0
 31
0.0
 12
2.0
 22
286.9999999999999
 32
0.0
 13
2.0
 23
286.9999999999999
 33
0.0
  0
SOLID
  5
348
  8
0
  6
CONTINUOUS
 62
     7
 10
2.0
 20
286.9999999999999
 30
0.0
 11
0.0
 21
297.0
 31
0.0
 12
2.0
 22
297.0
 32
0.0
 13
2.0
 23
297.0
 33
0.0
  0
SOLID
  5
349
  8
0
  6
CONTINUOUS
 62
     7
 10
2.0
 20
295.0
 30
0.0
 11
2.0
 21
297.0
 31
0.0
 12
10.0
 22
295.0
 32
0.0
 13
10.0
 23
295.0
 33
0.0
  0
SOLID
  5
34A
  8
0
  6
CONTINUOUS
 62
     7
 10
10.0
 20
295.0
 30
0.0
 11
2.0
 21
297.0
 31
0.0
 12
10.0
 22
297.0
 32
0.0
 13
10.0
 23
297.0
 33
0.0
  0
ENDBLK
  8
0
  0
ENDSEC
  0
SECTION
  2
ENTITIES
  0
INSERT
  5
71
  8
0
 62
     7
  2
D_FRAME_DRAWING_21
 10
0.0
 20
0.0
 30
0.0
  0
LINE
  5
BB
  8
1
  6
CONTINUOUS
 62
     7
 10
5634.889821959099
 20
511.7661302362
 30
0.0
 11
5635.6675997369
 21
511.7661302362
 31
0.0
  0
ARC
  5
BC
  8
1
  6
CONTINUOUS
 62
     7
 10
5634.723155293899
 20
464.2325499029
 30
0.0
 40
3.000000000000114
 50
270.0
 51
0.0
  0
LINE
  5
BD
  8
1
  6
CONTINUOUS
 62
     7
 10
5674.2231552939
 20
512.9827969029
 30
0.0
 11
5716.223155293899
 21
512.9827969029
 31
0.0
  0
LINE
  5
BE
  8
1
  6
CONTINUOUS
 62
     7
 10
5633.3342664038
 20
509.8216857971
 30
0.0
 11
5633.3342664038
 21
507.7044689356002
 31
0.0
  0
ARC
  5
BF
  8
1
  6
CONTINUOUS
 62
     7
 10
5882.4574640713
 20
505.5213595897
 30
0.0
 40
0.3330600616
 50
57.7301505645
 51
72.5537066282
  0
ARC
  5
C0
  8
1
  6
CONTINUOUS
 62
     7
 10
5882.5481321877
 20
475.9386265926
 30
0.0
 40
0.2187845507
 50
293.4757303424
 51
310.9360736909
  0
LINE
  5
C1
  8
1
  6
CONTINUOUS
 62
     7
 10
5837.2231552939
 20
510.4327969029
 30
0.0
 11
5842.2231552939
 21
510.4327969029
 31
0.0
  0
LINE
  5
C2
  8
1
  6
CONTINUOUS
 62
     7
 10
5882.7231552939
 20
515.3644069029
 30
0.0
 11
5882.7231552939
 21
460.9827969029
 31
0.0
  0
LINE
  5
C3
  8
1
  6
CONTINUOUS
 62
     7
 10
5879.2231552939
 20
512.6854769029
 30
0.0
 11
5879.2231552939
 21
509.2490202362
 31
0.0
  0
ARC
  5
C4
  8
1
  6
CONTINUOUS
 62
     7
 10
5882.5357008714
 20
467.3478859309
 30
0.0
 40
0.1874604161
 50
326.2032337287
 51
359.5418291885001
  0
LINE
  5
C5
  8
1
  6
CONTINUOUS
 62
     7
 10
5782.2918316068
 20
462.6827969029
 30
0.0
 11
5782.2918316068
 21
513.6827969029
 31
0.0
  0
LINE
  5
C6
  8
1
  6
CONTINUOUS
 62
     7
 10
5753.6028345451
 20
467.1827969029
 30
0.0
 11
5750.6939765514
 21
467.1827969029
 31
0.0
  0
ARC
  5
C7
  8
1
  6
CONTINUOUS
 62
     7
 10
5882.4247167237
 20
470.9481068143
 30
0.0
 40
0.441972403
 50
269.797581205
 51
287.4590881956
  0
LINE
  5
C8
  8
1
  6
CONTINUOUS
 62
     7
 10
5807.2918316068
 20
515.6827969029
 30
0.0
 11
5784.2918316068
 21
515.6827969029
 31
0.0
  0
ARC
  5
C9
  8
1
  6
CONTINUOUS
 62
     7
 10
5882.6386113959
 20
500.5260643625
 30
0.0
 40
0.0847081482
 50
3.5686025901
 51
51.3789051745
  0
ARC
  5
CA
  8
1
  6
CONTINUOUS
 62
     7
 10
5882.4242616128
 20
467.4935370715
 30
0.0
 40
0.376964992
 50
269.8318478022
 51
290.6691508475
  0
ARC
  5
CB
  8
1
  6
CONTINUOUS
 62
     7
 10
5882.4694273808
 20
500.2526569323998
 30
0.0
 40
0.4100291051
 50
66.13971659740001
 51
77.6222816348
  0
LINE
  5
CC
  8
1
  6
CONTINUOUS
 62
     7
 10
5753.3435249623
 20
509.1827969029
 30
0.0
 11
5753.1231562888
 21
510.4324026289
 31
0.0
  0
LINE
  5
CD
  8
1
  6
CONTINUOUS
 62
     7
 10
5882.4231552939
 20
500.6675369029
 30
0.0
 11
5879.2231552939
 21
500.6675369029
 31
0.0
  0
LINE
  5
CE
  8
1
  6
CONTINUOUS
 62
     7
 10
5879.2231552939
 20
505.8594569029
 30
0.0
 11
5882.4231552939
 21
505.8594569029
 31
0.0
  0
ARC
  5
CF
  8
1
  6
CONTINUOUS
 62
     7
 10
5882.4473648723
 20
508.9334827721
 30
0.0
 40
0.3113379126
 50
52.87208968110001
 51
69.3188102108
  0
ARC
  5
D0
  8
1
  6
CONTINUOUS
 62
     7
 10
5882.4252515305
 20
500.0539781639002
 30
0.0
 40
0.6135593199
 50
77.5698819927
 51
90.1957524584
  0
TEXT
  5
D1
  8
1
  6
CONTINUOUS
 62
     7
 10
5968.280005805427
 20
441.6524752859823
 30
0.0
 40
6.0
  1
KFEKH-30
 41
1.373232
  0
LINE
  5
D2
  8
1
  6
CONTINUOUS
 62
     7
 10
5977.1406051148
 20
500.5313384958
 30
0.0
 11
5974.7166961132
 21
499.2962951722
 31
0.0
  0
ARC
  5
D3
  8
1
  6
CONTINUOUS
 62
     7
 10
5964.9097324504
 20
466.8253189464
 30
0.0
 40
1.0
 50
119.3392530743
 51
207.0
  0
LINE
  5
D4
  8
1
  6
CONTINUOUS
 62
     7
 10
5977.1406051148
 20
475.83425531
 30
0.0
 11
5974.7166961132
 21
477.0692986336
 31
0.0
  0
LINE
  5
D5
  8
1
  6
CONTINUOUS
 62
     7
 10
5856.2231552939
 20
508.6827969029
 30
0.0
 11
5859.2231552939
 21
508.6827969029
 31
0.0
  0
LINE
  5
D6
  8
1
  6
CONTINUOUS
 62
     7
 10
5971.6576764366
 20
472.4476240482
 30
0.0
 11
5973.7416365097
 21
470.6989739194
 31
0.0
  0
LINE
  5
D7
  8
1
  6
CONTINUOUS
 62
     7
 10
5845.2231552939
 20
467.6827969029
 30
0.0
 11
5842.7231552939
 21
467.6827969029
 31
0.0
  0
LINE
  5
D8
  8
1
  6
CONTINUOUS
 62
     7
 10
5965.2537692498
 20
463.947419445
 30
0.0
 11
5964.0187259262
 21
466.3713284466
 31
0.0
  0
CIRCLE
  5
D9
  8
1
  6
CONTINUOUS
 62
     7
 10
5952.9052276569
 20
488.1827969029
 30
0.0
 40
27.5
  0
ARC
  5
DA
  8
1
  6
CONTINUOUS
 62
     7
 10
5974.2627056134
 20
500.1873016964
 30
0.0
 40
1.0
 50
209.3392530742
 51
297.0
  0
ARC
  5
DB
  8
1
  6
CONTINUOUS
 62
     7
 10
5952.9052276569
 20
488.1827969029
 30
0.0
 40
23.5
 50
299.3392530742
 51
307.6607469258
  0
LINE
  5
DC
  8
1
  6
CONTINUOUS
 62
     7
 10
5940.556686064
 20
463.947419445
 30
0.0
 11
5941.7917293876
 21
466.3713284466
 31
0.0
  0
ARC
  5
DD
  8
1
  6
CONTINUOUS
 62
     7
 10
5952.9052276569
 20
488.1827969029
 30
0.0
 40
23.5
 50
209.3392530742
 51
217.6607469258001
  0
ARC
  5
DE
  8
1
  6
CONTINUOUS
 62
     7
 10
5933.5099912676
 20
473.2136684913
 30
0.0
 40
1.0
 50
310.0
 51
37.66074692580003
  0
LINE
  5
DF
  8
1
  6
CONTINUOUS
 62
     7
 10
5934.1527788772
 20
472.4476240482
 30
0.0
 11
5932.0688188041
 21
470.6989739194
 31
0.0
  0
ARC
  5
E0
  8
1
  6
CONTINUOUS
 62
     7
 10
5952.9052276569
 20
488.1827969029
 30
0.0
 40
23.5
 50
322.3392530742
 51
330.6607469258
  0
LINE
  5
E1
  8
1
  6
CONTINUOUS
 62
     7
 10
5968.6404005116
 20
469.4303481232
 30
0.0
 11
5970.3890506404
 21
467.3463880501
 31
0.0
  0
ARC
  5
E2
  8
1
  6
CONTINUOUS
 62
     7
 10
5967.8743560685
 20
468.7875605136
 30
0.0
 40
1.0
 50
40.0
 51
127.6607469258
  0
LINE
  5
E3
  8
1
  6
CENTER
 62
     5
 10
5897.7153583934
 20
488.1827969029
 30
0.0
 11
5610.0
 21
488.1827969029
 31
0.0
  0
LINE
  5
E5
  8
0
  6
CONTINUOUS
 62
     7
 10
260.0
 20
10.0
 30
0.0
 11
260.0
 21
5.0
 31
0.0
  0
LINE
  5
E6
  8
0
  6
CONTINUOUS
 62
     7
 10
10.0
 20
10.0
 30
0.0
 11
409.9999999999999
 21
10.0
 31
0.0
  0
LINE
  5
E7
  8
0
  6
CONTINUOUS
 62
     7
 10
160.0
 20
10.0
 30
0.0
 11
160.0
 21
5.0
 31
0.0
  0
LINE
  5
E8
  8
0
  6
CONTINUOUS
 62
     7
 10
260.0
 20
10.0
 30
0.0
 11
160.0
 21
10.0
 31
0.0
  0
LINE
  5
E9
  8
0
  6
CONTINUOUS
 62
     7
 10
10.0
 20
222.75
 30
0.0
 11
5.0
 21
222.75
 31
0.0
  0
LINE
  5
EA
  8
0
  6
CONTINUOUS
 62
     7
 10
260.0
 20
7.0
 30
0.0
 11
160.0
 21
7.0
 31
0.0
  0
LINE
  5
EB
  8
1
  6
CONTINUOUS
 62
     7
 10
5882.4231552939
 20
512.6854769029
 30
0.0
 11
5879.2231552939
 21
512.6854769029
 31
0.0
  0
LINE
  5
EC
  8
0
  6
CONTINUOUS
 62
     7
 10
409.9999999999999
 20
10.0
 30
0.0
 11
409.9999999999999
 21
286.9999999999999
 31
0.0
  0
LINE
  5
ED
  8
0
  6
CONTINUOUS
 62
     7
 10
367.5
 20
286.9999999999999
 30
0.0
 11
367.5
 21
292.0
 31
0.0
  0
LINE
  5
EE
  8
0
  6
CONTINUOUS
 62
     7
 10
367.5
 20
10.0
 30
0.0
 11
367.5
 21
5.0
 31
0.0
  0
LINE
  5
EF
  8
0
  6
CONTINUOUS
 62
     7
 10
315.0
 20
286.9999999999999
 30
0.0
 11
315.0
 21
292.0
 31
0.0
  0
LINE
  5
F0
  8
0
  6
CONTINUOUS
 62
     7
 10
315.0
 20
10.0
 30
0.0
 11
315.0
 21
5.0
 31
0.0
  0
LINE
  5
F1
  8
0
  6
CONTINUOUS
 62
     7
 10
52.50000000000004
 20
10.0
 30
0.0
 11
52.50000000000004
 21
5.0
 31
0.0
  0
LINE
  5
F2
  8
0
  6
CONTINUOUS
 62
     7
 10
10.0
 20
74.25
 30
0.0
 11
5.0
 21
74.25
 31
0.0
  0
LINE
  5
F3
  8
0
  6
CONTINUOUS
 62
     7
 10
210.0
 20
286.9999999999999
 30
0.0
 11
210.0
 21
292.0
 31
0.0
  0
LINE
  5
F4
  8
0
  6
CONTINUOUS
 62
     7
 10
190.0
 20
10.0
 30
0.0
 11
190.0
 21
7.0
 31
0.0
  0
LINE
  5
F5
  8
0
  6
CONTINUOUS
 62
     7
 10
210.0
 20
0.0
 30
0.0
 11
214.0
 21
11.0
 31
0.0
  0
LINE
  5
F6
  8
0
  6
CONTINUOUS
 62
     7
 10
262.5
 20
286.9999999999999
 30
0.0
 11
262.5
 21
292.0
 31
0.0
  0
LINE
  5
F7
  8
0
  6
CONTINUOUS
 62
     7
 10
105.0
 20
10.0
 30
0.0
 11
105.0
 21
5.0
 31
0.0
  0
LINE
  5
F8
  8
0
  6
CONTINUOUS
 62
     7
 10
409.9999999999999
 20
74.25
 30
0.0
 11
414.9999999999999
 21
74.25
 31
0.0
  0
LINE
  5
F9
  8
0
  6
CONTINUOUS
 62
     7
 10
10.0
 20
148.5
 30
0.0
 11
5.0
 21
148.5
 31
0.0
  0
LINE
  5
FA
  8
0
  6
CONTINUOUS
 62
     7
 10
409.9999999999999
 20
286.9999999999999
 30
0.0
 11
10.00000000000006
 21
286.9999999999999
 31
0.0
  0
LINE
  5
FB
  8
0
  6
CONTINUOUS
 62
     7
 10
0.0
 20
0.0
 30
0.0
 11
420.0
 21
0.0
 31
0.0
  0
LINE
  5
FC
  8
0
  6
CONTINUOUS
 62
     7
 10
262.5
 20
10.0
 30
0.0
 11
262.5
 21
5.0
 31
0.0
  0
LINE
  5
FD
  8
0
  6
CONTINUOUS
 62
     7
 10
157.5
 20
10.0
 30
0.0
 11
157.5
 21
5.0
 31
0.0
  0
LINE
  5
FE
  8
0
  6
CONTINUOUS
 62
     7
 10
409.9999999999999
 20
222.75
 30
0.0
 11
414.9999999999999
 21
222.75
 31
0.0
  0
LINE
  5
FF
  8
0
  6
CONTINUOUS
 62
     7
 10
420.0
 20
297.0
 30
0.0
 11
0.0
 21
297.0
 31
0.0
  0
LINE
  5
100
  8
0
  6
CONTINUOUS
 62
     7
 10
230.0
 20
10.0
 30
0.0
 11
230.0
 21
7.0
 31
0.0
  0
LINE
  5
101
  8
0
  6
CONTINUOUS
 62
     7
 10
240.0
 20
10.0
 30
0.0
 11
240.0
 21
7.0
 31
0.0
  0
LINE
  5
102
  8
0
  6
CONTINUOUS
 62
     7
 10
11.0
 20
152.5
 30
0.0
 11
0.0000000000000017
 21
148.5
 31
0.0
  0
LINE
  5
103
  8
0
  6
CONTINUOUS
 62
     7
 10
180.0
 20
10.0
 30
0.0
 11
180.0
 21
7.0
 31
0.0
  0
LINE
  5
104
  8
0
  6
CONTINUOUS
 62
     7
 10
214.0
 20
11.0
 30
0.0
 11
206.0
 21
11.0
 31
0.0
  0
LINE
  5
105
  8
0
  6
CONTINUOUS
 62
     7
 10
220.0
 20
10.0
 30
0.0
 11
220.0
 21
7.0
 31
0.0
  0
LINE
  5
106
  8
0
  6
CONTINUOUS
 62
     7
 10
210.0
 20
297.0
 30
0.0
 11
210.0
 21
286.9999999999999
 31
0.0
  0
LINE
  5
107
  8
0
  6
CONTINUOUS
 62
     7
 10
0.0
 20
148.5
 30
0.0
 11
11.0
 21
144.5
 31
0.0
  0
LINE
  5
108
  8
0
  6
CONTINUOUS
 62
     7
 10
200.0
 20
10.0
 30
0.0
 11
200.0
 21
7.0
 31
0.0
  0
LINE
  5
109
  8
0
  6
CONTINUOUS
 62
     7
 10
11.0
 20
144.5
 30
0.0
 11
11.0
 21
152.5
 31
0.0
  0
LINE
  5
10A
  8
0
  6
CONTINUOUS
 62
     7
 10
0.0
 20
148.5
 30
0.0
 11
10.0
 21
148.5
 31
0.0
  0
LINE
  5
10B
  8
0
  6
CONTINUOUS
 62
     7
 10
420.0
 20
0.0
 30
0.0
 11
420.0
 21
297.0
 31
0.0
  0
LINE
  5
10C
  8
0
  6
CONTINUOUS
 62
     7
 10
10.0
 20
286.9999999999999
 30
0.0
 11
10.0
 21
10.00000000000001
 31
0.0
  0
LINE
  5
10D
  8
0
  6
CONTINUOUS
 62
     7
 10
0.0
 20
297.0
 30
0.0
 11
0.0
 21
0.0
 31
0.0
  0
LINE
  5
10E
  8
0
  6
CONTINUOUS
 62
     7
 10
210.0
 20
0.0
 30
0.0
 11
210.0
 21
10.0
 31
0.0
  0
LINE
  5
10F
  8
0
  6
CONTINUOUS
 62
     7
 10
420.0
 20
148.5
 30
0.0
 11
409.9999999999999
 21
148.5
 31
0.0
  0
LINE
  5
110
  8
0
  6
CONTINUOUS
 62
     7
 10
206.0
 20
11.0
 30
0.0
 11
210.0
 21
-0.0000000000000017
 31
0.0
  0
LINE
  5
111
  8
0
  6
CONTINUOUS
 62
     7
 10
157.5
 20
286.9999999999999
 30
0.0
 11
157.5
 21
292.0
 31
0.0
  0
LINE
  5
112
  8
0
  6
CONTINUOUS
 62
     7
 10
52.50000000000004
 20
286.9999999999999
 30
0.0
 11
52.50000000000004
 21
292.0
 31
0.0
  0
LINE
  5
113
  8
0
  6
CONTINUOUS
 62
     7
 10
105.0
 20
286.9999999999999
 30
0.0
 11
105.0
 21
292.0
 31
0.0
  0
LINE
  5
114
  8
0
  6
CONTINUOUS
 62
     7
 10
409.9999999999999
 20
148.5
 30
0.0
 11
414.9999999999999
 21
148.5
 31
0.0
  0
LINE
  5
115
  8
0
  6
CONTINUOUS
 62
     7
 10
250.0
 20
10.0
 30
0.0
 11
250.0
 21
7.0
 31
0.0
  0
LINE
  5
116
  8
0
  6
CONTINUOUS
 62
     7
 10
170.0
 20
10.0
 30
0.0
 11
170.0
 21
7.0
 31
0.0
  0
TEXT
  5
117
  8
0
  6
CONTINUOUS
 62
     7
 10
390.9022727272727
 20
291.4972880455171
 30
0.0
 40
3.5
  1
A
 50
270.0
  0
TEXT
  5
118
  8
0
  6
CONTINUOUS
 62
     7
 10
340.3956358634487
 20
3.870454545454544
 30
0.0
 40
3.5
  1
B
  0
TEXT
  5
119
  8
0
  6
CONTINUOUS
 62
     7
 10
393.3220301363011
 20
3.870454545454544
 30
0.0
 40
3.5
  1
A
  0
TEXT
  5
11A
  8
0
  6
CONTINUOUS
 62
     7
 10
285.8983337501562
 20
291.8197917969241
 30
0.0
 40
3.5
  1
C
 50
270.0
  0
TEXT
  5
11B
  8
0
  6
CONTINUOUS
 62
     7
 10
338.4022727272727
 20
291.9236823183697
 30
0.0
 40
3.5
  1
B
 50
270.0
  0
TEXT
  5
11C
  8
0
  6
CONTINUOUS
 62
     7
 10
77.99952638489437
 20
3.866515568338126
 30
0.0
 40
3.5
  1
G
  0
TEXT
  5
11D
  8
0
  6
CONTINUOUS
 62
     7
 10
413.2138051769413
 20
108.5233337501564
 30
0.0
 40
3.5
  1
2
  0
TEXT
  5
11E
  8
0
  6
CONTINUOUS
 62
     7
 10
130.3419673002376
 20
3.866515568338126
 30
0.0
 40
3.5
  1
F
  0
TEXT
  5
11F
  8
0
  6
CONTINUOUS
 62
     7
 10
128.3983337501563
 20
291.9773508815806
 30
0.0
 40
3.5
  1
F
 50
270.0
  0
TEXT
  5
120
  8
0
  6
CONTINUOUS
 62
     7
 10
287.9995263848941
 20
3.866515568338126
 30
0.0
 40
3.5
  1
C
  0
TEXT
  5
121
  8
0
  6
CONTINUOUS
 62
     7
 10
233.4022727272727
 20
291.9236823183694
 30
0.0
 40
3.5
  1
D
 50
270.0
  0
TEXT
  5
122
  8
0
  6
CONTINUOUS
 62
     7
 10
412.5205452044516
 20
34.2733337501563
 30
0.0
 40
3.5
  1
1
  0
TEXT
  5
123
  8
0
  6
CONTINUOUS
 62
     7
 10
3.870454545454521
 20
260.516167000125
 30
0.0
 40
3.5
  1
4
 50
270.0
  0
TEXT
  5
124
  8
0
  6
CONTINUOUS
 62
     7
 10
3.866515568338158
 20
112.2305130048768
 30
0.0
 40
3.5
  1
2
 50
270.0
  0
TEXT
  5
125
  8
0
  6
CONTINUOUS
 62
     7
 10
25.39448699512321
 20
3.866515568338126
 30
0.0
 40
3.5
  1
H
  0
TEXT
  5
126
  8
0
  6
CONTINUOUS
 62
     7
 10
3.866515568338116
 20
38.6737729773665
 30
0.0
 40
3.5
  1
1
 50
270.0
  0
TEXT
  5
127
  8
0
  6
CONTINUOUS
 62
     7
 10
3.866515568338116
 20
186.4279933099913
 30
0.0
 40
3.5
  1
3
 50
270.0
  0
TEXT
  5
128
  8
0
  6
CONTINUOUS
 62
     7
 10
180.8983337501564
 20
292.0823902713519
 30
0.0
 40
3.5
  1
E
 50
270.0
  0
TEXT
  5
129
  8
0
  6
CONTINUOUS
 62
     7
 10
75.89833375015627
 20
291.8197917969239
 30
0.0
 40
3.5
  1
G
 50
270.0
  0
TEXT
  5
12A
  8
0
  6
CONTINUOUS
 62
     7
 10
413.2663248718268
 20
182.7733337501564
 30
0.0
 40
3.5
  1
3
  0
TEXT
  5
12B
  8
0
  6
CONTINUOUS
 62
     7
 10
413.4281511816932
 20
257.0272727272726
 30
0.0
 40
3.5
  1
4
  0
TEXT
  5
12C
  8
0
  6
CONTINUOUS
 62
     7
 10
23.39833375015627
 20
291.9248311866949
 30
0.0
 40
3.5
  1
H
 50
270.0
  0
ARC
  5
12D
  8
1
  6
CONTINUOUS
 62
     7
 10
5882.5828520848
 20
505.6640283638
 30
0.0
 40
0.1403271474
 50
1.0583254822
 51
39.2738350551
  0
LINE
  5
12E
  8
1
  6
CONTINUOUS
 62
     7
 10
5882.4231552939
 20
515.6646102362
 30
0.0
 11
5877.2231552939
 21
515.6646102362
 31
0.0
  0
ARC
  5
12F
  8
1
  6
CONTINUOUS
 62
     7
 10
5882.4352590674
 20
512.3814511849
 30
0.0
 40
0.3016072341
 50
48.4550232194
 51
66.1277006443
  0
LINE
  5
130
  8
1
  6
CONTINUOUS
 62
     7
 10
5745.6237910113
 20
465.9331993976
 30
0.0
 11
5743.8237910113
 21
465.9331973339
 31
0.0
  0
LINE
  5
131
  8
1
  6
CONTINUOUS
 62
     7
 10
5882.4231552939
 20
475.6980569029
 30
0.0
 11
5879.2231552939
 21
475.6980569029
 31
0.0
  0
LINE
  5
132
  8
1
  6
CONTINUOUS
 62
     7
 10
5782.7918316068
 20
471.7813202362
 30
0.0
 11
5782.2918316068
 21
471.7353435695
 31
0.0
  0
ARC
  5
133
  8
1
  6
CONTINUOUS
 62
     7
 10
5882.4885174924
 20
508.9873153713
 30
0.0
 40
0.2435783516
 50
33.5641181346
 51
52.946751848
  0
ARC
  5
134
  8
1
  6
CONTINUOUS
 62
     7
 10
5882.425251531
 20
476.3116156419
 30
0.0
 40
0.6135593199
 50
269.8042474994
 51
282.4301179651
  0
LINE
  5
135
  8
1
  6
CONTINUOUS
 62
     7
 10
5879.2231552939
 20
509.2490202362
 30
0.0
 11
5882.4231552939
 21
509.2490202362
 31
0.0
  0
LINE
  5
136
  8
1
  6
CONTINUOUS
 62
     7
 10
5751.3231562888
 20
510.4324046926
 30
0.0
 11
5753.1231562888
 21
510.4324026289
 31
0.0
  0
ARC
  5
137
  8
1
  6
CONTINUOUS
 62
     7
 10
5876.2231552939
 20
466.6827969029
 30
0.0
 40
1.0
 50
0.0
 51
90.0
  0
LINE
  5
138
  8
1
  6
CONTINUOUS
 62
     7
 10
5782.7918316068
 20
463.2436969029
 30
0.0
 11
5782.2918316068
 21
463.7126902362
 31
0.0
  0
ARC
  5
139
  8
1
  6
CONTINUOUS
 62
     7
 10
5842.7231552939
 20
509.1827969029
 30
0.0
 40
0.5
 50
180.0
 51
270.0
  0
ARC
  5
13A
  8
1
  6
CONTINUOUS
 62
     7
 10
5882.4237112137
 20
464.0105097037
 30
0.0
 40
0.3303920352
 50
269.9035936963
 51
293.8530821931
  0
LINE
  5
13B
  8
1
  6
CONTINUOUS
 62
     7
 10
5782.2918316068
 20
512.6529035695
 30
0.0
 11
5782.7918316068
 21
513.1218969029
 31
0.0
  0
LINE
  5
13C
  8
1
  6
CONTINUOUS
 62
     7
 10
5746.3231562888
 20
510.4324046926
 30
0.0
 11
5748.1231562888
 21
510.4324026289
 31
0.0
  0
LINE
  5
13D
  8
1
  6
CONTINUOUS
 62
     7
 10
5803.2918316068
 20
490.0671169029
 30
0.0
 11
5782.2918316068
 21
490.0671169029
 31
0.0
  0
LINE
  5
13E
  8
1
  6
CONTINUOUS
 62
     7
 10
5877.2231552939
 20
515.6646102362
 30
0.0
 11
5877.2231552939
 21
460.6827969029
 31
0.0
  0
ARC
  5
13F
  8
1
  6
CONTINUOUS
 62
     7
 10
5882.5158264062
 20
505.6124596031
 30
0.0
 40
0.2248721219
 50
38.6347506703
 51
57.9107683615
  0
LINE
  5
140
  8
1
  6
CONTINUOUS
 62
     7
 10
5803.2918316068
 20
513.1218969029
 30
0.0
 11
5782.7918316068
 21
513.1218969029
 31
0.0
  0
ARC
  5
141
  8
1
  6
CONTINUOUS
 62
     7
 10
5882.4242616125
 20
508.8720567343
 30
0.0
 40
0.3769649921
 50
69.3308491111
 51
90.1681521565
  0
ARC
  5
142
  8
1
  6
CONTINUOUS
 62
     7
 10
5882.5357008716
 20
509.0177078748998
 30
0.0
 40
0.1874604159
 50
0.4581708272
 51
33.7967662871
  0
LINE
  5
143
  8
1
  6
CONTINUOUS
 62
     7
 10
5717.2231552939
 20
494.4082302253
 30
0.0
 11
5718.1231771422
 21
510.432400642
 31
0.0
  0
LINE
  5
144
  8
1
  6
CONTINUOUS
 62
     7
 10
5803.2918316068
 20
504.5842735694998
 30
0.0
 11
5782.2918316068
 21
504.5842735694998
 31
0.0
  0
ARC
  5
145
  8
1
  6
CONTINUOUS
 62
     7
 10
5882.4558081347
 20
463.9610588591
 30
0.0
 40
0.2707022391
 50
311.5300935464
 51
330.5292760692
  0
ARC
  5
146
  8
1
  6
CONTINUOUS
 62
     7
 10
5882.4558081347
 20
512.4045349467
 30
0.0
 40
0.2707022391
 50
29.4707239307
 51
48.46990645369999
  0
LINE
  5
147
  8
1
  6
CONTINUOUS
 62
     7
 10
5751.3231562888
 20
510.4324046926
 30
0.0
 11
5748.8237910338
 21
465.9331973339
 31
0.0
  0
LINE
  5
148
  8
1
  6
CONTINUOUS
 62
     7
 10
5842.2231552939
 20
465.9327969029
 30
0.0
 11
5842.2231552939
 21
510.4327969029
 31
0.0
  0
ARC
  5
149
  8
1
  6
CONTINUOUS
 62
     7
 10
5882.4574640717
 20
470.8442342161
 30
0.0
 40
0.3330600615
 50
287.4462933117999
 51
302.2698493744
  0
ARC
  5
14A
  8
1
  6
CONTINUOUS
 62
     7
 10
5882.479331055
 20
512.4175397387
 30
0.0
 40
0.2438250628
 50
0.1489423285
 51
29.529638076
  0
ARC
  5
14B
  8
1
  6
CONTINUOUS
 62
     7
 10
5784.2918316068
 20
462.6827969029
 30
0.0
 40
2.0
 50
180.0
 51
270.0
  0
ARC
  5
14C
  8
1
  6
CONTINUOUS
 62
     7
 10
5882.4473648723
 20
467.4321110336
 30
0.0
 40
0.3113379126
 50
290.6811897892
 51
307.1279103189
  0
ARC
  5
14D
  8
1
  6
CONTINUOUS
 62
     7
 10
5882.5828520849
 20
470.701565442
 30
0.0
 40
0.1403271472
 50
320.726164925
 51
358.9416744947
  0
LINE
  5
14E
  8
1
  6
CONTINUOUS
 62
     7
 10
5803.2918316068
 20
486.7728402362
 30
0.0
 11
5803.2918316068
 21
460.7189669029
 31
0.0
  0
LINE
  5
14F
  8
1
  6
CONTINUOUS
 62
     7
 10
5879.2231552939
 20
475.6980569029
 30
0.0
 11
5879.2231552939
 21
470.5061369029
 31
0.0
  0
ARC
  5
150
  8
1
  6
CONTINUOUS
 62
     7
 10
5882.4694273803
 20
476.1129368734
 30
0.0
 40
0.4100291052
 50
282.3777184315001
 51
293.8602834692999
  0
ARC
  5
151
  8
1
  6
CONTINUOUS
 62
     7
 10
5882.5158264059
 20
470.7531342027
 30
0.0
 40
0.2248721222
 50
302.0892316964
 51
321.3652493855001
  0
LINE
  5
152
  8
1
  6
CONTINUOUS
 62
     7
 10
5879.2231552939
 20
467.1165735695
 30
0.0
 11
5882.4231552939
 21
467.1165735695
 31
0.0
  0
ARC
  5
153
  8
1
  6
CONTINUOUS
 62
     7
 10
5882.4885174924
 20
467.3782784344
 30
0.0
 40
0.2435783516
 50
307.053248152
 51
326.4358818654
  0
ARC
  5
154
  8
1
  6
CONTINUOUS
 62
     7
 10
5882.5481321874
 20
500.4269672132
 30
0.0
 40
0.2187845509
 50
49.0639262365
 51
66.5242695845
  0
ARC
  5
155
  8
1
  6
CONTINUOUS
 62
     7
 10
5882.424716724
 20
505.4174869915
 30
0.0
 40
0.4419724029
 50
72.54091184609999
 51
90.2024188368
  0
LINE
  5
156
  8
1
  6
CONTINUOUS
 62
     7
 10
5784.2918316068
 20
460.6827969029
 30
0.0
 11
5807.2918316068
 21
460.6827969029
 31
0.0
  0
LINE
  5
157
  8
1
  6
CONTINUOUS
 62
     7
 10
5879.2231552939
 20
463.6801169029
 30
0.0
 11
5879.2231552939
 21
467.1165735695
 31
0.0
  0
ARC
  5
158
  8
1
  6
CONTINUOUS
 62
     7
 10
5882.4237112137
 20
512.355084102
 30
0.0
 40
0.3303920352
 50
66.1469178067
 51
90.0964063037
  0
ARC
  5
159
  8
1
  6
CONTINUOUS
 62
     7
 10
5882.6386113958
 20
475.8395294432
 30
0.0
 40
0.0847081483
 50
308.6210948628
 51
356.4313974493
  0
LINE
  5
15A
  8
1
  6
CONTINUOUS
 62
     7
 10
5745.6237910113
 20
465.9331993976
 30
0.0
 11
5748.1231562888
 21
510.4324026289
 31
0.0
  0
LINE
  5
15B
  8
1
  6
CONTINUOUS
 62
     7
 10
5879.2231552939
 20
500.6675369029
 30
0.0
 11
5879.2231552939
 21
505.8594569029
 31
0.0
  0
LINE
  5
15C
  8
1
  6
CONTINUOUS
 62
     7
 10
5879.2231552939
 20
470.5061369029
 30
0.0
 11
5882.4231552939
 21
470.5061369029
 31
0.0
  0
LINE
  5
15D
  8
1
  6
CONTINUOUS
 62
     7
 10
5837.2231552939
 20
467.1827969029
 30
0.0
 11
5835.6939765514
 21
467.1827969029
 31
0.0
  0
LINE
  5
15E
  8
1
  6
CONTINUOUS
 62
     7
 10
5717.223155297099
 20
510.4324016739
 30
0.0
 11
5718.1231771422
 21
510.432400642
 31
0.0
  0
LINE
  5
15F
  8
1
  6
CONTINUOUS
 62
     7
 10
5763.3435249623
 20
509.1827969029
 30
0.0
 11
5763.1231562888
 21
510.4324026289
 31
0.0
  0
LINE
  5
160
  8
1
  6
CONTINUOUS
 62
     7
 10
5753.6028360037
 20
467.1827969029
 30
0.0
 11
5753.8237910113
 21
465.9331973339
 31
0.0
  0
LINE
  5
161
  8
1
  6
CONTINUOUS
 62
     7
 10
5836.3234710082
 20
510.4327923431
 30
0.0
 11
5837.2231552973
 21
510.4327913116
 31
0.0
  0
LINE
  5
162
  8
1
  6
CONTINUOUS
 62
     7
 10
5748.6028345451
 20
467.1827969029
 30
0.0
 11
5745.6939765514
 21
467.1827969029
 31
0.0
  0
LINE
  5
163
  8
1
  6
CONTINUOUS
 62
     7
 10
5808.6028345451
 20
467.1827969029
 30
0.0
 11
5807.2918316068
 21
467.1827969028
 31
0.0
  0
ARC
  5
164
  8
1
  6
CONTINUOUS
 62
     7
 10
5882.4231552939
 20
460.9827969029
 30
0.0
 40
0.3
 50
270.0
 51
0.0
  0
LINE
  5
165
  8
1
  6
CONTINUOUS
 62
     7
 10
5743.6028360037
 20
467.1827969029
 30
0.0
 11
5743.8237910113
 21
465.9331973339
 31
0.0
  0
LINE
  5
166
  8
1
  6
CONTINUOUS
 62
     7
 10
5782.2918316068
 20
486.2984769029
 30
0.0
 11
5803.2918316068
 21
486.2984769029
 31
0.0
  0
ARC
  5
167
  8
1
  6
CONTINUOUS
 62
     7
 10
5876.2231552939
 20
509.6827969029
 30
0.0
 40
1.0
 50
270.0
 51
0.0
  0
LINE
  5
168
  8
1
  6
CONTINUOUS
 62
     7
 10
5775.6237910113
 20
465.9331993976
 30
0.0
 11
5773.8237910113
 21
465.9331973339
 31
0.0
  0
LINE
  5
169
  8
1
  6
CONTINUOUS
 62
     7
 10
5766.3231562888
 20
510.4324046926
 30
0.0
 11
5768.1231562888
 21
510.4324026289
 31
0.0
  0
LINE
  5
16A
  8
1
  6
CONTINUOUS
 62
     7
 10
5748.3435249623
 20
509.1827969029
 30
0.0
 11
5748.1231562888
 21
510.4324026289
 31
0.0
  0
LINE
  5
16B
  8
1
  6
CONTINUOUS
 62
     7
 10
5807.2918316068
 20
460.6827969029
 30
0.0
 11
5807.2918316068
 21
515.6827969029
 31
0.0
  0
LINE
  5
16C
  8
1
  6
CONTINUOUS
 62
     7
 10
5743.3435454653
 20
509.1827969029
 30
0.0
 11
5746.2529701781
 21
509.1827969029
 31
0.0
  0
LINE
  5
16D
  8
1
  6
CONTINUOUS
 62
     7
 10
5780.6237910113
 20
465.9331993976
 30
0.0
 11
5781.7231552939
 21
485.5065026986
 31
0.0
  0
LINE
  5
16E
  8
1
  6
CONTINUOUS
 62
     7
 10
5782.2918316068
 20
467.6371635695
 30
0.0
 11
5803.2918316068
 21
467.6371635695
 31
0.0
  0
ARC
  5
16F
  8
1
  6
CONTINUOUS
 62
     7
 10
5882.4793310552
 20
463.9480540671
 30
0.0
 40
0.2438250626
 50
330.4703619118999
 51
359.8510576598
  0
LINE
  5
170
  8
1
  6
CONTINUOUS
 62
     7
 10
5836.3231562888
 20
510.4324046926
 30
0.0
 11
5838.1231562888
 21
510.4324026289
 31
0.0
  0
LINE
  5
171
  8
1
  6
CONTINUOUS
 62
     7
 10
5748.3435249623
 20
509.1827969029
 30
0.0
 11
5751.2529701781
 21
509.1827969029
 31
0.0
  0
LINE
  5
172
  8
1
  6
CONTINUOUS
 62
     7
 10
5842.2231552939
 20
465.9327969029
 30
0.0
 11
5837.2231552939
 21
465.9327969029
 31
0.0
  0
ARC
  5
173
  8
1
  6
CONTINUOUS
 62
     7
 10
5784.2918316068
 20
513.6827969029
 30
0.0
 40
2.0
 50
90.0
 51
180.0
  0
ARC
  5
174
  8
1
  6
CONTINUOUS
 62
     7
 10
5842.7231552939
 20
467.1827969029
 30
0.0
 40
0.5
 50
90.0
 51
180.0
  0
LINE
  5
175
  8
1
  6
CONTINUOUS
 62
     7
 10
5760.6237910113
 20
465.9331993976
 30
0.0
 11
5758.8237910113
 21
465.9331973339
 31
0.0
  0
ARC
  5
176
  8
1
  6
CONTINUOUS
 62
     7
 10
5882.4352590671
 20
463.9841426208
 30
0.0
 40
0.3016072342
 50
293.8722994069
 51
311.5449768337
  0
LINE
  5
177
  8
1
  6
CONTINUOUS
 62
     7
 10
5781.3231562888
 20
510.4324046926
 30
0.0
 11
5778.8237910338
 21
465.9331973339
 31
0.0
  0
LINE
  5
178
  8
1
  6
CONTINUOUS
 62
     7
 10
5765.6237910113
 20
465.9331993976
 30
0.0
 11
5763.8237910113
 21
465.9331973339
 31
0.0
  0
LINE
  5
179
  8
1
  6
CONTINUOUS
 62
     7
 10
5837.2231552939
 20
465.9327969029
 30
0.0
 11
5837.2231552939
 21
494.4086034904
 31
0.0
  0
LINE
  5
17A
  8
1
  6
CONTINUOUS
 62
     7
 10
5807.2918316068
 20
510.432403582
 30
0.0
 11
5808.1231562888
 21
510.4324026289
 31
0.0
  0
LINE
  5
17B
  8
1
  6
CONTINUOUS
 62
     7
 10
5718.343545465299
 20
509.1827969029
 30
0.0
 11
5718.1231771422
 21
510.432400642
 31
0.0
  0
LINE
  5
17C
  8
1
  6
CONTINUOUS
 62
     7
 10
5882.7231552939
 20
515.3644069029
 30
0.0
 11
5882.4231552939
 21
515.6646102362
 31
0.0
  0
LINE
  5
17D
  8
1
  6
CONTINUOUS
 62
     7
 10
5746.3231562888
 20
510.4324046926
 30
0.0
 11
5743.8237910338
 21
465.9331973339
 31
0.0
  0
LINE
  5
17E
  8
1
  6
CONTINUOUS
 62
     7
 10
5803.2918316068
 20
515.6466269029
 30
0.0
 11
5803.2918316068
 21
508.5996469029
 31
0.0
  0
LINE
  5
17F
  8
1
  6
CONTINUOUS
 62
     7
 10
5877.2231552939
 20
460.6827969029
 30
0.0
 11
5882.4231552939
 21
460.6827969029
 31
0.0
  0
LINE
  5
180
  8
1
  6
CONTINUOUS
 62
     7
 10
5833.3435249623
 20
509.1827969029
 30
0.0
 11
5836.2529701781
 21
509.1827969029
 31
0.0
  0
LINE
  5
181
  8
1
  6
CONTINUOUS
 62
     7
 10
5750.6237910113
 20
465.9331993976
 30
0.0
 11
5753.1231562888
 21
510.4324026289
 31
0.0
  0
LINE
  5
182
  8
1
  6
CONTINUOUS
 62
     7
 10
5758.6028345451
 20
467.1827969029
 30
0.0
 11
5755.6939765514
 21
467.1827969029
 31
0.0
  0
LINE
  5
183
  8
1
  6
CONTINUOUS
 62
     7
 10
5761.3231562888
 20
510.4324046926
 30
0.0
 11
5763.1231562888
 21
510.4324026289
 31
0.0
  0
LINE
  5
184
  8
1
  6
CONTINUOUS
 62
     7
 10
5803.2918316068
 20
471.7813202362
 30
0.0
 11
5782.7918316068
 21
471.7813202362
 31
0.0
  0
LINE
  5
185
  8
1
  6
CONTINUOUS
 62
     7
 10
5803.2918316068
 20
463.2436969029
 30
0.0
 11
5782.7918316068
 21
463.2436969029
 31
0.0
  0
LINE
  5
186
  8
1
  6
CONTINUOUS
 62
     7
 10
5750.6237910113
 20
465.9331993976
 30
0.0
 11
5748.8237910113
 21
465.9331973339
 31
0.0
  0
LINE
  5
187
  8
1
  6
CONTINUOUS
 62
     7
 10
5803.2918316068
 20
508.7284302361999
 30
0.0
 11
5782.2918316068
 21
508.7284302361999
 31
0.0
  0
LINE
  5
188
  8
1
  6
CONTINUOUS
 62
     7
 10
5803.2918316068
 20
506.6056702362002
 30
0.0
 11
5803.2918316068
 21
489.5927535695
 31
0.0
  0
LINE
  5
189
  8
1
  6
CONTINUOUS
 62
     7
 10
5765.6237910113
 20
465.9331993976
 30
0.0
 11
5768.1231562888
 21
510.4324026289
 31
0.0
  0
LINE
  5
18A
  8
1
  6
CONTINUOUS
 62
     7
 10
5763.3435249623
 20
509.1827969029
 30
0.0
 11
5766.2529701781
 21
509.1827969029
 31
0.0
  0
LINE
  5
18B
  8
1
  6
CONTINUOUS
 62
     7
 10
5808.3435249623
 20
509.1827969029
 30
0.0
 11
5808.1231562888
 21
510.4324026289
 31
0.0
  0
LINE
  5
18C
  8
1
  6
CONTINUOUS
 62
     7
 10
5760.6237910113
 20
465.9331993976
 30
0.0
 11
5763.1231562888
 21
510.4324026289
 31
0.0
  0
LINE
  5
18D
  8
1
  6
CONTINUOUS
 62
     7
 10
5717.2231552939
 20
510.4324016740002
 30
0.0
 11
5717.2231552939
 21
491.58856209
 31
0.0
  0
LINE
  5
18E
  8
1
  6
CONTINUOUS
 62
     7
 10
5755.6237910113
 20
465.9331993976
 30
0.0
 11
5753.8237910113
 21
465.9331973339
 31
0.0
  0
LINE
  5
18F
  8
1
  6
CONTINUOUS
 62
     7
 10
5763.6028345451
 20
467.1827969029
 30
0.0
 11
5760.6939765514
 21
467.1827969029
 31
0.0
  0
LINE
  5
190
  8
1
  6
CONTINUOUS
 62
     7
 10
5768.3435249623
 20
509.1827969029
 30
0.0
 11
5771.2529701781
 21
509.1827969029
 31
0.0
  0
LINE
  5
191
  8
1
  6
CONTINUOUS
 62
     7
 10
5807.2918316068
 20
495.6313304093
 30
0.0
 11
5808.1231562888
 21
510.4324026289
 31
0.0
  0
LINE
  5
192
  8
1
  6
CONTINUOUS
 62
     7
 10
5770.6237910113
 20
465.9331993976
 30
0.0
 11
5773.1231562888
 21
510.4324026289
 31
0.0
  0
LINE
  5
193
  8
1
  6
CONTINUOUS
 62
     7
 10
5820.6237910113
 20
465.9331993976
 30
0.0
 11
5818.8237910113
 21
465.9331973339
 31
0.0
  0
LINE
  5
194
  8
1
  6
CONTINUOUS
 62
     7
 10
5756.3231562888
 20
510.4324046926
 30
0.0
 11
5753.8237910338
 21
465.9331973339
 31
0.0
  0
LINE
  5
195
  8
1
  6
CONTINUOUS
 62
     7
 10
5776.3231562888
 20
510.4324046926
 30
0.0
 11
5773.8237910338
 21
465.9331973339
 31
0.0
  0
LINE
  5
196
  8
1
  6
CONTINUOUS
 62
     7
 10
5776.3231562888
 20
510.4324046926
 30
0.0
 11
5778.1231562888
 21
510.4324026289
 31
0.0
  0
LINE
  5
197
  8
1
  6
CONTINUOUS
 62
     7
 10
5763.6028360037
 20
467.1827969029
 30
0.0
 11
5763.8237910113
 21
465.9331973339
 31
0.0
  0
LINE
  5
198
  8
1
  6
CONTINUOUS
 62
     7
 10
5828.3435249623
 20
509.1827969029
 30
0.0
 11
5831.2529701781
 21
509.1827969029
 31
0.0
  0
LINE
  5
199
  8
1
  6
CONTINUOUS
 62
     7
 10
5835.6237910113
 20
465.9331993976
 30
0.0
 11
5837.2231552939
 21
494.4086034904
 31
0.0
  0
LINE
  5
19A
  8
1
  6
CONTINUOUS
 62
     7
 10
5773.3435249623
 20
509.1827969029
 30
0.0
 11
5776.2529701781
 21
509.1827969029
 31
0.0
  0
LINE
  5
19B
  8
1
  6
CONTINUOUS
 62
     7
 10
5778.6028345451
 20
467.1827969029
 30
0.0
 11
5775.6939765514
 21
467.1827969029
 31
0.0
  0
LINE
  5
19C
  8
1
  6
CONTINUOUS
 62
     7
 10
5813.3435249623
 20
509.1827969029
 30
0.0
 11
5813.1231562888
 21
510.4324026289
 31
0.0
  0
LINE
  5
19D
  8
1
  6
CONTINUOUS
 62
     7
 10
5835.6237910113
 20
465.9331993976
 30
0.0
 11
5833.8237910113
 21
465.9331973339
 31
0.0
  0
LINE
  5
19E
  8
1
  6
CONTINUOUS
 62
     7
 10
5756.3231562888
 20
510.4324046926
 30
0.0
 11
5758.1231562888
 21
510.4324026289
 31
0.0
  0
LINE
  5
19F
  8
1
  6
CONTINUOUS
 62
     7
 10
5830.6237910113
 20
465.9331993976
 30
0.0
 11
5833.1231562888
 21
510.4324026289
 31
0.0
  0
LINE
  5
1A0
  8
1
  6
CONTINUOUS
 62
     7
 10
5876.2231552939
 20
467.6827969029
 30
0.0
 11
5863.2231552938
 21
467.6827969029
 31
0.0
  0
LINE
  5
1A1
  8
1
  6
CONTINUOUS
 62
     7
 10
5771.3231562888
 20
510.4324046926
 30
0.0
 11
5768.8237910338
 21
465.9331973339
 31
0.0
  0
LINE
  5
1A2
  8
1
  6
CONTINUOUS
 62
     7
 10
5741.3231562888
 20
510.4324046926
 30
0.0
 11
5738.8237910338
 21
465.9331973339
 31
0.0
  0
LINE
  5
1A3
  8
1
  6
CONTINUOUS
 62
     7
 10
5770.6237910113
 20
465.9331993976
 30
0.0
 11
5768.8237910113
 21
465.9331973339
 31
0.0
  0
LINE
  5
1A4
  8
1
  6
CONTINUOUS
 62
     7
 10
5755.6237910113
 20
465.9331993976
 30
0.0
 11
5758.1231562888
 21
510.4324026289
 31
0.0
  0
LINE
  5
1A5
  8
1
  6
CONTINUOUS
 62
     7
 10
5773.3435249623
 20
509.1827969029
 30
0.0
 11
5773.1231562888
 21
510.4324026289
 31
0.0
  0
LINE
  5
1A6
  8
1
  6
CONTINUOUS
 62
     7
 10
5808.3435249623
 20
509.1827969029
 30
0.0
 11
5811.2529701781
 21
509.1827969029
 31
0.0
  0
LINE
  5
1A7
  8
1
  6
CONTINUOUS
 62
     7
 10
5816.3231562888
 20
510.4324046926
 30
0.0
 11
5818.1231562888
 21
510.4324026289
 31
0.0
  0
LINE
  5
1A8
  8
1
  6
CONTINUOUS
 62
     7
 10
5823.6028360037
 20
467.1827969029
 30
0.0
 11
5823.8237910113
 21
465.9331973339
 31
0.0
  0
LINE
  5
1A9
  8
1
  6
CONTINUOUS
 62
     7
 10
5753.3435249623
 20
509.1827969029
 30
0.0
 11
5756.2529701781
 21
509.1827969029
 31
0.0
  0
LINE
  5
1AA
  8
1
  6
CONTINUOUS
 62
     7
 10
5780.6237910113
 20
465.9331993976
 30
0.0
 11
5778.8237910113
 21
465.9331973339
 31
0.0
  0
LINE
  5
1AB
  8
1
  6
CONTINUOUS
 62
     7
 10
5823.6028345451
 20
467.1827969029
 30
0.0
 11
5820.6939765514
 21
467.1827969029
 31
0.0
  0
LINE
  5
1AC
  8
1
  6
CONTINUOUS
 62
     7
 10
5778.3435249623
 20
509.1827969029
 30
0.0
 11
5781.2529701781
 21
509.1827969029
 31
0.0
  0
LINE
  5
1AD
  8
1
  6
CONTINUOUS
 62
     7
 10
5758.3435249623
 20
509.1827969029
 30
0.0
 11
5758.1231562888
 21
510.4324026289
 31
0.0
  0
LINE
  5
1AE
  8
1
  6
CONTINUOUS
 62
     7
 10
5818.3435249623
 20
509.1827969029
 30
0.0
 11
5821.2529701781
 21
509.1827969029
 31
0.0
  0
LINE
  5
1AF
  8
1
  6
CONTINUOUS
 62
     7
 10
5830.6237910113
 20
465.9331993976
 30
0.0
 11
5828.8237910113
 21
465.9331973339
 31
0.0
  0
LINE
  5
1B0
  8
1
  6
CONTINUOUS
 62
     7
 10
5811.3231562888
 20
510.4324046926
 30
0.0
 11
5813.1231562888
 21
510.4324026289
 31
0.0
  0
LINE
  5
1B1
  8
1
  6
CONTINUOUS
 62
     7
 10
5775.6237910113
 20
465.9331993976
 30
0.0
 11
5778.1231562888
 21
510.4324026289
 31
0.0
  0
LINE
  5
1B2
  8
1
  6
CONTINUOUS
 62
     7
 10
5773.6028345451
 20
467.1827969029
 30
0.0
 11
5770.6939765514
 21
467.1827969029
 31
0.0
  0
LINE
  5
1B3
  8
1
  6
CONTINUOUS
 62
     7
 10
5736.3231562888
 20
510.4324046926
 30
0.0
 11
5733.8237910338
 21
465.9331973339
 31
0.0
  0
LINE
  5
1B4
  8
1
  6
CONTINUOUS
 62
     7
 10
5833.6028360037
 20
467.1827969029
 30
0.0
 11
5833.8237910113
 21
465.9331973339
 31
0.0
  0
LINE
  5
1B5
  8
1
  6
CONTINUOUS
 62
     7
 10
5833.3435249623
 20
509.1827969029
 30
0.0
 11
5833.1231562888
 21
510.4324026289
 31
0.0
  0
LINE
  5
1B6
  8
1
  6
CONTINUOUS
 62
     7
 10
5768.3435249623
 20
509.1827969029
 30
0.0
 11
5768.1231562888
 21
510.4324026289
 31
0.0
  0
LINE
  5
1B7
  8
1
  6
CONTINUOUS
 62
     7
 10
5808.6028360037
 20
467.1827969029
 30
0.0
 11
5808.8237910113
 21
465.9331973339
 31
0.0
  0
LINE
  5
1B8
  8
1
  6
CONTINUOUS
 62
     7
 10
5852.2231552939
 20
467.6827969029
 30
0.0
 11
5849.2231552939
 21
467.6827969029
 31
0.0
  0
LINE
  5
1B9
  8
1
  6
CONTINUOUS
 62
     7
 10
5825.6237910113
 20
465.9331993976
 30
0.0
 11
5823.8237910113
 21
465.9331973339
 31
0.0
  0
LINE
  5
1BA
  8
1
  6
CONTINUOUS
 62
     7
 10
5781.7231552939
 20
467.1827969028
 30
0.0
 11
5780.6939765514
 21
467.1827969029
 31
0.0
  0
LINE
  5
1BB
  8
1
  6
CONTINUOUS
 62
     7
 10
5768.6028345451
 20
467.1827969029
 30
0.0
 11
5765.6939765514
 21
467.1827969029
 31
0.0
  0
LINE
  5
1BC
  8
1
  6
CONTINUOUS
 62
     7
 10
5758.3435249623
 20
509.1827969029
 30
0.0
 11
5761.2529701781
 21
509.1827969029
 31
0.0
  0
LINE
  5
1BD
  8
1
  6
CONTINUOUS
 62
     7
 10
5766.3231562888
 20
510.4324046926
 30
0.0
 11
5763.8237910338
 21
465.9331973339
 31
0.0
  0
LINE
  5
1BE
  8
1
  6
CONTINUOUS
 62
     7
 10
5828.6028345451
 20
467.1827969029
 30
0.0
 11
5825.6939765514
 21
467.1827969029
 31
0.0
  0
LINE
  5
1BF
  8
1
  6
CONTINUOUS
 62
     7
 10
5778.6028360037
 20
467.1827969029
 30
0.0
 11
5778.8237910113
 21
465.9331973339
 31
0.0
  0
LINE
  5
1C0
  8
1
  6
CONTINUOUS
 62
     7
 10
5826.3231562888
 20
510.4324046926
 30
0.0
 11
5823.8237910338
 21
465.9331973339
 31
0.0
  0
LINE
  5
1C1
  8
1
  6
CONTINUOUS
 62
     7
 10
5859.2231552939
 20
509.4327969029
 30
0.0
 11
5863.2231552939
 21
509.4327969029
 31
0.0
  0
LINE
  5
1C2
  8
1
  6
CONTINUOUS
 62
     7
 10
5761.3231562888
 20
510.4324046926
 30
0.0
 11
5758.8237910338
 21
465.9331973339
 31
0.0
  0
LINE
  5
1C3
  8
1
  6
CONTINUOUS
 62
     7
 10
5771.3231562888
 20
510.4324046926
 30
0.0
 11
5773.1231562888
 21
510.4324026289
 31
0.0
  0
LINE
  5
1C4
  8
1
  6
CONTINUOUS
 62
     7
 10
5768.6028360037
 20
467.1827969029
 30
0.0
 11
5768.8237910113
 21
465.9331973339
 31
0.0
  0
LINE
  5
1C5
  8
1
  6
CONTINUOUS
 62
     7
 10
5836.3231562888
 20
510.4324046926
 30
0.0
 11
5833.8237910338
 21
465.9331973339
 31
0.0
  0
LINE
  5
1C6
  8
1
  6
CONTINUOUS
 62
     7
 10
5825.6237910113
 20
465.9331993976
 30
0.0
 11
5828.1231562888
 21
510.4324026289
 31
0.0
  0
LINE
  5
1C7
  8
1
  6
CONTINUOUS
 62
     7
 10
5811.3231562888
 20
510.4324046926
 30
0.0
 11
5808.8237910338
 21
465.9331973339
 31
0.0
  0
LINE
  5
1C8
  8
1
  6
CONTINUOUS
 62
     7
 10
5773.6028360037
 20
467.1827969029
 30
0.0
 11
5773.8237910113
 21
465.9331973339
 31
0.0
  0
LINE
  5
1C9
  8
1
  6
CONTINUOUS
 62
     7
 10
5748.6028360037
 20
467.1827969029
 30
0.0
 11
5748.8237910113
 21
465.9331973339
 31
0.0
  0
LINE
  5
1CA
  8
1
  6
CONTINUOUS
 62
     7
 10
5758.6028360037
 20
467.1827969029
 30
0.0
 11
5758.8237910113
 21
465.9331973339
 31
0.0
  0
LINE
  5
1CB
  8
1
  6
CONTINUOUS
 62
     7
 10
5815.6237910113
 20
465.9331993976
 30
0.0
 11
5813.8237910113
 21
465.9331973339
 31
0.0
  0
LINE
  5
1CC
  8
1
  6
CONTINUOUS
 62
     7
 10
5859.2231552939
 20
467.6827969029
 30
0.0
 11
5856.2231552939
 21
467.6827969029
 31
0.0
  0
LINE
  5
1CD
  8
1
  6
CONTINUOUS
 62
     7
 10
5735.6237910113
 20
465.9331993976
 30
0.0
 11
5738.1231562888
 21
510.4324026289
 31
0.0
  0
LINE
  5
1CE
  8
1
  6
CONTINUOUS
 62
     7
 10
5730.6237910113
 20
465.9331993976
 30
0.0
 11
5728.8237910113
 21
465.9331973339
 31
0.0
  0
LINE
  5
1CF
  8
1
  6
CONTINUOUS
 62
     7
 10
5823.3435249623
 20
509.1827969029
 30
0.0
 11
5826.2529701781
 21
509.1827969029
 31
0.0
  0
LINE
  5
1D0
  8
1
  6
CONTINUOUS
 62
     7
 10
5813.6028360037
 20
467.1827969029
 30
0.0
 11
5813.8237910113
 21
465.9331973339
 31
0.0
  0
LINE
  5
1D1
  8
1
  6
CONTINUOUS
 62
     7
 10
5821.3231562888
 20
510.4324046926
 30
0.0
 11
5818.8237910338
 21
465.9331973339
 31
0.0
  0
LINE
  5
1D2
  8
1
  6
CONTINUOUS
 62
     7
 10
5740.6237910113
 20
465.9331993976
 30
0.0
 11
5743.1231562888
 21
510.4324026289
 31
0.0
  0
LINE
  5
1D3
  8
1
  6
CONTINUOUS
 62
     7
 10
5816.3231562888
 20
510.4324046926
 30
0.0
 11
5813.8237910338
 21
465.9331973339
 31
0.0
  0
LINE
  5
1D4
  8
1
  6
CONTINUOUS
 62
     7
 10
5818.6028345451
 20
467.1827969029
 30
0.0
 11
5815.6939765514
 21
467.1827969029
 31
0.0
  0
LINE
  5
1D5
  8
1
  6
CONTINUOUS
 62
     7
 10
5831.3231562888
 20
510.4324046926
 30
0.0
 11
5833.1231562888
 21
510.4324026289
 31
0.0
  0
LINE
  5
1D6
  8
1
  6
CONTINUOUS
 62
     7
 10
5813.6028345451
 20
467.1827969029
 30
0.0
 11
5810.6939765514
 21
467.1827969029
 31
0.0
  0
LINE
  5
1D7
  8
1
  6
CONTINUOUS
 62
     7
 10
5743.3435249623
 20
509.1827969029
 30
0.0
 11
5743.1231562888
 21
510.4324026289
 31
0.0
  0
LINE
  5
1D8
  8
1
  6
CONTINUOUS
 62
     7
 10
5833.6028345451
 20
467.1827969029
 30
0.0
 11
5830.6939765514
 21
467.1827969029
 31
0.0
  0
LINE
  5
1D9
  8
1
  6
CONTINUOUS
 62
     7
 10
5818.3435249623
 20
509.1827969029
 30
0.0
 11
5818.1231562888
 21
510.4324026289
 31
0.0
  0
LINE
  5
1DA
  8
1
  6
CONTINUOUS
 62
     7
 10
5735.6237910113
 20
465.9331993976
 30
0.0
 11
5733.8237910113
 21
465.9331973339
 31
0.0
  0
LINE
  5
1DB
  8
1
  6
CONTINUOUS
 62
     7
 10
5849.2231552939
 20
508.6827969029
 30
0.0
 11
5852.2231552939
 21
508.6827969029
 31
0.0
  0
LINE
  5
1DC
  8
1
  6
CONTINUOUS
 62
     7
 10
5863.2231552938
 20
508.6827969029
 30
0.0
 11
5876.2231552939
 21
508.6827969029
 31
0.0
  0
LINE
  5
1DD
  8
1
  6
CONTINUOUS
 62
     7
 10
5718.6028360037
 20
467.1827969029
 30
0.0
 11
5718.8237910113
 21
465.9331973339
 31
0.0
  0
LINE
  5
1DE
  8
1
  6
CONTINUOUS
 62
     7
 10
5728.3435249623
 20
509.1827969029
 30
0.0
 11
5728.1231562888
 21
510.4324026289
 31
0.0
  0
LINE
  5
1DF
  8
1
  6
CONTINUOUS
 62
     7
 10
5726.3231562888
 20
510.4324046926
 30
0.0
 11
5723.823791033799
 21
465.9331973339
 31
0.0
  0
LINE
  5
1E0
  8
1
  6
CONTINUOUS
 62
     7
 10
5720.6237910113
 20
465.9331993976
 30
0.0
 11
5718.8237910113
 21
465.9331973339
 31
0.0
  0
LINE
  5
1E1
  8
1
  6
CONTINUOUS
 62
     7
 10
5738.3435249623
 20
509.1827969029
 30
0.0
 11
5738.1231562888
 21
510.4324026289
 31
0.0
  0
LINE
  5
1E2
  8
1
  6
CONTINUOUS
 62
     7
 10
5720.6237910113
 20
465.9331993976
 30
0.0
 11
5723.1231562888
 21
510.4324026289
 31
0.0
  0
LINE
  5
1E3
  8
1
  6
CONTINUOUS
 62
     7
 10
5738.6028345451
 20
467.1827969029
 30
0.0
 11
5735.693976551399
 21
467.1827969029
 31
0.0
  0
LINE
  5
1E4
  8
1
  6
CONTINUOUS
 62
     7
 10
5733.602836003699
 20
467.1827969029
 30
0.0
 11
5733.8237910113
 21
465.9331973339
 31
0.0
  0
LINE
  5
1E5
  8
1
  6
CONTINUOUS
 62
     7
 10
5733.3435249623
 20
509.1827969029
 30
0.0
 11
5736.2529701781
 21
509.1827969029
 31
0.0
  0
LINE
  5
1E6
  8
1
  6
CONTINUOUS
 62
     7
 10
5725.6237910113
 20
465.9331993976
 30
0.0
 11
5728.1231562888
 21
510.4324026289
 31
0.0
  0
LINE
  5
1E7
  8
1
  6
CONTINUOUS
 62
     7
 10
5821.3231562888
 20
510.4324046926
 30
0.0
 11
5823.1231562888
 21
510.4324026289
 31
0.0
  0
LINE
  5
1E8
  8
1
  6
CONTINUOUS
 62
     7
 10
5718.343545465299
 20
509.1827969029
 30
0.0
 11
5721.2529701781
 21
509.1827969029
 31
0.0
  0
LINE
  5
1E9
  8
1
  6
CONTINUOUS
 62
     7
 10
5845.2231552939
 20
509.4327969029
 30
0.0
 11
5849.2231552939
 21
509.4327969029
 31
0.0
  0
LINE
  5
1EA
  8
1
  6
CONTINUOUS
 62
     7
 10
5743.6028360037
 20
467.1827969029
 30
0.0
 11
5740.693976551463
 21
467.1827969029
 31
0.0
  0
LINE
  5
1EB
  8
1
  6
CONTINUOUS
 62
     7
 10
5733.6028345451
 20
467.1827969029
 30
0.0
 11
5730.693976551399
 21
467.1827969029
 31
0.0
  0
LINE
  5
1EC
  8
1
  6
CONTINUOUS
 62
     7
 10
5823.3435249623
 20
509.1827969029
 30
0.0
 11
5823.1231562888
 21
510.4324026289
 31
0.0
  0
LINE
  5
1ED
  8
1
  6
CONTINUOUS
 62
     7
 10
5728.3435249623
 20
509.1827969029
 30
0.0
 11
5731.2529701781
 21
509.1827969029
 31
0.0
  0
LINE
  5
1EE
  8
1
  6
CONTINUOUS
 62
     7
 10
5730.6237910113
 20
465.9331993976
 30
0.0
 11
5733.1231562888
 21
510.4324026289
 31
0.0
  0
LINE
  5
1EF
  8
1
  6
CONTINUOUS
 62
     7
 10
5818.6028360037
 20
467.1827969029
 30
0.0
 11
5818.8237910113
 21
465.9331973339
 31
0.0
  0
LINE
  5
1F0
  8
1
  6
CONTINUOUS
 62
     7
 10
5723.6028360037
 20
467.1827969029
 30
0.0
 11
5723.8237910113
 21
465.9331973339
 31
0.0
  0
LINE
  5
1F1
  8
1
  6
CONTINUOUS
 62
     7
 10
5721.3231562888
 20
510.4324046926
 30
0.0
 11
5723.1231562888
 21
510.4324026289
 31
0.0
  0
LINE
  5
1F2
  8
1
  6
CONTINUOUS
 62
     7
 10
5723.343524962299
 20
509.1827969029
 30
0.0
 11
5726.2529701781
 21
509.1827969029
 31
0.0
  0
LINE
  5
1F3
  8
1
  6
CONTINUOUS
 62
     7
 10
5828.3435249623
 20
509.1827969029
 30
0.0
 11
5828.1231562888
 21
510.4324026289
 31
0.0
  0
LINE
  5
1F4
  8
1
  6
CONTINUOUS
 62
     7
 10
5863.2231552939
 20
466.9327969029
 30
0.0
 11
5859.2231552939
 21
466.9327969029
 31
0.0
  0
LINE
  5
1F5
  8
1
  6
CONTINUOUS
 62
     7
 10
5813.3435249623
 20
509.1827969029
 30
0.0
 11
5816.2529701781
 21
509.1827969029
 31
0.0
  0
LINE
  5
1F6
  8
1
  6
CONTINUOUS
 62
     7
 10
5820.6237910113
 20
465.9331993976
 30
0.0
 11
5823.1231562888
 21
510.4324026289
 31
0.0
  0
LINE
  5
1F7
  8
1
  6
CONTINUOUS
 62
     7
 10
5810.6237910113
 20
465.9331993976
 30
0.0
 11
5808.8237910113
 21
465.9331973339
 31
0.0
  0
LINE
  5
1F8
  8
1
  6
CONTINUOUS
 62
     7
 10
5738.602836003699
 20
467.1827969029
 30
0.0
 11
5738.8237910113
 21
465.9331973339
 31
0.0
  0
LINE
  5
1F9
  8
1
  6
CONTINUOUS
 62
     7
 10
5849.2231552939
 20
466.9327969029
 30
0.0
 11
5845.2231552939
 21
466.9327969029
 31
0.0
  0
LINE
  5
1FA
  8
1
  6
CONTINUOUS
 62
     7
 10
5810.6237910113
 20
465.9331993976
 30
0.0
 11
5813.1231562888
 21
510.4324026289
 31
0.0
  0
LINE
  5
1FB
  8
1
  6
CONTINUOUS
 62
     7
 10
5723.343524962299
 20
509.1827969029
 30
0.0
 11
5723.1231562888
 21
510.4324026289
 31
0.0
  0
LINE
  5
1FC
  8
1
  6
CONTINUOUS
 62
     7
 10
5815.6237910113
 20
465.9331993976
 30
0.0
 11
5818.1231562888
 21
510.4324026289
 31
0.0
  0
LINE
  5
1FD
  8
1
  6
CONTINUOUS
 62
     7
 10
5721.3231562888
 20
510.4324046926
 30
0.0
 11
5718.823791033799
 21
465.9331973339
 31
0.0
  0
LINE
  5
1FE
  8
1
  6
CONTINUOUS
 62
     7
 10
5856.2231552939
 20
466.9327969029
 30
0.0
 11
5852.2231552939
 21
466.9327969029
 31
0.0
  0
LINE
  5
1FF
  8
1
  6
CONTINUOUS
 62
     7
 10
5731.3231562888
 20
510.4324046926
 30
0.0
 11
5728.8237910338
 21
465.9331973339
 31
0.0
  0
LINE
  5
200
  8
1
  6
CONTINUOUS
 62
     7
 10
5725.6237910113
 20
465.9331993976
 30
0.0
 11
5723.8237910113
 21
465.9331973339
 31
0.0
  0
LINE
  5
201
  8
1
  6
CONTINUOUS
 62
     7
 10
5726.3231562888
 20
510.4324046926
 30
0.0
 11
5728.1231562888
 21
510.4324026289
 31
0.0
  0
LINE
  5
202
  8
1
  6
CONTINUOUS
 62
     7
 10
5826.3231562888
 20
510.4324046926
 30
0.0
 11
5828.1231562888
 21
510.4324026289
 31
0.0
  0
LINE
  5
203
  8
1
  6
CONTINUOUS
 62
     7
 10
5828.6028360037
 20
467.1827969029
 30
0.0
 11
5828.8237910113
 21
465.9331973339
 31
0.0
  0
LINE
  5
204
  8
1
  6
CONTINUOUS
 62
     7
 10
5831.3231562888
 20
510.4324046926
 30
0.0
 11
5828.8237910338
 21
465.9331973339
 31
0.0
  0
LINE
  5
205
  8
1
  6
CONTINUOUS
 62
     7
 10
5852.2231552939
 20
509.4327969029
 30
0.0
 11
5856.2231552939
 21
509.4327969029
 31
0.0
  0
LINE
  5
206
  8
1
  6
CONTINUOUS
 62
     7
 10
5859.2231552939
 20
466.9327969029
 30
0.0
 11
5859.2231552939
 21
509.4327969029
 31
0.0
  0
ARC
  5
207
  8
1
  6
CONTINUOUS
 62
     7
 10
5952.9052276569
 20
488.1827969029
 30
0.0
 40
23.5
 50
142.3392530742
 51
150.6607469258
  0
LINE
  5
208
  8
1
  6
CONTINUOUS
 62
     7
 10
5845.2231552939
 20
466.9327969029
 30
0.0
 11
5845.2231552939
 21
509.4327969029
 31
0.0
  0
LINE
  5
209
  8
1
  6
CONTINUOUS
 62
     7
 10
5934.1527788772
 20
503.9179697576001
 30
0.0
 11
5932.0688188041
 21
505.6666198864
 31
0.0
  0
ARC
  5
20A
  8
1
  6
CONTINUOUS
 62
     7
 10
5933.5099912676
 20
503.1519253145
 30
0.0
 40
1.0
 50
322.3392530741
 51
50.0
  0
ARC
  5
20B
  8
1
  6
CONTINUOUS
 62
     7
 10
5952.9052276569
 20
488.1827969029
 30
0.0
 40
23.5
 50
119.3392530742
 51
127.6607469258
  0
LINE
  5
20C
  8
1
  6
CONTINUOUS
 62
     7
 10
5849.2231552939
 20
466.9327969029
 30
0.0
 11
5849.2231552939
 21
509.4327969029
 31
0.0
  0
LINE
  5
20D
  8
1
  6
CONTINUOUS
 62
     7
 10
5965.2537692498
 20
512.4181743608
 30
0.0
 11
5964.0187259262
 21
509.9942653592
 31
0.0
  0
ARC
  5
20E
  8
1
  6
CONTINUOUS
 62
     7
 10
5931.5477497004
 20
500.1873016964
 30
0.0
 40
1.0
 50
243.0000000000001
 51
330.6607469258
  0
ARC
  5
20F
  8
1
  6
CONTINUOUS
 62
     7
 10
5967.8743560685
 20
507.5780332922001
 30
0.0
 40
1.0
 50
232.3392530742
 51
320.0
  0
LINE
  5
210
  8
1
  6
CONTINUOUS
 62
     7
 10
5968.6404005116
 20
506.9352456825998
 30
0.0
 11
5970.3890506404
 21
509.0192057557
 31
0.0
  0
LINE
  5
211
  8
1
  6
CONTINUOUS
 62
     7
 10
5882.4231552939
 20
463.6801169029
 30
0.0
 11
5879.2231552939
 21
463.6801169029
 31
0.0
  0
CIRCLE
  5
212
  8
1
  6
CONTINUOUS
 62
     7
 10
5952.9052276569
 20
488.1827969029
 30
0.0
 40
17.4941991426
  0
ARC
  5
213
  8
1
  6
CONTINUOUS
 62
     7
 10
5964.9097324504
 20
509.5402748594
 30
0.0
 40
1.0
 50
153.0
 51
240.6607469257
  0
LINE
  5
214
  8
1
  6
CENTER
 62
     1
 10
5952.9052276569
 20
525.1827969029
 30
0.0
 11
5952.9052276569
 21
451.1827969029
 31
0.0
  0
LINE
  5
215
  8
1
  6
CONTINUOUS
 62
     7
 10
5928.669850199
 20
500.5313384958
 30
0.0
 11
5931.0937592006
 21
499.2962951722
 31
0.0
  0
LINE
  5
216
  8
1
  6
CONTINUOUS
 62
     7
 10
5856.2231552939
 20
466.9327969029
 30
0.0
 11
5856.2231552939
 21
509.4327969029
 31
0.0
  0
LINE
  5
217
  8
1
  6
CONTINUOUS
 62
     7
 10
5720.6237910113
 20
465.9331993976
 30
0.0
 11
5718.8237910113
 21
465.9331973339
 31
0.0
  0
ARC
  5
218
  8
1
  6
CONTINUOUS
 62
     7
 10
5937.9360992453
 20
507.5780332922001
 30
0.0
 40
1.0
 50
220.0
 51
307.6607469258
  0
LINE
  5
219
  8
1
  6
CONTINUOUS
 62
     7
 10
5728.6028345451
 20
467.1827969029
 30
0.0
 11
5725.693976551399
 21
467.1827969029
 31
0.0
  0
ARC
  5
21A
  8
1
  6
CONTINUOUS
 62
     7
 10
5940.9007228634
 20
466.8253189464
 30
0.0
 40
1.0
 50
332.9999999999001
 51
60.66074692579998
  0
ARC
  5
21B
  8
1
  6
CONTINUOUS
 62
     7
 10
5952.9052276569
 20
488.1827969029
 30
0.0
 40
23.5
 50
52.3392530742
 51
60.66074692579998
  0
LINE
  5
21C
  8
1
  6
CONTINUOUS
 62
     7
 10
5728.6028360037
 20
467.1827969029
 30
0.0
 11
5728.8237910113
 21
465.9331973339
 31
0.0
  0
LINE
  5
21D
  8
1
  6
CONTINUOUS
 62
     7
 10
5731.3231562888
 20
510.4324046926
 30
0.0
 11
5733.1231562888
 21
510.4324026289
 31
0.0
  0
LINE
  5
21E
  8
1
  6
CONTINUOUS
 62
     7
 10
5733.3435249623
 20
509.1827969029
 30
0.0
 11
5733.1231562888
 21
510.4324026289
 31
0.0
  0
ARC
  5
21F
  8
1
  6
CONTINUOUS
 62
     7
 10
5937.9360992453
 20
468.7875605136
 30
0.0
 40
1.0
 50
52.3392530742
 51
140.0
  0
ARC
  5
220
  8
1
  6
CONTINUOUS
 62
     7
 10
5940.9007228634
 20
509.5402748594
 30
0.0
 40
1.0
 50
299.3392530742
 51
27.0
  0
ARC
  5
221
  8
1
  6
CONTINUOUS
 62
     7
 10
5974.2627056134
 20
476.1782921094
 30
0.0
 40
1.0
 50
62.99999999999999
 51
150.6607469258
  0
LINE
  5
222
  8
1
  6
CONTINUOUS
 62
     7
 10
5723.6028345451
 20
467.1827969029
 30
0.0
 11
5720.6939765514
 21
467.1827969029
 31
0.0
  0
LINE
  5
223
  8
1
  6
CONTINUOUS
 62
     7
 10
5736.3231562888
 20
510.4324046926
 30
0.0
 11
5738.1231562888
 21
510.4324026289
 31
0.0
  0
LINE
  5
224
  8
1
  6
CONTINUOUS
 62
     7
 10
5842.7231552939
 20
508.6827969029
 30
0.0
 11
5845.2231552939
 21
508.6827969029
 31
0.0
  0
LINE
  5
225
  8
1
  6
CONTINUOUS
 62
     7
 10
5740.6237910113
 20
465.9331993976
 30
0.0
 11
5738.8237910113
 21
465.9331973339
 31
0.0
  0
LINE
  5
226
  8
1
  6
CONTINUOUS
 62
     7
 10
5937.1700548022
 20
506.9352456825998
 30
0.0
 11
5935.4214046734
 21
509.0192057557
 31
0.0
  0
LINE
  5
227
  8
1
  6
CONTINUOUS
 62
     7
 10
5928.669850199
 20
475.83425531
 30
0.0
 11
5931.0937592006
 21
477.0692986336
 31
0.0
  0
LINE
  5
228
  8
1
  6
CONTINUOUS
 62
     7
 10
5940.556686064
 20
512.4181743608
 30
0.0
 11
5941.7917293876
 21
509.9942653592
 31
0.0
  0
LINE
  5
229
  8
1
  6
CONTINUOUS
 62
     7
 10
5852.2231552939
 20
466.9327969029
 30
0.0
 11
5852.2231552939
 21
509.4327969029
 31
0.0
  0
LINE
  5
22A
  8
1
  6
CENTER
 62
     1
 10
5989.9052276569
 20
488.1827969029
 30
0.0
 11
5915.9052276569
 21
488.1827969029
 31
0.0
  0
ARC
  5
22B
  8
1
  6
CONTINUOUS
 62
     7
 10
5972.3004640462
 20
503.1519253145
 30
0.0
 40
1.0
 50
130.0
 51
217.6607469259
  0
ARC
  5
22C
  8
1
  6
CONTINUOUS
 62
     7
 10
5952.9052276569
 20
488.1827969029
 30
0.0
 40
23.5
 50
232.3392530742
 51
240.6607469258
  0
LINE
  5
22D
  8
1
  6
CONTINUOUS
 62
     7
 10
5971.6576764366
 20
503.9179697576001
 30
0.0
 11
5973.7416365097
 21
505.6666198864
 31
0.0
  0
ARC
  5
22E
  8
1
  6
CONTINUOUS
 62
     7
 10
5931.5477497004
 20
476.1782921094
 30
0.0
 40
1.0
 50
29.3392530742
 51
117.0
  0
LINE
  5
22F
  8
1
  6
CONTINUOUS
 62
     7
 10
5738.3435249623
 20
509.1827969029
 30
0.0
 11
5741.2529701781
 21
509.1827969029
 31
0.0
  0
ARC
  5
230
  8
1
  6
CONTINUOUS
 62
     7
 10
5972.3004640462
 20
473.2136684913
 30
0.0
 40
1.0
 50
142.3392530742
 51
230.0
  0
ARC
  5
231
  8
1
  6
CONTINUOUS
 62
     7
 10
5952.9052276569
 20
488.1827969029
 30
0.0
 40
23.5
 50
29.3392530742
 51
37.6607469258
  0
LINE
  5
232
  8
1
  6
CONTINUOUS
 62
     7
 10
5741.3231562888
 20
510.4324046926
 30
0.0
 11
5743.1231562888
 21
510.4324026289
 31
0.0
  0
LINE
  5
233
  8
1
  6
CONTINUOUS
 62
     7
 10
5937.1700548022
 20
469.4303481232
 30
0.0
 11
5935.4214046734
 21
467.3463880501
 31
0.0
  0
LINE
  5
234
  8
1
  6
CONTINUOUS
 62
     7
 10
5863.2231552939
 20
466.9327969029
 30
0.0
 11
5863.2231552939
 21
509.4327969029
 31
0.0
  0
INSERT
  5
235
  8
0
 62
     7
  2
*U2
 10
0.0
 20
0.0
 30
0.0
  0
INSERT
  5
236
  8
0
 62
     7
  2
*U3
 10
0.0
 20
0.0
 30
0.0
  0
INSERT
  5
237
  8
0
 62
     7
  2
*U4
 10
0.0
 20
0.0
 30
0.0
  0
INSERT
  5
238
  8
0
 62
     7
  2
*U5
 10
0.0
 20
0.0
 30
0.0
  0
INSERT
  5
239
  8
0
 62
     7
  2
*U6
 10
0.0
 20
0.0
 30
0.0
  0
INSERT
  5
23A
  8
0
 62
     7
  2
*U7
 10
0.0
 20
0.0
 30
0.0
  0
INSERT
  5
23B
  8
0
 62
     7
  2
*U8
 10
0.0
 20
0.0
 30
0.0
  0
LINE
  5
23C
  8
0
  6
CONTINUOUS
 62
     7
 10
0.0
 20
0.0
 30
0.0
 11
420.0
 21
0.0
 31
0.0
  0
LINE
  5
23D
  8
0
  6
CONTINUOUS
 62
     7
 10
420.0
 20
0.0
 30
0.0
 11
420.0
 21
297.0
 31
0.0
  0
LINE
  5
23E
  8
0
  6
CONTINUOUS
 62
     7
 10
420.0
 20
297.0
 30
0.0
 11
0.0
 21
297.0
 31
0.0
  0
LINE
  5
23F
  8
0
  6
CONTINUOUS
 62
     7
 10
0.0
 20
297.0
 30
0.0
 11
0.0
 21
0.0
 31
0.0
  0
LINE
  5
240
  8
0
  6
CONTINUOUS
 62
     7
 10
10.0
 20
10.0
 30
0.0
 11
409.9999999999999
 21
10.0
 31
0.0
  0
LINE
  5
241
  8
0
  6
CONTINUOUS
 62
     7
 10
409.9999999999999
 20
10.0
 30
0.0
 11
409.9999999999999
 21
286.9999999999999
 31
0.0
  0
LINE
  5
242
  8
0
  6
CONTINUOUS
 62
     7
 10
409.9999999999999
 20
286.9999999999999
 30
0.0
 11
10.00000000000006
 21
286.9999999999999
 31
0.0
  0
LINE
  5
243
  8
0
  6
CONTINUOUS
 62
     7
 10
10.0
 20
286.9999999999999
 30
0.0
 11
10.0
 21
10.00000000000001
 31
0.0
  0
LINE
  5
244
  8
0
  6
CONTINUOUS
 62
     7
 10
210.0
 20
0.0
 30
0.0
 11
210.0
 21
10.0
 31
0.0
  0
LINE
  5
245
  8
0
  6
CONTINUOUS
 62
     7
 10
420.0
 20
148.5
 30
0.0
 11
409.9999999999999
 21
148.5
 31
0.0
  0
LINE
  5
246
  8
0
  6
CONTINUOUS
 62
     7
 10
210.0
 20
297.0
 30
0.0
 11
210.0
 21
286.9999999999999
 31
0.0
  0
LINE
  5
247
  8
0
  6
CONTINUOUS
 62
     7
 10
0.0
 20
148.5
 30
0.0
 11
10.0
 21
148.5
 31
0.0
  0
LINE
  5
248
  8
0
  6
CONTINUOUS
 62
     7
 10
11.0
 20
152.5
 30
0.0
 11
0.0000000000000017
 21
148.5
 31
0.0
  0
LINE
  5
249
  8
0
  6
CONTINUOUS
 62
     7
 10
0.0
 20
148.5
 30
0.0
 11
11.0
 21
144.5
 31
0.0
  0
LINE
  5
24A
  8
0
  6
CONTINUOUS
 62
     7
 10
11.0
 20
144.5
 30
0.0
 11
11.0
 21
152.5
 31
0.0
  0
INSERT
  5
24B
  8
0
 62
     7
  2
*U9
 10
0.0
 20
0.0
 30
0.0
  0
LINE
  5
24C
  8
0
  6
CONTINUOUS
 62
     7
 10
206.0
 20
11.0
 30
0.0
 11
210.0
 21
-0.0000000000000017
 31
0.0
  0
LINE
  5
24D
  8
0
  6
CONTINUOUS
 62
     7
 10
210.0
 20
0.0
 30
0.0
 11
214.0
 21
11.0
 31
0.0
  0
LINE
  5
24E
  8
0
  6
CONTINUOUS
 62
     7
 10
214.0
 20
11.0
 30
0.0
 11
206.0
 21
11.0
 31
0.0
  0
INSERT
  5
24F
  8
0
 62
     7
  2
*U10
 10
0.0
 20
0.0
 30
0.0
  0
INSERT
  5
250
  8
0
 62
     7
  2
*U11
 10
0.0
 20
0.0
 30
0.0
  0
LINE
  5
251
  8
0
  6
CONTINUOUS
 62
     7
 10
367.5
 20
286.9999999999999
 30
0.0
 11
367.5
 21
292.0
 31
0.0
  0
TEXT
  5
252
  8
0
  6
CONTINUOUS
 62
     7
 10
391.2681818181818
 20
291.6648586970114
 30
0.0
 40
3.5
  1
A
 50
270.0
  0
LINE
  5
253
  8
0
  6
CONTINUOUS
 62
     7
 10
367.5
 20
10.0
 30
0.0
 11
367.5
 21
5.0
 31
0.0
  0
TEXT
  5
254
  8
0
  6
CONTINUOUS
 62
     7
 10
393.1544594848068
 20
4.236363636363635
 30
0.0
 40
3.5
  1
A
  0
LINE
  5
255
  8
0
  6
CONTINUOUS
 62
     7
 10
315.0
 20
286.9999999999999
 30
0.0
 11
315.0
 21
292.0
 31
0.0
  0
TEXT
  5
256
  8
0
  6
CONTINUOUS
 62
     7
 10
338.7681818181818
 20
291.9491215455798
 30
0.0
 40
3.5
  1
B
 50
270.0
  0
LINE
  5
257
  8
0
  6
CONTINUOUS
 62
     7
 10
315.0
 20
10.0
 30
0.0
 11
315.0
 21
5.0
 31
0.0
  0
TEXT
  5
258
  8
0
  6
CONTINUOUS
 62
     7
 10
340.3701966362385
 20
4.236363636363635
 30
0.0
 40
3.5
  1
B
  0
LINE
  5
259
  8
0
  6
CONTINUOUS
 62
     7
 10
262.5
 20
286.9999999999999
 30
0.0
 11
262.5
 21
292.0
 31
0.0
  0
TEXT
  5
25A
  8
0
  6
CONTINUOUS
 62
     7
 10
286.2655558334374
 20
291.8798611979494
 30
0.0
 40
3.5
  1
C
 50
270.0
  0
LINE
  5
25B
  8
0
  6
CONTINUOUS
 62
     7
 10
262.5
 20
10.0
 30
0.0
 11
262.5
 21
5.0
 31
0.0
  0
TEXT
  5
25C
  8
0
  6
CONTINUOUS
 62
     7
 10
287.9394569838688
 20
4.233737651619357
 30
0.0
 40
3.5
  1
C
  0
LINE
  5
25D
  8
0
  6
CONTINUOUS
 62
     7
 10
210.0
 20
286.9999999999999
 30
0.0
 11
210.0
 21
292.0
 31
0.0
  0
TEXT
  5
25E
  8
0
  6
CONTINUOUS
 62
     7
 10
233.7681818181818
 20
291.9491215455796
 30
0.0
 40
3.5
  1
D
 50
270.0
  0
LINE
  5
25F
  8
0
  6
CONTINUOUS
 62
     7
 10
157.5
 20
286.9999999999999
 30
0.0
 11
157.5
 21
292.0
 31
0.0
  0
TEXT
  5
260
  8
0
  6
CONTINUOUS
 62
     7
 10
181.2655558334376
 20
292.0549268475679
 30
0.0
 40
3.5
  1
E
 50
270.0
  0
LINE
  5
261
  8
0
  6
CONTINUOUS
 62
     7
 10
157.5
 20
10.0
 30
0.0
 11
157.5
 21
5.0
 31
0.0
  0
LINE
  5
262
  8
0
  6
CONTINUOUS
 62
     7
 10
105.0
 20
286.9999999999999
 30
0.0
 11
105.0
 21
292.0
 31
0.0
  0
TEXT
  5
263
  8
0
  6
CONTINUOUS
 62
     7
 10
128.7655558334375
 20
291.9849005877204
 30
0.0
 40
3.5
  1
F
 50
270.0
  0
LINE
  5
264
  8
0
  6
CONTINUOUS
 62
     7
 10
105.0
 20
10.0
 30
0.0
 11
105.0
 21
5.0
 31
0.0
  0
TEXT
  5
265
  8
0
  6
CONTINUOUS
 62
     7
 10
130.3344175940978
 20
4.233737651619357
 30
0.0
 40
3.5
  1
F
  0
LINE
  5
266
  8
0
  6
CONTINUOUS
 62
     7
 10
52.50000000000004
 20
286.9999999999999
 30
0.0
 11
52.50000000000004
 21
292.0
 31
0.0
  0
TEXT
  5
267
  8
0
  6
CONTINUOUS
 62
     7
 10
76.26555583343753
 20
291.8798611979493
 30
0.0
 40
3.5
  1
G
 50
270.0
  0
LINE
  5
268
  8
0
  6
CONTINUOUS
 62
     7
 10
52.50000000000004
 20
10.0
 30
0.0
 11
52.50000000000004
 21
5.0
 31
0.0
  0
TEXT
  5
269
  8
0
  6
CONTINUOUS
 62
     7
 10
77.93945698386898
 20
4.233737651619357
 30
0.0
 40
3.5
  1
G
  0
TEXT
  5
26A
  8
0
  6
CONTINUOUS
 62
     7
 10
23.76555583343753
 20
291.9498874577966
 30
0.0
 40
3.5
  1
H
 50
270.0
  0
TEXT
  5
26B
  8
0
  6
CONTINUOUS
 62
     7
 10
25.36943072402154
 20
4.233737651619357
 30
0.0
 40
3.5
  1
H
  0
LINE
  5
26C
  8
0
  6
CONTINUOUS
 62
     7
 10
409.9999999999999
 20
74.25
 30
0.0
 11
414.9999999999999
 21
74.25
 31
0.0
  0
TEXT
  5
26D
  8
0
  6
CONTINUOUS
 62
     7
 10
412.7265755908465
 20
34.64055583343754
 30
0.0
 40
3.5
  1
1
  0
LINE
  5
26E
  8
0
  6
CONTINUOUS
 62
     7
 10
10.0
 20
74.25
 30
0.0
 11
5.0
 21
74.25
 31
0.0
  0
TEXT
  5
26F
  8
0
  6
CONTINUOUS
 62
     7
 10
4.23373765161935
 20
38.46774259097161
 30
0.0
 40
3.5
  1
1
 50
270.0
  0
LINE
  5
270
  8
0
  6
CONTINUOUS
 62
     7
 10
409.9999999999999
 20
148.5
 30
0.0
 11
414.9999999999999
 21
148.5
 31
0.0
  0
TEXT
  5
271
  8
0
  6
CONTINUOUS
 62
     7
 10
413.1887489058396
 20
108.8905558334376
 30
0.0
 40
3.5
  1
2
  0
LINE
  5
272
  8
0
  6
CONTINUOUS
 62
     7
 10
10.0
 20
148.5
 30
0.0
 11
5.0
 21
148.5
 31
0.0
  0
TEXT
  5
273
  8
0
  6
CONTINUOUS
 62
     7
 10
4.233737651619379
 20
112.2555692759785
 30
0.0
 40
3.5
  1
2
 50
270.0
  0
LINE
  5
274
  8
0
  6
CONTINUOUS
 62
     7
 10
409.9999999999999
 20
222.75
 30
0.0
 11
414.9999999999999
 21
222.75
 31
0.0
  0
TEXT
  5
275
  8
0
  6
CONTINUOUS
 62
     7
 10
413.2237620357633
 20
183.1405558334376
 30
0.0
 40
3.5
  1
3
  0
LINE
  5
276
  8
0
  6
CONTINUOUS
 62
     7
 10
10.0
 20
222.75
 30
0.0
 11
5.0
 21
222.75
 31
0.0
  0
TEXT
  5
277
  8
0
  6
CONTINUOUS
 62
     7
 10
4.23373765161935
 20
186.4705561460548
 30
0.0
 40
3.5
  1
3
 50
270.0
  0
TEXT
  5
278
  8
0
  6
CONTINUOUS
 62
     7
 10
413.3316462423409
 20
257.3931818181817
 30
0.0
 40
3.5
  1
4
  0
TEXT
  5
279
  8
0
  6
CONTINUOUS
 62
     7
 10
4.23636363636362
 20
260.6126719394773
 30
0.0
 40
3.5
  1
4
 50
270.0
  0
LINE
  5
27A
  8
0
  6
CONTINUOUS
 62
     7
 10
220.0
 20
10.0
 30
0.0
 11
220.0
 21
7.0
 31
0.0
  0
LINE
  5
27B
  8
0
  6
CONTINUOUS
 62
     7
 10
200.0
 20
10.0
 30
0.0
 11
200.0
 21
7.0
 31
0.0
  0
LINE
  5
27C
  8
0
  6
CONTINUOUS
 62
     7
 10
230.0
 20
10.0
 30
0.0
 11
230.0
 21
7.0
 31
0.0
  0
LINE
  5
27D
  8
0
  6
CONTINUOUS
 62
     7
 10
190.0
 20
10.0
 30
0.0
 11
190.0
 21
7.0
 31
0.0
  0
LINE
  5
27E
  8
0
  6
CONTINUOUS
 62
     7
 10
240.0
 20
10.0
 30
0.0
 11
240.0
 21
7.0
 31
0.0
  0
LINE
  5
27F
  8
0
  6
CONTINUOUS
 62
     7
 10
180.0
 20
10.0
 30
0.0
 11
180.0
 21
7.0
 31
0.0
  0
LINE
  5
280
  8
0
  6
CONTINUOUS
 62
     7
 10
250.0
 20
10.0
 30
0.0
 11
250.0
 21
7.0
 31
0.0
  0
LINE
  5
281
  8
0
  6
CONTINUOUS
 62
     7
 10
170.0
 20
10.0
 30
0.0
 11
170.0
 21
7.0
 31
0.0
  0
LINE
  5
282
  8
0
  6
CONTINUOUS
 62
     7
 10
260.0
 20
10.0
 30
0.0
 11
260.0
 21
5.0
 31
0.0
  0
LINE
  5
283
  8
0
  6
CONTINUOUS
 62
     7
 10
160.0
 20
10.0
 30
0.0
 11
160.0
 21
5.0
 31
0.0
  0
LINE
  5
284
  8
0
  6
CONTINUOUS
 62
     7
 10
260.0
 20
10.0
 30
0.0
 11
160.0
 21
10.0
 31
0.0
  0
LINE
  5
285
  8
0
  6
CONTINUOUS
 62
     7
 10
260.0
 20
7.0
 30
0.0
 11
160.0
 21
7.0
 31
0.0
  0
INSERT
  5
286
  8
0
 62
     7
  2
*U12
 10
0.0
 20
0.0
 30
0.0
  0
INSERT
  5
287
  8
0
 62
     7
  2
*U13
 10
0.0
 20
0.0
 30
0.0
  0
INSERT
  5
288
  8
0
 62
     7
  2
*U14
 10
0.0
 20
0.0
 30
0.0
  0
INSERT
  5
289
  8
0
 62
     7
  2
*U15
 10
0.0
 20
0.0
 30
0.0
  0
INSERT
  5
28A
  8
0
 62
     7
  2
*U16
 10
0.0
 20
0.0
 30
0.0
  0
INSERT
  5
28B
  8
0
 62
     7
  2
*U17
 10
0.0
 20
0.0
 30
0.0
  0
INSERT
  5
28C
  8
0
 62
     7
  2
*U18
 10
0.0
 20
0.0
 30
0.0
  0
INSERT
  5
28D
  8
0
 62
     7
  2
*U19
 10
0.0
 20
0.0
 30
0.0
  0
INSERT
  5
28E
  8
0
 62
     7
  2
*U20
 10
0.0
 20
0.0
 30
0.0
  0
INSERT
  5
28F
  8
0
 62
     7
  2
*U21
 10
0.0
 20
0.0
 30
0.0
  0
INSERT
  5
290
  8
0
 62
     7
  2
*U22
 10
0.0
 20
0.0
 30
0.0
  0
INSERT
  5
291
  8
0
 62
     7
  2
*U23
 10
0.0
 20
0.0
 30
0.0
  0
INSERT
  5
292
  8
0
 62
     7
  2
*U24
 10
0.0
 20
0.0
 30
0.0
  0
INSERT
  5
293
  8
0
 62
     7
  2
*U25
 10
0.0
 20
0.0
 30
0.0
  0
INSERT
  5
294
  8
0
 62
     7
  2
*U26
 10
0.0
 20
0.0
 30
0.0
  0
INSERT
  5
295
  8
0
 62
     7
  2
*U27
 10
0.0
 20
0.0
 30
0.0
  0
INSERT
  5
296
  8
0
 62
     7
  2
*U28
 10
0.0
 20
0.0
 30
0.0
  0
INSERT
  5
297
  8
0
 62
     7
  2
*U29
 10
0.0
 20
0.0
 30
0.0
  0
INSERT
  5
298
  8
0
 62
     7
  2
*U30
 10
0.0
 20
0.0
 30
0.0
  0
INSERT
  5
299
  8
0
 62
     7
  2
*U31
 10
0.0
 20
0.0
 30
0.0
  0
INSERT
  5
29A
  8
0
 62
     7
  2
*U32
 10
0.0
 20
0.0
 30
0.0
  0
INSERT
  5
29B
  8
0
 62
     7
  2
*U33
 10
0.0
 20
0.0
 30
0.0
  0
INSERT
  5
29C
  8
0
 62
     7
  2
*U34
 10
0.0
 20
0.0
 30
0.0
  0
INSERT
  5
29D
  8
0
 62
     7
  2
*U35
 10
0.0
 20
0.0
 30
0.0
  0
INSERT
  5
29E
  8
0
 62
     7
  2
*U36
 10
0.0
 20
0.0
 30
0.0
  0
INSERT
  5
29F
  8
0
 62
     7
  2
*U37
 10
0.0
 20
0.0
 30
0.0
  0
INSERT
  5
2A0
  8
0
 62
     7
  2
*U38
 10
0.0
 20
0.0
 30
0.0
  0
INSERT
  5
2A1
  8
0
 62
     7
  2
*U39
 10
0.0
 20
0.0
 30
0.0
  0
ARC
  5
2A2
  8
1
  6
CONTINUOUS
 62
     7
 10
5632.5564886261
 20
466.543908014
 30
0.0
 40
0.7777777777997485
 50
270.0
 51
0.0
  0
LINE
  5
2A3
  8
1
  6
CONTINUOUS
 62
     7
 10
5672.223155293899
 20
460.6827969029
 30
0.0
 11
5674.2231552939
 21
463.3827969029
 31
0.0
  0
LINE
  5
2A4
  8
1
  6
CONTINUOUS
 62
     7
 10
5672.223155293899
 20
515.6827969029
 30
0.0
 11
5672.223155293899
 21
460.6827969029
 31
0.0
  0
LINE
  5
2A5
  8
1
  6
CENTER
 62
     1
 10
5650.723155293899
 20
488.1827969029
 30
0.0
 11
5647.5096264578
 21
488.1827969029
 31
0.0
  0
LINE
  5
2A6
  8
1
  6
CONTINUOUS
 62
     7
 10
5629.723155293899
 20
512.1330439029
 30
0.0
 11
5629.723155293899
 21
504.8653359028999
 31
0.0
  0
ARC
  5
2A7
  8
1
  6
CONTINUOUS
 62
     7
 10
5634.889821959099
 20
463.8216857918
 30
0.0
 40
0.7777777777997485
 50
90.0
 51
180.0000004029
  0
LINE
  5
2A8
  8
1
  6
CONTINUOUS
 62
     7
 10
5634.112044181299
 20
463.8216857863
 30
0.0
 11
5634.112044181299
 21
461.7044689401
 31
0.0
  0
LINE
  5
2A9
  8
1
  6
CONTINUOUS
 62
     7
 10
5633.3342664038
 20
466.5439080086
 30
0.0
 11
5633.3342664038
 21
468.6611248701
 31
0.0
  0
LINE
  5
2AA
  8
1
  6
CONTINUOUS
 62
     7
 10
5716.223155293899
 20
512.9827969029
 30
0.0
 11
5716.223155293899
 21
463.3827969029
 31
0.0
  0
LINE
  5
2AB
  8
1
  6
CONTINUOUS
 62
     7
 10
5637.723155293899
 20
504.8653359028999
 30
0.0
 11
5629.723155293899
 21
504.8653359028999
 31
0.0
  0
LINE
  5
2AC
  8
1
  6
CONTINUOUS
 62
     7
 10
5634.8898219795
 20
465.7661302362
 30
0.0
 11
5635.6675997372
 21
465.7661302362
 31
0.0
  0
LINE
  5
2AD
  8
1
  6
CONTINUOUS
 62
     7
 10
5674.2231552939
 20
512.9827969029
 30
0.0
 11
5674.2231552939
 21
463.3827969029
 31
0.0
  0
LINE
  5
2AE
  8
1
  6
CONTINUOUS
 62
     7
 10
5634.112044201699
 20
466.5439080194
 30
0.0
 11
5634.112044201699
 21
468.6611248656
 31
0.0
  0
LINE
  5
2AF
  8
1
  6
CONTINUOUS
 62
     7
 10
5633.334266423899
 20
463.8216857973
 30
0.0
 11
5633.334266423899
 21
461.7044689356
 31
0.0
  0
LINE
  5
2B0
  8
1
  6
CONTINUOUS
 62
     7
 10
5629.723155293899
 20
464.2325499029
 30
0.0
 11
5629.723155293899
 21
471.5002579029
 31
0.0
  0
LINE
  5
2B1
  8
1
  6
CONTINUOUS
 62
     7
 10
5632.7231552939
 20
515.1330439029
 30
0.0
 11
5634.723155293899
 21
515.1330439029
 31
0.0
  0
LINE
  5
2B2
  8
1
  6
CONTINUOUS
 62
     7
 10
5634.889821959099
 20
464.5994635695
 30
0.0
 11
5635.6675997369
 21
464.5994635695
 31
0.0
  0
LINE
  5
2B3
  8
1
  6
CONTINUOUS
 62
     7
 10
5635.6675997372
 20
465.7661302362
 30
0.0
 11
5635.6675997369
 21
464.5994635695
 31
0.0
  0
ARC
  5
2B4
  8
1
  6
CONTINUOUS
 62
     7
 10
5632.7231552939
 20
512.1330439029
 30
0.0
 40
3.000000000000114
 50
90.0
 51
180.0
  0
LINE
  5
2B5
  8
1
  6
CONTINUOUS
 62
     7
 10
5632.5564886461
 20
511.7661302362
 30
0.0
 11
5631.778710847999
 21
511.7661302362
 31
0.0
  0
LINE
  5
2B6
  8
1
  6
CONTINUOUS
 62
     7
 10
5635.6675997372
 20
510.5994635695
 30
0.0
 11
5635.6675997369
 21
511.7661302362
 31
0.0
  0
LINE
  5
2B7
  8
1
  6
CONTINUOUS
 62
     7
 10
5632.5564886261
 20
510.5994635695
 30
0.0
 11
5631.778710848299
 21
510.5994635695
 31
0.0
  0
LINE
  5
2B8
  8
1
  6
CONTINUOUS
 62
     7
 10
5632.5564886461
 20
464.5994635695
 30
0.0
 11
5631.778710847999
 21
464.5994635695
 31
0.0
  0
ARC
  5
2B9
  8
1
  6
CONTINUOUS
 62
     7
 10
5634.889821959099
 20
512.543908014
 30
0.0
 40
0.7777777777997485
 50
179.9999995971
 51
270.0
  0
ARC
  5
2BA
  8
1
  6
CONTINUOUS
 62
     7
 10
5632.7231552939
 20
464.2325499029
 30
0.0
 40
3.000000000000114
 50
180.0
 51
270.0
  0
LINE
  5
2BB
  8
1
  6
CONTINUOUS
 62
     7
 10
5637.723155293899
 20
464.2325499029
 30
0.0
 11
5637.723155293899
 21
471.5002579029
 31
0.0
  0
CIRCLE
  5
2BC
  8
1
  6
CONTINUOUS
 62
     7
 10
5633.723155292599
 20
465.1827969029
 30
0.0
 40
3.499999999999837
  0
LINE
  5
2BD
  8
1
  6
CONTINUOUS
 62
     7
 10
5633.334266423899
 20
512.5439080085
 30
0.0
 11
5633.334266423899
 21
514.6611248701
 31
0.0
  0
LINE
  5
2BE
  8
1
  6
CONTINUOUS
 62
     7
 10
5625.723155293899
 20
460.6827969029
 30
0.0
 11
5625.723155293899
 21
515.6827969029
 31
0.0
  0
LINE
  5
2BF
  8
1
  6
CONTINUOUS
 62
     7
 10
5637.723155293899
 20
512.1330439029
 30
0.0
 11
5637.723155293899
 21
504.8653359028999
 31
0.0
  0
LINE
  5
2C0
  8
1
  6
CONTINUOUS
 62
     7
 10
5672.223155293899
 20
460.6827969029
 30
0.0
 11
5625.723155293899
 21
460.6827969029
 31
0.0
  0
ARC
  5
2C1
  8
1
  6
CONTINUOUS
 62
     7
 10
5632.5564886261
 20
509.8216857918
 30
0.0
 40
0.7777777777997485
 50
0.0000003981
 51
90.0
  0
LINE
  5
2C2
  8
1
  6
CONTINUOUS
 62
     7
 10
5631.778710847999
 20
464.5994635695
 30
0.0
 11
5631.778710848299
 21
465.7661302362
 31
0.0
  0
LINE
  5
2C3
  8
1
  6
CONTINUOUS
 62
     7
 10
5631.778710847999
 20
511.7661302362
 30
0.0
 11
5631.778710848299
 21
510.5994635695
 31
0.0
  0
LINE
  5
2C4
  8
1
  6
CONTINUOUS
 62
     7
 10
5634.112044201699
 20
509.8216857863001
 30
0.0
 11
5634.112044201699
 21
507.7044689401
 31
0.0
  0
LINE
  5
2C5
  8
1
  6
CONTINUOUS
 62
     7
 10
5634.8898219795
 20
510.5994635695
 30
0.0
 11
5635.6675997372
 21
510.5994635695
 31
0.0
  0
ARC
  5
2C6
  8
1
  6
CONTINUOUS
 62
     7
 10
5634.723155293899
 20
512.1330439029
 30
0.0
 40
3.000000000000114
 50
0.0
 51
90.0
  0
LINE
  5
2C7
  8
1
  6
CONTINUOUS
 62
     7
 10
5632.5564886261
 20
465.7661302362
 30
0.0
 11
5631.778710848299
 21
465.7661302362
 31
0.0
  0
LINE
  5
2C8
  8
1
  6
CONTINUOUS
 62
     7
 10
5674.2231552939
 20
463.3827969029
 30
0.0
 11
5716.223155293899
 21
463.3827969029
 31
0.0
  0
LINE
  5
2C9
  8
1
  6
CONTINUOUS
 62
     7
 10
5632.7231552939
 20
461.2325499029
 30
0.0
 11
5634.723155293899
 21
461.2325499029
 31
0.0
  0
LINE
  5
2CA
  8
1
  6
CONTINUOUS
 62
     7
 10
5637.723155293899
 20
471.5002579029
 30
0.0
 11
5629.723155293899
 21
471.5002579029
 31
0.0
  0
LINE
  5
2CB
  8
1
  6
CONTINUOUS
 62
     7
 10
5672.223155293899
 20
515.6827969029
 30
0.0
 11
5625.723155293899
 21
515.6827969029
 31
0.0
  0
ARC
  5
2CC
  8
1
  6
CONTINUOUS
 62
     7
 10
5632.5564886461
 20
463.8216857918
 30
0.0
 40
0.7777777777997485
 50
0.0000004029
 51
90.0
  0
ARC
  5
2CD
  8
1
  6
CONTINUOUS
 62
     7
 10
5634.8898219795
 20
509.8216857918
 30
0.0
 40
0.7777777777997485
 50
90.0
 51
180.0
  0
CIRCLE
  5
2CE
  8
1
  6
CONTINUOUS
 62
     7
 10
5633.723155292599
 20
511.1827969029
 30
0.0
 40
3.499999999999837
  0
LINE
  5
2CF
  8
1
  6
CONTINUOUS
 62
     7
 10
5716.223155293899
 20
509.1827969029
 30
0.0
 11
5717.2231552939
 21
509.1827969029
 31
0.0
  0
LINE
  5
2D0
  8
1
  6
CONTINUOUS
 62
     7
 10
5718.6028360037
 20
467.1827969029
 30
0.0
 11
5716.223155293899
 21
467.1827969029
 31
0.0
  0
ARC
  5
2D1
  8
1
  6
CONTINUOUS
 62
     7
 10
5634.8898219795
 20
466.543908014
 30
0.0
 40
0.7777777777997485
 50
180.0
 51
270.0
  0
ARC
  5
2D2
  8
1
  6
CONTINUOUS
 62
     7
 10
5632.5564886461
 20
512.543908014
 30
0.0
 40
0.7777777777997485
 50
270.0
 51
0.0
  0
LINE
  5
2D3
  8
1
  6
CONTINUOUS
 62
     7
 10
5634.112044181299
 20
512.5439080194
 30
0.0
 11
5634.112044181299
 21
514.6611248656
 31
0.0
  0
LINE
  5
2D4
  8
1
  6
CONTINUOUS
 62
     7
 10
5674.2231552939
 20
512.9827969029
 30
0.0
 11
5672.223155293899
 21
515.6827969029
 31
0.0
  0
ENDSEC
  0
EOF
