  0
SECTION
  2
HEADER
  9
$ACADVER
  1
AC1006
  9
$DWGCODEPAGE
  3
ansi_932
  9
$INSBASE
 10
0.0
 20
0.0
 30
0.0
  9
$EXTMIN
 10
0.0
 20
-0.0000000000000017
  9
$EXTMAX
 10
442.9049422301612
 20
1716.3195164284
  9
$LIMMIN
 10
0.0
 20
0.0
  9
$LIMMAX
 10
12.0
 20
9.0
  9
$ORTHOMODE
 70
     0
  9
$REGENMODE
 70
     1
  9
$FILLMODE
 70
     1
  9
$QTEXTMODE
 70
     0
  9
$MIRRTEXT
 70
     1
  9
$DRAGMODE
 70
     2
  9
$LTSCALE
 40
1.0
  9
$OSMODE
 70
    37
  9
$ATTMODE
 70
     1
  9
$TEXTSIZE
 40
0.2
  9
$TRACEWID
 40
0.05
  9
$TEXTSTYLE
  7
STANDARD
  9
$CLAYER
  8
0
  9
$CELTYPE
  6
BYLAYER
  9
$CECOLOR
 62
   256
  9
$DIMSCALE
 40
1.0
  9
$DIMASZ
 40
3.0
  9
$DIMEXO
 40
0.0625
  9
$DIMDLI
 40
0.38
  9
$DIMRND
 40
0.0
  9
$DIMDLE
 40
0.0
  9
$DIMEXE
 40
1.5
  9
$DIMTP
 40
0.0
  9
$DIMTM
 40
0.0
  9
$DIMTXT
 40
3.5
  9
$DIMCEN
 40
0.09
  9
$DIMTSZ
 40
0.0
  9
$DIMTOL
 70
     0
  9
$DIMLIM
 70
     0
  9
$DIMTIH
 70
     1
  9
$DIMTOH
 70
     1
  9
$DIMSE1
 70
     0
  9
$DIMSE2
 70
     0
  9
$DIMTAD
 70
     1
  9
$DIMZIN
 70
     0
  9
$DIMBLK
  1

  9
$DIMASO
 70
     1
  9
$DIMSHO
 70
     1
  9
$DIMPOST
  1

  9
$DIMAPOST
  1

  9
$DIMALT
 70
     0
  9
$DIMALTD
 70
     2
  9
$DIMALTF
 40
25.4
  9
$DIMLFAC
 40
1.0
  9
$DIMTOFL
 70
     0
  9
$DIMTVP
 40
0.0
  9
$DIMTIX
 70
     0
  9
$DIMSOXD
 70
     0
  9
$DIMSAH
 70
     0
  9
$DIMBLK1
  1

  9
$DIMBLK2
  1

  9
$LUNITS
 70
     2
  9
$LUPREC
 70
     4
  9
$SKETCHINC
 40
0.1
  9
$FILLETRAD
 40
0.5
  9
$AUNITS
 70
     0
  9
$AUPREC
 70
     0
  9
$MENU
  1
.
  9
$ELEVATION
 40
0.0
  9
$THICKNESS
 40
0.0
  9
$LIMCHECK
 70
     0
  9
$CHAMFERA
 40
0.0
  9
$CHAMFERB
 40
0.0
  9
$SKPOLY
 70
     0
  9
$TDCREATE
 40
2459989.357688171
  9
$TDUPDATE
 40
2459989.357688634
  9
$TDINDWG
 40
0.0000000116
  9
$TDUSRTIMER
 40
0.0000000116
  9
$USRTIMER
 70
     1
  9
$ANGBASE
 50
0.0
  9
$ANGDIR
 70
     0
  9
$PDMODE
 70
     0
  9
$PDSIZE
 40
0.0
  9
$PLINEWID
 40
0.0
  9
$COORDS
 70
     1
  9
$SPLFRAME
 70
     0
  9
$SPLINETYPE
 70
     6
  9
$SPLINESEGS
 70
     8
  9
$ATTDIA
 70
     0
  9
$ATTREQ
 70
     1
  9
$HANDLING
 70
     1
  9
$HANDSEED
  5
2D3
  9
$SURFTAB1
 70
     6
  9
$SURFTAB2
 70
     6
  9
$SURFTYPE
 70
     6
  9
$SURFU
 70
     6
  9
$SURFV
 70
     6
  9
$UCSNAME
  2

  9
$UCSORG
 10
0.0
 20
0.0
 30
0.0
  9
$UCSXDIR
 10
1.0
 20
0.0
 30
0.0
  9
$UCSYDIR
 10
0.0
 20
1.0
 30
0.0
  9
$USERI1
 70
     0
  9
$USERI2
 70
     0
  9
$USERI3
 70
     0
  9
$USERI4
 70
     0
  9
$USERI5
 70
     0
  9
$USERR1
 40
0.0
  9
$USERR2
 40
0.0
  9
$USERR3
 40
0.0
  9
$USERR4
 40
0.0
  9
$USERR5
 40
0.0
  9
$WORLDVIEW
 70
     1
  0
ENDSEC
  0
SECTION
  2
TABLES
  0
TABLE
  2
VPORT
 70
     1
  0
VPORT
  2
*ACTIVE
 70
     0
 10
0.0
 20
0.0
 11
1.0
 21
1.0
 12
221.4524711150806
 22
858.1597582142
 13
0.0
 23
0.0
 14
0.5
 24
0.5
 15
0.5
 25
0.5
 16
0.0
 26
0.0
 36
1.0
 17
0.0
 27
0.0
 37
0.0
 40
1716.3195164284
 41
1.6
 42
50.0
 43
0.0
 44
0.0
 50
0.0
 51
0.0
 71
     0
 72
   100
 73
     1
 74
     3
 75
     0
 76
     0
 77
     0
 78
     0
  0
ENDTAB
  0
TABLE
  2
LTYPE
 70
     2
  0
LTYPE
  2
CONTINUOUS
 70
     0
  3
Solid line
 72
    65
 73
     0
 40
0.0
  0
LTYPE
  2
CENTER
 70
     0
  3

 72
    65
 73
     0
 40
0.0
  0
ENDTAB
  0
TABLE
  2
LAYER
 70
     2
  0
LAYER
  2
0
 70
     0
 62
     7
  6
CONTINUOUS
  0
LAYER
  2
1
 70
     0
 62
     7
  6
CONTINUOUS
  0
ENDTAB
  0
TABLE
  2
STYLE
 70
     2
  0
STYLE
  2
STANDARD
 70
     0
 40
0.0
 41
1.0
 50
0.0
 71
     0
 42
0.2
  3
txt
  4

  0
STYLE
  2
ＭＳ_ゴシック
 70
     0
 40
0.0
 41
1.0
 50
0.0
 71
     0
 42
0.2
  3
ＭＳ ゴシック.shx
  4

  0
ENDTAB
  0
TABLE
  2
VIEW
 70
     0
  0
ENDTAB
  0
TABLE
  2
UCS
 70
     0
  0
ENDTAB
  0
ENDSEC
  0
SECTION
  2
BLOCKS
  0
BLOCK
  8
0
  2
D_FRAME_DRAWING_21
 70
     0
 10
0.0
 20
0.0
 30
0.0
  0
LINE
  5
CC
  8
0
  6
CONTINUOUS
 62
     7
 10
0.0
 20
0.0
 30
0.0
 11
420.0
 21
0.0
 31
0.0
  0
LINE
  5
CD
  8
0
  6
CONTINUOUS
 62
     7
 10
420.0
 20
0.0
 30
0.0
 11
420.0
 21
297.0
 31
0.0
  0
LINE
  5
CE
  8
0
  6
CONTINUOUS
 62
     7
 10
420.0
 20
297.0
 30
0.0
 11
0.0
 21
297.0
 31
0.0
  0
LINE
  5
CF
  8
0
  6
CONTINUOUS
 62
     7
 10
0.0
 20
297.0
 30
0.0
 11
0.0
 21
0.0
 31
0.0
  0
LINE
  5
D0
  8
0
  6
CONTINUOUS
 62
     7
 10
10.0
 20
10.0
 30
0.0
 11
409.9999999999999
 21
10.0
 31
0.0
  0
LINE
  5
D1
  8
0
  6
CONTINUOUS
 62
     7
 10
409.9999999999999
 20
10.0
 30
0.0
 11
409.9999999999999
 21
286.9999999999999
 31
0.0
  0
LINE
  5
D2
  8
0
  6
CONTINUOUS
 62
     7
 10
409.9999999999999
 20
286.9999999999999
 30
0.0
 11
10.00000000000006
 21
286.9999999999999
 31
0.0
  0
LINE
  5
D3
  8
0
  6
CONTINUOUS
 62
     7
 10
10.0
 20
286.9999999999999
 30
0.0
 11
10.0
 21
10.00000000000001
 31
0.0
  0
LINE
  5
D4
  8
0
  6
CONTINUOUS
 62
     7
 10
210.0
 20
0.0
 30
0.0
 11
210.0
 21
10.0
 31
0.0
  0
LINE
  5
D5
  8
0
  6
CONTINUOUS
 62
     7
 10
420.0
 20
148.5
 30
0.0
 11
409.9999999999999
 21
148.5
 31
0.0
  0
LINE
  5
D6
  8
0
  6
CONTINUOUS
 62
     7
 10
210.0
 20
297.0
 30
0.0
 11
210.0
 21
286.9999999999999
 31
0.0
  0
LINE
  5
D7
  8
0
  6
CONTINUOUS
 62
     7
 10
0.0
 20
148.5
 30
0.0
 11
10.0
 21
148.5
 31
0.0
  0
POLYLINE
  5
D8
  8
0
  6
CONTINUOUS
 62
     7
 66
     1
 10
0.0
 20
0.0
 30
0.0
 70
     1
  0
VERTEX
  5
27E
  8
0
  6
CONTINUOUS
 62
     7
 10
11.0
 20
152.5
 30
0.0
  0
VERTEX
  5
27F
  8
0
  6
CONTINUOUS
 62
     7
 10
0.0
 20
148.5
 30
0.0
  0
VERTEX
  5
280
  8
0
  6
CONTINUOUS
 62
     7
 10
11.0
 20
144.5
 30
0.0
  0
VERTEX
  5
281
  8
0
  6
CONTINUOUS
 62
     7
 10
11.0
 20
152.5
 30
0.0
  0
SEQEND
  5
2D1
  8
0
  6
CONTINUOUS
 62
     7
  0
INSERT
  5
D9
  8
0
 62
     7
  2
*U21
 10
0.0
 20
0.0
 30
0.0
  0
POLYLINE
  5
DA
  8
0
  6
CONTINUOUS
 62
     7
 66
     1
 10
0.0
 20
0.0
 30
0.0
 70
     1
  0
VERTEX
  5
284
  8
0
  6
CONTINUOUS
 62
     7
 10
206.0
 20
11.0
 30
0.0
  0
VERTEX
  5
285
  8
0
  6
CONTINUOUS
 62
     7
 10
210.0
 20
0.0
 30
0.0
  0
VERTEX
  5
286
  8
0
  6
CONTINUOUS
 62
     7
 10
214.0
 20
11.0
 30
0.0
  0
VERTEX
  5
287
  8
0
  6
CONTINUOUS
 62
     7
 10
206.0
 20
11.0
 30
0.0
  0
SEQEND
  5
2D2
  8
0
  6
CONTINUOUS
 62
     7
  0
INSERT
  5
DB
  8
0
 62
     7
  2
*U22
 10
0.0
 20
0.0
 30
0.0
  0
LINE
  5
DC
  8
0
  6
CONTINUOUS
 62
     7
 10
367.5
 20
286.9999999999999
 30
0.0
 11
367.5
 21
292.0
 31
0.0
  0
TEXT
  5
DD
  8
0
  6
CONTINUOUS
 62
     7
 10
391.6340909090909
 20
291.8324293485057
 30
0.0
 40
3.5
  1
A
 50
270.0
  0
LINE
  5
DE
  8
0
  6
CONTINUOUS
 62
     7
 10
367.5
 20
10.0
 30
0.0
 11
367.5
 21
5.0
 31
0.0
  0
TEXT
  5
DF
  8
0
  6
CONTINUOUS
 62
     7
 10
392.9868888333125
 20
4.602272727272727
 30
0.0
 40
3.5
  1
A
  0
LINE
  5
E0
  8
0
  6
CONTINUOUS
 62
     7
 10
315.0
 20
286.9999999999999
 30
0.0
 11
315.0
 21
292.0
 31
0.0
  0
TEXT
  5
E1
  8
0
  6
CONTINUOUS
 62
     7
 10
339.1340909090909
 20
291.9745607727899
 30
0.0
 40
3.5
  1
B
 50
270.0
  0
LINE
  5
E2
  8
0
  6
CONTINUOUS
 62
     7
 10
315.0
 20
10.0
 30
0.0
 11
315.0
 21
5.0
 31
0.0
  0
TEXT
  5
E3
  8
0
  6
CONTINUOUS
 62
     7
 10
340.3447574090284
 20
4.602272727272727
 30
0.0
 40
3.5
  1
B
  0
LINE
  5
E4
  8
0
  6
CONTINUOUS
 62
     7
 10
262.5
 20
286.9999999999999
 30
0.0
 11
262.5
 21
292.0
 31
0.0
  0
TEXT
  5
E5
  8
0
  6
CONTINUOUS
 62
     7
 10
286.6327779167187
 20
291.9399305989747
 30
0.0
 40
3.5
  1
C
 50
270.0
  0
LINE
  5
E6
  8
0
  6
CONTINUOUS
 62
     7
 10
262.5
 20
10.0
 30
0.0
 11
262.5
 21
5.0
 31
0.0
  0
TEXT
  5
E7
  8
0
  6
CONTINUOUS
 62
     7
 10
287.8793875828435
 20
4.600959734900587
 30
0.0
 40
3.5
  1
C
  0
LINE
  5
E8
  8
0
  6
CONTINUOUS
 62
     7
 10
210.0
 20
286.9999999999999
 30
0.0
 11
210.0
 21
292.0
 31
0.0
  0
TEXT
  5
E9
  8
0
  6
CONTINUOUS
 62
     7
 10
234.1340909090909
 20
291.9745607727898
 30
0.0
 40
3.5
  1
D
 50
270.0
  0
LINE
  5
EA
  8
0
  6
CONTINUOUS
 62
     7
 10
157.5
 20
286.9999999999999
 30
0.0
 11
157.5
 21
292.0
 31
0.0
  0
TEXT
  5
EB
  8
0
  6
CONTINUOUS
 62
     7
 10
181.6327779167188
 20
292.027463423784
 30
0.0
 40
3.5
  1
E
 50
270.0
  0
LINE
  5
EC
  8
0
  6
CONTINUOUS
 62
     7
 10
157.5
 20
10.0
 30
0.0
 11
157.5
 21
5.0
 31
0.0
  0
LINE
  5
ED
  8
0
  6
CONTINUOUS
 62
     7
 10
105.0
 20
286.9999999999999
 30
0.0
 11
105.0
 21
292.0
 31
0.0
  0
TEXT
  5
EE
  8
0
  6
CONTINUOUS
 62
     7
 10
129.1327779167188
 20
291.9924502938602
 30
0.0
 40
3.5
  1
F
 50
270.0
  0
LINE
  5
EF
  8
0
  6
CONTINUOUS
 62
     7
 10
105.0
 20
10.0
 30
0.0
 11
105.0
 21
5.0
 31
0.0
  0
TEXT
  5
F0
  8
0
  6
CONTINUOUS
 62
     7
 10
130.326867887958
 20
4.600959734900587
 30
0.0
 40
3.5
  1
F
  0
LINE
  5
F1
  8
0
  6
CONTINUOUS
 62
     7
 10
52.50000000000004
 20
286.9999999999999
 30
0.0
 11
52.50000000000004
 21
292.0
 31
0.0
  0
TEXT
  5
F2
  8
0
  6
CONTINUOUS
 62
     7
 10
76.6327779167188
 20
291.9399305989746
 30
0.0
 40
3.5
  1
G
 50
270.0
  0
LINE
  5
F3
  8
0
  6
CONTINUOUS
 62
     7
 10
52.50000000000004
 20
10.0
 30
0.0
 11
52.50000000000004
 21
5.0
 31
0.0
  0
TEXT
  5
F4
  8
0
  6
CONTINUOUS
 62
     7
 10
77.8793875828436
 20
4.600959734900587
 30
0.0
 40
3.5
  1
G
  0
TEXT
  5
F5
  8
0
  6
CONTINUOUS
 62
     7
 10
24.13277791671879
 20
291.9749437288983
 30
0.0
 40
3.5
  1
H
 50
270.0
  0
TEXT
  5
F6
  8
0
  6
CONTINUOUS
 62
     7
 10
25.34437445291988
 20
4.600959734900587
 30
0.0
 40
3.5
  1
H
  0
LINE
  5
F7
  8
0
  6
CONTINUOUS
 62
     7
 10
409.9999999999999
 20
74.25
 30
0.0
 11
414.9999999999999
 21
74.25
 31
0.0
  0
TEXT
  5
F8
  8
0
  6
CONTINUOUS
 62
     7
 10
412.9326059772414
 20
35.00777791671877
 30
0.0
 40
3.5
  1
1
  0
LINE
  5
F9
  8
0
  6
CONTINUOUS
 62
     7
 10
10.0
 20
74.25
 30
0.0
 11
5.0
 21
74.25
 31
0.0
  0
TEXT
  5
FA
  8
0
  6
CONTINUOUS
 62
     7
 10
4.600959734900584
 20
38.26171220457671
 30
0.0
 40
3.5
  1
1
 50
270.0
  0
LINE
  5
FB
  8
0
  6
CONTINUOUS
 62
     7
 10
409.9999999999999
 20
148.5
 30
0.0
 11
414.9999999999999
 21
148.5
 31
0.0
  0
TEXT
  5
FC
  8
0
  6
CONTINUOUS
 62
     7
 10
413.163692634738
 20
109.2577779167188
 30
0.0
 40
3.5
  1
2
  0
LINE
  5
FD
  8
0
  6
CONTINUOUS
 62
     7
 10
10.0
 20
148.5
 30
0.0
 11
5.0
 21
148.5
 31
0.0
  0
TEXT
  5
FE
  8
0
  6
CONTINUOUS
 62
     7
 10
4.600959734900599
 20
112.2806255470802
 30
0.0
 40
3.5
  1
2
 50
270.0
  0
LINE
  5
FF
  8
0
  6
CONTINUOUS
 62
     7
 10
409.9999999999999
 20
222.75
 30
0.0
 11
414.9999999999999
 21
222.75
 31
0.0
  0
TEXT
  5
100
  8
0
  6
CONTINUOUS
 62
     7
 10
413.1811991996998
 20
183.5077779167188
 30
0.0
 40
3.5
  1
3
  0
LINE
  5
101
  8
0
  6
CONTINUOUS
 62
     7
 10
10.0
 20
222.75
 30
0.0
 11
5.0
 21
222.75
 31
0.0
  0
TEXT
  5
102
  8
0
  6
CONTINUOUS
 62
     7
 10
4.600959734900584
 20
186.5131189821183
 30
0.0
 40
3.5
  1
3
 50
270.0
  0
TEXT
  5
103
  8
0
  6
CONTINUOUS
 62
     7
 10
413.2351413029886
 20
257.7590909090909
 30
0.0
 40
3.5
  1
4
  0
TEXT
  5
104
  8
0
  6
CONTINUOUS
 62
     7
 10
4.60227272727272
 20
260.7091768788295
 30
0.0
 40
3.5
  1
4
 50
270.0
  0
LINE
  5
105
  8
0
  6
CONTINUOUS
 62
     7
 10
220.0
 20
10.0
 30
0.0
 11
220.0
 21
7.0
 31
0.0
  0
LINE
  5
106
  8
0
  6
CONTINUOUS
 62
     7
 10
200.0
 20
10.0
 30
0.0
 11
200.0
 21
7.0
 31
0.0
  0
LINE
  5
107
  8
0
  6
CONTINUOUS
 62
     7
 10
230.0
 20
10.0
 30
0.0
 11
230.0
 21
7.0
 31
0.0
  0
LINE
  5
108
  8
0
  6
CONTINUOUS
 62
     7
 10
190.0
 20
10.0
 30
0.0
 11
190.0
 21
7.0
 31
0.0
  0
LINE
  5
109
  8
0
  6
CONTINUOUS
 62
     7
 10
240.0
 20
10.0
 30
0.0
 11
240.0
 21
7.0
 31
0.0
  0
LINE
  5
10A
  8
0
  6
CONTINUOUS
 62
     7
 10
180.0
 20
10.0
 30
0.0
 11
180.0
 21
7.0
 31
0.0
  0
LINE
  5
10B
  8
0
  6
CONTINUOUS
 62
     7
 10
250.0
 20
10.0
 30
0.0
 11
250.0
 21
7.0
 31
0.0
  0
LINE
  5
10C
  8
0
  6
CONTINUOUS
 62
     7
 10
170.0
 20
10.0
 30
0.0
 11
170.0
 21
7.0
 31
0.0
  0
LINE
  5
10D
  8
0
  6
CONTINUOUS
 62
     7
 10
260.0
 20
10.0
 30
0.0
 11
260.0
 21
5.0
 31
0.0
  0
LINE
  5
10E
  8
0
  6
CONTINUOUS
 62
     7
 10
160.0
 20
10.0
 30
0.0
 11
160.0
 21
5.0
 31
0.0
  0
LINE
  5
10F
  8
0
  6
CONTINUOUS
 62
     7
 10
260.0
 20
10.0
 30
0.0
 11
160.0
 21
10.0
 31
0.0
  0
LINE
  5
110
  8
0
  6
CONTINUOUS
 62
     7
 10
260.0
 20
7.0
 30
0.0
 11
160.0
 21
7.0
 31
0.0
  0
INSERT
  5
111
  8
0
 62
     7
  2
*U23
 10
0.0
 20
0.0
 30
0.0
  0
INSERT
  5
112
  8
0
 62
     7
  2
*U24
 10
0.0
 20
0.0
 30
0.0
  0
INSERT
  5
113
  8
0
 62
     7
  2
*U25
 10
0.0
 20
0.0
 30
0.0
  0
INSERT
  5
114
  8
0
 62
     7
  2
*U26
 10
0.0
 20
0.0
 30
0.0
  0
ENDBLK
  8
0
  0
BLOCK
  8
0
  2
*U2
 70
     1
 10
0.0
 20
0.0
 30
0.0
  0
SOLID
  5
257
  8
0
  6
CONTINUOUS
 62
     7
 10
11.0
 20
144.5
 30
0.0
 11
6.999999999999999
 21
148.5
 31
0.0
 12
11.0
 22
152.5
 32
0.0
 13
11.0
 23
152.5
 33
0.0
  0
ENDBLK
  8
0
  0
BLOCK
  8
0
  2
*U3
 70
     1
 10
0.0
 20
0.0
 30
0.0
  0
SOLID
  5
259
  8
0
  6
CONTINUOUS
 62
     7
 10
210.0
 20
6.999999999999999
 30
0.0
 11
206.0
 21
11.0
 31
0.0
 12
210.0
 22
11.0
 32
0.0
 13
210.0
 23
11.0
 33
0.0
  0
ENDBLK
  8
0
  0
BLOCK
  8
0
  2
*U4
 70
     1
 10
0.0
 20
0.0
 30
0.0
  0
SOLID
  5
25B
  8
0
  6
CONTINUOUS
 62
     7
 10
210.0
 20
6.999999999999999
 30
0.0
 11
210.0
 21
11.0
 31
0.0
 12
214.0
 22
11.0
 32
0.0
 13
214.0
 23
11.0
 33
0.0
  0
ENDBLK
  8
0
  0
BLOCK
  8
0
  2
*U5
 70
     1
 10
0.0
 20
0.0
 30
0.0
  0
SOLID
  5
25D
  8
0
  6
CONTINUOUS
 62
     7
 10
0.0
 20
0.0
 30
0.0
 11
0.0
 21
10.0
 31
0.0
 12
2.0
 22
0.0
 32
0.0
 13
2.0
 23
0.0
 33
0.0
  0
ENDBLK
  8
0
  0
BLOCK
  8
0
  2
*U6
 70
     1
 10
0.0
 20
0.0
 30
0.0
  0
SOLID
  5
25F
  8
0
  6
CONTINUOUS
 62
     7
 10
2.0
 20
0.0
 30
0.0
 11
0.0
 21
10.0
 31
0.0
 12
2.0
 22
10.0
 32
0.0
 13
2.0
 23
10.0
 33
0.0
  0
ENDBLK
  8
0
  0
BLOCK
  8
0
  2
*U7
 70
     1
 10
0.0
 20
0.0
 30
0.0
  0
SOLID
  5
261
  8
0
  6
CONTINUOUS
 62
     7
 10
2.0
 20
0.0
 30
0.0
 11
2.0
 21
2.0
 31
0.0
 12
10.0
 22
0.0
 32
0.0
 13
10.0
 23
0.0
 33
0.0
  0
ENDBLK
  8
0
  0
BLOCK
  8
0
  2
*U8
 70
     1
 10
0.0
 20
0.0
 30
0.0
  0
SOLID
  5
263
  8
0
  6
CONTINUOUS
 62
     7
 10
10.0
 20
0.0
 30
0.0
 11
2.0
 21
2.0
 31
0.0
 12
10.0
 22
2.0
 32
0.0
 13
10.0
 23
2.0
 33
0.0
  0
ENDBLK
  8
0
  0
BLOCK
  8
0
  2
*U9
 70
     1
 10
0.0
 20
0.0
 30
0.0
  0
SOLID
  5
265
  8
0
  6
CONTINUOUS
 62
     7
 10
409.9999999999999
 20
0.0
 30
0.0
 11
409.9999999999999
 21
2.0
 31
0.0
 12
418.0
 22
0.0
 32
0.0
 13
418.0
 23
0.0
 33
0.0
  0
ENDBLK
  8
0
  0
BLOCK
  8
0
  2
*U10
 70
     1
 10
0.0
 20
0.0
 30
0.0
  0
SOLID
  5
267
  8
0
  6
CONTINUOUS
 62
     7
 10
418.0
 20
0.0
 30
0.0
 11
409.9999999999999
 21
2.0
 31
0.0
 12
418.0
 22
2.0
 32
0.0
 13
418.0
 23
2.0
 33
0.0
  0
ENDBLK
  8
0
  0
BLOCK
  8
0
  2
*U11
 70
     1
 10
0.0
 20
0.0
 30
0.0
  0
SOLID
  5
269
  8
0
  6
CONTINUOUS
 62
     7
 10
418.0
 20
0.0
 30
0.0
 11
418.0
 21
10.0
 31
0.0
 12
420.0
 22
0.0
 32
0.0
 13
420.0
 23
0.0
 33
0.0
  0
ENDBLK
  8
0
  0
BLOCK
  8
0
  2
*U12
 70
     1
 10
0.0
 20
0.0
 30
0.0
  0
SOLID
  5
26B
  8
0
  6
CONTINUOUS
 62
     7
 10
420.0
 20
0.0
 30
0.0
 11
418.0
 21
10.0
 31
0.0
 12
420.0
 22
10.0
 32
0.0
 13
420.0
 23
10.0
 33
0.0
  0
ENDBLK
  8
0
  0
BLOCK
  8
0
  2
*U13
 70
     1
 10
0.0
 20
0.0
 30
0.0
  0
SOLID
  5
26D
  8
0
  6
CONTINUOUS
 62
     7
 10
409.9999999999999
 20
295.0
 30
0.0
 11
409.9999999999999
 21
297.0
 31
0.0
 12
418.0
 22
295.0
 32
0.0
 13
418.0
 23
295.0
 33
0.0
  0
ENDBLK
  8
0
  0
BLOCK
  8
0
  2
*U14
 70
     1
 10
0.0
 20
0.0
 30
0.0
  0
SOLID
  5
26F
  8
0
  6
CONTINUOUS
 62
     7
 10
418.0
 20
295.0
 30
0.0
 11
409.9999999999999
 21
297.0
 31
0.0
 12
418.0
 22
297.0
 32
0.0
 13
418.0
 23
297.0
 33
0.0
  0
ENDBLK
  8
0
  0
BLOCK
  8
0
  2
*U15
 70
     1
 10
0.0
 20
0.0
 30
0.0
  0
SOLID
  5
271
  8
0
  6
CONTINUOUS
 62
     7
 10
418.0
 20
286.9999999999999
 30
0.0
 11
418.0
 21
297.0
 31
0.0
 12
420.0
 22
286.9999999999999
 32
0.0
 13
420.0
 23
286.9999999999999
 33
0.0
  0
ENDBLK
  8
0
  0
BLOCK
  8
0
  2
*U16
 70
     1
 10
0.0
 20
0.0
 30
0.0
  0
SOLID
  5
273
  8
0
  6
CONTINUOUS
 62
     7
 10
420.0
 20
286.9999999999999
 30
0.0
 11
418.0
 21
297.0
 31
0.0
 12
420.0
 22
297.0
 32
0.0
 13
420.0
 23
297.0
 33
0.0
  0
ENDBLK
  8
0
  0
BLOCK
  8
0
  2
*U17
 70
     1
 10
0.0
 20
0.0
 30
0.0
  0
SOLID
  5
275
  8
0
  6
CONTINUOUS
 62
     7
 10
0.0
 20
286.9999999999999
 30
0.0
 11
0.0
 21
297.0
 31
0.0
 12
2.0
 22
286.9999999999999
 32
0.0
 13
2.0
 23
286.9999999999999
 33
0.0
  0
ENDBLK
  8
0
  0
BLOCK
  8
0
  2
*U18
 70
     1
 10
0.0
 20
0.0
 30
0.0
  0
SOLID
  5
277
  8
0
  6
CONTINUOUS
 62
     7
 10
2.0
 20
286.9999999999999
 30
0.0
 11
0.0
 21
297.0
 31
0.0
 12
2.0
 22
297.0
 32
0.0
 13
2.0
 23
297.0
 33
0.0
  0
ENDBLK
  8
0
  0
BLOCK
  8
0
  2
*U19
 70
     1
 10
0.0
 20
0.0
 30
0.0
  0
SOLID
  5
279
  8
0
  6
CONTINUOUS
 62
     7
 10
2.0
 20
295.0
 30
0.0
 11
2.0
 21
297.0
 31
0.0
 12
10.0
 22
295.0
 32
0.0
 13
10.0
 23
295.0
 33
0.0
  0
ENDBLK
  8
0
  0
BLOCK
  8
0
  2
*U20
 70
     1
 10
0.0
 20
0.0
 30
0.0
  0
SOLID
  5
27B
  8
0
  6
CONTINUOUS
 62
     7
 10
10.0
 20
295.0
 30
0.0
 11
2.0
 21
297.0
 31
0.0
 12
10.0
 22
297.0
 32
0.0
 13
10.0
 23
297.0
 33
0.0
  0
ENDBLK
  8
0
  0
BLOCK
  8
0
  2
*U21
 70
     1
 10
0.0
 20
0.0
 30
0.0
  0
SOLID
  5
283
  8
0
  6
CONTINUOUS
 62
     7
 10
11.0
 20
144.5
 30
0.0
 11
6.999999999999999
 21
148.5
 31
0.0
 12
11.0
 22
152.5
 32
0.0
 13
11.0
 23
152.5
 33
0.0
  0
ENDBLK
  8
0
  0
BLOCK
  8
0
  2
*U22
 70
     1
 10
0.0
 20
0.0
 30
0.0
  0
SOLID
  5
289
  8
0
  6
CONTINUOUS
 62
     7
 10
210.0
 20
6.999999999999999
 30
0.0
 11
206.0
 21
11.0
 31
0.0
 12
210.0
 22
11.0
 32
0.0
 13
210.0
 23
11.0
 33
0.0
  0
SOLID
  5
28A
  8
0
  6
CONTINUOUS
 62
     7
 10
210.0
 20
6.999999999999999
 30
0.0
 11
210.0
 21
11.0
 31
0.0
 12
214.0
 22
11.0
 32
0.0
 13
214.0
 23
11.0
 33
0.0
  0
ENDBLK
  8
0
  0
BLOCK
  8
0
  2
*U23
 70
     1
 10
0.0
 20
0.0
 30
0.0
  0
SOLID
  5
28C
  8
0
  6
CONTINUOUS
 62
     7
 10
0.0
 20
0.0
 30
0.0
 11
0.0
 21
10.0
 31
0.0
 12
2.0
 22
0.0
 32
0.0
 13
2.0
 23
0.0
 33
0.0
  0
SOLID
  5
28D
  8
0
  6
CONTINUOUS
 62
     7
 10
2.0
 20
0.0
 30
0.0
 11
0.0
 21
10.0
 31
0.0
 12
2.0
 22
10.0
 32
0.0
 13
2.0
 23
10.0
 33
0.0
  0
SOLID
  5
28E
  8
0
  6
CONTINUOUS
 62
     7
 10
2.0
 20
0.0
 30
0.0
 11
2.0
 21
2.0
 31
0.0
 12
10.0
 22
0.0
 32
0.0
 13
10.0
 23
0.0
 33
0.0
  0
SOLID
  5
28F
  8
0
  6
CONTINUOUS
 62
     7
 10
10.0
 20
0.0
 30
0.0
 11
2.0
 21
2.0
 31
0.0
 12
10.0
 22
2.0
 32
0.0
 13
10.0
 23
2.0
 33
0.0
  0
ENDBLK
  8
0
  0
BLOCK
  8
0
  2
*U24
 70
     1
 10
0.0
 20
0.0
 30
0.0
  0
SOLID
  5
291
  8
0
  6
CONTINUOUS
 62
     7
 10
409.9999999999999
 20
0.0
 30
0.0
 11
409.9999999999999
 21
2.0
 31
0.0
 12
418.0
 22
0.0
 32
0.0
 13
418.0
 23
0.0
 33
0.0
  0
SOLID
  5
292
  8
0
  6
CONTINUOUS
 62
     7
 10
418.0
 20
0.0
 30
0.0
 11
409.9999999999999
 21
2.0
 31
0.0
 12
418.0
 22
2.0
 32
0.0
 13
418.0
 23
2.0
 33
0.0
  0
SOLID
  5
293
  8
0
  6
CONTINUOUS
 62
     7
 10
418.0
 20
0.0
 30
0.0
 11
418.0
 21
10.0
 31
0.0
 12
420.0
 22
0.0
 32
0.0
 13
420.0
 23
0.0
 33
0.0
  0
SOLID
  5
294
  8
0
  6
CONTINUOUS
 62
     7
 10
420.0
 20
0.0
 30
0.0
 11
418.0
 21
10.0
 31
0.0
 12
420.0
 22
10.0
 32
0.0
 13
420.0
 23
10.0
 33
0.0
  0
ENDBLK
  8
0
  0
BLOCK
  8
0
  2
*U25
 70
     1
 10
0.0
 20
0.0
 30
0.0
  0
SOLID
  5
296
  8
0
  6
CONTINUOUS
 62
     7
 10
409.9999999999999
 20
295.0
 30
0.0
 11
409.9999999999999
 21
297.0
 31
0.0
 12
418.0
 22
295.0
 32
0.0
 13
418.0
 23
295.0
 33
0.0
  0
SOLID
  5
297
  8
0
  6
CONTINUOUS
 62
     7
 10
418.0
 20
295.0
 30
0.0
 11
409.9999999999999
 21
297.0
 31
0.0
 12
418.0
 22
297.0
 32
0.0
 13
418.0
 23
297.0
 33
0.0
  0
SOLID
  5
298
  8
0
  6
CONTINUOUS
 62
     7
 10
418.0
 20
286.9999999999999
 30
0.0
 11
418.0
 21
297.0
 31
0.0
 12
420.0
 22
286.9999999999999
 32
0.0
 13
420.0
 23
286.9999999999999
 33
0.0
  0
SOLID
  5
299
  8
0
  6
CONTINUOUS
 62
     7
 10
420.0
 20
286.9999999999999
 30
0.0
 11
418.0
 21
297.0
 31
0.0
 12
420.0
 22
297.0
 32
0.0
 13
420.0
 23
297.0
 33
0.0
  0
ENDBLK
  8
0
  0
BLOCK
  8
0
  2
*U26
 70
     1
 10
0.0
 20
0.0
 30
0.0
  0
SOLID
  5
29B
  8
0
  6
CONTINUOUS
 62
     7
 10
0.0
 20
286.9999999999999
 30
0.0
 11
0.0
 21
297.0
 31
0.0
 12
2.0
 22
286.9999999999999
 32
0.0
 13
2.0
 23
286.9999999999999
 33
0.0
  0
SOLID
  5
29C
  8
0
  6
CONTINUOUS
 62
     7
 10
2.0
 20
286.9999999999999
 30
0.0
 11
0.0
 21
297.0
 31
0.0
 12
2.0
 22
297.0
 32
0.0
 13
2.0
 23
297.0
 33
0.0
  0
SOLID
  5
29D
  8
0
  6
CONTINUOUS
 62
     7
 10
2.0
 20
295.0
 30
0.0
 11
2.0
 21
297.0
 31
0.0
 12
10.0
 22
295.0
 32
0.0
 13
10.0
 23
295.0
 33
0.0
  0
SOLID
  5
29E
  8
0
  6
CONTINUOUS
 62
     7
 10
10.0
 20
295.0
 30
0.0
 11
2.0
 21
297.0
 31
0.0
 12
10.0
 22
297.0
 32
0.0
 13
10.0
 23
297.0
 33
0.0
  0
ENDBLK
  8
0
  0
ENDSEC
  0
SECTION
  2
ENTITIES
  0
LINE
  5
70
  8
0
  6
CONTINUOUS
 62
     7
 10
0.0
 20
0.0
 30
0.0
 11
420.0
 21
0.0
 31
0.0
  0
LINE
  5
71
  8
0
  6
CONTINUOUS
 62
     7
 10
420.0
 20
0.0
 30
0.0
 11
420.0
 21
297.0
 31
0.0
  0
LINE
  5
72
  8
0
  6
CONTINUOUS
 62
     7
 10
420.0
 20
297.0
 30
0.0
 11
0.0
 21
297.0
 31
0.0
  0
LINE
  5
73
  8
0
  6
CONTINUOUS
 62
     7
 10
0.0
 20
297.0
 30
0.0
 11
0.0
 21
0.0
 31
0.0
  0
LINE
  5
74
  8
0
  6
CONTINUOUS
 62
     7
 10
10.0
 20
10.0
 30
0.0
 11
409.9999999999999
 21
10.0
 31
0.0
  0
LINE
  5
75
  8
0
  6
CONTINUOUS
 62
     7
 10
409.9999999999999
 20
10.0
 30
0.0
 11
409.9999999999999
 21
286.9999999999999
 31
0.0
  0
LINE
  5
76
  8
0
  6
CONTINUOUS
 62
     7
 10
409.9999999999999
 20
286.9999999999999
 30
0.0
 11
10.00000000000006
 21
286.9999999999999
 31
0.0
  0
LINE
  5
77
  8
0
  6
CONTINUOUS
 62
     7
 10
10.0
 20
286.9999999999999
 30
0.0
 11
10.0
 21
10.00000000000001
 31
0.0
  0
LINE
  5
78
  8
0
  6
CONTINUOUS
 62
     7
 10
210.0
 20
0.0
 30
0.0
 11
210.0
 21
10.0
 31
0.0
  0
LINE
  5
79
  8
0
  6
CONTINUOUS
 62
     7
 10
420.0
 20
148.5
 30
0.0
 11
409.9999999999999
 21
148.5
 31
0.0
  0
LINE
  5
7A
  8
0
  6
CONTINUOUS
 62
     7
 10
210.0
 20
297.0
 30
0.0
 11
210.0
 21
286.9999999999999
 31
0.0
  0
LINE
  5
7B
  8
0
  6
CONTINUOUS
 62
     7
 10
0.0
 20
148.5
 30
0.0
 11
10.0
 21
148.5
 31
0.0
  0
LINE
  5
7C
  8
0
  6
CONTINUOUS
 62
     7
 10
11.0
 20
152.5
 30
0.0
 11
0.0000000000000017
 21
148.5
 31
0.0
  0
LINE
  5
7D
  8
0
  6
CONTINUOUS
 62
     7
 10
0.0
 20
148.5
 30
0.0
 11
11.0
 21
144.5
 31
0.0
  0
LINE
  5
7E
  8
0
  6
CONTINUOUS
 62
     7
 10
11.0
 20
144.5
 30
0.0
 11
11.0
 21
152.5
 31
0.0
  0
INSERT
  5
7F
  8
0
 62
     7
  2
*U2
 10
0.0
 20
0.0
 30
0.0
  0
LINE
  5
80
  8
0
  6
CONTINUOUS
 62
     7
 10
206.0
 20
11.0
 30
0.0
 11
210.0
 21
-0.0000000000000017
 31
0.0
  0
LINE
  5
81
  8
0
  6
CONTINUOUS
 62
     7
 10
210.0
 20
0.0
 30
0.0
 11
214.0
 21
11.0
 31
0.0
  0
LINE
  5
82
  8
0
  6
CONTINUOUS
 62
     7
 10
214.0
 20
11.0
 30
0.0
 11
206.0
 21
11.0
 31
0.0
  0
INSERT
  5
83
  8
0
 62
     7
  2
*U3
 10
0.0
 20
0.0
 30
0.0
  0
INSERT
  5
84
  8
0
 62
     7
  2
*U4
 10
0.0
 20
0.0
 30
0.0
  0
LINE
  5
85
  8
0
  6
CONTINUOUS
 62
     7
 10
367.5
 20
286.9999999999999
 30
0.0
 11
367.5
 21
292.0
 31
0.0
  0
TEXT
  5
86
  8
0
  6
CONTINUOUS
 62
     7
 10
391.2681818181818
 20
291.6648586970114
 30
0.0
 40
3.5
  1
A
 50
270.0
  0
LINE
  5
87
  8
0
  6
CONTINUOUS
 62
     7
 10
367.5
 20
10.0
 30
0.0
 11
367.5
 21
5.0
 31
0.0
  0
TEXT
  5
88
  8
0
  6
CONTINUOUS
 62
     7
 10
393.1544594848068
 20
4.236363636363635
 30
0.0
 40
3.5
  1
A
  0
LINE
  5
89
  8
0
  6
CONTINUOUS
 62
     7
 10
315.0
 20
286.9999999999999
 30
0.0
 11
315.0
 21
292.0
 31
0.0
  0
TEXT
  5
8A
  8
0
  6
CONTINUOUS
 62
     7
 10
338.7681818181818
 20
291.9491215455798
 30
0.0
 40
3.5
  1
B
 50
270.0
  0
LINE
  5
8B
  8
0
  6
CONTINUOUS
 62
     7
 10
315.0
 20
10.0
 30
0.0
 11
315.0
 21
5.0
 31
0.0
  0
TEXT
  5
8C
  8
0
  6
CONTINUOUS
 62
     7
 10
340.3701966362385
 20
4.236363636363635
 30
0.0
 40
3.5
  1
B
  0
LINE
  5
8D
  8
0
  6
CONTINUOUS
 62
     7
 10
262.5
 20
286.9999999999999
 30
0.0
 11
262.5
 21
292.0
 31
0.0
  0
TEXT
  5
8E
  8
0
  6
CONTINUOUS
 62
     7
 10
286.2655558334374
 20
291.8798611979494
 30
0.0
 40
3.5
  1
C
 50
270.0
  0
LINE
  5
8F
  8
0
  6
CONTINUOUS
 62
     7
 10
262.5
 20
10.0
 30
0.0
 11
262.5
 21
5.0
 31
0.0
  0
TEXT
  5
90
  8
0
  6
CONTINUOUS
 62
     7
 10
287.9394569838688
 20
4.233737651619357
 30
0.0
 40
3.5
  1
C
  0
LINE
  5
91
  8
0
  6
CONTINUOUS
 62
     7
 10
210.0
 20
286.9999999999999
 30
0.0
 11
210.0
 21
292.0
 31
0.0
  0
TEXT
  5
92
  8
0
  6
CONTINUOUS
 62
     7
 10
233.7681818181818
 20
291.9491215455796
 30
0.0
 40
3.5
  1
D
 50
270.0
  0
LINE
  5
93
  8
0
  6
CONTINUOUS
 62
     7
 10
157.5
 20
286.9999999999999
 30
0.0
 11
157.5
 21
292.0
 31
0.0
  0
TEXT
  5
94
  8
0
  6
CONTINUOUS
 62
     7
 10
181.2655558334376
 20
292.0549268475679
 30
0.0
 40
3.5
  1
E
 50
270.0
  0
LINE
  5
95
  8
0
  6
CONTINUOUS
 62
     7
 10
157.5
 20
10.0
 30
0.0
 11
157.5
 21
5.0
 31
0.0
  0
LINE
  5
96
  8
0
  6
CONTINUOUS
 62
     7
 10
105.0
 20
286.9999999999999
 30
0.0
 11
105.0
 21
292.0
 31
0.0
  0
TEXT
  5
97
  8
0
  6
CONTINUOUS
 62
     7
 10
128.7655558334375
 20
291.9849005877204
 30
0.0
 40
3.5
  1
F
 50
270.0
  0
LINE
  5
98
  8
0
  6
CONTINUOUS
 62
     7
 10
105.0
 20
10.0
 30
0.0
 11
105.0
 21
5.0
 31
0.0
  0
TEXT
  5
99
  8
0
  6
CONTINUOUS
 62
     7
 10
130.3344175940978
 20
4.233737651619357
 30
0.0
 40
3.5
  1
F
  0
LINE
  5
9A
  8
0
  6
CONTINUOUS
 62
     7
 10
52.50000000000004
 20
286.9999999999999
 30
0.0
 11
52.50000000000004
 21
292.0
 31
0.0
  0
TEXT
  5
9B
  8
0
  6
CONTINUOUS
 62
     7
 10
76.26555583343753
 20
291.8798611979493
 30
0.0
 40
3.5
  1
G
 50
270.0
  0
LINE
  5
9C
  8
0
  6
CONTINUOUS
 62
     7
 10
52.50000000000004
 20
10.0
 30
0.0
 11
52.50000000000004
 21
5.0
 31
0.0
  0
TEXT
  5
9D
  8
0
  6
CONTINUOUS
 62
     7
 10
77.93945698386898
 20
4.233737651619357
 30
0.0
 40
3.5
  1
G
  0
TEXT
  5
9E
  8
0
  6
CONTINUOUS
 62
     7
 10
23.76555583343753
 20
291.9498874577966
 30
0.0
 40
3.5
  1
H
 50
270.0
  0
TEXT
  5
9F
  8
0
  6
CONTINUOUS
 62
     7
 10
25.36943072402154
 20
4.233737651619357
 30
0.0
 40
3.5
  1
H
  0
LINE
  5
A0
  8
0
  6
CONTINUOUS
 62
     7
 10
409.9999999999999
 20
74.25
 30
0.0
 11
414.9999999999999
 21
74.25
 31
0.0
  0
TEXT
  5
A1
  8
0
  6
CONTINUOUS
 62
     7
 10
412.7265755908465
 20
34.64055583343754
 30
0.0
 40
3.5
  1
1
  0
LINE
  5
A2
  8
0
  6
CONTINUOUS
 62
     7
 10
10.0
 20
74.25
 30
0.0
 11
5.0
 21
74.25
 31
0.0
  0
TEXT
  5
A3
  8
0
  6
CONTINUOUS
 62
     7
 10
4.23373765161935
 20
38.46774259097161
 30
0.0
 40
3.5
  1
1
 50
270.0
  0
LINE
  5
A4
  8
0
  6
CONTINUOUS
 62
     7
 10
409.9999999999999
 20
148.5
 30
0.0
 11
414.9999999999999
 21
148.5
 31
0.0
  0
TEXT
  5
A5
  8
0
  6
CONTINUOUS
 62
     7
 10
413.1887489058396
 20
108.8905558334376
 30
0.0
 40
3.5
  1
2
  0
LINE
  5
A6
  8
0
  6
CONTINUOUS
 62
     7
 10
10.0
 20
148.5
 30
0.0
 11
5.0
 21
148.5
 31
0.0
  0
TEXT
  5
A7
  8
0
  6
CONTINUOUS
 62
     7
 10
4.233737651619379
 20
112.2555692759785
 30
0.0
 40
3.5
  1
2
 50
270.0
  0
LINE
  5
A8
  8
0
  6
CONTINUOUS
 62
     7
 10
409.9999999999999
 20
222.75
 30
0.0
 11
414.9999999999999
 21
222.75
 31
0.0
  0
TEXT
  5
A9
  8
0
  6
CONTINUOUS
 62
     7
 10
413.2237620357633
 20
183.1405558334376
 30
0.0
 40
3.5
  1
3
  0
LINE
  5
AA
  8
0
  6
CONTINUOUS
 62
     7
 10
10.0
 20
222.75
 30
0.0
 11
5.0
 21
222.75
 31
0.0
  0
TEXT
  5
AB
  8
0
  6
CONTINUOUS
 62
     7
 10
4.23373765161935
 20
186.4705561460548
 30
0.0
 40
3.5
  1
3
 50
270.0
  0
TEXT
  5
AC
  8
0
  6
CONTINUOUS
 62
     7
 10
413.3316462423409
 20
257.3931818181817
 30
0.0
 40
3.5
  1
4
  0
TEXT
  5
AD
  8
0
  6
CONTINUOUS
 62
     7
 10
4.23636363636362
 20
260.6126719394773
 30
0.0
 40
3.5
  1
4
 50
270.0
  0
LINE
  5
AE
  8
0
  6
CONTINUOUS
 62
     7
 10
220.0
 20
10.0
 30
0.0
 11
220.0
 21
7.0
 31
0.0
  0
LINE
  5
AF
  8
0
  6
CONTINUOUS
 62
     7
 10
200.0
 20
10.0
 30
0.0
 11
200.0
 21
7.0
 31
0.0
  0
LINE
  5
B0
  8
0
  6
CONTINUOUS
 62
     7
 10
230.0
 20
10.0
 30
0.0
 11
230.0
 21
7.0
 31
0.0
  0
LINE
  5
B1
  8
0
  6
CONTINUOUS
 62
     7
 10
190.0
 20
10.0
 30
0.0
 11
190.0
 21
7.0
 31
0.0
  0
LINE
  5
B2
  8
0
  6
CONTINUOUS
 62
     7
 10
240.0
 20
10.0
 30
0.0
 11
240.0
 21
7.0
 31
0.0
  0
LINE
  5
B3
  8
0
  6
CONTINUOUS
 62
     7
 10
180.0
 20
10.0
 30
0.0
 11
180.0
 21
7.0
 31
0.0
  0
LINE
  5
B4
  8
0
  6
CONTINUOUS
 62
     7
 10
250.0
 20
10.0
 30
0.0
 11
250.0
 21
7.0
 31
0.0
  0
LINE
  5
B5
  8
0
  6
CONTINUOUS
 62
     7
 10
170.0
 20
10.0
 30
0.0
 11
170.0
 21
7.0
 31
0.0
  0
LINE
  5
B6
  8
0
  6
CONTINUOUS
 62
     7
 10
260.0
 20
10.0
 30
0.0
 11
260.0
 21
5.0
 31
0.0
  0
LINE
  5
B7
  8
0
  6
CONTINUOUS
 62
     7
 10
160.0
 20
10.0
 30
0.0
 11
160.0
 21
5.0
 31
0.0
  0
LINE
  5
B8
  8
0
  6
CONTINUOUS
 62
     7
 10
260.0
 20
10.0
 30
0.0
 11
160.0
 21
10.0
 31
0.0
  0
LINE
  5
B9
  8
0
  6
CONTINUOUS
 62
     7
 10
260.0
 20
7.0
 30
0.0
 11
160.0
 21
7.0
 31
0.0
  0
INSERT
  5
BA
  8
0
 62
     7
  2
*U5
 10
0.0
 20
0.0
 30
0.0
  0
INSERT
  5
BB
  8
0
 62
     7
  2
*U6
 10
0.0
 20
0.0
 30
0.0
  0
INSERT
  5
BC
  8
0
 62
     7
  2
*U7
 10
0.0
 20
0.0
 30
0.0
  0
INSERT
  5
BD
  8
0
 62
     7
  2
*U8
 10
0.0
 20
0.0
 30
0.0
  0
INSERT
  5
BE
  8
0
 62
     7
  2
*U9
 10
0.0
 20
0.0
 30
0.0
  0
INSERT
  5
BF
  8
0
 62
     7
  2
*U10
 10
0.0
 20
0.0
 30
0.0
  0
INSERT
  5
C0
  8
0
 62
     7
  2
*U11
 10
0.0
 20
0.0
 30
0.0
  0
INSERT
  5
C1
  8
0
 62
     7
  2
*U12
 10
0.0
 20
0.0
 30
0.0
  0
INSERT
  5
C2
  8
0
 62
     7
  2
*U13
 10
0.0
 20
0.0
 30
0.0
  0
INSERT
  5
C3
  8
0
 62
     7
  2
*U14
 10
0.0
 20
0.0
 30
0.0
  0
INSERT
  5
C4
  8
0
 62
     7
  2
*U15
 10
0.0
 20
0.0
 30
0.0
  0
INSERT
  5
C5
  8
0
 62
     7
  2
*U16
 10
0.0
 20
0.0
 30
0.0
  0
INSERT
  5
C6
  8
0
 62
     7
  2
*U17
 10
0.0
 20
0.0
 30
0.0
  0
INSERT
  5
C7
  8
0
 62
     7
  2
*U18
 10
0.0
 20
0.0
 30
0.0
  0
INSERT
  5
C8
  8
0
 62
     7
  2
*U19
 10
0.0
 20
0.0
 30
0.0
  0
INSERT
  5
C9
  8
0
 62
     7
  2
*U20
 10
0.0
 20
0.0
 30
0.0
  0
INSERT
  5
CB
  8
0
 62
     7
  2
D_FRAME_DRAWING_21
 10
0.0
 20
0.0
 30
0.0
  0
LINE
  5
115
  8
1
  6
CONTINUOUS
 62
     7
 10
138.7095462852
 20
1700.3195164284
 30
0.0
 11
139.7095462852
 21
1700.3195164284
 31
0.0
  0
LINE
  5
116
  8
1
  6
CONTINUOUS
 62
     7
 10
141.089226995
 20
1658.3195164284
 30
0.0
 11
138.7095462852
 21
1658.3195164284
 31
0.0
  0
LINE
  5
117
  8
1
  6
CONTINUOUS
 62
     7
 10
99.2095462852
 20
1654.5195164284
 30
0.0
 11
138.7095462852
 21
1654.5195164284
 31
0.0
  0
LINE
  5
118
  8
1
  6
CONTINUOUS
 62
     7
 10
99.2095462852
 20
1704.1195164284
 30
0.0
 11
138.7095462852
 21
1704.1195164284
 31
0.0
  0
LINE
  5
119
  8
1
  6
CONTINUOUS
 62
     7
 10
399.6269961061
 20
1666.9709748355
 30
0.0
 11
397.2030871045
 21
1668.2060181591
 31
0.0
  0
CIRCLE
  5
11A
  8
1
  6
CONTINUOUS
 62
     7
 10
375.3916186482
 20
1679.3195164284
 30
0.0
 40
17.4941991426
  0
LINE
  5
11B
  8
1
  6
CONTINUOUS
 62
     7
 10
359.6564457935
 20
1698.0719652081
 30
0.0
 11
357.9077956647
 21
1700.1559252812
 31
0.0
  0
LINE
  5
11C
  8
1
  6
CENTER
 62
     5
 10
412.3916186482
 20
1679.3195164284
 30
0.0
 11
338.3916186482
 21
1679.3195164284
 31
0.0
  0
ARC
  5
11E
  8
1
  6
CONTINUOUS
 62
     7
 10
360.4224902366
 20
1659.9242800391
 30
0.0
 40
1.0
 50
52.3392530742
 51
140.0
  0
LINE
  5
11F
  8
1
  6
CONTINUOUS
 62
     7
 10
181.0892255364
 20
1658.3195164284
 30
0.0
 11
178.1803675427
 21
1658.3195164284
 31
0.0
  0
LINE
  5
120
  8
1
  6
CONTINUOUS
 62
     7
 10
225.7782225981
 20
1699.8651497617
 30
0.0
 11
204.7782225981
 21
1699.8651497617
 31
0.0
  0
LINE
  5
121
  8
1
  6
CONTINUOUS
 62
     7
 10
225.7782225981
 20
1695.720993095
 30
0.0
 11
204.7782225981
 21
1695.720993095
 31
0.0
  0
ARC
  5
122
  8
1
  6
CONTINUOUS
 62
     7
 10
363.3871138547
 20
1700.6769943849
 30
0.0
 40
1.0
 50
299.3392530742
 51
27.0
  0
LINE
  5
123
  8
1
  6
CONTINUOUS
 62
     7
 10
391.1267915029
 20
1660.5670676487
 30
0.0
 11
392.8754416317
 21
1658.4831075756
 31
0.0
  0
LINE
  5
124
  8
1
  6
CONTINUOUS
 62
     7
 10
278.7095462852
 20
1699.8195164284
 30
0.0
 11
281.7095462852
 21
1699.8195164284
 31
0.0
  0
ARC
  5
125
  8
1
  6
CONTINUOUS
 62
     7
 10
355.9963822589
 20
1694.28864484
 30
0.0
 40
1.0
 50
322.3392530741
 51
50.0
  0
CIRCLE
  5
126
  8
1
  6
CONTINUOUS
 62
     7
 10
375.3916186482
 20
1679.3195164284
 30
0.0
 40
27.5
  0
ARC
  5
127
  8
1
  6
CONTINUOUS
 62
     7
 10
375.3916186482
 20
1679.3195164284
 30
0.0
 40
23.5
 50
142.3392530742
 51
150.6607469258
  0
LINE
  5
128
  8
1
  6
CONTINUOUS
 62
     7
 10
225.7782225981
 20
1704.2586164284
 30
0.0
 11
205.2782225981
 21
1704.2586164284
 31
0.0
  0
LINE
  5
129
  8
1
  6
CONTINUOUS
 62
     7
 10
165.8299364566
 20
1700.3195164284
 30
0.0
 11
168.7393611694
 21
1700.3195164284
 31
0.0
  0
LINE
  5
12A
  8
1
  6
CONTINUOUS
 62
     7
 10
180.8299159536
 20
1700.3195164284
 30
0.0
 11
180.6095472801
 21
1701.5691221544
 31
0.0
  0
LINE
  5
12B
  8
1
  6
CONTINUOUS
 62
     7
 10
359.6564457935
 20
1660.5670676487
 30
0.0
 11
357.9077956647
 21
1658.4831075756
 31
0.0
  0
ARC
  5
12C
  8
1
  6
CONTINUOUS
 62
     7
 10
354.0341406917
 20
1691.3240212219
 30
0.0
 40
1.0
 50
243.0000000000001
 51
330.6607469258
  0
LINE
  5
12D
  8
1
  6
CONTINUOUS
 62
     7
 10
363.0430770553
 20
1703.5548938863
 30
0.0
 11
364.2781203789
 21
1701.1309848847
 31
0.0
  0
ARC
  5
12E
  8
1
  6
CONTINUOUS
 62
     7
 10
375.3916186482
 20
1679.3195164284
 30
0.0
 40
23.5
 50
119.3392530742
 51
127.6607469258
  0
LINE
  5
12F
  8
1
  6
CONTINUOUS
 62
     7
 10
267.7095462852
 20
1658.0695164284
 30
0.0
 11
267.7095462852
 21
1700.5695164284
 31
0.0
  0
LINE
  5
130
  8
1
  6
CONTINUOUS
 62
     7
 10
391.1267915029
 20
1698.0719652081
 30
0.0
 11
392.8754416317
 21
1700.1559252812
 31
0.0
  0
LINE
  5
131
  8
1
  6
CONTINUOUS
 62
     7
 10
399.6269961061
 20
1691.6680580213
 30
0.0
 11
397.2030871045
 21
1690.4330146977
 31
0.0
  0
LINE
  5
132
  8
1
  6
CONTINUOUS
 62
     7
 10
274.7095462852
 20
1658.0695164284
 30
0.0
 11
274.7095462852
 21
1700.5695164284
 31
0.0
  0
LINE
  5
133
  8
1
  6
CONTINUOUS
 62
     7
 10
356.6391698685
 20
1695.0546892831
 30
0.0
 11
354.5552097954
 21
1696.8033394119
 31
0.0
  0
ARC
  5
134
  8
1
  6
CONTINUOUS
 62
     7
 10
360.4224902366
 20
1698.7147528177
 30
0.0
 40
1.0
 50
220.0
 51
307.6607469258
  0
LINE
  5
135
  8
1
  6
CENTER
 62
     5
 10
375.3916186482
 20
1716.3195164284
 30
0.0
 11
375.3916186482
 21
1642.3195164284
 31
0.0
  0
LINE
  5
136
  8
1
  6
CONTINUOUS
 62
     7
 10
351.1562411903
 20
1691.6680580213
 30
0.0
 11
353.5801501919
 21
1690.4330146977
 31
0.0
  0
LINE
  5
137
  8
1
  6
CONTINUOUS
 62
     7
 10
281.7095462852
 20
1658.0695164284
 30
0.0
 11
281.7095462852
 21
1700.5695164284
 31
0.0
  0
LINE
  5
138
  8
1
  6
CONTINUOUS
 62
     7
 10
281.7095462852
 20
1658.8195164284
 30
0.0
 11
278.7095462852
 21
1658.8195164284
 31
0.0
  0
LINE
  5
139
  8
1
  6
CONTINUOUS
 62
     7
 10
267.7095462852
 20
1658.8195164284
 30
0.0
 11
265.2095462852
 21
1658.8195164284
 31
0.0
  0
LINE
  5
13A
  8
1
  6
CONTINUOUS
 62
     7
 10
229.7782225981
 20
1651.8195164284
 30
0.0
 11
229.7782225981
 21
1706.8195164284
 31
0.0
  0
LINE
  5
13B
  8
1
  6
CONTINUOUS
 62
     7
 10
205.2782225981
 20
1654.3804164284
 30
0.0
 11
204.7782225981
 21
1654.8494097617
 31
0.0
  0
LINE
  5
13C
  8
1
  6
CONTINUOUS
 62
     7
 10
170.8299159536
 20
1700.3195164284
 30
0.0
 11
173.7393611694
 21
1700.3195164284
 31
0.0
  0
LINE
  5
13D
  8
1
  6
CONTINUOUS
 62
     7
 10
168.8095472801
 20
1701.5691242181
 30
0.0
 11
166.3101820251
 21
1657.0699168594
 31
0.0
  0
LINE
  5
13E
  8
1
  6
CONTINUOUS
 62
     7
 10
180.8299159536
 20
1700.3195164284
 30
0.0
 11
183.7393611694
 21
1700.3195164284
 31
0.0
  0
LINE
  5
13F
  8
1
  6
CONTINUOUS
 62
     7
 10
173.1101820026
 20
1657.0699189231
 30
0.0
 11
171.3101820026
 21
1657.0699168594
 31
0.0
  0
LINE
  5
140
  8
1
  6
CONTINUOUS
 62
     7
 10
225.7782225981
 20
1662.9180397617
 30
0.0
 11
205.2782225981
 21
1662.9180397617
 31
0.0
  0
LINE
  5
141
  8
1
  6
CONTINUOUS
 62
     7
 10
204.7782225981
 20
1677.4351964284
 30
0.0
 11
225.7782225981
 21
1677.4351964284
 31
0.0
  0
LINE
  5
142
  8
1
  6
CONTINUOUS
 62
     7
 10
173.8095472801
 20
1701.5691242181
 30
0.0
 11
171.3101820251
 21
1657.0699168594
 31
0.0
  0
ARC
  5
143
  8
1
  6
CONTINUOUS
 62
     7
 10
265.2095462852
 20
1700.3195164284
 30
0.0
 40
0.5
 50
180.0
 51
270.0
  0
LINE
  5
144
  8
1
  6
CONTINUOUS
 62
     7
 10
173.1101820026
 20
1657.0699189231
 30
0.0
 11
175.6095472801
 21
1701.5691221544
 31
0.0
  0
LINE
  5
145
  8
1
  6
CONTINUOUS
 62
     7
 10
225.7782225981
 20
1677.9095597617
 30
0.0
 11
225.7782225981
 21
1651.8556864284
 31
0.0
  0
LINE
  5
146
  8
1
  6
CONTINUOUS
 62
     7
 10
225.7782225981
 20
1706.7833464284
 30
0.0
 11
225.7782225981
 21
1699.7363664284
 31
0.0
  0
LINE
  5
147
  8
1
  6
CONTINUOUS
 62
     7
 10
168.8095472801
 20
1701.5691242181
 30
0.0
 11
170.6095472801
 21
1701.5691221544
 31
0.0
  0
LINE
  5
148
  8
1
  6
CONTINUOUS
 62
     7
 10
168.1101820026
 20
1657.0699189231
 30
0.0
 11
166.3101820026
 21
1657.0699168594
 31
0.0
  0
ARC
  5
149
  8
1
  6
CONTINUOUS
 62
     7
 10
206.7782225981
 20
1704.8195164284
 30
0.0
 40
2.0
 50
90.0
 51
180.0
  0
LINE
  5
14A
  8
1
  6
CONTINUOUS
 62
     7
 10
176.0892255364
 20
1658.3195164284
 30
0.0
 11
173.1803675427
 21
1658.3195164284
 31
0.0
  0
LINE
  5
14B
  8
1
  6
CONTINUOUS
 62
     7
 10
264.7095462852
 20
1657.0695164284
 30
0.0
 11
259.7095462852
 21
1657.0695164284
 31
0.0
  0
LINE
  5
14C
  8
1
  6
CONTINUOUS
 62
     7
 10
183.8095472801
 20
1701.5691242181
 30
0.0
 11
185.6095472801
 21
1701.5691221544
 31
0.0
  0
LINE
  5
14D
  8
1
  6
CONTINUOUS
 62
     7
 10
205.2782225981
 20
1662.9180397617
 30
0.0
 11
204.7782225981
 21
1662.872063095
 31
0.0
  0
LINE
  5
14E
  8
1
  6
CONTINUOUS
 62
     7
 10
178.8095472801
 20
1701.5691242181
 30
0.0
 11
176.3101820251
 21
1657.0699168594
 31
0.0
  0
LINE
  5
14F
  8
1
  6
CONTINUOUS
 62
     7
 10
259.7095462852
 20
1657.0695164284
 30
0.0
 11
259.7095462852
 21
1685.5453230159
 31
0.0
  0
LINE
  5
150
  8
1
  6
CONTINUOUS
 62
     7
 10
225.7782225981
 20
1697.7423897617
 30
0.0
 11
225.7782225981
 21
1680.729473095
 31
0.0
  0
LINE
  5
151
  8
1
  6
CONTINUOUS
 62
     7
 10
183.1101820026
 20
1657.0699189231
 30
0.0
 11
181.3101820026
 21
1657.0699168594
 31
0.0
  0
ARC
  5
152
  8
1
  6
CONTINUOUS
 62
     7
 10
265.2095462852
 20
1658.3195164284
 30
0.0
 40
0.5
 50
90.0
 51
180.0
  0
LINE
  5
153
  8
1
  6
CONTINUOUS
 62
     7
 10
204.7782225981
 20
1703.789623095
 30
0.0
 11
205.2782225981
 21
1704.2586164284
 31
0.0
  0
LINE
  5
154
  8
1
  6
CONTINUOUS
 62
     7
 10
178.1101820026
 20
1657.0699189231
 30
0.0
 11
180.6095472801
 21
1701.5691221544
 31
0.0
  0
LINE
  5
155
  8
1
  6
CONTINUOUS
 62
     7
 10
204.7782225981
 20
1653.8195164284
 30
0.0
 11
204.7782225981
 21
1704.8195164284
 31
0.0
  0
LINE
  5
156
  8
1
  6
CONTINUOUS
 62
     7
 10
206.7782225981
 20
1651.8195164284
 30
0.0
 11
229.7782225981
 21
1651.8195164284
 31
0.0
  0
LINE
  5
157
  8
1
  6
CONTINUOUS
 62
     7
 10
175.8299159536
 20
1700.3195164284
 30
0.0
 11
178.7393611694
 21
1700.3195164284
 31
0.0
  0
LINE
  5
158
  8
1
  6
CONTINUOUS
 62
     7
 10
170.8299159536
 20
1700.3195164284
 30
0.0
 11
170.6095472801
 21
1701.5691221544
 31
0.0
  0
LINE
  5
159
  8
1
  6
CONTINUOUS
 62
     7
 10
259.7095462852
 20
1658.3195164284
 30
0.0
 11
258.1803675427
 21
1658.3195164284
 31
0.0
  0
LINE
  5
15A
  8
1
  6
CONTINUOUS
 62
     7
 10
259.7095462852
 20
1701.5695164284
 30
0.0
 11
264.7095462852
 21
1701.5695164284
 31
0.0
  0
LINE
  5
15B
  8
1
  6
CONTINUOUS
 62
     7
 10
204.7782225981
 20
1658.773883095
 30
0.0
 11
225.7782225981
 21
1658.773883095
 31
0.0
  0
LINE
  5
15C
  8
1
  6
CONTINUOUS
 62
     7
 10
258.8098619995
 20
1701.5695118686
 30
0.0
 11
259.7095462886
 21
1701.5695108371
 31
0.0
  0
LINE
  5
15D
  8
1
  6
CONTINUOUS
 62
     7
 10
186.0892255364
 20
1658.3195164284
 30
0.0
 11
183.1803675427
 21
1658.3195164284
 31
0.0
  0
LINE
  5
15E
  8
1
  6
CONTINUOUS
 62
     7
 10
183.8095472801
 20
1701.5691242181
 30
0.0
 11
181.3101820251
 21
1657.0699168594
 31
0.0
  0
LINE
  5
15F
  8
1
  6
CONTINUOUS
 62
     7
 10
178.8095472801
 20
1701.5691242181
 30
0.0
 11
180.6095472801
 21
1701.5691221544
 31
0.0
  0
LINE
  5
160
  8
1
  6
CONTINUOUS
 62
     7
 10
183.1101820026
 20
1657.0699189231
 30
0.0
 11
185.6095472801
 21
1701.5691221544
 31
0.0
  0
LINE
  5
161
  8
1
  6
CONTINUOUS
 62
     7
 10
175.8299159536
 20
1700.3195164284
 30
0.0
 11
175.6095472801
 21
1701.5691221544
 31
0.0
  0
ARC
  5
162
  8
1
  6
CONTINUOUS
 62
     7
 10
206.7782225981
 20
1653.8195164284
 30
0.0
 40
2.0
 50
180.0
 51
270.0
  0
LINE
  5
163
  8
1
  6
CONTINUOUS
 62
     7
 10
178.1101820026
 20
1657.0699189231
 30
0.0
 11
176.3101820026
 21
1657.0699168594
 31
0.0
  0
LINE
  5
164
  8
1
  6
CONTINUOUS
 62
     7
 10
225.7782225981
 20
1681.2038364284
 30
0.0
 11
204.7782225981
 21
1681.2038364284
 31
0.0
  0
LINE
  5
165
  8
1
  6
CONTINUOUS
 62
     7
 10
176.089226995
 20
1658.3195164284
 30
0.0
 11
176.3101820026
 21
1657.0699168594
 31
0.0
  0
LINE
  5
166
  8
1
  6
CONTINUOUS
 62
     7
 10
168.1101820026
 20
1657.0699189231
 30
0.0
 11
170.6095472801
 21
1701.5691221544
 31
0.0
  0
LINE
  5
167
  8
1
  6
CONTINUOUS
 62
     7
 10
171.0892255364
 20
1658.3195164284
 30
0.0
 11
168.1803675427
 21
1658.3195164284
 31
0.0
  0
LINE
  5
168
  8
1
  6
CONTINUOUS
 62
     7
 10
229.7782225981
 20
1706.8195164284
 30
0.0
 11
206.7782225981
 21
1706.8195164284
 31
0.0
  0
LINE
  5
169
  8
1
  6
CONTINUOUS
 62
     7
 10
166.089226995
 20
1658.3195164284
 30
0.0
 11
166.3101820026
 21
1657.0699168594
 31
0.0
  0
LINE
  5
16A
  8
1
  6
CONTINUOUS
 62
     7
 10
264.7095462852
 20
1657.0695164284
 30
0.0
 11
264.7095462852
 21
1701.5695164284
 31
0.0
  0
LINE
  5
16B
  8
1
  6
CONTINUOUS
 62
     7
 10
173.8095472801
 20
1701.5691242181
 30
0.0
 11
175.6095472801
 21
1701.5691221544
 31
0.0
  0
LINE
  5
16C
  8
1
  6
CONTINUOUS
 62
     7
 10
171.089226995
 20
1658.3195164284
 30
0.0
 11
171.3101820026
 21
1657.0699168594
 31
0.0
  0
LINE
  5
16D
  8
1
  6
CONTINUOUS
 62
     7
 10
185.8299159536
 20
1700.3195164284
 30
0.0
 11
185.6095472801
 21
1701.5691221544
 31
0.0
  0
LINE
  5
16E
  8
1
  6
CONTINUOUS
 62
     7
 10
225.7782225981
 20
1654.3804164284
 30
0.0
 11
205.2782225981
 21
1654.3804164284
 31
0.0
  0
LINE
  5
16F
  8
1
  6
CONTINUOUS
 62
     7
 10
143.1101820026
 20
1657.0699189231
 30
0.0
 11
145.6095472801
 21
1701.5691221544
 31
0.0
  0
LINE
  5
170
  8
1
  6
CONTINUOUS
 62
     7
 10
163.8095472801
 20
1701.5691242181
 30
0.0
 11
165.6095472801
 21
1701.5691221544
 31
0.0
  0
LINE
  5
171
  8
1
  6
CONTINUOUS
 62
     7
 10
153.1101820026
 20
1657.0699189231
 30
0.0
 11
151.3101820026
 21
1657.0699168594
 31
0.0
  0
LINE
  5
172
  8
1
  6
CONTINUOUS
 62
     7
 10
151.089226995
 20
1658.3195164284
 30
0.0
 11
151.3101820026
 21
1657.0699168594
 31
0.0
  0
LINE
  5
173
  8
1
  6
CONTINUOUS
 62
     7
 10
146.089226995
 20
1658.3195164284
 30
0.0
 11
146.3101820026
 21
1657.0699168594
 31
0.0
  0
LINE
  5
174
  8
1
  6
CONTINUOUS
 62
     7
 10
166.0892255364
 20
1658.3195164284
 30
0.0
 11
163.1803675427
 21
1658.3195164284
 31
0.0
  0
LINE
  5
175
  8
1
  6
CONTINUOUS
 62
     7
 10
163.1101820026
 20
1657.0699189231
 30
0.0
 11
165.6095472801
 21
1701.5691221544
 31
0.0
  0
LINE
  5
176
  8
1
  6
CONTINUOUS
 62
     7
 10
148.1101820026
 20
1657.0699189231
 30
0.0
 11
146.3101820026
 21
1657.0699168594
 31
0.0
  0
LINE
  5
177
  8
1
  6
CONTINUOUS
 62
     7
 10
145.8299159536
 20
1700.3195164284
 30
0.0
 11
145.6095472801
 21
1701.5691221544
 31
0.0
  0
LINE
  5
178
  8
1
  6
CONTINUOUS
 62
     7
 10
153.1101820026
 20
1657.0699189231
 30
0.0
 11
155.6095472801
 21
1701.5691221544
 31
0.0
  0
LINE
  5
179
  8
1
  6
CONTINUOUS
 62
     7
 10
59.87621295040001
 20
1655.736183095
 30
0.0
 11
60.6539907282
 21
1655.736183095
 31
0.0
  0
LINE
  5
17A
  8
1
  6
CONTINUOUS
 62
     7
 10
58.3206573951
 20
1700.9584053226
 30
0.0
 11
58.3206573951
 21
1698.8411884611
 31
0.0
  0
LINE
  5
17B
  8
1
  6
CONTINUOUS
 62
     7
 10
58.32065741520001
 20
1654.9584053228
 30
0.0
 11
58.32065741520001
 21
1652.8411884611
 31
0.0
  0
LINE
  5
17C
  8
1
  6
CONTINUOUS
 62
     7
 10
59.098435193
 20
1700.9584053118
 30
0.0
 11
59.098435193
 21
1698.8411884656
 31
0.0
  0
LINE
  5
17D
  8
1
  6
CONTINUOUS
 62
     7
 10
139.7095462852
 20
1701.5691211995
 30
0.0
 11
139.7095462852
 21
1682.7252816155
 31
0.0
  0
LINE
  5
17E
  8
1
  6
CONTINUOUS
 62
     7
 10
148.1101820026
 20
1657.0699189231
 30
0.0
 11
150.6095472801
 21
1701.5691221544
 31
0.0
  0
LINE
  5
17F
  8
1
  6
CONTINUOUS
 62
     7
 10
158.1101820026
 20
1657.0699189231
 30
0.0
 11
160.6095472801
 21
1701.5691221544
 31
0.0
  0
LINE
  5
180
  8
1
  6
CONTINUOUS
 62
     7
 10
59.09843517260001
 20
1703.6806275449
 30
0.0
 11
59.09843517260001
 21
1705.7978443911
 31
0.0
  0
LINE
  5
181
  8
1
  6
CONTINUOUS
 62
     7
 10
158.8095472801
 20
1701.5691242181
 30
0.0
 11
160.6095472801
 21
1701.5691221544
 31
0.0
  0
ARC
  5
182
  8
1
  6
CONTINUOUS
 62
     7
 10
59.8762129708
 20
1700.9584053173
 30
0.0
 40
0.7777777777999983
 50
90.0
 51
180.0
  0
LINE
  5
183
  8
1
  6
CONTINUOUS
 62
     7
 10
145.8299159536
 20
1700.3195164284
 30
0.0
 11
148.7393611694
 21
1700.3195164284
 31
0.0
  0
LINE
  5
184
  8
1
  6
CONTINUOUS
 62
     7
 10
141.089226995
 20
1658.3195164284
 30
0.0
 11
141.3101820026
 21
1657.0699168594
 31
0.0
  0
LINE
  5
185
  8
1
  6
CONTINUOUS
 62
     7
 10
158.8095472801
 20
1701.5691242181
 30
0.0
 11
156.3101820251
 21
1657.0699168594
 31
0.0
  0
LINE
  5
186
  8
1
  6
CONTINUOUS
 62
     7
 10
59.098435193
 20
1657.6806275449
 30
0.0
 11
59.098435193
 21
1659.7978443911
 31
0.0
  0
LINE
  5
187
  8
1
  6
CONTINUOUS
 62
     7
 10
156.0892255364
 20
1658.3195164284
 30
0.0
 11
153.1803675427
 21
1658.3195164284
 31
0.0
  0
LINE
  5
188
  8
1
  6
CONTINUOUS
 62
     7
 10
99.2095462852
 20
1704.1195164284
 30
0.0
 11
97.20954628520002
 21
1706.8195164284
 31
0.0
  0
LINE
  5
189
  8
1
  6
CONTINUOUS
 62
     7
 10
97.2095462852
 20
1651.8195164284
 30
0.0
 11
99.20954628519999
 21
1654.5195164284
 31
0.0
  0
LINE
  5
18A
  8
1
  6
CONTINUOUS
 62
     7
 10
163.8095472801
 20
1701.5691242181
 30
0.0
 11
161.3101820251
 21
1657.0699168594
 31
0.0
  0
LINE
  5
18B
  8
1
  6
CONTINUOUS
 62
     7
 10
163.1101820026
 20
1657.0699189231
 30
0.0
 11
161.3101820026
 21
1657.0699168594
 31
0.0
  0
LINE
  5
18C
  8
1
  6
CONTINUOUS
 62
     7
 10
155.8299159536
 20
1700.3195164284
 30
0.0
 11
158.7393611694
 21
1700.3195164284
 31
0.0
  0
LINE
  5
18D
  8
1
  6
CONTINUOUS
 62
     7
 10
153.8095472801
 20
1701.5691242181
 30
0.0
 11
151.3101820251
 21
1657.0699168594
 31
0.0
  0
LINE
  5
18E
  8
1
  6
CONTINUOUS
 62
     7
 10
150.8299159536
 20
1700.3195164284
 30
0.0
 11
150.6095472801
 21
1701.5691221544
 31
0.0
  0
LINE
  5
18F
  8
1
  6
CONTINUOUS
 62
     7
 10
161.089226995
 20
1658.3195164284
 30
0.0
 11
161.3101820026
 21
1657.0699168594
 31
0.0
  0
LINE
  5
190
  8
1
  6
CONTINUOUS
 62
     7
 10
156.089226995
 20
1658.3195164284
 30
0.0
 11
156.3101820026
 21
1657.0699168594
 31
0.0
  0
LINE
  5
191
  8
1
  6
CONTINUOUS
 62
     7
 10
153.8095472801
 20
1701.5691242181
 30
0.0
 11
155.6095472801
 21
1701.5691221544
 31
0.0
  0
LINE
  5
192
  8
1
  6
CONTINUOUS
 62
     7
 10
160.8299159536
 20
1700.3195164284
 30
0.0
 11
163.7393611694
 21
1700.3195164284
 31
0.0
  0
LINE
  5
193
  8
1
  6
CONTINUOUS
 62
     7
 10
143.8095472801
 20
1701.5691242181
 30
0.0
 11
145.6095472801
 21
1701.5691221544
 31
0.0
  0
LINE
  5
194
  8
1
  6
CONTINUOUS
 62
     7
 10
148.8095472801
 20
1701.5691242181
 30
0.0
 11
146.3101820251
 21
1657.0699168594
 31
0.0
  0
LINE
  5
195
  8
1
  6
CONTINUOUS
 62
     7
 10
158.1101820026
 20
1657.0699189231
 30
0.0
 11
156.3101820026
 21
1657.0699168594
 31
0.0
  0
LINE
  5
196
  8
1
  6
CONTINUOUS
 62
     7
 10
161.0892255364
 20
1658.3195164284
 30
0.0
 11
158.1803675427
 21
1658.3195164284
 31
0.0
  0
LINE
  5
197
  8
1
  6
CONTINUOUS
 62
     7
 10
155.8299159536
 20
1700.3195164284
 30
0.0
 11
155.6095472801
 21
1701.5691221544
 31
0.0
  0
LINE
  5
198
  8
1
  6
CONTINUOUS
 62
     7
 10
146.0892255364
 20
1658.3195164284
 30
0.0
 11
143.1803675427
 21
1658.3195164284
 31
0.0
  0
LINE
  5
199
  8
1
  6
CONTINUOUS
 62
     7
 10
148.8095472801
 20
1701.5691242181
 30
0.0
 11
150.6095472801
 21
1701.5691221544
 31
0.0
  0
LINE
  5
19A
  8
1
  6
CONTINUOUS
 62
     7
 10
165.8299159536
 20
1700.3195164284
 30
0.0
 11
165.6095472801
 21
1701.5691221544
 31
0.0
  0
LINE
  5
19B
  8
1
  6
CONTINUOUS
 62
     7
 10
143.1101820026
 20
1657.0699189231
 30
0.0
 11
141.3101820026
 21
1657.0699168594
 31
0.0
  0
LINE
  5
19C
  8
1
  6
CONTINUOUS
 62
     7
 10
160.8299159536
 20
1700.3195164284
 30
0.0
 11
160.6095472801
 21
1701.5691221544
 31
0.0
  0
LINE
  5
19D
  8
1
  6
CONTINUOUS
 62
     7
 10
140.8299364566
 20
1700.3195164284
 30
0.0
 11
143.7393611694
 21
1700.3195164284
 31
0.0
  0
LINE
  5
19E
  8
1
  6
CONTINUOUS
 62
     7
 10
151.0892255364
 20
1658.3195164284
 30
0.0
 11
148.1803675427
 21
1658.3195164284
 31
0.0
  0
LINE
  5
19F
  8
1
  6
CONTINUOUS
 62
     7
 10
59.8762129708
 20
1701.736183095
 30
0.0
 11
60.65399072850001
 21
1701.736183095
 31
0.0
  0
LINE
  5
1A0
  8
1
  6
CONTINUOUS
 62
     7
 10
143.8095472801
 20
1701.5691242181
 30
0.0
 11
141.3101820251
 21
1657.0699168594
 31
0.0
  0
LINE
  5
1A1
  8
1
  6
CONTINUOUS
 62
     7
 10
150.8299159536
 20
1700.3195164284
 30
0.0
 11
153.7393611694
 21
1700.3195164284
 31
0.0
  0
ARC
  5
1A2
  8
1
  6
CONTINUOUS
 62
     7
 10
59.8762129708
 20
1657.6806275395
 30
0.0
 40
0.7777777777999983
 50
180.0
 51
270.0
  0
LINE
  5
1A3
  8
1
  6
CONTINUOUS
 62
     7
 10
140.8299364566
 20
1700.3195164284
 30
0.0
 11
140.6095681335
 21
1701.5691201675
 31
0.0
  0
LINE
  5
1A4
  8
1
  6
CONTINUOUS
 62
     7
 10
58.3206573951
 20
1657.6806275341
 30
0.0
 11
58.3206573951
 21
1659.7978443956
 31
0.0
  0
ARC
  5
1A5
  8
1
  6
CONTINUOUS
 62
     7
 10
57.5428796174
 20
1657.6806275395
 30
0.0
 40
0.7777777777999983
 50
270.0
 51
0.0
  0
ARC
  5
1A6
  8
1
  6
CONTINUOUS
 62
     7
 10
59.87621295040001
 20
1703.6806275395
 30
0.0
 40
0.7777777777999983
 50
179.9999995971
 51
270.0
  0
ARC
  5
1A7
  8
1
  6
CONTINUOUS
 62
     7
 10
57.5428796174
 20
1700.9584053173
 30
0.0
 40
0.7777777777999983
 50
0.0000003981
 51
90.0
  0
LINE
  5
1A8
  8
1
  6
CONTINUOUS
 62
     7
 10
56.76510183930001
 20
1655.736183095
 30
0.0
 11
56.76510183960001
 21
1656.9028497617
 31
0.0
  0
LINE
  5
1A9
  8
1
  6
CONTINUOUS
 62
     7
 10
59.8762129708
 20
1656.9028497617
 30
0.0
 11
60.65399072850001
 21
1656.9028497617
 31
0.0
  0
ARC
  5
1AA
  8
1
  6
CONTINUOUS
 62
     7
 10
59.87621295040001
 20
1654.9584053173
 30
0.0
 40
0.7777777777999983
 50
90.0
 51
180.0000004029
  0
LINE
  5
1AB
  8
1
  6
CONTINUOUS
 62
     7
 10
57.5428796174
 20
1701.736183095
 30
0.0
 11
56.76510183960001
 21
1701.736183095
 31
0.0
  0
LINE
  5
1AC
  8
1
  6
CONTINUOUS
 62
     7
 10
57.5428796174
 20
1656.9028497617
 30
0.0
 11
56.76510183960001
 21
1656.9028497617
 31
0.0
  0
CIRCLE
  5
1AD
  8
1
  6
CONTINUOUS
 62
     7
 10
58.7095462839
 20
1656.3195164284
 30
0.0
 40
3.500000000000003
  0
LINE
  5
1AE
  8
1
  6
CONTINUOUS
 62
     7
 10
60.65399072850001
 20
1656.9028497617
 30
0.0
 11
60.6539907282
 21
1655.736183095
 31
0.0
  0
LINE
  5
1AF
  8
1
  6
CONTINUOUS
 62
     7
 10
59.09843517260001
 20
1654.9584053118
 30
0.0
 11
59.09843517260001
 21
1652.8411884656
 31
0.0
  0
ARC
  5
1B0
  8
1
  6
CONTINUOUS
 62
     7
 10
57.54287963740001
 20
1654.9584053173
 30
0.0
 40
0.7777777777999983
 50
0.0000004029
 51
90.0
  0
LINE
  5
1B1
  8
1
  6
CONTINUOUS
 62
     7
 10
139.7095462852
 20
1685.5449497508
 30
0.0
 11
140.6095681335
 21
1701.5691201675
 31
0.0
  0
LINE
  5
1B2
  8
1
  6
CONTINUOUS
 62
     7
 10
99.2095462852
 20
1704.1195164284
 30
0.0
 11
99.2095462852
 21
1654.5195164284
 31
0.0
  0
LINE
  5
1B3
  8
1
  6
CONTINUOUS
 62
     7
 10
139.7095462884
 20
1701.5691211994
 30
0.0
 11
140.6095681335
 21
1701.5691201675
 31
0.0
  0
LINE
  5
1B4
  8
1
  6
CONTINUOUS
 62
     7
 10
57.54287963740001
 20
1655.736183095
 30
0.0
 11
56.76510183930001
 21
1655.736183095
 31
0.0
  0
LINE
  5
1B5
  8
1
  6
CENTER
 62
     5
 10
320.2017493847
 20
1679.3195164284
 30
0.0
 11
39.99999999999998
 21
1679.3195164284
 31
0.0
  0
LINE
  5
1B6
  8
1
  6
CONTINUOUS
 62
     7
 10
97.2095462852
 20
1706.8195164284
 30
0.0
 11
97.2095462852
 21
1651.8195164284
 31
0.0
  0
LINE
  5
1B7
  8
1
  6
CONTINUOUS
 62
     7
 10
57.54287963740001
 20
1702.9028497617
 30
0.0
 11
56.76510183930001
 21
1702.9028497617
 31
0.0
  0
LINE
  5
1B8
  8
1
  6
CONTINUOUS
 62
     7
 10
233.1101820026
 20
1657.0699189231
 30
0.0
 11
231.3101820026
 21
1657.0699168594
 31
0.0
  0
LINE
  5
1B9
  8
1
  6
CONTINUOUS
 62
     7
 10
97.2095462852
 20
1651.8195164284
 30
0.0
 11
50.7095462852
 21
1651.8195164284
 31
0.0
  0
LINE
  5
1BA
  8
1
  6
CONTINUOUS
 62
     7
 10
62.70954628520001
 20
1662.6369774284
 30
0.0
 11
54.70954628520001
 21
1662.6369774284
 31
0.0
  0
LINE
  5
1BB
  8
1
  6
CONTINUOUS
 62
     7
 10
54.70954628520001
 20
1703.2697634284
 30
0.0
 11
54.70954628520001
 21
1696.0020554284
 31
0.0
  0
LINE
  5
1BC
  8
1
  6
CONTINUOUS
 62
     7
 10
236.089226995
 20
1658.3195164284
 30
0.0
 11
236.3101820026
 21
1657.0699168594
 31
0.0
  0
LINE
  5
1BD
  8
1
  6
CONTINUOUS
 62
     7
 10
54.70954628520001
 20
1655.3692694284
 30
0.0
 11
54.70954628520001
 21
1662.6369774284
 31
0.0
  0
LINE
  5
1BE
  8
1
  6
CONTINUOUS
 62
     7
 10
243.1101820026
 20
1657.0699189231
 30
0.0
 11
245.6095472801
 21
1701.5691221544
 31
0.0
  0
LINE
  5
1BF
  8
1
  6
CONTINUOUS
 62
     7
 10
229.7782225981
 20
1701.5691231075
 30
0.0
 11
230.6095472801
 21
1701.5691221544
 31
0.0
  0
ARC
  5
1C0
  8
1
  6
CONTINUOUS
 62
     7
 10
57.70954628520001
 20
1655.3692694284
 30
0.0
 40
3.000000000000003
 50
180.0
 51
270.0
  0
ARC
  5
1C1
  8
1
  6
CONTINUOUS
 62
     7
 10
59.70954628520002
 20
1655.3692694284
 30
0.0
 40
3.000000000000003
 50
270.0
 51
0.0
  0
ARC
  5
1C2
  8
1
  6
CONTINUOUS
 62
     7
 10
57.70954628520001
 20
1703.2697634284
 30
0.0
 40
3.000000000000003
 50
90.0
 51
180.0
  0
LINE
  5
1C3
  8
1
  6
CONTINUOUS
 62
     7
 10
190.8299159536
 20
1700.3195164284
 30
0.0
 11
193.7393611694
 21
1700.3195164284
 31
0.0
  0
ARC
  5
1C4
  8
1
  6
CONTINUOUS
 62
     7
 10
57.54287963740001
 20
1703.6806275395
 30
0.0
 40
0.7777777777999983
 50
270.0
 51
0.0
  0
LINE
  5
1C5
  8
1
  6
CONTINUOUS
 62
     7
 10
190.8299159536
 20
1700.3195164284
 30
0.0
 11
190.6095472801
 21
1701.5691221544
 31
0.0
  0
LINE
  5
1C6
  8
1
  6
CONTINUOUS
 62
     7
 10
198.8095472801
 20
1701.5691242181
 30
0.0
 11
196.3101820251
 21
1657.0699168594
 31
0.0
  0
LINE
  5
1C7
  8
1
  6
CONTINUOUS
 62
     7
 10
238.1101820026
 20
1657.0699189231
 30
0.0
 11
240.6095472801
 21
1701.5691221544
 31
0.0
  0
LINE
  5
1C8
  8
1
  6
CONTINUOUS
 62
     7
 10
185.8299159536
 20
1700.3195164284
 30
0.0
 11
188.7393611694
 21
1700.3195164284
 31
0.0
  0
LINE
  5
1C9
  8
1
  6
CONTINUOUS
 62
     7
 10
243.8095472801
 20
1701.5691242181
 30
0.0
 11
245.6095472801
 21
1701.5691221544
 31
0.0
  0
LINE
  5
1CA
  8
1
  6
CONTINUOUS
 62
     7
 10
198.8095472801
 20
1701.5691242181
 30
0.0
 11
200.6095472801
 21
1701.5691221544
 31
0.0
  0
LINE
  5
1CB
  8
1
  6
CONTINUOUS
 62
     7
 10
243.1101820026
 20
1657.0699189231
 30
0.0
 11
241.3101820026
 21
1657.0699168594
 31
0.0
  0
LINE
  5
1CC
  8
1
  6
CONTINUOUS
 62
     7
 10
246.0892255364
 20
1658.3195164284
 30
0.0
 11
243.1803675427
 21
1658.3195164284
 31
0.0
  0
LINE
  5
1CD
  8
1
  6
CONTINUOUS
 62
     7
 10
238.8095472801
 20
1701.5691242181
 30
0.0
 11
236.3101820251
 21
1657.0699168594
 31
0.0
  0
LINE
  5
1CE
  8
1
  6
CONTINUOUS
 62
     7
 10
57.70954628520001
 20
1706.2697634284
 30
0.0
 11
59.70954628520002
 21
1706.2697634284
 31
0.0
  0
LINE
  5
1CF
  8
1
  6
CONTINUOUS
 62
     7
 10
233.8095472801
 20
1701.5691242181
 30
0.0
 11
235.6095472801
 21
1701.5691221544
 31
0.0
  0
LINE
  5
1D0
  8
1
  6
CONTINUOUS
 62
     7
 10
240.8299159536
 20
1700.3195164284
 30
0.0
 11
243.7393611694
 21
1700.3195164284
 31
0.0
  0
LINE
  5
1D1
  8
1
  6
CONTINUOUS
 62
     7
 10
50.70954628520001
 20
1651.8195164284
 30
0.0
 11
50.70954628520001
 21
1706.8195164284
 31
0.0
  0
LINE
  5
1D2
  8
1
  6
CONTINUOUS
 62
     7
 10
193.1101820026
 20
1657.0699189231
 30
0.0
 11
195.6095472801
 21
1701.5691221544
 31
0.0
  0
LINE
  5
1D3
  8
1
  6
CONTINUOUS
 62
     7
 10
241.089226995
 20
1658.3195164284
 30
0.0
 11
241.3101820026
 21
1657.0699168594
 31
0.0
  0
LINE
  5
1D4
  8
1
  6
CONTINUOUS
 62
     7
 10
200.8299159536
 20
1700.3195164284
 30
0.0
 11
203.7393611694
 21
1700.3195164284
 31
0.0
  0
LINE
  5
1D5
  8
1
  6
CONTINUOUS
 62
     7
 10
188.1101820026
 20
1657.0699189231
 30
0.0
 11
186.3101820026
 21
1657.0699168594
 31
0.0
  0
LINE
  5
1D6
  8
1
  6
CONTINUOUS
 62
     7
 10
196.089226995
 20
1658.3195164284
 30
0.0
 11
196.3101820026
 21
1657.0699168594
 31
0.0
  0
LINE
  5
1D7
  8
1
  6
CONTINUOUS
 62
     7
 10
181.089226995
 20
1658.3195164284
 30
0.0
 11
181.3101820026
 21
1657.0699168594
 31
0.0
  0
LINE
  5
1D8
  8
1
  6
CONTINUOUS
 62
     7
 10
245.8299159536
 20
1700.3195164284
 30
0.0
 11
245.6095472801
 21
1701.5691221544
 31
0.0
  0
LINE
  5
1D9
  8
1
  6
CONTINUOUS
 62
     7
 10
203.8095472801
 20
1701.5691242181
 30
0.0
 11
201.3101820251
 21
1657.0699168594
 31
0.0
  0
LINE
  5
1DA
  8
1
  6
CONTINUOUS
 62
     7
 10
191.0892255364
 20
1658.3195164284
 30
0.0
 11
188.1803675427
 21
1658.3195164284
 31
0.0
  0
LINE
  5
1DB
  8
1
  6
CONTINUOUS
 62
     7
 10
188.8095472801
 20
1701.5691242181
 30
0.0
 11
190.6095472801
 21
1701.5691221544
 31
0.0
  0
LINE
  5
1DC
  8
1
  6
CONTINUOUS
 62
     7
 10
198.1101820026
 20
1657.0699189231
 30
0.0
 11
196.3101820026
 21
1657.0699168594
 31
0.0
  0
LINE
  5
1DD
  8
1
  6
CONTINUOUS
 62
     7
 10
60.65399072850001
 20
1701.736183095
 30
0.0
 11
60.6539907282
 21
1702.9028497617
 31
0.0
  0
ARC
  5
1DE
  8
1
  6
CONTINUOUS
 62
     7
 10
59.70954628520002
 20
1703.2697634284
 30
0.0
 40
3.000000000000003
 50
0.0
 51
90.0
  0
LINE
  5
1DF
  8
1
  6
CONTINUOUS
 62
     7
 10
58.32065741520001
 20
1703.680627534
 30
0.0
 11
58.32065741520001
 21
1705.7978443956
 31
0.0
  0
CIRCLE
  5
1E0
  8
1
  6
CONTINUOUS
 62
     7
 10
58.7095462839
 20
1702.3195164284
 30
0.0
 40
3.500000000000003
  0
LINE
  5
1E1
  8
1
  6
CONTINUOUS
 62
     7
 10
97.2095462852
 20
1706.8195164284
 30
0.0
 11
50.7095462852
 21
1706.8195164284
 31
0.0
  0
LINE
  5
1E2
  8
1
  6
CONTINUOUS
 62
     7
 10
201.089226995
 20
1658.3195164284
 30
0.0
 11
201.3101820026
 21
1657.0699168594
 31
0.0
  0
LINE
  5
1E3
  8
1
  6
CONTINUOUS
 62
     7
 10
238.8095472801
 20
1701.5691242181
 30
0.0
 11
240.6095472801
 21
1701.5691221544
 31
0.0
  0
LINE
  5
1E4
  8
1
  6
CONTINUOUS
 62
     7
 10
243.8095472801
 20
1701.5691242181
 30
0.0
 11
241.3101820251
 21
1657.0699168594
 31
0.0
  0
LINE
  5
1E5
  8
1
  6
CONTINUOUS
 62
     7
 10
195.8299159536
 20
1700.3195164284
 30
0.0
 11
198.7393611694
 21
1700.3195164284
 31
0.0
  0
LINE
  5
1E6
  8
1
  6
CONTINUOUS
 62
     7
 10
62.70954628520001
 20
1655.3692694284
 30
0.0
 11
62.70954628520001
 21
1662.6369774284
 31
0.0
  0
LINE
  5
1E7
  8
1
  6
CONTINUOUS
 62
     7
 10
188.8095472801
 20
1701.5691242181
 30
0.0
 11
186.3101820251
 21
1657.0699168594
 31
0.0
  0
LINE
  5
1E8
  8
1
  6
CONTINUOUS
 62
     7
 10
62.70954628520001
 20
1696.0020554284
 30
0.0
 11
54.70954628520001
 21
1696.0020554284
 31
0.0
  0
LINE
  5
1E9
  8
1
  6
CONTINUOUS
 62
     7
 10
201.0892255364
 20
1658.3195164284
 30
0.0
 11
198.1803675427
 21
1658.3195164284
 31
0.0
  0
LINE
  5
1EA
  8
1
  6
CONTINUOUS
 62
     7
 10
256.089226995
 20
1658.3195164284
 30
0.0
 11
256.3101820026
 21
1657.0699168594
 31
0.0
  0
LINE
  5
1EB
  8
1
  6
CONTINUOUS
 62
     7
 10
59.87621295040001
 20
1702.9028497617
 30
0.0
 11
60.6539907282
 21
1702.9028497617
 31
0.0
  0
LINE
  5
1EC
  8
1
  6
CONTINUOUS
 62
     7
 10
56.76510183930001
 20
1702.9028497617
 30
0.0
 11
56.76510183960001
 21
1701.736183095
 31
0.0
  0
LINE
  5
1ED
  8
1
  6
CONTINUOUS
 62
     7
 10
138.7095462852
 20
1704.1195164284
 30
0.0
 11
138.7095462852
 21
1654.5195164284
 31
0.0
  0
LINE
  5
1EE
  8
1
  6
CONTINUOUS
 62
     7
 10
62.70954628520001
 20
1703.2697634284
 30
0.0
 11
62.70954628520001
 21
1696.0020554284
 31
0.0
  0
LINE
  5
1EF
  8
1
  6
CONTINUOUS
 62
     7
 10
233.1101820026
 20
1657.0699189231
 30
0.0
 11
235.6095472801
 21
1701.5691221544
 31
0.0
  0
LINE
  5
1F0
  8
1
  6
CONTINUOUS
 62
     7
 10
203.1101820026
 20
1657.0699189231
 30
0.0
 11
201.3101820026
 21
1657.0699168594
 31
0.0
  0
LINE
  5
1F1
  8
1
  6
CONTINUOUS
 62
     7
 10
241.0892255364
 20
1658.3195164284
 30
0.0
 11
238.1803675427
 21
1658.3195164284
 31
0.0
  0
LINE
  5
1F2
  8
1
  6
CONTINUOUS
 62
     7
 10
57.70954628520001
 20
1652.3692694284
 30
0.0
 11
59.70954628520002
 21
1652.3692694284
 31
0.0
  0
LINE
  5
1F3
  8
1
  6
CONTINUOUS
 62
     7
 10
256.0892255364
 20
1658.3195164284
 30
0.0
 11
253.1803675427
 21
1658.3195164284
 31
0.0
  0
LINE
  5
1F4
  8
1
  6
CONTINUOUS
 62
     7
 10
186.089226995
 20
1658.3195164284
 30
0.0
 11
186.3101820026
 21
1657.0699168594
 31
0.0
  0
LINE
  5
1F5
  8
1
  6
CONTINUOUS
 62
     7
 10
235.8299159536
 20
1700.3195164284
 30
0.0
 11
238.7393611694
 21
1700.3195164284
 31
0.0
  0
LINE
  5
1F6
  8
1
  6
CONTINUOUS
 62
     7
 10
281.7095462852
 20
1700.5695164284
 30
0.0
 11
285.7095462852
 21
1700.5695164284
 31
0.0
  0
LINE
  5
1F7
  8
1
  6
CONTINUOUS
 62
     7
 10
265.2095462852
 20
1699.8195164284
 30
0.0
 11
267.7095462852
 21
1699.8195164284
 31
0.0
  0
LINE
  5
1F8
  8
1
  6
CONTINUOUS
 62
     7
 10
271.7095462852
 20
1658.0695164284
 30
0.0
 11
271.7095462852
 21
1700.5695164284
 31
0.0
  0
LINE
  5
1F9
  8
1
  6
CONTINUOUS
 62
     7
 10
253.8095472801
 20
1701.5691242181
 30
0.0
 11
251.3101820251
 21
1657.0699168594
 31
0.0
  0
LINE
  5
1FA
  8
1
  6
CONTINUOUS
 62
     7
 10
267.7095462852
 20
1700.5695164284
 30
0.0
 11
271.7095462852
 21
1700.5695164284
 31
0.0
  0
LINE
  5
1FB
  8
1
  6
CONTINUOUS
 62
     7
 10
290.7203957759
 20
1658.8195164284
 30
0.0
 11
285.7095462851
 21
1658.8195164284
 31
0.0
  0
ARC
  5
1FC
  8
1
  6
CONTINUOUS
 62
     7
 10
387.3961234417
 20
1657.9620384719
 30
0.0
 40
1.0
 50
119.3392530743
 51
207.0
  0
LINE
  5
1FD
  8
1
  6
CONTINUOUS
 62
     7
 10
248.8095472801
 20
1701.5691242181
 30
0.0
 11
246.3101820251
 21
1657.0699168594
 31
0.0
  0
LINE
  5
1FE
  8
1
  6
CONTINUOUS
 62
     7
 10
250.8299159536
 20
1700.3195164284
 30
0.0
 11
250.6095472801
 21
1701.5691221544
 31
0.0
  0
ARC
  5
1FF
  8
1
  6
CONTINUOUS
 62
     7
 10
354.0341406917
 20
1667.3150116349
 30
0.0
 40
1.0
 50
29.3392530742
 51
117.0
  0
LINE
  5
200
  8
1
  6
CONTINUOUS
 62
     7
 10
204.2095462852
 20
1658.3195164283
 30
0.0
 11
203.1803675427
 21
1658.3195164284
 31
0.0
  0
LINE
  5
201
  8
1
  6
CONTINUOUS
 62
     7
 10
235.8299159536
 20
1700.3195164284
 30
0.0
 11
235.6095472801
 21
1701.5691221544
 31
0.0
  0
LINE
  5
202
  8
1
  6
CONTINUOUS
 62
     7
 10
306.7095462852
 20
1646.8195164284
 30
0.0
 11
299.7095462852
 21
1646.8195164284
 31
0.0
  0
LINE
  5
203
  8
1
  6
CONTINUOUS
 62
     7
 10
198.1101820026
 20
1657.0699189231
 30
0.0
 11
200.6095472801
 21
1701.5691221544
 31
0.0
  0
LINE
  5
204
  8
1
  6
CONTINUOUS
 62
     7
 10
233.8095472801
 20
1701.5691242181
 30
0.0
 11
231.3101820251
 21
1657.0699168594
 31
0.0
  0
LINE
  5
205
  8
1
  6
CONTINUOUS
 62
     7
 10
299.7095462852
 20
1646.8195164284
 30
0.0
 11
299.7095462852
 21
1711.80412817
 31
0.0
  0
LINE
  5
206
  8
1
  6
CONTINUOUS
 62
     7
 10
258.1101820026
 20
1657.0699189231
 30
0.0
 11
256.3101820026
 21
1657.0699168594
 31
0.0
  0
LINE
  5
207
  8
1
  6
CONTINUOUS
 62
     7
 10
193.8095472801
 20
1701.5691242181
 30
0.0
 11
191.3101820251
 21
1657.0699168594
 31
0.0
  0
LINE
  5
208
  8
1
  6
CONTINUOUS
 62
     7
 10
231.0892255364
 20
1658.3195164284
 30
0.0
 11
229.7782225981
 21
1658.3195164283
 31
0.0
  0
LINE
  5
209
  8
1
  6
CONTINUOUS
 62
     7
 10
248.8095472801
 20
1701.5691242181
 30
0.0
 11
250.6095472801
 21
1701.5691221544
 31
0.0
  0
LINE
  5
20A
  8
1
  6
CONTINUOUS
 62
     7
 10
251.089226995
 20
1658.3195164284
 30
0.0
 11
251.3101820026
 21
1657.0699168594
 31
0.0
  0
LINE
  5
20B
  8
1
  6
CONTINUOUS
 62
     7
 10
248.1101820026
 20
1657.0699189231
 30
0.0
 11
246.3101820026
 21
1657.0699168594
 31
0.0
  0
LINE
  5
20C
  8
1
  6
CONTINUOUS
 62
     7
 10
253.1101820026
 20
1657.0699189231
 30
0.0
 11
255.6095472801
 21
1701.5691221544
 31
0.0
  0
ARC
  5
20D
  8
1
  6
CONTINUOUS
 62
     7
 10
390.3607470598
 20
1698.7147528177
 30
0.0
 40
1.0
 50
232.3392530742
 51
320.0
  0
LINE
  5
20E
  8
1
  6
CONTINUOUS
 62
     7
 10
193.8095472801
 20
1701.5691242181
 30
0.0
 11
195.6095472801
 21
1701.5691221544
 31
0.0
  0
LINE
  5
20F
  8
1
  6
CONTINUOUS
 62
     7
 10
240.8299159536
 20
1700.3195164284
 30
0.0
 11
240.6095472801
 21
1701.5691221544
 31
0.0
  0
ARC
  5
210
  8
1
  6
CONTINUOUS
 62
     7
 10
306.7095462852
 20
1647.8195164284
 30
0.0
 40
1.0
 50
270.0
 51
0.0
  0
LINE
  5
211
  8
1
  6
CONTINUOUS
 62
     7
 10
250.8299159536
 20
1700.3195164284
 30
0.0
 11
253.7393611694
 21
1700.3195164284
 31
0.0
  0
CIRCLE
  5
212
  8
1
  6
CONTINUOUS
 62
     7
 10
375.3916186482
 20
1679.3195164284
 30
0.0
 40
32.4846117416
  0
ARC
  5
213
  8
1
  6
CONTINUOUS
 62
     7
 10
306.7095462852
 20
1710.80412817
 30
0.0
 40
1.0
 50
0.0
 51
90.0
  0
LINE
  5
214
  8
1
  6
CONTINUOUS
 62
     7
 10
203.1101820026
 20
1657.0699189231
 30
0.0
 11
204.2095462852
 21
1676.6432222241
 31
0.0
  0
LINE
  5
215
  8
1
  6
CONTINUOUS
 62
     7
 10
258.8095472801
 20
1701.5691242181
 30
0.0
 11
260.6095472801
 21
1701.5691221544
 31
0.0
  0
LINE
  5
216
  8
1
  6
CONTINUOUS
 62
     7
 10
230.8299159536
 20
1700.3195164284
 30
0.0
 11
230.6095472801
 21
1701.5691221544
 31
0.0
  0
LINE
  5
217
  8
1
  6
CONTINUOUS
 62
     7
 10
230.8299159536
 20
1700.3195164284
 30
0.0
 11
233.7393611694
 21
1700.3195164284
 31
0.0
  0
LINE
  5
218
  8
1
  6
CONTINUOUS
 62
     7
 10
229.7782225981
 20
1686.7680499348
 30
0.0
 11
230.6095472801
 21
1701.5691221544
 31
0.0
  0
LINE
  5
219
  8
1
  6
CONTINUOUS
 62
     7
 10
258.8095472801
 20
1701.5691242181
 30
0.0
 11
256.3101820251
 21
1657.0699168594
 31
0.0
  0
LINE
  5
21A
  8
1
  6
CONTINUOUS
 62
     7
 10
246.089226995
 20
1658.3195164284
 30
0.0
 11
246.3101820026
 21
1657.0699168594
 31
0.0
  0
LINE
  5
21B
  8
1
  6
CONTINUOUS
 62
     7
 10
231.089226995
 20
1658.3195164284
 30
0.0
 11
231.3101820026
 21
1657.0699168594
 31
0.0
  0
LINE
  5
21C
  8
1
  6
CONTINUOUS
 62
     7
 10
255.8299159536
 20
1700.3195164284
 30
0.0
 11
258.7393611694
 21
1700.3195164284
 31
0.0
  0
LINE
  5
21D
  8
1
  6
CONTINUOUS
 62
     7
 10
196.0892255364
 20
1658.3195164284
 30
0.0
 11
193.1803675427
 21
1658.3195164284
 31
0.0
  0
LINE
  5
21E
  8
1
  6
CONTINUOUS
 62
     7
 10
188.1101820026
 20
1657.0699189231
 30
0.0
 11
190.6095472801
 21
1701.5691221544
 31
0.0
  0
LINE
  5
21F
  8
1
  6
CONTINUOUS
 62
     7
 10
195.8299159536
 20
1700.3195164284
 30
0.0
 11
195.6095472801
 21
1701.5691221544
 31
0.0
  0
LINE
  5
220
  8
1
  6
CONTINUOUS
 62
     7
 10
236.0892255364
 20
1658.3195164284
 30
0.0
 11
233.1803675427
 21
1658.3195164284
 31
0.0
  0
LINE
  5
221
  8
1
  6
CONTINUOUS
 62
     7
 10
191.089226995
 20
1658.3195164284
 30
0.0
 11
191.3101820026
 21
1657.0699168594
 31
0.0
  0
LINE
  5
222
  8
1
  6
CONTINUOUS
 62
     7
 10
238.1101820026
 20
1657.0699189231
 30
0.0
 11
236.3101820026
 21
1657.0699168594
 31
0.0
  0
LINE
  5
223
  8
1
  6
CONTINUOUS
 62
     7
 10
299.7095462852
 20
1646.8349046868
 30
0.0
 11
290.7203957759
 21
1644.3195164284
 31
0.0
  0
LINE
  5
224
  8
1
  6
CONTINUOUS
 62
     7
 10
248.1101820026
 20
1657.0699189231
 30
0.0
 11
250.6095472801
 21
1701.5691221544
 31
0.0
  0
LINE
  5
225
  8
1
  6
CONTINUOUS
 62
     7
 10
258.1101820026
 20
1657.0699189231
 30
0.0
 11
259.7095462852
 21
1685.5453230159
 31
0.0
  0
LINE
  5
226
  8
1
  6
CONTINUOUS
 62
     7
 10
253.8095472801
 20
1701.5691242181
 30
0.0
 11
255.6095472801
 21
1701.5691221544
 31
0.0
  0
LINE
  5
227
  8
1
  6
CONTINUOUS
 62
     7
 10
251.0892255364
 20
1658.3195164284
 30
0.0
 11
248.1803675427
 21
1658.3195164284
 31
0.0
  0
LINE
  5
228
  8
1
  6
CONTINUOUS
 62
     7
 10
290.7203957759
 20
1714.3195164284
 30
0.0
 11
290.7203957759
 21
1644.3195164284
 31
0.0
  0
LINE
  5
229
  8
1
  6
CONTINUOUS
 62
     7
 10
307.7095462852
 20
1647.8195164284
 30
0.0
 11
307.7095462852
 21
1710.80412817
 31
0.0
  0
LINE
  5
22A
  8
1
  6
CONTINUOUS
 62
     7
 10
306.7095462852
 20
1711.80412817
 30
0.0
 11
299.7095462852
 21
1711.80412817
 31
0.0
  0
LINE
  5
22B
  8
1
  6
CONTINUOUS
 62
     7
 10
193.1101820026
 20
1657.0699189231
 30
0.0
 11
191.3101820026
 21
1657.0699168594
 31
0.0
  0
LINE
  5
22C
  8
1
  6
CONTINUOUS
 62
     7
 10
253.1101820026
 20
1657.0699189231
 30
0.0
 11
251.3101820026
 21
1657.0699168594
 31
0.0
  0
LINE
  5
22D
  8
1
  6
CONTINUOUS
 62
     7
 10
245.8299159536
 20
1700.3195164284
 30
0.0
 11
248.7393611694
 21
1700.3195164284
 31
0.0
  0
LINE
  5
22E
  8
1
  6
CONTINUOUS
 62
     7
 10
271.7095462852
 20
1699.8195164284
 30
0.0
 11
274.7095462852
 21
1699.8195164284
 31
0.0
  0
LINE
  5
22F
  8
1
  6
CONTINUOUS
 62
     7
 10
363.0430770553
 20
1655.0841389705
 30
0.0
 11
364.2781203789
 21
1657.5080479721
 31
0.0
  0
LINE
  5
230
  8
1
  6
CONTINUOUS
 62
     7
 10
387.7401602411
 20
1655.0841389705
 30
0.0
 11
386.5051169175
 21
1657.5080479721
 31
0.0
  0
LINE
  5
231
  8
1
  6
CONTINUOUS
 62
     7
 10
255.8299159536
 20
1700.3195164284
 30
0.0
 11
255.6095472801
 21
1701.5691221544
 31
0.0
  0
LINE
  5
232
  8
1
  6
CONTINUOUS
 62
     7
 10
299.7095462852
 20
1711.80412817
 30
0.0
 11
290.7203957759
 21
1714.3195164284
 31
0.0
  0
ARC
  5
233
  8
1
  6
CONTINUOUS
 62
     7
 10
396.7490966047
 20
1691.3240212219
 30
0.0
 40
1.0
 50
209.3392530742
 51
297.0
  0
LINE
  5
234
  8
1
  6
CONTINUOUS
 62
     7
 10
274.7095462852
 20
1700.5695164284
 30
0.0
 11
278.7095462852
 21
1700.5695164284
 31
0.0
  0
LINE
  5
235
  8
1
  6
CONTINUOUS
 62
     7
 10
271.7095462852
 20
1658.0695164284
 30
0.0
 11
267.7095462852
 21
1658.0695164284
 31
0.0
  0
ARC
  5
236
  8
1
  6
CONTINUOUS
 62
     7
 10
375.3916186482
 20
1679.3195164284
 30
0.0
 40
23.5
 50
232.3392530742
 51
240.6607469258
  0
LINE
  5
237
  8
1
  6
CONTINUOUS
 62
     7
 10
356.6391698685
 20
1663.5843435737
 30
0.0
 11
354.5552097954
 21
1661.8356934449
 31
0.0
  0
LINE
  5
238
  8
1
  6
CONTINUOUS
 62
     7
 10
278.7095462852
 20
1658.0695164284
 30
0.0
 11
274.7095462852
 21
1658.0695164284
 31
0.0
  0
ARC
  5
239
  8
1
  6
CONTINUOUS
 62
     7
 10
375.3916186482
 20
1679.3195164284
 30
0.0
 40
23.5
 50
299.3392530742
 51
307.6607469258
  0
ARC
  5
23A
  8
1
  6
CONTINUOUS
 62
     7
 10
396.7490966047
 20
1667.3150116349
 30
0.0
 40
1.0
 50
62.99999999999999
 51
150.6607469258
  0
ARC
  5
23B
  8
1
  6
CONTINUOUS
 62
     7
 10
394.7868550375
 20
1694.28864484
 30
0.0
 40
1.0
 50
130.0
 51
217.6607469259
  0
LINE
  5
23C
  8
1
  6
CONTINUOUS
 62
     7
 10
285.7095462852
 20
1658.0695164284
 30
0.0
 11
285.7095462852
 21
1700.5695164284
 31
0.0
  0
LINE
  5
23D
  8
1
  6
CONTINUOUS
 62
     7
 10
394.1440674279
 20
1695.0546892831
 30
0.0
 11
396.228027501
 21
1696.8033394119
 31
0.0
  0
ARC
  5
23E
  8
1
  6
CONTINUOUS
 62
     7
 10
375.3916186482
 20
1679.3195164284
 30
0.0
 40
23.5
 50
52.3392530742
 51
60.66074692579998
  0
ARC
  5
23F
  8
1
  6
CONTINUOUS
 62
     7
 10
375.3916186482
 20
1679.3195164284
 30
0.0
 40
23.5
 50
209.3392530742
 51
217.6607469258001
  0
LINE
  5
240
  8
1
  6
CONTINUOUS
 62
     7
 10
285.7095462851
 20
1699.8195164284
 30
0.0
 11
290.7203957759
 21
1699.8195164284
 31
0.0
  0
ARC
  5
241
  8
1
  6
CONTINUOUS
 62
     7
 10
387.3961234417
 20
1700.6769943849
 30
0.0
 40
1.0
 50
153.0
 51
240.6607469257
  0
ARC
  5
242
  8
1
  6
CONTINUOUS
 62
     7
 10
363.3871138547
 20
1657.9620384719
 30
0.0
 40
1.0
 50
332.9999999999001
 51
60.66074692579998
  0
ARC
  5
243
  8
1
  6
CONTINUOUS
 62
     7
 10
375.3916186482
 20
1679.3195164284
 30
0.0
 40
23.5
 50
322.3392530742
 51
330.6607469258
  0
LINE
  5
244
  8
1
  6
CONTINUOUS
 62
     7
 10
278.7095462852
 20
1658.0695164284
 30
0.0
 11
278.7095462852
 21
1700.5695164284
 31
0.0
  0
ARC
  5
245
  8
1
  6
CONTINUOUS
 62
     7
 10
375.3916186482
 20
1679.3195164284
 30
0.0
 40
23.5
 50
29.3392530742
 51
37.6607469258
  0
LINE
  5
246
  8
1
  6
CONTINUOUS
 62
     7
 10
387.7401602411
 20
1703.5548938863
 30
0.0
 11
386.5051169175
 21
1701.1309848847
 31
0.0
  0
ARC
  5
247
  8
1
  6
CONTINUOUS
 62
     7
 10
355.9963822589
 20
1664.3503880168
 30
0.0
 40
1.0
 50
310.0
 51
37.66074692580003
  0
ARC
  5
248
  8
1
  6
CONTINUOUS
 62
     7
 10
390.3607470598
 20
1659.9242800391
 30
0.0
 40
1.0
 50
40.0
 51
127.6607469258
  0
LINE
  5
249
  8
1
  6
CONTINUOUS
 62
     7
 10
394.1440674279
 20
1663.5843435737
 30
0.0
 11
396.228027501
 21
1661.8356934449
 31
0.0
  0
ARC
  5
24A
  8
1
  6
CONTINUOUS
 62
     7
 10
394.7868550375
 20
1664.3503880168
 30
0.0
 40
1.0
 50
142.3392530742
 51
230.0
  0
LINE
  5
24B
  8
1
  6
CONTINUOUS
 62
     7
 10
274.7095462852
 20
1658.8195164284
 30
0.0
 11
271.7095462852
 21
1658.8195164284
 31
0.0
  0
LINE
  5
24C
  8
1
  6
CONTINUOUS
 62
     7
 10
285.7095462852
 20
1658.0695164284
 30
0.0
 11
281.7095462852
 21
1658.0695164284
 31
0.0
  0
LINE
  5
24D
  8
1
  6
CONTINUOUS
 62
     7
 10
351.1562411903
 20
1666.9709748355
 30
0.0
 11
353.5801501919
 21
1668.2060181591
 31
0.0
  0
TEXT
  5
24E
  8
1
  6
CONTINUOUS
 62
     7
 10
388.3358294966861
 20
1633.423220545454
 30
0.0
 40
6.0
  1
ＫＦＥＫＨ－３０Ｐ
 41
0.869752
  0
ENDSEC
  0
EOF
