  0
SECTION
  2
HEADER
  9
$ACADVER
  1
AC1006
  9
$DWGCODEPAGE
  3
ansi_932
  9
$INSBASE
 10
0.0
 20
0.0
 30
0.0
  9
$EXTMIN
 10
0.0
 20
0.0
  9
$EXTMAX
 10
6890.578557490909
 20
530.1827969029
  9
$LIMMIN
 10
0.0
 20
0.0
  9
$LIMMAX
 10
12.0
 20
9.0
  9
$ORTHOMODE
 70
     0
  9
$REGENMODE
 70
     1
  9
$FILLMODE
 70
     1
  9
$QTEXTMODE
 70
     0
  9
$MIRRTEXT
 70
     1
  9
$DRAGMODE
 70
     2
  9
$LTSCALE
 40
1.0
  9
$OSMODE
 70
    37
  9
$ATTMODE
 70
     1
  9
$TEXTSIZE
 40
0.2
  9
$TRACEWID
 40
0.05
  9
$TEXTSTYLE
  7
STANDARD
  9
$CLAYER
  8
0
  9
$CELTYPE
  6
BYLAYER
  9
$CECOLOR
 62
   256
  9
$DIMSCALE
 40
1.0
  9
$DIMASZ
 40
0.9
  9
$DIMEXO
 40
0.0625
  9
$DIMDLI
 40
0.38
  9
$DIMRND
 40
0.0
  9
$DIMDLE
 40
0.0
  9
$DIMEXE
 40
0.45
  9
$DIMTP
 40
0.0
  9
$DIMTM
 40
0.0
  9
$DIMTXT
 40
3.0
  9
$DIMCEN
 40
0.09
  9
$DIMTSZ
 40
0.0
  9
$DIMTOL
 70
     0
  9
$DIMLIM
 70
     0
  9
$DIMTIH
 70
     1
  9
$DIMTOH
 70
     1
  9
$DIMSE1
 70
     0
  9
$DIMSE2
 70
     0
  9
$DIMTAD
 70
     1
  9
$DIMZIN
 70
     0
  9
$DIMBLK
  1

  9
$DIMASO
 70
     1
  9
$DIMSHO
 70
     1
  9
$DIMPOST
  1

  9
$DIMAPOST
  1

  9
$DIMALT
 70
     0
  9
$DIMALTD
 70
     2
  9
$DIMALTF
 40
25.4
  9
$DIMLFAC
 40
1.0
  9
$DIMTOFL
 70
     0
  9
$DIMTVP
 40
0.0
  9
$DIMTIX
 70
     0
  9
$DIMSOXD
 70
     0
  9
$DIMSAH
 70
     0
  9
$DIMBLK1
  1

  9
$DIMBLK2
  1

  9
$LUNITS
 70
     2
  9
$LUPREC
 70
     4
  9
$SKETCHINC
 40
0.1
  9
$FILLETRAD
 40
0.5
  9
$AUNITS
 70
     0
  9
$AUPREC
 70
     0
  9
$MENU
  1
.
  9
$ELEVATION
 40
0.0
  9
$THICKNESS
 40
0.0
  9
$LIMCHECK
 70
     0
  9
$CHAMFERA
 40
0.0
  9
$CHAMFERB
 40
0.0
  9
$SKPOLY
 70
     0
  9
$TDCREATE
 40
2459964.541198796
  9
$TDUPDATE
 40
2459964.541199144
  9
$TDINDWG
 40
0.0000000116
  9
$TDUSRTIMER
 40
0.0000000116
  9
$USRTIMER
 70
     1
  9
$ANGBASE
 50
0.0
  9
$ANGDIR
 70
     0
  9
$PDMODE
 70
     0
  9
$PDSIZE
 40
0.0
  9
$PLINEWID
 40
0.0
  9
$COORDS
 70
     1
  9
$SPLFRAME
 70
     0
  9
$SPLINETYPE
 70
     6
  9
$SPLINESEGS
 70
     8
  9
$ATTDIA
 70
     0
  9
$ATTREQ
 70
     1
  9
$HANDLING
 70
     1
  9
$HANDSEED
  5
22C
  9
$SURFTAB1
 70
     6
  9
$SURFTAB2
 70
     6
  9
$SURFTYPE
 70
     6
  9
$SURFU
 70
     6
  9
$SURFV
 70
     6
  9
$UCSNAME
  2

  9
$UCSORG
 10
0.0
 20
0.0
 30
0.0
  9
$UCSXDIR
 10
1.0
 20
0.0
 30
0.0
  9
$UCSYDIR
 10
0.0
 20
1.0
 30
0.0
  9
$USERI1
 70
     0
  9
$USERI2
 70
     0
  9
$USERI3
 70
     0
  9
$USERI4
 70
     0
  9
$USERI5
 70
     0
  9
$USERR1
 40
0.0
  9
$USERR2
 40
0.0
  9
$USERR3
 40
0.0
  9
$USERR4
 40
0.0
  9
$USERR5
 40
0.0
  9
$WORLDVIEW
 70
     1
  0
ENDSEC
  0
SECTION
  2
TABLES
  0
TABLE
  2
VPORT
 70
     1
  0
VPORT
  2
*ACTIVE
 70
     0
 10
0.0
 20
0.0
 11
1.0
 21
1.0
 12
3445.289278745454
 22
265.09139845145
 13
0.0
 23
0.0
 14
0.5
 24
0.5
 15
0.5
 25
0.5
 16
0.0
 26
0.0
 36
1.0
 17
0.0
 27
0.0
 37
0.0
 40
530.1827969029
 41
1.6
 42
50.0
 43
0.0
 44
0.0
 50
0.0
 51
0.0
 71
     0
 72
   100
 73
     1
 74
     3
 75
     0
 76
     0
 77
     0
 78
     0
  0
ENDTAB
  0
TABLE
  2
LTYPE
 70
     2
  0
LTYPE
  2
CONTINUOUS
 70
     0
  3
Solid line
 72
    65
 73
     0
 40
0.0
  0
LTYPE
  2
CENTER
 70
     0
  3

 72
    65
 73
     0
 40
0.0
  0
ENDTAB
  0
TABLE
  2
LAYER
 70
     2
  0
LAYER
  2
0
 70
     0
 62
     7
  6
CONTINUOUS
  0
LAYER
  2
1
 70
     0
 62
     7
  6
CONTINUOUS
  0
ENDTAB
  0
TABLE
  2
STYLE
 70
     2
  0
STYLE
  2
STANDARD
 70
     0
 40
0.0
 41
1.0
 50
0.0
 71
     0
 42
0.2
  3
txt
  4

  0
STYLE
  2
ＭＳ_ゴシック
 70
     0
 40
0.0
 41
1.0
 50
0.0
 71
     0
 42
0.2
  3
ＭＳ ゴシック.shx
  4

  0
ENDTAB
  0
TABLE
  2
VIEW
 70
     0
  0
ENDTAB
  0
TABLE
  2
UCS
 70
     0
  0
ENDTAB
  0
ENDSEC
  0
SECTION
  2
BLOCKS
  0
BLOCK
  8
0
  2
D_FRAME_DRAWING_21
 70
     0
 10
0.0
 20
0.0
 30
0.0
  0
LINE
  5
141
  8
0
  6
CONTINUOUS
 62
     7
 10
0.0
 20
0.0
 30
0.0
 11
420.0
 21
0.0
 31
0.0
  0
LINE
  5
142
  8
0
  6
CONTINUOUS
 62
     7
 10
420.0
 20
0.0
 30
0.0
 11
420.0
 21
297.0
 31
0.0
  0
LINE
  5
143
  8
0
  6
CONTINUOUS
 62
     7
 10
420.0
 20
297.0
 30
0.0
 11
0.0
 21
297.0
 31
0.0
  0
LINE
  5
144
  8
0
  6
CONTINUOUS
 62
     7
 10
0.0
 20
297.0
 30
0.0
 11
0.0
 21
0.0
 31
0.0
  0
LINE
  5
145
  8
0
  6
CONTINUOUS
 62
     7
 10
10.0
 20
10.0
 30
0.0
 11
409.9999999999999
 21
10.0
 31
0.0
  0
LINE
  5
146
  8
0
  6
CONTINUOUS
 62
     7
 10
409.9999999999999
 20
10.0
 30
0.0
 11
409.9999999999999
 21
286.9999999999999
 31
0.0
  0
LINE
  5
147
  8
0
  6
CONTINUOUS
 62
     7
 10
409.9999999999999
 20
286.9999999999999
 30
0.0
 11
10.00000000000006
 21
286.9999999999999
 31
0.0
  0
LINE
  5
148
  8
0
  6
CONTINUOUS
 62
     7
 10
10.0
 20
286.9999999999999
 30
0.0
 11
10.0
 21
10.00000000000001
 31
0.0
  0
LINE
  5
149
  8
0
  6
CONTINUOUS
 62
     7
 10
210.0
 20
0.0
 30
0.0
 11
210.0
 21
10.0
 31
0.0
  0
LINE
  5
14A
  8
0
  6
CONTINUOUS
 62
     7
 10
420.0
 20
148.5
 30
0.0
 11
409.9999999999999
 21
148.5
 31
0.0
  0
LINE
  5
14B
  8
0
  6
CONTINUOUS
 62
     7
 10
210.0
 20
297.0
 30
0.0
 11
210.0
 21
286.9999999999999
 31
0.0
  0
LINE
  5
14C
  8
0
  6
CONTINUOUS
 62
     7
 10
0.0
 20
148.5
 30
0.0
 11
10.0
 21
148.5
 31
0.0
  0
POLYLINE
  5
14D
  8
0
  6
CONTINUOUS
 62
     7
 66
     1
 10
0.0
 20
0.0
 30
0.0
 70
     1
  0
VERTEX
  5
1FD
  8
0
  6
CONTINUOUS
 62
     7
 10
11.0
 20
152.5
 30
0.0
  0
VERTEX
  5
1FE
  8
0
  6
CONTINUOUS
 62
     7
 10
0.0
 20
148.5
 30
0.0
  0
VERTEX
  5
1FF
  8
0
  6
CONTINUOUS
 62
     7
 10
11.0
 20
144.5
 30
0.0
  0
VERTEX
  5
200
  8
0
  6
CONTINUOUS
 62
     7
 10
11.0
 20
152.5
 30
0.0
  0
SEQEND
  5
22A
  8
0
  6
CONTINUOUS
 62
     7
  0
INSERT
  5
14E
  8
0
 62
     7
  2
*U2
 10
0.0
 20
0.0
 30
0.0
  0
POLYLINE
  5
14F
  8
0
  6
CONTINUOUS
 62
     7
 66
     1
 10
0.0
 20
0.0
 30
0.0
 70
     1
  0
VERTEX
  5
203
  8
0
  6
CONTINUOUS
 62
     7
 10
206.0
 20
11.0
 30
0.0
  0
VERTEX
  5
204
  8
0
  6
CONTINUOUS
 62
     7
 10
210.0
 20
0.0
 30
0.0
  0
VERTEX
  5
205
  8
0
  6
CONTINUOUS
 62
     7
 10
214.0
 20
11.0
 30
0.0
  0
VERTEX
  5
206
  8
0
  6
CONTINUOUS
 62
     7
 10
206.0
 20
11.0
 30
0.0
  0
SEQEND
  5
22B
  8
0
  6
CONTINUOUS
 62
     7
  0
INSERT
  5
150
  8
0
 62
     7
  2
*U3
 10
0.0
 20
0.0
 30
0.0
  0
LINE
  5
151
  8
0
  6
CONTINUOUS
 62
     7
 10
367.5
 20
286.9999999999999
 30
0.0
 11
367.5
 21
292.0
 31
0.0
  0
TEXT
  5
152
  8
0
  6
CONTINUOUS
 62
     7
 10
391.6340909090909
 20
291.8324293485057
 30
0.0
 40
3.5
  1
A
 50
270.0
  0
LINE
  5
153
  8
0
  6
CONTINUOUS
 62
     7
 10
367.5
 20
10.0
 30
0.0
 11
367.5
 21
5.0
 31
0.0
  0
TEXT
  5
154
  8
0
  6
CONTINUOUS
 62
     7
 10
392.9868888333125
 20
4.602272727272727
 30
0.0
 40
3.5
  1
A
  0
LINE
  5
155
  8
0
  6
CONTINUOUS
 62
     7
 10
315.0
 20
286.9999999999999
 30
0.0
 11
315.0
 21
292.0
 31
0.0
  0
TEXT
  5
156
  8
0
  6
CONTINUOUS
 62
     7
 10
339.1340909090909
 20
291.9745607727899
 30
0.0
 40
3.5
  1
B
 50
270.0
  0
LINE
  5
157
  8
0
  6
CONTINUOUS
 62
     7
 10
315.0
 20
10.0
 30
0.0
 11
315.0
 21
5.0
 31
0.0
  0
TEXT
  5
158
  8
0
  6
CONTINUOUS
 62
     7
 10
340.3447574090284
 20
4.602272727272727
 30
0.0
 40
3.5
  1
B
  0
LINE
  5
159
  8
0
  6
CONTINUOUS
 62
     7
 10
262.5
 20
286.9999999999999
 30
0.0
 11
262.5
 21
292.0
 31
0.0
  0
TEXT
  5
15A
  8
0
  6
CONTINUOUS
 62
     7
 10
286.6327779167187
 20
291.9399305989747
 30
0.0
 40
3.5
  1
C
 50
270.0
  0
LINE
  5
15B
  8
0
  6
CONTINUOUS
 62
     7
 10
262.5
 20
10.0
 30
0.0
 11
262.5
 21
5.0
 31
0.0
  0
TEXT
  5
15C
  8
0
  6
CONTINUOUS
 62
     7
 10
287.8793875828435
 20
4.600959734900587
 30
0.0
 40
3.5
  1
C
  0
LINE
  5
15D
  8
0
  6
CONTINUOUS
 62
     7
 10
210.0
 20
286.9999999999999
 30
0.0
 11
210.0
 21
292.0
 31
0.0
  0
TEXT
  5
15E
  8
0
  6
CONTINUOUS
 62
     7
 10
234.1340909090909
 20
291.9745607727898
 30
0.0
 40
3.5
  1
D
 50
270.0
  0
LINE
  5
15F
  8
0
  6
CONTINUOUS
 62
     7
 10
157.5
 20
286.9999999999999
 30
0.0
 11
157.5
 21
292.0
 31
0.0
  0
TEXT
  5
160
  8
0
  6
CONTINUOUS
 62
     7
 10
181.6327779167188
 20
292.027463423784
 30
0.0
 40
3.5
  1
E
 50
270.0
  0
LINE
  5
161
  8
0
  6
CONTINUOUS
 62
     7
 10
157.5
 20
10.0
 30
0.0
 11
157.5
 21
5.0
 31
0.0
  0
LINE
  5
162
  8
0
  6
CONTINUOUS
 62
     7
 10
105.0
 20
286.9999999999999
 30
0.0
 11
105.0
 21
292.0
 31
0.0
  0
TEXT
  5
163
  8
0
  6
CONTINUOUS
 62
     7
 10
129.1327779167188
 20
291.9924502938602
 30
0.0
 40
3.5
  1
F
 50
270.0
  0
LINE
  5
164
  8
0
  6
CONTINUOUS
 62
     7
 10
105.0
 20
10.0
 30
0.0
 11
105.0
 21
5.0
 31
0.0
  0
TEXT
  5
165
  8
0
  6
CONTINUOUS
 62
     7
 10
130.326867887958
 20
4.600959734900587
 30
0.0
 40
3.5
  1
F
  0
LINE
  5
166
  8
0
  6
CONTINUOUS
 62
     7
 10
52.50000000000004
 20
286.9999999999999
 30
0.0
 11
52.50000000000004
 21
292.0
 31
0.0
  0
TEXT
  5
167
  8
0
  6
CONTINUOUS
 62
     7
 10
76.6327779167188
 20
291.9399305989746
 30
0.0
 40
3.5
  1
G
 50
270.0
  0
LINE
  5
168
  8
0
  6
CONTINUOUS
 62
     7
 10
52.50000000000004
 20
10.0
 30
0.0
 11
52.50000000000004
 21
5.0
 31
0.0
  0
TEXT
  5
169
  8
0
  6
CONTINUOUS
 62
     7
 10
77.8793875828436
 20
4.600959734900587
 30
0.0
 40
3.5
  1
G
  0
TEXT
  5
16A
  8
0
  6
CONTINUOUS
 62
     7
 10
24.13277791671879
 20
291.9749437288983
 30
0.0
 40
3.5
  1
H
 50
270.0
  0
TEXT
  5
16B
  8
0
  6
CONTINUOUS
 62
     7
 10
25.34437445291988
 20
4.600959734900587
 30
0.0
 40
3.5
  1
H
  0
LINE
  5
16C
  8
0
  6
CONTINUOUS
 62
     7
 10
409.9999999999999
 20
74.25
 30
0.0
 11
414.9999999999999
 21
74.25
 31
0.0
  0
TEXT
  5
16D
  8
0
  6
CONTINUOUS
 62
     7
 10
412.9326059772414
 20
35.00777791671877
 30
0.0
 40
3.5
  1
1
  0
LINE
  5
16E
  8
0
  6
CONTINUOUS
 62
     7
 10
10.0
 20
74.25
 30
0.0
 11
5.0
 21
74.25
 31
0.0
  0
TEXT
  5
16F
  8
0
  6
CONTINUOUS
 62
     7
 10
4.600959734900584
 20
38.26171220457671
 30
0.0
 40
3.5
  1
1
 50
270.0
  0
LINE
  5
170
  8
0
  6
CONTINUOUS
 62
     7
 10
409.9999999999999
 20
148.5
 30
0.0
 11
414.9999999999999
 21
148.5
 31
0.0
  0
TEXT
  5
171
  8
0
  6
CONTINUOUS
 62
     7
 10
413.163692634738
 20
109.2577779167188
 30
0.0
 40
3.5
  1
2
  0
LINE
  5
172
  8
0
  6
CONTINUOUS
 62
     7
 10
10.0
 20
148.5
 30
0.0
 11
5.0
 21
148.5
 31
0.0
  0
TEXT
  5
173
  8
0
  6
CONTINUOUS
 62
     7
 10
4.600959734900599
 20
112.2806255470802
 30
0.0
 40
3.5
  1
2
 50
270.0
  0
LINE
  5
174
  8
0
  6
CONTINUOUS
 62
     7
 10
409.9999999999999
 20
222.75
 30
0.0
 11
414.9999999999999
 21
222.75
 31
0.0
  0
TEXT
  5
175
  8
0
  6
CONTINUOUS
 62
     7
 10
413.1811991996998
 20
183.5077779167188
 30
0.0
 40
3.5
  1
3
  0
LINE
  5
176
  8
0
  6
CONTINUOUS
 62
     7
 10
10.0
 20
222.75
 30
0.0
 11
5.0
 21
222.75
 31
0.0
  0
TEXT
  5
177
  8
0
  6
CONTINUOUS
 62
     7
 10
4.600959734900584
 20
186.5131189821183
 30
0.0
 40
3.5
  1
3
 50
270.0
  0
TEXT
  5
178
  8
0
  6
CONTINUOUS
 62
     7
 10
413.2351413029886
 20
257.7590909090909
 30
0.0
 40
3.5
  1
4
  0
TEXT
  5
179
  8
0
  6
CONTINUOUS
 62
     7
 10
4.60227272727272
 20
260.7091768788295
 30
0.0
 40
3.5
  1
4
 50
270.0
  0
LINE
  5
17A
  8
0
  6
CONTINUOUS
 62
     7
 10
220.0
 20
10.0
 30
0.0
 11
220.0
 21
7.0
 31
0.0
  0
LINE
  5
17B
  8
0
  6
CONTINUOUS
 62
     7
 10
200.0
 20
10.0
 30
0.0
 11
200.0
 21
7.0
 31
0.0
  0
LINE
  5
17C
  8
0
  6
CONTINUOUS
 62
     7
 10
230.0
 20
10.0
 30
0.0
 11
230.0
 21
7.0
 31
0.0
  0
LINE
  5
17D
  8
0
  6
CONTINUOUS
 62
     7
 10
190.0
 20
10.0
 30
0.0
 11
190.0
 21
7.0
 31
0.0
  0
LINE
  5
17E
  8
0
  6
CONTINUOUS
 62
     7
 10
240.0
 20
10.0
 30
0.0
 11
240.0
 21
7.0
 31
0.0
  0
LINE
  5
17F
  8
0
  6
CONTINUOUS
 62
     7
 10
180.0
 20
10.0
 30
0.0
 11
180.0
 21
7.0
 31
0.0
  0
LINE
  5
180
  8
0
  6
CONTINUOUS
 62
     7
 10
250.0
 20
10.0
 30
0.0
 11
250.0
 21
7.0
 31
0.0
  0
LINE
  5
181
  8
0
  6
CONTINUOUS
 62
     7
 10
170.0
 20
10.0
 30
0.0
 11
170.0
 21
7.0
 31
0.0
  0
LINE
  5
182
  8
0
  6
CONTINUOUS
 62
     7
 10
260.0
 20
10.0
 30
0.0
 11
260.0
 21
5.0
 31
0.0
  0
LINE
  5
183
  8
0
  6
CONTINUOUS
 62
     7
 10
160.0
 20
10.0
 30
0.0
 11
160.0
 21
5.0
 31
0.0
  0
LINE
  5
184
  8
0
  6
CONTINUOUS
 62
     7
 10
260.0
 20
10.0
 30
0.0
 11
160.0
 21
10.0
 31
0.0
  0
LINE
  5
185
  8
0
  6
CONTINUOUS
 62
     7
 10
260.0
 20
7.0
 30
0.0
 11
160.0
 21
7.0
 31
0.0
  0
INSERT
  5
186
  8
0
 62
     7
  2
*U4
 10
0.0
 20
0.0
 30
0.0
  0
INSERT
  5
187
  8
0
 62
     7
  2
*U5
 10
0.0
 20
0.0
 30
0.0
  0
INSERT
  5
188
  8
0
 62
     7
  2
*U6
 10
0.0
 20
0.0
 30
0.0
  0
INSERT
  5
189
  8
0
 62
     7
  2
*U7
 10
0.0
 20
0.0
 30
0.0
  0
ENDBLK
  8
0
  0
BLOCK
  8
0
  2
*U2
 70
     1
 10
0.0
 20
0.0
 30
0.0
  0
SOLID
  5
202
  8
0
  6
CONTINUOUS
 62
     7
 10
11.0
 20
144.5
 30
0.0
 11
6.999999999999999
 21
148.5
 31
0.0
 12
11.0
 22
152.5
 32
0.0
 13
11.0
 23
152.5
 33
0.0
  0
ENDBLK
  8
0
  0
BLOCK
  8
0
  2
*U3
 70
     1
 10
0.0
 20
0.0
 30
0.0
  0
SOLID
  5
208
  8
0
  6
CONTINUOUS
 62
     7
 10
210.0
 20
6.999999999999999
 30
0.0
 11
206.0
 21
11.0
 31
0.0
 12
210.0
 22
11.0
 32
0.0
 13
210.0
 23
11.0
 33
0.0
  0
SOLID
  5
209
  8
0
  6
CONTINUOUS
 62
     7
 10
210.0
 20
6.999999999999999
 30
0.0
 11
210.0
 21
11.0
 31
0.0
 12
214.0
 22
11.0
 32
0.0
 13
214.0
 23
11.0
 33
0.0
  0
ENDBLK
  8
0
  0
BLOCK
  8
0
  2
*U4
 70
     1
 10
0.0
 20
0.0
 30
0.0
  0
SOLID
  5
20B
  8
0
  6
CONTINUOUS
 62
     7
 10
0.0
 20
0.0
 30
0.0
 11
0.0
 21
10.0
 31
0.0
 12
2.0
 22
0.0
 32
0.0
 13
2.0
 23
0.0
 33
0.0
  0
SOLID
  5
20C
  8
0
  6
CONTINUOUS
 62
     7
 10
2.0
 20
0.0
 30
0.0
 11
0.0
 21
10.0
 31
0.0
 12
2.0
 22
10.0
 32
0.0
 13
2.0
 23
10.0
 33
0.0
  0
SOLID
  5
20D
  8
0
  6
CONTINUOUS
 62
     7
 10
2.0
 20
0.0
 30
0.0
 11
2.0
 21
2.0
 31
0.0
 12
10.0
 22
0.0
 32
0.0
 13
10.0
 23
0.0
 33
0.0
  0
SOLID
  5
20E
  8
0
  6
CONTINUOUS
 62
     7
 10
10.0
 20
0.0
 30
0.0
 11
2.0
 21
2.0
 31
0.0
 12
10.0
 22
2.0
 32
0.0
 13
10.0
 23
2.0
 33
0.0
  0
ENDBLK
  8
0
  0
BLOCK
  8
0
  2
*U5
 70
     1
 10
0.0
 20
0.0
 30
0.0
  0
SOLID
  5
210
  8
0
  6
CONTINUOUS
 62
     7
 10
409.9999999999999
 20
0.0
 30
0.0
 11
409.9999999999999
 21
2.0
 31
0.0
 12
418.0
 22
0.0
 32
0.0
 13
418.0
 23
0.0
 33
0.0
  0
SOLID
  5
211
  8
0
  6
CONTINUOUS
 62
     7
 10
418.0
 20
0.0
 30
0.0
 11
409.9999999999999
 21
2.0
 31
0.0
 12
418.0
 22
2.0
 32
0.0
 13
418.0
 23
2.0
 33
0.0
  0
SOLID
  5
212
  8
0
  6
CONTINUOUS
 62
     7
 10
418.0
 20
0.0
 30
0.0
 11
418.0
 21
10.0
 31
0.0
 12
420.0
 22
0.0
 32
0.0
 13
420.0
 23
0.0
 33
0.0
  0
SOLID
  5
213
  8
0
  6
CONTINUOUS
 62
     7
 10
420.0
 20
0.0
 30
0.0
 11
418.0
 21
10.0
 31
0.0
 12
420.0
 22
10.0
 32
0.0
 13
420.0
 23
10.0
 33
0.0
  0
ENDBLK
  8
0
  0
BLOCK
  8
0
  2
*U6
 70
     1
 10
0.0
 20
0.0
 30
0.0
  0
SOLID
  5
215
  8
0
  6
CONTINUOUS
 62
     7
 10
409.9999999999999
 20
295.0
 30
0.0
 11
409.9999999999999
 21
297.0
 31
0.0
 12
418.0
 22
295.0
 32
0.0
 13
418.0
 23
295.0
 33
0.0
  0
SOLID
  5
216
  8
0
  6
CONTINUOUS
 62
     7
 10
418.0
 20
295.0
 30
0.0
 11
409.9999999999999
 21
297.0
 31
0.0
 12
418.0
 22
297.0
 32
0.0
 13
418.0
 23
297.0
 33
0.0
  0
SOLID
  5
217
  8
0
  6
CONTINUOUS
 62
     7
 10
418.0
 20
286.9999999999999
 30
0.0
 11
418.0
 21
297.0
 31
0.0
 12
420.0
 22
286.9999999999999
 32
0.0
 13
420.0
 23
286.9999999999999
 33
0.0
  0
SOLID
  5
218
  8
0
  6
CONTINUOUS
 62
     7
 10
420.0
 20
286.9999999999999
 30
0.0
 11
418.0
 21
297.0
 31
0.0
 12
420.0
 22
297.0
 32
0.0
 13
420.0
 23
297.0
 33
0.0
  0
ENDBLK
  8
0
  0
BLOCK
  8
0
  2
*U7
 70
     1
 10
0.0
 20
0.0
 30
0.0
  0
SOLID
  5
21A
  8
0
  6
CONTINUOUS
 62
     7
 10
0.0
 20
286.9999999999999
 30
0.0
 11
0.0
 21
297.0
 31
0.0
 12
2.0
 22
286.9999999999999
 32
0.0
 13
2.0
 23
286.9999999999999
 33
0.0
  0
SOLID
  5
21B
  8
0
  6
CONTINUOUS
 62
     7
 10
2.0
 20
286.9999999999999
 30
0.0
 11
0.0
 21
297.0
 31
0.0
 12
2.0
 22
297.0
 32
0.0
 13
2.0
 23
297.0
 33
0.0
  0
SOLID
  5
21C
  8
0
  6
CONTINUOUS
 62
     7
 10
2.0
 20
295.0
 30
0.0
 11
2.0
 21
297.0
 31
0.0
 12
10.0
 22
295.0
 32
0.0
 13
10.0
 23
295.0
 33
0.0
  0
SOLID
  5
21D
  8
0
  6
CONTINUOUS
 62
     7
 10
10.0
 20
295.0
 30
0.0
 11
2.0
 21
297.0
 31
0.0
 12
10.0
 22
297.0
 32
0.0
 13
10.0
 23
297.0
 33
0.0
  0
ENDBLK
  8
0
  0
ENDSEC
  0
SECTION
  2
ENTITIES
  0
LINE
  5
70
  8
1
  6
CONTINUOUS
 62
     7
 10
6557.223155293901
 20
512.1827969029
 30
0.0
 11
6559.0313461231
 21
512.1827969029
 31
0.0
  0
LINE
  5
71
  8
1
  6
CONTINUOUS
 62
     7
 10
6557.7238012939
 20
462.1831679029
 30
0.0
 11
6562.7236172939
 21
514.1824559029
 31
0.0
  0
LINE
  5
72
  8
1
  6
CONTINUOUS
 62
     7
 10
6579.2236172939
 20
514.1824639029
 30
0.0
 11
6574.223801293901
 21
462.1831599029
 31
0.0
  0
LINE
  5
73
  8
1
  6
CONTINUOUS
 62
     7
 10
6559.2236172939
 20
514.1824639029
 30
0.0
 11
6562.7236172939
 21
514.1824559029
 31
0.0
  0
LINE
  5
74
  8
1
  6
CONTINUOUS
 62
     7
 10
6569.2236172939
 20
514.1824639029
 30
0.0
 11
6572.7236172939
 21
514.1824559029
 31
0.0
  0
LINE
  5
75
  8
1
  6
CONTINUOUS
 62
     7
 10
6577.723801293901
 20
462.1831679029
 30
0.0
 11
6574.223801293901
 21
462.1831599029
 31
0.0
  0
LINE
  5
76
  8
1
  6
CONTINUOUS
 62
     7
 10
6573.359950520901
 20
512.1827969029
 30
0.0
 11
6572.723617717101
 21
514.1824559029
 31
0.0
  0
LINE
  5
77
  8
1
  6
CONTINUOUS
 62
     7
 10
6559.2236172939
 20
514.1824639029
 30
0.0
 11
6557.223155293901
 21
493.3771719324
 31
0.0
  0
LINE
  5
78
  8
1
  6
CONTINUOUS
 62
     7
 10
6563.359950520901
 20
512.1827969029
 30
0.0
 11
6562.723617717101
 21
514.1824559029
 31
0.0
  0
LINE
  5
79
  8
1
  6
CONTINUOUS
 62
     7
 10
6563.0758092939
 20
512.1827969029
 30
0.0
 11
6569.031346123101
 21
512.1827969029
 31
0.0
  0
LINE
  5
7A
  8
1
  6
CONTINUOUS
 62
     7
 10
6567.723801293901
 20
462.1831679029
 30
0.0
 11
6572.7236172939
 21
514.1824559029
 31
0.0
  0
LINE
  5
7B
  8
1
  6
CONTINUOUS
 62
     7
 10
6563.8706092939
 20
464.1827969029
 30
0.0
 11
6564.2238012939
 21
462.1831599029
 31
0.0
  0
LINE
  5
7C
  8
1
  6
CONTINUOUS
 62
     7
 10
6569.2236172939
 20
514.1824639029
 30
0.0
 11
6564.2238012939
 21
462.1831599029
 31
0.0
  0
LINE
  5
7D
  8
1
  6
CONTINUOUS
 62
     7
 10
6573.0758092939
 20
512.1827969029
 30
0.0
 11
6579.031346123101
 21
512.1827969029
 31
0.0
  0
LINE
  5
7E
  8
1
  6
CONTINUOUS
 62
     7
 10
6573.870609293901
 20
464.1827969029
 30
0.0
 11
6567.916068870101
 21
464.1827969029
 31
0.0
  0
LINE
  5
7F
  8
1
  6
CONTINUOUS
 62
     7
 10
6573.870609293901
 20
464.1827969029
 30
0.0
 11
6574.223801293901
 21
462.1831599029
 31
0.0
  0
LINE
  5
80
  8
1
  6
CONTINUOUS
 62
     7
 10
6573.359950520901
 20
512.1827969029
 30
0.0
 11
6572.723617717101
 21
514.1824559029
 31
0.0
  0
LINE
  5
81
  8
1
  6
CONTINUOUS
 62
     7
 10
6563.8706092939
 20
464.1827969029
 30
0.0
 11
6557.916068870101
 21
464.1827969029
 31
0.0
  0
LINE
  5
82
  8
1
  6
CONTINUOUS
 62
     7
 10
6567.723801293901
 20
462.1831679029
 30
0.0
 11
6564.2238012939
 21
462.1831599029
 31
0.0
  0
LINE
  5
83
  8
1
  6
CONTINUOUS
 62
     7
 10
6552.7231552939
 20
453.2363379029
 30
0.0
 11
6552.7231552939
 21
462.1035189029
 31
0.0
  0
LINE
  5
84
  8
1
  6
CONTINUOUS
 62
     7
 10
6541.7231552939
 20
468.5369060893
 30
0.0
 11
6541.7231552939
 21
485.7752329029
 31
0.0
  0
LINE
  5
85
  8
1
  6
CONTINUOUS
 62
     7
 10
6552.7231552939
 20
457.3504009029
 30
0.0
 11
6541.7231552939
 21
458.3104318571
 31
0.0
  0
LINE
  5
86
  8
1
  6
CONTINUOUS
 62
     7
 10
6552.7231552939
 20
490.1180059029
 30
0.0
 11
6552.7231552939
 21
511.5252749029
 31
0.0
  0
LINE
  5
87
  8
1
  6
CONTINUOUS
 62
     7
 10
6552.7231552939
 20
514.2620739029
 30
0.0
 11
6552.7231552939
 21
523.1292549029
 31
0.0
  0
LINE
  5
88
  8
1
  6
CONTINUOUS
 62
     7
 10
6552.7231552939
 20
485.7752329029
 30
0.0
 11
6531.723155293901
 21
485.7752329029
 31
0.0
  0
LINE
  5
89
  8
1
  6
CONTINUOUS
 62
     7
 10
6531.723155293901
 20
490.5903599029
 30
0.0
 11
6552.7231552939
 21
490.5903599029
 31
0.0
  0
LINE
  5
8A
  8
1
  6
CONTINUOUS
 62
     7
 10
6519.2231202939
 20
514.1823489029
 30
0.0
 11
6522.723120293901
 21
514.1823409029
 31
0.0
  0
LINE
  5
8B
  8
1
  6
CONTINUOUS
 62
     7
 10
6557.223155293901
 20
453.1827969029
 30
0.0
 11
6531.723155293901
 21
453.1827969029
 31
0.0
  0
ARC
  5
8C
  8
1
  6
CONTINUOUS
 62
     7
 10
6531.510940293901
 20
464.8284149029
 30
0.0
 40
2.860218000000359
 50
194.475676
 51
274.254987
  0
LINE
  5
8D
  8
1
  6
CONTINUOUS
 62
     7
 10
6517.223155293901
 20
464.1827969029
 30
0.0
 11
6523.8706092939
 21
464.1827969029
 31
0.0
  0
ARC
  5
8E
  8
1
  6
CONTINUOUS
 62
     7
 10
6531.513333293901
 20
511.5338399029
 30
0.0
 40
2.863371000000114
 50
85.79772400000002
 51
165.471613
  0
LINE
  5
8F
  8
1
  6
CONTINUOUS
 62
     7
 10
6531.723155293901
 20
514.3895129029
 30
0.0
 11
6552.7231552939
 21
514.3895129029
 31
0.0
  0
LINE
  5
90
  8
1
  6
CONTINUOUS
 62
     7
 10
6531.723155293901
 20
485.7752329029
 30
0.0
 11
6531.723155293901
 21
485.7813919029
 31
0.0
  0
LINE
  5
91
  8
1
  6
CONTINUOUS
 62
     7
 10
6552.7231552939
 20
467.9055309029
 30
0.0
 11
6541.7231552939
 21
468.5369060893
 31
0.0
  0
ARC
  5
92
  8
1
  6
CONTINUOUS
 62
     7
 10
6531.3615902939
 20
500.1298189029
 30
0.0
 40
14.35298100000004
 50
260.787225
 51
271.443485
  0
LINE
  5
93
  8
1
  6
CONTINUOUS
 62
     7
 10
6557.223155293901
 20
453.1827969029
 30
0.0
 11
6557.223155293901
 21
523.1827969029
 31
0.0
  0
LINE
  5
94
  8
1
  6
CONTINUOUS
 62
     7
 10
6518.2231552939
 20
503.7774154614
 30
0.0
 11
6518.2231552939
 21
464.1827969029
 31
0.0
  0
LINE
  5
95
  8
1
  6
CONTINUOUS
 62
     7
 10
6523.0757982939
 20
512.1827969029
 30
0.0
 11
6529.031346123101
 21
512.1827969029
 31
0.0
  0
LINE
  5
96
  8
1
  6
CONTINUOUS
 62
     7
 10
6541.7231552939
 20
458.3104318571
 30
0.0
 11
6541.7231552939
 21
461.9760799029
 31
0.0
  0
LINE
  5
97
  8
1
  6
CONTINUOUS
 62
     7
 10
6528.7231552939
 20
520.1827969029
 30
0.0
 11
6528.7231552939
 21
456.1827969029
 31
0.0
  0
LINE
  5
98
  8
1
  6
CONTINUOUS
 62
     7
 10
6541.7231552939
 20
514.3895129029
 30
0.0
 11
6541.7231552939
 21
518.0551609487
 31
0.0
  0
LINE
  5
99
  8
1
  6
CONTINUOUS
 62
     7
 10
6531.723155293901
 20
523.1827969029
 30
0.0
 11
6557.223155293901
 21
523.1827969029
 31
0.0
  0
LINE
  5
9A
  8
1
  6
CONTINUOUS
 62
     7
 10
6552.7231552939
 20
464.8403189029
 30
0.0
 11
6552.7231552939
 21
486.2475869029
 31
0.0
  0
LINE
  5
9B
  8
1
  6
CONTINUOUS
 62
     7
 10
6541.7231552939
 20
490.5903599029
 30
0.0
 11
6541.7231552939
 21
507.8286877165
 31
0.0
  0
LINE
  5
9C
  8
1
  6
CONTINUOUS
 62
     7
 10
6552.7231552939
 20
461.9760799029
 30
0.0
 11
6531.723155293901
 21
461.9760799029
 31
0.0
  0
ARC
  5
9D
  8
1
  6
CONTINUOUS
 62
     7
 10
6531.449653293901
 20
472.4215669029
 30
0.0
 40
18.16469300000012
 50
89.137278
 51
97.14702799999999
  0
LINE
  5
9E
  8
1
  6
CONTINUOUS
 62
     7
 10
6552.7231552939
 20
508.4600629029
 30
0.0
 11
6541.7231552939
 21
507.8286877165
 31
0.0
  0
LINE
  5
9F
  8
1
  6
CONTINUOUS
 62
     7
 10
6531.723155293901
 20
490.5842009029
 30
0.0
 11
6531.723155293901
 21
490.5903599029
 31
0.0
  0
LINE
  5
A0
  8
1
  6
CONTINUOUS
 62
     7
 10
6519.2227832939
 20
514.1825469029
 30
0.0
 11
6520.7231552939
 21
514.1825429029
 31
0.0
  0
LINE
  5
A1
  8
1
  6
CONTINUOUS
 62
     7
 10
6552.7231552939
 20
519.0151919029
 30
0.0
 11
6541.7231552939
 21
518.0551609487
 31
0.0
  0
LINE
  5
A2
  8
1
  6
CONTINUOUS
 62
     7
 10
6461.223155293901
 20
460.6827969029
 30
0.0
 11
6463.2231552939
 21
459.6827969029
 31
0.0
  0
LINE
  5
A3
  8
1
  6
CONTINUOUS
 62
     7
 10
6517.223155293901
 20
516.6827969029
 30
0.0
 11
6463.2231552939
 21
516.6827969029
 31
0.0
  0
LINE
  5
A4
  8
1
  6
CONTINUOUS
 62
     7
 10
6422.3342664038
 20
466.5439080086
 30
0.0
 11
6422.3342664038
 21
468.6611248701
 31
0.0
  0
ARC
  5
A5
  8
1
  6
CONTINUOUS
 62
     7
 10
6421.5564886261
 20
466.543908014
 30
0.0
 40
0.7777777777997485
 50
270.0
 51
0.0
  0
LINE
  5
A6
  8
1
  6
CONTINUOUS
 62
     7
 10
6461.223155293901
 20
515.6827969029
 30
0.0
 11
6461.223155293901
 21
460.6827969029
 31
0.0
  0
LINE
  5
A7
  8
1
  6
CONTINUOUS
 62
     7
 10
6463.2231552939
 20
516.6827969029
 30
0.0
 11
6463.2231552939
 21
459.6827969029
 31
0.0
  0
LINE
  5
A8
  8
1
  6
CONTINUOUS
 62
     7
 10
6463.2231552939
 20
516.6827969029
 30
0.0
 11
6461.223155293901
 21
515.6827969029
 31
0.0
  0
ARC
  5
A9
  8
1
  6
CONTINUOUS
 62
     7
 10
6423.8898219795
 20
466.543908014
 30
0.0
 40
0.7777777777997485
 50
180.0
 51
270.0
  0
LINE
  5
AA
  8
1
  6
CONTINUOUS
 62
     7
 10
6423.112044201701
 20
466.5439080194
 30
0.0
 11
6423.112044201701
 21
468.6611248656
 31
0.0
  0
LINE
  5
AB
  8
1
  6
CONTINUOUS
 62
     7
 10
6517.223155293901
 20
459.6827969029
 30
0.0
 11
6463.2231552939
 21
459.6827969029
 31
0.0
  0
LINE
  5
AC
  8
1
  6
CONTINUOUS
 62
     7
 10
6517.223155293901
 20
516.6827969029
 30
0.0
 11
6517.223155293901
 21
459.6827969029
 31
0.0
  0
LINE
  5
AD
  8
1
  6
CONTINUOUS
 62
     7
 10
6421.5564886261
 20
465.7661302362
 30
0.0
 11
6420.778710848301
 21
465.7661302362
 31
0.0
  0
LINE
  5
AE
  8
1
  6
CONTINUOUS
 62
     7
 10
6423.8898219795
 20
465.7661302362
 30
0.0
 11
6424.6675997372
 21
465.7661302362
 31
0.0
  0
LINE
  5
AF
  8
1
  6
CONTINUOUS
 62
     7
 10
6421.7231552939
 20
461.2325499029
 30
0.0
 11
6423.723155293901
 21
461.2325499029
 31
0.0
  0
LINE
  5
B0
  8
1
  6
CONTINUOUS
 62
     7
 10
6426.7231552939
 20
504.8653359028999
 30
0.0
 11
6418.7231552939
 21
504.8653359028999
 31
0.0
  0
LINE
  5
B1
  8
1
  6
CONTINUOUS
 62
     7
 10
6423.889821959101
 20
511.7661302362
 30
0.0
 11
6424.6675997369
 21
511.7661302362
 31
0.0
  0
LINE
  5
B2
  8
1
  6
CONTINUOUS
 62
     7
 10
6461.223155293901
 20
515.6827969029
 30
0.0
 11
6414.723155293901
 21
515.6827969029
 31
0.0
  0
ARC
  5
B3
  8
1
  6
CONTINUOUS
 62
     7
 10
6423.889821959101
 20
512.543908014
 30
0.0
 40
0.7777777777997485
 50
179.9999995971
 51
270.0
  0
LINE
  5
B4
  8
1
  6
CONTINUOUS
 62
     7
 10
6423.112044201701
 20
509.8216857863001
 30
0.0
 11
6423.112044201701
 21
507.7044689401
 31
0.0
  0
LINE
  5
B5
  8
1
  6
CONTINUOUS
 62
     7
 10
6423.8898219795
 20
510.5994635695
 30
0.0
 11
6424.6675997372
 21
510.5994635695
 31
0.0
  0
LINE
  5
B6
  8
1
  6
CONTINUOUS
 62
     7
 10
6426.7231552939
 20
512.1330439029
 30
0.0
 11
6426.7231552939
 21
504.8653359028999
 31
0.0
  0
ARC
  5
B7
  8
1
  6
CONTINUOUS
 62
     7
 10
6421.7231552939
 20
512.1330439029
 30
0.0
 40
3.000000000000114
 50
90.0
 51
180.0
  0
LINE
  5
B8
  8
1
  6
CONTINUOUS
 62
     7
 10
6423.112044181301
 20
512.5439080194
 30
0.0
 11
6423.112044181301
 21
514.6611248656
 31
0.0
  0
ARC
  5
B9
  8
1
  6
CONTINUOUS
 62
     7
 10
6423.8898219795
 20
509.8216857918
 30
0.0
 40
0.7777777777997485
 50
90.0
 51
180.0
  0
ARC
  5
BA
  8
1
  6
CONTINUOUS
 62
     7
 10
6421.7231552939
 20
464.2325499029
 30
0.0
 40
3.000000000000114
 50
180.0
 51
270.0
  0
LINE
  5
BB
  8
1
  6
CONTINUOUS
 62
     7
 10
6421.5564886261
 20
510.5994635695
 30
0.0
 11
6420.778710848301
 21
510.5994635695
 31
0.0
  0
LINE
  5
BC
  8
1
  6
CONTINUOUS
 62
     7
 10
6414.723155293901
 20
460.6827969029
 30
0.0
 11
6414.723155293901
 21
515.6827969029
 31
0.0
  0
CIRCLE
  5
BD
  8
1
  6
CONTINUOUS
 62
     7
 10
6422.7231552926
 20
511.1827969029
 30
0.0
 40
3.499999999999837
  0
LINE
  5
BE
  8
1
  6
CONTINUOUS
 62
     7
 10
6420.778710848001
 20
511.7661302362
 30
0.0
 11
6420.778710848301
 21
510.5994635695
 31
0.0
  0
LINE
  5
BF
  8
1
  6
CONTINUOUS
 62
     7
 10
6424.6675997372
 20
510.5994635695
 30
0.0
 11
6424.6675997369
 21
511.7661302362
 31
0.0
  0
ARC
  5
C0
  8
1
  6
CONTINUOUS
 62
     7
 10
6421.5564886461
 20
512.543908014
 30
0.0
 40
0.7777777777997485
 50
270.0
 51
0.0
  0
LINE
  5
C1
  8
1
  6
CONTINUOUS
 62
     7
 10
6426.7231552939
 20
464.2325499029
 30
0.0
 11
6426.7231552939
 21
471.5002579029
 31
0.0
  0
LINE
  5
C2
  8
1
  6
CONTINUOUS
 62
     7
 10
6418.7231552939
 20
512.1330439029
 30
0.0
 11
6418.7231552939
 21
504.8653359028999
 31
0.0
  0
ARC
  5
C3
  8
1
  6
CONTINUOUS
 62
     7
 10
6423.723155293901
 20
464.2325499029
 30
0.0
 40
3.000000000000114
 50
270.0
 51
0.0
  0
LINE
  5
C4
  8
1
  6
CONTINUOUS
 62
     7
 10
6461.223155293901
 20
460.6827969029
 30
0.0
 11
6414.723155293901
 21
460.6827969029
 31
0.0
  0
ARC
  5
C5
  8
1
  6
CONTINUOUS
 62
     7
 10
6423.723155293901
 20
512.1330439029
 30
0.0
 40
3.000000000000114
 50
0.0
 51
90.0
  0
LINE
  5
C6
  8
1
  6
CONTINUOUS
 62
     7
 10
6421.7231552939
 20
515.1330439029
 30
0.0
 11
6423.723155293901
 21
515.1330439029
 31
0.0
  0
LINE
  5
C7
  8
1
  6
CONTINUOUS
 62
     7
 10
6426.7231552939
 20
471.5002579029
 30
0.0
 11
6418.7231552939
 21
471.5002579029
 31
0.0
  0
LINE
  5
C8
  8
1
  6
CONTINUOUS
 62
     7
 10
6418.7231552939
 20
464.2325499029
 30
0.0
 11
6418.7231552939
 21
471.5002579029
 31
0.0
  0
LINE
  5
C9
  8
1
  6
CONTINUOUS
 62
     7
 10
6422.3342664239
 20
512.5439080085
 30
0.0
 11
6422.3342664239
 21
514.6611248701
 31
0.0
  0
LINE
  5
CA
  8
1
  6
CONTINUOUS
 62
     7
 10
6421.5564886461
 20
511.7661302362
 30
0.0
 11
6420.778710848001
 21
511.7661302362
 31
0.0
  0
LINE
  5
CB
  8
1
  6
CONTINUOUS
 62
     7
 10
6423.889821959101
 20
464.5994635695
 30
0.0
 11
6424.6675997369
 21
464.5994635695
 31
0.0
  0
LINE
  5
CC
  8
1
  6
CONTINUOUS
 62
     7
 10
6423.112044181301
 20
463.8216857863
 30
0.0
 11
6423.112044181301
 21
461.7044689401
 31
0.0
  0
ARC
  5
CD
  8
1
  6
CONTINUOUS
 62
     7
 10
6423.889821959101
 20
463.8216857918
 30
0.0
 40
0.7777777777997485
 50
90.0
 51
180.0000004029
  0
CIRCLE
  5
CE
  8
1
  6
CONTINUOUS
 62
     7
 10
6422.7231552926
 20
465.1827969029
 30
0.0
 40
3.499999999999837
  0
LINE
  5
CF
  8
1
  6
CONTINUOUS
 62
     7
 10
6422.3342664038
 20
509.8216857971
 30
0.0
 11
6422.3342664038
 21
507.7044689356001
 31
0.0
  0
ARC
  5
D0
  8
1
  6
CONTINUOUS
 62
     7
 10
6421.5564886261
 20
509.8216857918
 30
0.0
 40
0.7777777777997485
 50
0.0000003981
 51
90.0
  0
LINE
  5
D1
  8
1
  6
CONTINUOUS
 62
     7
 10
6422.3342664239
 20
463.8216857973
 30
0.0
 11
6422.3342664239
 21
461.7044689356
 31
0.0
  0
LINE
  5
D2
  8
1
  6
CONTINUOUS
 62
     7
 10
6420.778710848001
 20
464.5994635695
 30
0.0
 11
6420.778710848301
 21
465.7661302362
 31
0.0
  0
LINE
  5
D3
  8
1
  6
CONTINUOUS
 62
     7
 10
6424.6675997372
 20
465.7661302362
 30
0.0
 11
6424.6675997369
 21
464.5994635695
 31
0.0
  0
LINE
  5
D4
  8
1
  6
CONTINUOUS
 62
     7
 10
6421.5564886461
 20
464.5994635695
 30
0.0
 11
6420.778710848001
 21
464.5994635695
 31
0.0
  0
ARC
  5
D5
  8
1
  6
CONTINUOUS
 62
     7
 10
6421.5564886461
 20
463.8216857918
 30
0.0
 40
0.7777777777997485
 50
0.0000004029
 51
90.0
  0
LINE
  5
D6
  8
1
  6
CONTINUOUS
 62
     7
 10
6645.2231552939
 20
463.1827969029
 30
0.0
 11
6645.2231552939
 21
513.1827969029
 31
0.0
  0
LINE
  5
D7
  8
1
  6
CONTINUOUS
 62
     7
 10
6663.2231552939
 20
463.1827969029
 30
0.0
 11
6663.2231552939
 21
513.1827969029
 31
0.0
  0
LINE
  5
D8
  8
1
  6
CONTINUOUS
 62
     7
 10
6659.2231552939
 20
463.1827969029
 30
0.0
 11
6659.2231552939
 21
513.1827969029
 31
0.0
  0
ARC
  5
D9
  8
1
  6
CONTINUOUS
 62
     7
 10
6682.2240818269
 20
457.5482210157
 30
0.0
 40
0.5506533923
 50
269.9035937056
 51
293.8530822028
  0
ARC
  5
DA
  8
1
  6
CONTINUOUS
 62
     7
 10
6682.2775766954
 20
457.4658029408
 30
0.0
 40
0.4511703983
 50
311.5300935684
 51
330.5292760905
  0
ARC
  5
DB
  8
1
  6
CONTINUOUS
 62
     7
 10
6682.3167815625
 20
457.4441282876
 30
0.0
 40
0.4063751044
 50
330.4703619183
 51
359.8510576679
  0
ARC
  5
DC
  8
1
  6
CONTINUOUS
 62
     7
 10
6682.2433282498
 20
457.5042758771
 30
0.0
 40
0.5026787234
 50
293.8722993725
 51
311.5449767981
  0
LINE
  5
DD
  8
1
  6
CONTINUOUS
 62
     7
 10
6682.2231552939
 20
456.9975689029
 30
0.0
 11
6679.2231552939
 21
456.9975689029
 31
0.0
  0
ARC
  5
DE
  8
1
  6
CONTINUOUS
 62
     7
 10
6850.7353822939
 20
519.9288149029
 30
0.0
 40
1.0
 50
152.0
 51
240.430056
  0
LINE
  5
DF
  8
1
  6
CONTINUOUS
 62
     7
 10
6797.4052517386
 20
506.9616597392999
 30
0.0
 11
6800.5076652939
 21
505.3120759029001
 31
0.0
  0
LINE
  5
E0
  8
1
  6
CONTINUOUS
 62
     7
 10
6815.5938739447
 20
520.3982851855
 30
0.0
 11
6813.9442932939
 21
523.5006999029
 31
0.0
  0
ARC
  5
E1
  8
1
  6
CONTINUOUS
 62
     7
 10
6855.4100512939
 20
459.5898829029
 30
0.0
 40
1.0
 50
40.0
 51
128.430056
  0
LINE
  5
E2
  8
1
  6
CONTINUOUS
 62
     7
 10
6856.1760962939
 20
460.2326699029
 30
0.0
 11
6858.4346600953
 21
457.5410187363
 31
0.0
  0
LINE
  5
E3
  8
1
  6
CONTINUOUS
 62
     7
 10
6868.0410588491
 20
506.9616597392999
 30
0.0
 11
6864.9386452939
 21
505.3120759029001
 31
0.0
  0
LINE
  5
E4
  8
1
  6
CONTINUOUS
 62
     7
 10
6860.6732822939
 20
464.7298559029
 30
0.0
 11
6863.3649334605
 21
462.4712921014
 31
0.0
  0
LINE
  5
E5
  8
1
  6
CENTER
 62
     1
 10
6874.7231552939
 20
488.1827969029
 30
0.0
 11
6790.7231552939
 21
488.1827969029
 31
0.0
  0
LINE
  5
E7
  8
1
  6
CONTINUOUS
 62
     7
 10
6831.7231552939
 20
528.1702949029
 30
0.0
 11
6831.7231552939
 21
527.1827969029
 31
0.0
  0
ARC
  5
E8
  8
1
  6
CONTINUOUS
 62
     7
 10
6800.9771372939
 20
470.1705689029
 30
0.0
 40
1.0
 50
29.569944
 51
118.0
  0
LINE
  5
E9
  8
1
  6
CONTINUOUS
 62
     7
 10
6804.7730292939
 20
464.7298559029
 30
0.0
 11
6802.0813775404
 21
462.471291609
 31
0.0
  0
ARC
  5
EA
  8
1
  6
CONTINUOUS
 62
     7
 10
6855.4100512939
 20
516.7757109029
 30
0.0
 40
1.0
 50
231.569944
 51
320.0
  0
LINE
  5
EB
  8
1
  6
CENTER
 62
     1
 10
6832.7231552939
 20
446.1827969029
 30
0.0
 11
6832.7231552939
 21
530.1827969029
 31
0.0
  0
LINE
  5
EC
  8
1
  6
CONTINUOUS
 62
     7
 10
6679.2231552939
 20
456.9975689029
 30
0.0
 11
6679.2231552939
 21
461.3712409029
 31
0.0
  0
LINE
  5
ED
  8
1
  6
CONTINUOUS
 62
     7
 10
6677.2231552939
 20
453.1827969029
 30
0.0
 11
6677.2231552939
 21
523.1685079029
 31
0.0
  0
LINE
  5
EE
  8
1
  6
CONTINUOUS
 62
     7
 10
6679.2231552939
 20
461.3712409029
 30
0.0
 11
6682.2231552939
 21
461.3712409029
 31
0.0
  0
LINE
  5
EF
  8
1
  6
CONTINUOUS
 62
     7
 10
6797.4052512553
 20
469.4039339754
 30
0.0
 11
6800.5076652939
 21
471.0535169029
 31
0.0
  0
ARC
  5
F0
  8
1
  6
CONTINUOUS
 62
     7
 10
6861.3160692939
 20
465.4958999029
 30
0.0
 40
1.0
 50
141.569944
 51
230.0
  0
LINE
  5
F1
  8
1
  6
CONTINUOUS
 62
     7
 10
6844.7231552939
 20
472.6827969029
 30
0.0
 11
6820.7231552939
 21
472.6827969029
 31
0.0
  0
ARC
  5
F2
  8
1
  6
CONTINUOUS
 62
     7
 10
6844.7231552939
 20
476.1827969029
 30
0.0
 40
3.5
 50
270.0
 51
0.0
  0
ARC
  5
F3
  8
1
  6
CONTINUOUS
 62
     7
 10
6814.7109282939
 20
519.9288149029
 30
0.0
 40
1.0
 50
299.569944
 51
28.0
  0
ARC
  5
F4
  8
1
  6
CONTINUOUS
 62
     7
 10
6804.1302412939
 20
510.8696929028999
 30
0.0
 40
1.0
 50
321.569944
 51
50.0
  0
ARC
  5
F5
  8
1
  6
CONTINUOUS
 62
     7
 10
6800.9771372939
 20
506.1950239029001
 30
0.0
 40
1.0
 50
242.0
 51
330.4300559999999
  0
ARC
  5
F6
  8
1
  6
CONTINUOUS
 62
     7
 10
6810.0362592939
 20
459.5898829029
 30
0.0
 40
1.0
 50
51.56994399999999
 51
140.0
  0
LINE
  5
F7
  8
1
  6
CONTINUOUS
 62
     7
 10
6804.7730292939
 20
511.6357379029001
 30
0.0
 11
6802.0813774587
 21
513.8943010994
 31
0.0
  0
ARC
  5
F8
  8
1
  6
CONTINUOUS
 62
     7
 10
6864.4691732939
 20
470.1705689029
 30
0.0
 40
1.0
 50
62.0
 51
150.430056
  0
ARC
  5
F9
  8
1
  6
CONTINUOUS
 62
     7
 10
6832.7231552939
 20
488.1827969029
 30
0.0
 40
35.5
 50
29.569944
 51
38.430056
  0
LINE
  5
FA
  8
1
  6
CONTINUOUS
 62
     7
 10
6849.8524319441
 20
520.398287684
 30
0.0
 11
6851.5020182939
 21
523.5006999029
 31
0.0
  0
ARC
  5
FB
  8
1
  6
CONTINUOUS
 62
     7
 10
6832.7231552939
 20
488.1827969029
 30
0.0
 40
40.0
 50
91.432544
 51
88.56745599999999
  0
ARC
  5
FC
  8
1
  6
CONTINUOUS
 62
     7
 10
6814.7109282939
 20
456.4367789029
 30
0.0
 40
1.0
 50
332.0
 51
60.43005599999997
  0
LINE
  5
FD
  8
1
  6
CONTINUOUS
 62
     7
 10
6809.2702142939
 20
516.1329229029
 30
0.0
 11
6807.0116510974
 21
518.824574738
 31
0.0
  0
ARC
  5
FE
  8
1
  6
CONTINUOUS
 62
     7
 10
6850.7353822939
 20
456.4367789029
 30
0.0
 40
1.0
 50
119.569944
 51
208.0
  0
ARC
  5
FF
  8
1
  6
CONTINUOUS
 62
     7
 10
6832.7231552939
 20
488.1827969029
 30
0.0
 40
35.5
 50
231.569944
 51
240.430056
  0
LINE
  5
100
  8
1
  6
CONTINUOUS
 62
     7
 10
6833.7231552939
 20
527.1827969029
 30
0.0
 11
6833.7231552939
 21
528.1702949029
 31
0.0
  0
ARC
  5
101
  8
1
  6
CONTINUOUS
 62
     7
 10
6832.7231552939
 20
488.1827969029
 30
0.0
 40
35.5
 50
209.569944
 51
218.430056
  0
LINE
  5
102
  8
1
  6
CONTINUOUS
 62
     7
 10
6868.0410593324
 20
469.4039339754
 30
0.0
 11
6864.9386452939
 21
471.0535169029
 31
0.0
  0
ARC
  5
103
  8
1
  6
CONTINUOUS
 62
     7
 10
6832.7231552939
 20
488.1827969029
 30
0.0
 40
35.5
 50
299.569944
 51
308.430056
  0
ARC
  5
104
  8
1
  6
CONTINUOUS
 62
     7
 10
6861.3160692939
 20
510.8696929028999
 30
0.0
 40
1.0
 50
130.0
 51
218.430056
  0
ARC
  5
105
  8
1
  6
CONTINUOUS
 62
     7
 10
6810.0362592939
 20
516.7757109029
 30
0.0
 40
1.0
 50
220.0
 51
308.430056
  0
ARC
  5
106
  8
1
  6
CONTINUOUS
 62
     7
 10
6864.4691732939
 20
506.1950239029001
 30
0.0
 40
1.0
 50
209.569944
 51
298.0
  0
LINE
  5
107
  8
1
  6
CONTINUOUS
 62
     7
 10
6860.6732822939
 20
511.6357379029001
 30
0.0
 11
6863.3649335422
 21
513.894300607
 31
0.0
  0
LINE
  5
108
  8
1
  6
CONTINUOUS
 62
     7
 10
6856.1760962939
 20
516.1329229029
 30
0.0
 11
6858.4346605877
 21
518.8245746563
 31
0.0
  0
ARC
  5
109
  8
1
  6
CONTINUOUS
 62
     7
 10
6832.7231552939
 20
488.1827969029
 30
0.0
 40
35.5
 50
321.569944
 51
330.4300559999999
  0
ARC
  5
10A
  8
1
  6
CONTINUOUS
 62
     7
 10
6832.7231552939
 20
488.1827969029
 30
0.0
 40
35.5
 50
51.56994399999999
 51
60.430056
  0
LINE
  5
10B
  8
1
  6
CONTINUOUS
 62
     7
 10
6831.7231552939
 20
527.1827969029
 30
0.0
 11
6833.7231552939
 21
527.1827969029
 31
0.0
  0
ARC
  5
10C
  8
1
  6
CONTINUOUS
 62
     7
 10
6832.7231552939
 20
488.1827969029
 30
0.0
 40
35.5
 50
141.569944
 51
150.430056
  0
LINE
  5
10D
  8
1
  6
CONTINUOUS
 62
     7
 10
6809.2702142939
 20
460.2326699029
 30
0.0
 11
6807.0116515898
 21
457.5410186546
 31
0.0
  0
ARC
  5
10E
  8
1
  6
CONTINUOUS
 62
     7
 10
6832.7231552939
 20
488.1827969029
 30
0.0
 40
35.5
 50
119.569944
 51
128.430056
  0
CIRCLE
  5
10F
  8
1
  6
CONTINUOUS
 62
     7
 10
6832.7231552939
 20
488.1827969029
 30
0.0
 40
25.664574
  0
ARC
  5
110
  8
1
  6
CONTINUOUS
 62
     7
 10
6804.1302412939
 20
465.4958999029
 30
0.0
 40
1.0
 50
310.0
 51
38.43005599999998
  0
LINE
  5
111
  8
1
  6
CONTINUOUS
 62
     7
 10
6851.5020182214
 20
452.8648928643
 30
0.0
 11
6849.8524352939
 21
455.9673069029
 31
0.0
  0
LINE
  5
112
  8
1
  6
CONTINUOUS
 62
     7
 10
6844.7231552939
 20
503.6827969029
 30
0.0
 11
6820.7231552939
 21
503.6827969029
 31
0.0
  0
LINE
  5
113
  8
1
  6
CONTINUOUS
 62
     7
 10
6817.2231552939
 20
500.1827969029
 30
0.0
 11
6817.2231552939
 21
476.1827969029
 31
0.0
  0
ARC
  5
114
  8
1
  6
CONTINUOUS
 62
     7
 10
6820.7231552939
 20
500.1827969029
 30
0.0
 40
3.5
 50
90.0
 51
180.0
  0
ARC
  5
115
  8
1
  6
CONTINUOUS
 62
     7
 10
6820.7231552939
 20
476.1827969029
 30
0.0
 40
3.5
 50
180.0
 51
270.0
  0
ARC
  5
116
  8
1
  6
CONTINUOUS
 62
     7
 10
6844.7231552939
 20
500.1827969029
 30
0.0
 40
3.5
 50
0.0
 51
90.0
  0
LINE
  5
117
  8
1
  6
CONTINUOUS
 62
     7
 10
6848.2231552939
 20
500.1827969029
 30
0.0
 11
6848.2231552939
 21
476.1827969029
 31
0.0
  0
LINE
  5
118
  8
1
  6
CONTINUOUS
 62
     7
 10
6813.9442925867
 20
452.8648932789
 30
0.0
 11
6815.5938752939
 21
455.9673069029
 31
0.0
  0
LINE
  5
119
  8
1
  6
CONTINUOUS
 62
     7
 10
6679.2231552939
 20
514.9943529029
 30
0.0
 11
6682.2231552939
 21
514.9943529029
 31
0.0
  0
ARC
  5
11A
  8
1
  6
CONTINUOUS
 62
     7
 10
6682.4314501169
 20
503.6715194204
 30
0.0
 40
0.3646409176
 50
49.0639262668
 51
66.5242696161
  0
ARC
  5
11B
  8
1
  6
CONTINUOUS
 62
     7
 10
6682.2266490218
 20
473.3157228018
 30
0.0
 40
1.0225988671
 50
269.8042475291
 51
282.4301179958
  0
ARC
  5
11C
  8
1
  6
CONTINUOUS
 62
     7
 10
6682.3320922915
 20
461.8074164552
 30
0.0
 40
0.4059639191
 50
307.0532481731
 51
326.4358818857
  0
LINE
  5
11D
  8
1
  6
CONTINUOUS
 62
     7
 10
6679.2231552939
 20
510.6803629029
 30
0.0
 11
6682.2231552939
 21
510.6803629029
 31
0.0
  0
ARC
  5
11E
  8
1
  6
CONTINUOUS
 62
     7
 10
6682.3002754384
 20
503.3810022855
 30
0.0
 40
0.6833818417
 50
66.1397165665
 51
77.6222816041
  0
ARC
  5
11F
  8
1
  6
CONTINUOUS
 62
     7
 10
6682.4314501169
 20
472.6940743854
 30
0.0
 40
0.3646409176
 50
293.4757303839
 51
310.9360737331999
  0
ARC
  5
120
  8
1
  6
CONTINUOUS
 62
     7
 10
6682.4893166121
 20
510.3546501155001
 30
0.0
 40
0.2338785789
 50
1.0583254869
 51
39.2738350586
  0
ARC
  5
121
  8
1
  6
CONTINUOUS
 62
     7
 10
6682.3776071479
 20
510.2687021813001
 30
0.0
 40
0.3747868697
 50
38.6347506398
 51
57.9107683316
  0
LINE
  5
122
  8
1
  6
CONTINUOUS
 62
     7
 10
6679.2231552939
 20
472.2931299029
 30
0.0
 11
6679.2231552939
 21
465.6852309029
 31
0.0
  0
LINE
  5
123
  8
1
  6
CONTINUOUS
 62
     7
 10
6682.2231552939
 20
472.2931299029
 30
0.0
 11
6679.2231552939
 21
472.2931299029
 31
0.0
  0
LINE
  5
124
  8
1
  6
CONTINUOUS
 62
     7
 10
6682.7231552939
 20
453.6827969029
 30
0.0
 11
6682.7231552939
 21
522.6683009029
 31
0.0
  0
ARC
  5
125
  8
1
  6
CONTINUOUS
 62
     7
 10
6682.2257576772
 20
466.4218459779
 30
0.0
 40
0.7366206719
 50
269.7975811745
 51
287.459088166
  0
ARC
  5
126
  8
1
  6
CONTINUOUS
 62
     7
 10
6682.4893166121
 20
466.0109436903
 30
0.0
 40
0.2338785789
 50
320.7261649414
 51
358.9416745131001
  0
ARC
  5
127
  8
1
  6
CONTINUOUS
 62
     7
 10
6682.2803365898
 20
510.1168688255
 30
0.0
 40
0.5551001025
 50
57.7301505706
 51
72.553706635
  0
LINE
  5
128
  8
1
  6
CONTINUOUS
 62
     7
 10
6679.2231552939
 20
465.6852309029
 30
0.0
 11
6682.2231552939
 21
465.6852309029
 31
0.0
  0
ARC
  5
129
  8
1
  6
CONTINUOUS
 62
     7
 10
6682.2266490218
 20
503.049871004
 30
0.0
 40
1.0225988671
 50
77.5698820043
 51
90.1957524709
  0
ARC
  5
12A
  8
1
  6
CONTINUOUS
 62
     7
 10
6682.2635045913
 20
461.897137454
 30
0.0
 40
0.5188965209
 50
290.6811897959
 51
307.1279103245
  0
ARC
  5
12B
  8
1
  6
CONTINUOUS
 62
     7
 10
6682.3776071479
 20
466.0968916245
 30
0.0
 40
0.3747868697
 50
302.0892316684
 51
321.3652493602
  0
LINE
  5
12C
  8
1
  6
CONTINUOUS
 62
     7
 10
6679.2231552939
 20
504.0724639028999
 30
0.0
 11
6679.2231552939
 21
510.6803629029
 31
0.0
  0
ARC
  5
12D
  8
1
  6
CONTINUOUS
 62
     7
 10
6682.2257576772
 20
509.9437478279
 30
0.0
 40
0.7366206719
 50
72.540911834
 51
90.2024188255
  0
ARC
  5
12E
  8
1
  6
CONTINUOUS
 62
     7
 10
6682.4107312565
 20
514.6088315229
 30
0.0
 40
0.3124340267
 50
0.4581708145000001
 51
33.7967662744
  0
ARC
  5
12F
  8
1
  6
CONTINUOUS
 62
     7
 10
6682.3320922915
 20
514.5581773506
 30
0.0
 40
0.4059639191
 50
33.56411811430001
 51
52.94675182690001
  0
ARC
  5
130
  8
1
  6
CONTINUOUS
 62
     7
 10
6682.2635045913
 20
514.4684563518
 30
0.0
 40
0.5188965209
 50
52.87208967550001
 51
69.3188102041
  0
LINE
  5
131
  8
1
  6
CONTINUOUS
 62
     7
 10
6679.2231552939
 20
519.3680249029
 30
0.0
 11
6679.2231552939
 21
514.9943529029
 31
0.0
  0
LINE
  5
132
  8
1
  6
CONTINUOUS
 62
     7
 10
6682.2231552939
 20
519.3680249029
 30
0.0
 11
6679.2231552939
 21
519.3680249029
 31
0.0
  0
ARC
  5
133
  8
1
  6
CONTINUOUS
 62
     7
 10
6682.5822487971
 20
503.8366813357
 30
0.0
 40
0.1411802471
 50
3.5686025666
 51
51.3789051512
  0
ARC
  5
134
  8
1
  6
CONTINUOUS
 62
     7
 10
6682.5822487971
 20
472.5289124701
 30
0.0
 40
0.1411802471
 50
308.6210948488001
 51
356.4313974332999
  0
ARC
  5
135
  8
1
  6
CONTINUOUS
 62
     7
 10
6682.2249991585
 20
514.3660796215
 30
0.0
 40
0.6282749871
 50
69.3308491429
 51
90.16815218639998
  0
LINE
  5
136
  8
1
  6
CONTINUOUS
 62
     7
 10
6642.2231552939
 20
462.1827969029
 30
0.0
 11
6642.2231552939
 21
514.1827969029
 31
0.0
  0
LINE
  5
137
  8
1
  6
CONTINUOUS
 62
     7
 10
6652.2231552939
 20
463.1827969029
 30
0.0
 11
6652.2231552939
 21
513.1827969029
 31
0.0
  0
LINE
  5
138
  8
1
  6
CONTINUOUS
 62
     7
 10
6656.2231552939
 20
463.1827969029
 30
0.0
 11
6656.2231552939
 21
513.1827969029
 31
0.0
  0
LINE
  5
139
  8
1
  6
CONTINUOUS
 62
     7
 10
6649.2231552939
 20
463.1827969029
 30
0.0
 11
6649.2231552939
 21
513.1827969029
 31
0.0
  0
LINE
  5
13A
  8
1
  6
CONTINUOUS
 62
     7
 10
6682.2231552939
 20
504.0724639028999
 30
0.0
 11
6679.2231552939
 21
504.0724639028999
 31
0.0
  0
ARC
  5
13B
  8
1
  6
CONTINUOUS
 62
     7
 10
6682.3002754384
 20
472.9845915203
 30
0.0
 40
0.6833818417
 50
282.3777183959
 51
293.8602834335
  0
ARC
  5
13C
  8
1
  6
CONTINUOUS
 62
     7
 10
6682.2249991585
 20
461.9995141843
 30
0.0
 40
0.6282749871
 50
269.8318478135999
 51
290.6691508571
  0
ARC
  5
13D
  8
1
  6
CONTINUOUS
 62
     7
 10
6682.4107312565
 20
461.7567622829
 30
0.0
 40
0.3124340267
 50
326.2032337256
 51
359.5418291855
  0
ARC
  5
13E
  8
1
  6
CONTINUOUS
 62
     7
 10
6682.2803365898
 20
466.2487249803
 30
0.0
 40
0.5551001025
 50
287.446293365
 51
302.2698494294
  0
INSERT
  5
140
  8
0
 62
     7
  2
D_FRAME_DRAWING_21
 10
0.0
 20
0.0
 30
0.0
  0
LINE
  5
18A
  8
1
  6
CONTINUOUS
 62
     7
 10
6557.7238012939
 20
462.1831679029
 30
0.0
 11
6557.223155293901
 21
462.1831667585
 31
0.0
  0
LINE
  5
18B
  8
1
  6
CONTINUOUS
 62
     7
 10
6528.7231552939
 20
508.9775372259
 30
0.0
 11
6524.223801293901
 21
462.1831599029
 31
0.0
  0
LINE
  5
18C
  8
1
  6
CONTINUOUS
 62
     7
 10
6527.723801293901
 20
462.1831679029
 30
0.0
 11
6528.7231552939
 21
472.5766896765
 31
0.0
  0
LINE
  5
18D
  8
1
  6
CONTINUOUS
 62
     7
 10
6523.359950520901
 20
512.1827969029
 30
0.0
 11
6522.723617717101
 21
514.1824559029
 31
0.0
  0
LINE
  5
18E
  8
1
  6
CONTINUOUS
 62
     7
 10
6519.2236172939
 20
514.1824639029
 30
0.0
 11
6518.2231552939
 21
503.7774154614
 31
0.0
  0
LINE
  5
18F
  8
1
  6
CONTINUOUS
 62
     7
 10
6518.2231552939
 20
467.376569512
 30
0.0
 11
6522.7236172939
 21
514.1824559029
 31
0.0
  0
ARC
  5
190
  8
1
  6
CONTINUOUS
 62
     7
 10
6531.723155293901
 20
520.1827969029
 30
0.0
 40
3.000000000000114
 50
90.0
 51
180.0
  0
LINE
  5
191
  8
1
  6
CONTINUOUS
 62
     7
 10
6523.8706092939
 20
464.1827969029
 30
0.0
 11
6524.223801293901
 21
462.1831599029
 31
0.0
  0
LINE
  5
192
  8
1
  6
CONTINUOUS
 62
     7
 10
6527.723801293901
 20
462.1831679029
 30
0.0
 11
6524.223801293901
 21
462.1831599029
 31
0.0
  0
LINE
  5
193
  8
1
  6
CONTINUOUS
 62
     7
 10
6519.2236172939
 20
514.1824639029
 30
0.0
 11
6522.7236172939
 21
514.1824559029
 31
0.0
  0
LINE
  5
194
  8
1
  6
CONTINUOUS
 62
     7
 10
6517.223155293901
 20
512.1827969029
 30
0.0
 11
6519.031346123101
 21
512.1827969029
 31
0.0
  0
LINE
  5
195
  8
1
  6
CONTINUOUS
 62
     7
 10
6528.7231672939
 20
517.8303419029
 30
0.0
 11
6528.7261262939
 21
517.8895079029
 31
0.0
  0
LINE
  5
196
  8
1
  6
CONTINUOUS
 62
     7
 10
6528.7231552939
 20
464.1827969029
 30
0.0
 11
6527.916068870101
 21
464.1827969029
 31
0.0
  0
ARC
  5
197
  8
1
  6
CONTINUOUS
 62
     7
 10
6531.723155293901
 20
456.1827969029
 30
0.0
 40
3.000000000000114
 50
180.0
 51
270.0
  0
LINE
  5
198
  8
1
  6
CENTER
 62
     7
 10
6407.5
 20
488.1827969029
 30
0.0
 11
6686.5187556918
 21
488.1827969029
 31
0.0
  0
TEXT
  5
199
  8
1
  6
CONTINUOUS
 62
     7
 10
6847.979963268476
 20
437.9115224286607
 30
0.0
 40
6.0
  1
KFEKH-30U
 41
1.373232
  0
LINE
  5
19A
  8
1
  6
CONTINUOUS
 62
     7
 10
6633.0758092939
 20
512.1827969029
 30
0.0
 11
6637.2231552939
 21
512.1827969029
 31
0.0
  0
LINE
  5
19B
  8
1
  6
CONTINUOUS
 62
     7
 10
6629.2236172939
 20
514.1824639029
 30
0.0
 11
6624.2238012939
 21
462.1831599029
 31
0.0
  0
LINE
  5
19C
  8
1
  6
CONTINUOUS
 62
     7
 10
6617.7238012939
 20
462.1831679029
 30
0.0
 11
6614.2238012939
 21
462.1831599029
 31
0.0
  0
LINE
  5
19D
  8
1
  6
CONTINUOUS
 62
     7
 10
6613.8706092939
 20
464.1827969029
 30
0.0
 11
6607.9160688701
 21
464.1827969029
 31
0.0
  0
LINE
  5
19E
  8
1
  6
CONTINUOUS
 62
     7
 10
6613.0758092939
 20
512.1827969029
 30
0.0
 11
6619.0313461231
 21
512.1827969029
 31
0.0
  0
LINE
  5
19F
  8
1
  6
CONTINUOUS
 62
     7
 10
6623.8706092939
 20
464.1827969029
 30
0.0
 11
6617.9160688701
 21
464.1827969029
 31
0.0
  0
LINE
  5
1A0
  8
1
  6
CONTINUOUS
 62
     7
 10
6613.8706092939
 20
464.1827969029
 30
0.0
 11
6614.2238012939
 21
462.1831599029
 31
0.0
  0
LINE
  5
1A1
  8
1
  6
CONTINUOUS
 62
     7
 10
6627.7238012939
 20
462.1831679029
 30
0.0
 11
6624.2238012939
 21
462.1831599029
 31
0.0
  0
LINE
  5
1A2
  8
1
  6
CONTINUOUS
 62
     7
 10
6629.2236172939
 20
514.1824639029
 30
0.0
 11
6632.7236172939
 21
514.1824559029
 31
0.0
  0
LINE
  5
1A3
  8
1
  6
CONTINUOUS
 62
     7
 10
6633.8706082939
 20
464.1827969029
 30
0.0
 11
6627.9160688701
 21
464.1827969029
 31
0.0
  0
LINE
  5
1A4
  8
1
  6
CONTINUOUS
 62
     7
 10
6623.8706092939
 20
464.1827969029
 30
0.0
 11
6624.2238012939
 21
462.1831599029
 31
0.0
  0
LINE
  5
1A5
  8
1
  6
CONTINUOUS
 62
     7
 10
6627.7238012939
 20
462.1831679029
 30
0.0
 11
6632.7236172939
 21
514.1824559029
 31
0.0
  0
LINE
  5
1A6
  8
1
  6
CONTINUOUS
 62
     7
 10
6619.2236172939
 20
514.1824639029
 30
0.0
 11
6622.7236172939
 21
514.1824559029
 31
0.0
  0
LINE
  5
1A7
  8
1
  6
CONTINUOUS
 62
     7
 10
6623.0758092939
 20
512.1827969029
 30
0.0
 11
6629.0313461231
 21
512.1827969029
 31
0.0
  0
LINE
  5
1A8
  8
1
  6
CONTINUOUS
 62
     7
 10
6623.3599505209
 20
512.1827969029
 30
0.0
 11
6622.7236177171
 21
514.1824559029
 31
0.0
  0
LINE
  5
1A9
  8
1
  6
CONTINUOUS
 62
     7
 10
6619.2236172939
 20
514.1824639029
 30
0.0
 11
6614.2238012939
 21
462.1831599029
 31
0.0
  0
LINE
  5
1AA
  8
1
  6
CONTINUOUS
 62
     7
 10
6617.7238012939
 20
462.1831679029
 30
0.0
 11
6622.7236172939
 21
514.1824559029
 31
0.0
  0
LINE
  5
1AB
  8
1
  6
CONTINUOUS
 62
     7
 10
6633.3599505209
 20
512.1827969029
 30
0.0
 11
6632.7236177171
 21
514.1824559029
 31
0.0
  0
LINE
  5
1AC
  8
1
  6
CONTINUOUS
 62
     7
 10
6637.2231552939
 20
493.3771719324
 30
0.0
 11
6637.2231552939
 21
514.1827969029
 31
0.0
  0
LINE
  5
1AD
  8
1
  6
CONTINUOUS
 62
     7
 10
6633.8706092939
 20
464.1827969029
 30
0.0
 11
6634.2238012939
 21
462.1831599029
 31
0.0
  0
LINE
  5
1AE
  8
1
  6
CONTINUOUS
 62
     7
 10
6599.2236172939
 20
514.1824639029
 30
0.0
 11
6602.7236172939
 21
514.1824559029
 31
0.0
  0
LINE
  5
1AF
  8
1
  6
CONTINUOUS
 62
     7
 10
6603.8706092939
 20
464.1827969029
 30
0.0
 11
6604.2238012939
 21
462.1831599029
 31
0.0
  0
LINE
  5
1B0
  8
1
  6
CONTINUOUS
 62
     7
 10
6593.8706092939
 20
464.1827969029
 30
0.0
 11
6594.2238012939
 21
462.1831599029
 31
0.0
  0
LINE
  5
1B1
  8
1
  6
CONTINUOUS
 62
     7
 10
6607.7238012939
 20
462.1831679029
 30
0.0
 11
6604.2238012939
 21
462.1831599029
 31
0.0
  0
LINE
  5
1B2
  8
1
  6
CONTINUOUS
 62
     7
 10
6579.2236172939
 20
514.1824639029
 30
0.0
 11
6582.7236172939
 21
514.1824559029
 31
0.0
  0
LINE
  5
1B3
  8
1
  6
CONTINUOUS
 62
     7
 10
6587.7238012939
 20
462.1831679029
 30
0.0
 11
6584.2238012939
 21
462.1831599029
 31
0.0
  0
LINE
  5
1B4
  8
1
  6
CONTINUOUS
 62
     7
 10
6599.2236172939
 20
514.1824639029
 30
0.0
 11
6594.2238012939
 21
462.1831599029
 31
0.0
  0
LINE
  5
1B5
  8
1
  6
CONTINUOUS
 62
     7
 10
6597.7238012939
 20
462.1831679029
 30
0.0
 11
6594.2238012939
 21
462.1831599029
 31
0.0
  0
LINE
  5
1B6
  8
1
  6
CONTINUOUS
 62
     7
 10
6613.3599505209
 20
512.1827969029
 30
0.0
 11
6612.7236177171
 21
514.1824559029
 31
0.0
  0
LINE
  5
1B7
  8
1
  6
CONTINUOUS
 62
     7
 10
6597.7238012939
 20
462.1831679029
 30
0.0
 11
6602.7236172939
 21
514.1824559029
 31
0.0
  0
LINE
  5
1B8
  8
1
  6
CONTINUOUS
 62
     7
 10
6603.8706092939
 20
464.1827969029
 30
0.0
 11
6597.9160688701
 21
464.1827969029
 31
0.0
  0
LINE
  5
1B9
  8
1
  6
CONTINUOUS
 62
     7
 10
6583.0758092939
 20
512.1827969029
 30
0.0
 11
6589.0313461231
 21
512.1827969029
 31
0.0
  0
LINE
  5
1BA
  8
1
  6
CONTINUOUS
 62
     7
 10
6593.0758092939
 20
512.1827969029
 30
0.0
 11
6599.0313461231
 21
512.1827969029
 31
0.0
  0
LINE
  5
1BB
  8
1
  6
CONTINUOUS
 62
     7
 10
6583.8706092939
 20
464.1827969029
 30
0.0
 11
6577.9160688701
 21
464.1827969029
 31
0.0
  0
LINE
  5
1BC
  8
1
  6
CONTINUOUS
 62
     7
 10
6583.8706092939
 20
464.1827969029
 30
0.0
 11
6584.2238012939
 21
462.1831599029
 31
0.0
  0
LINE
  5
1BD
  8
1
  6
CONTINUOUS
 62
     7
 10
6589.2236172939
 20
514.1824639029
 30
0.0
 11
6584.2238012939
 21
462.1831599029
 31
0.0
  0
LINE
  5
1BE
  8
1
  6
CONTINUOUS
 62
     7
 10
6583.3599505209
 20
512.1827969029
 30
0.0
 11
6582.7236177171
 21
514.1824559029
 31
0.0
  0
LINE
  5
1BF
  8
1
  6
CONTINUOUS
 62
     7
 10
6577.7238012939
 20
462.1831679029
 30
0.0
 11
6582.7236172939
 21
514.1824559029
 31
0.0
  0
LINE
  5
1C0
  8
1
  6
CONTINUOUS
 62
     7
 10
6637.2231552939
 20
493.3771719324
 30
0.0
 11
6634.2238012939
 21
462.1831599029
 31
0.0
  0
LINE
  5
1C1
  8
1
  6
CONTINUOUS
 62
     7
 10
6593.8706092939
 20
464.1827969029
 30
0.0
 11
6587.9160688701
 21
464.1827969029
 31
0.0
  0
LINE
  5
1C2
  8
1
  6
CONTINUOUS
 62
     7
 10
6603.0758092939
 20
512.1827969029
 30
0.0
 11
6609.0313461231
 21
512.1827969029
 31
0.0
  0
LINE
  5
1C3
  8
1
  6
CONTINUOUS
 62
     7
 10
6593.3599505209
 20
512.1827969029
 30
0.0
 11
6592.7236177171
 21
514.1824559029
 31
0.0
  0
LINE
  5
1C4
  8
1
  6
CONTINUOUS
 62
     7
 10
6587.7238012939
 20
462.1831679029
 30
0.0
 11
6592.7236172939
 21
514.1824559029
 31
0.0
  0
LINE
  5
1C5
  8
1
  6
CONTINUOUS
 62
     7
 10
6579.2236172939
 20
514.1824639029
 30
0.0
 11
6577.2231552939
 21
493.3771719324
 31
0.0
  0
LINE
  5
1C6
  8
1
  6
CONTINUOUS
 62
     7
 10
6607.7238012939
 20
462.1831679029
 30
0.0
 11
6612.7236172939
 21
514.1824559029
 31
0.0
  0
LINE
  5
1C7
  8
1
  6
CONTINUOUS
 62
     7
 10
6609.2236172939
 20
514.1824639029
 30
0.0
 11
6612.7236172939
 21
514.1824559029
 31
0.0
  0
LINE
  5
1C8
  8
1
  6
CONTINUOUS
 62
     7
 10
6609.2236172939
 20
514.1824639029
 30
0.0
 11
6604.2238012939
 21
462.1831599029
 31
0.0
  0
LINE
  5
1C9
  8
1
  6
CONTINUOUS
 62
     7
 10
6589.2236172939
 20
514.1824639029
 30
0.0
 11
6592.7236172939
 21
514.1824559029
 31
0.0
  0
LINE
  5
1CA
  8
1
  6
CONTINUOUS
 62
     7
 10
6577.2231552939
 20
512.1827969029
 30
0.0
 11
6579.0313461231
 21
512.1827969029
 31
0.0
  0
LINE
  5
1CB
  8
1
  6
CONTINUOUS
 62
     7
 10
6603.3599505209
 20
512.1827969029
 30
0.0
 11
6602.7236177171
 21
514.1824559029
 31
0.0
  0
LINE
  5
1CC
  8
1
  6
CONTINUOUS
 62
     7
 10
6682.2231552939
 20
453.1827969029
 30
0.0
 11
6677.2231552939
 21
453.1827969029
 31
0.0
  0
ARC
  5
1CD
  8
1
  6
CONTINUOUS
 62
     7
 10
6675.2231552939
 20
513.6827969029
 30
0.0
 40
2.0
 50
270.0
 51
0.0
  0
LINE
  5
1CE
  8
1
  6
CONTINUOUS
 62
     7
 10
6645.2231552939
 20
513.1827969029
 30
0.0
 11
6649.2231552939
 21
513.1827969029
 31
0.0
  0
LINE
  5
1CF
  8
1
  6
CONTINUOUS
 62
     7
 10
6656.2231552939
 20
463.1827969029
 30
0.0
 11
6652.2231552939
 21
463.1827969029
 31
0.0
  0
LINE
  5
1D0
  8
1
  6
CONTINUOUS
 62
     7
 10
6649.2231552939
 20
463.1827969029
 30
0.0
 11
6645.2231552939
 21
463.1827969029
 31
0.0
  0
ARC
  5
1D1
  8
1
  6
CONTINUOUS
 62
     7
 10
6682.2775766954
 20
518.899790865
 30
0.0
 40
0.4511703983
 50
29.4707239095
 51
48.46990643160002
  0
ARC
  5
1D2
  8
1
  6
CONTINUOUS
 62
     7
 10
6682.2433282498
 20
518.8613179287
 30
0.0
 40
0.5026787234
 50
48.4550232017
 51
66.1277006275
  0
ARC
  5
1D3
  8
1
  6
CONTINUOUS
 62
     7
 10
6682.2240818269
 20
518.8173727901
 30
0.0
 40
0.5506533923
 50
66.1469177972
 51
90.09640629440001
  0
ARC
  5
1D4
  8
1
  6
CONTINUOUS
 62
     7
 10
6682.3167815625
 20
518.9214655182
 30
0.0
 40
0.4063751044
 50
0.1489423322
 51
29.5296380816
  0
LINE
  5
1D5
  8
1
  6
CONTINUOUS
 62
     7
 10
6642.2231552939
 20
462.1827969029
 30
0.0
 11
6637.2196722939
 21
462.1827969029
 31
0.0
  0
ARC
  5
1D6
  8
1
  6
CONTINUOUS
 62
     7
 10
6675.2231552939
 20
462.6827969029
 30
0.0
 40
2.0
 50
0.0
 51
90.0
  0
LINE
  5
1D7
  8
1
  6
CONTINUOUS
 62
     7
 10
6637.2231552939
 20
514.1827969029
 30
0.0
 11
6642.2231552939
 21
514.1827969029
 31
0.0
  0
LINE
  5
1D8
  8
1
  6
CONTINUOUS
 62
     7
 10
6652.2231552939
 20
513.1827969029
 30
0.0
 11
6656.2231552939
 21
513.1827969029
 31
0.0
  0
LINE
  5
1D9
  8
1
  6
CONTINUOUS
 62
     7
 10
6675.2231552939
 20
464.6827969029
 30
0.0
 11
6663.7231552939
 21
464.6827969029
 31
0.0
  0
ARC
  5
1DA
  8
1
  6
CONTINUOUS
 62
     7
 10
6651.7231552939
 20
464.1827969029
 30
0.0
 40
0.5
 50
0.0
 51
90.0
  0
LINE
  5
1DB
  8
1
  6
CONTINUOUS
 62
     7
 10
6656.7231552939
 20
511.6827969029
 30
0.0
 11
6658.7231552939
 21
511.6827969029
 31
0.0
  0
LINE
  5
1DC
  8
1
  6
CONTINUOUS
 62
     7
 10
6682.2231552939
 20
523.1827969029
 30
0.0
 11
6677.2231552939
 21
523.1827969029
 31
0.0
  0
ARC
  5
1DD
  8
1
  6
CONTINUOUS
 62
     7
 10
6642.7231552939
 20
464.1827969029
 30
0.0
 40
0.5
 50
90.0
 51
180.0
  0
LINE
  5
1DE
  8
1
  6
CONTINUOUS
 62
     7
 10
6658.7231552939
 20
464.6827969029
 30
0.0
 11
6656.7231552939
 21
464.6827969029
 31
0.0
  0
ARC
  5
1DF
  8
1
  6
CONTINUOUS
 62
     7
 10
6649.7231552939
 20
464.1827969029
 30
0.0
 40
0.5
 50
90.0
 51
180.0
  0
ARC
  5
1E0
  8
1
  6
CONTINUOUS
 62
     7
 10
6682.2231552939
 20
522.6827969029
 30
0.0
 40
0.5
 50
0.0
 51
90.0
  0
ARC
  5
1E1
  8
1
  6
CONTINUOUS
 62
     7
 10
6656.7231552939
 20
464.1827969029
 30
0.0
 40
0.5
 50
90.0
 51
180.0
  0
ARC
  5
1E2
  8
1
  6
CONTINUOUS
 62
     7
 10
6642.7231552939
 20
512.1827969029
 30
0.0
 40
0.5
 50
180.0
 51
270.0
  0
ARC
  5
1E3
  8
1
  6
CONTINUOUS
 62
     7
 10
6656.7231552939
 20
512.1827969029
 30
0.0
 40
0.5
 50
180.0
 51
270.0
  0
LINE
  5
1E4
  8
1
  6
CONTINUOUS
 62
     7
 10
6642.7231552939
 20
511.6827969029
 30
0.0
 11
6644.7231552939
 21
511.6827969029
 31
0.0
  0
ARC
  5
1E5
  8
1
  6
CONTINUOUS
 62
     7
 10
6658.7231552939
 20
512.1827969029
 30
0.0
 40
0.5
 50
270.0
 51
0.0
  0
LINE
  5
1E6
  8
1
  6
CONTINUOUS
 62
     7
 10
6663.7231552939
 20
511.6827969029
 30
0.0
 11
6675.2231552939
 21
511.6827969029
 31
0.0
  0
ARC
  5
1E7
  8
1
  6
CONTINUOUS
 62
     7
 10
6682.2231552939
 20
453.6827969029
 30
0.0
 40
0.5
 50
270.0
 51
0.0
  0
ARC
  5
1E8
  8
1
  6
CONTINUOUS
 62
     7
 10
6658.7231552939
 20
464.1827969029
 30
0.0
 40
0.5
 50
0.0
 51
90.0
  0
LINE
  5
1E9
  8
1
  6
CONTINUOUS
 62
     7
 10
6644.7231552939
 20
464.6827969029
 30
0.0
 11
6642.7231552939
 21
464.6827969029
 31
0.0
  0
ARC
  5
1EA
  8
1
  6
CONTINUOUS
 62
     7
 10
6651.7231552939
 20
512.1827969029
 30
0.0
 40
0.5
 50
270.0
 51
0.0
  0
LINE
  5
1EB
  8
1
  6
CONTINUOUS
 62
     7
 10
6659.2231552939
 20
513.1827969029
 30
0.0
 11
6663.2231552939
 21
513.1827969029
 31
0.0
  0
ARC
  5
1EC
  8
1
  6
CONTINUOUS
 62
     7
 10
6649.7231552939
 20
512.1827969029
 30
0.0
 40
0.5
 50
180.0
 51
270.0
  0
ARC
  5
1ED
  8
1
  6
CONTINUOUS
 62
     7
 10
6644.7231552939
 20
464.1827969029
 30
0.0
 40
0.5
 50
0.0
 51
90.0
  0
ARC
  5
1EE
  8
1
  6
CONTINUOUS
 62
     7
 10
6663.7231552939
 20
512.1827969029
 30
0.0
 40
0.5
 50
180.0
 51
270.0
  0
LINE
  5
1EF
  8
1
  6
CONTINUOUS
 62
     7
 10
6651.7231552939
 20
464.6827969029
 30
0.0
 11
6649.7231552939
 21
464.6827969029
 31
0.0
  0
ARC
  5
1F0
  8
1
  6
CONTINUOUS
 62
     7
 10
6644.7231552939
 20
512.1827969029
 30
0.0
 40
0.5
 50
270.0
 51
0.0
  0
LINE
  5
1F1
  8
1
  6
CONTINUOUS
 62
     7
 10
6663.2231552939
 20
463.1827969029
 30
0.0
 11
6659.2231552939
 21
463.1827969029
 31
0.0
  0
ARC
  5
1F2
  8
1
  6
CONTINUOUS
 62
     7
 10
6663.7231552939
 20
464.1827969029
 30
0.0
 40
0.5
 50
90.0
 51
180.0
  0
LINE
  5
1F3
  8
1
  6
CONTINUOUS
 62
     7
 10
6649.7231552939
 20
511.6827969029
 30
0.0
 11
6651.7231552939
 21
511.6827969029
 31
0.0
  0
ENDSEC
  0
EOF
