  0
SECTION
  2
HEADER
  9
$ACADVER
  1
AC1006
  9
$DWGCODEPAGE
  3
ansi_932
  9
$INSBASE
 10
0.0
 20
0.0
 30
0.0
  9
$EXTMIN
 10
0.0
 20
-0.0000000000000017
  9
$EXTMAX
 10
6022.545810032113
 20
297.0
  9
$LIMMIN
 10
0.0
 20
0.0
  9
$LIMMAX
 10
12.0
 20
9.0
  9
$ORTHOMODE
 70
     0
  9
$REGENMODE
 70
     1
  9
$FILLMODE
 70
     1
  9
$QTEXTMODE
 70
     0
  9
$MIRRTEXT
 70
     1
  9
$DRAGMODE
 70
     2
  9
$LTSCALE
 40
1.0
  9
$OSMODE
 70
    37
  9
$ATTMODE
 70
     1
  9
$TEXTSIZE
 40
0.2
  9
$TRACEWID
 40
0.05
  9
$TEXTSTYLE
  7
STANDARD
  9
$CLAYER
  8
0
  9
$CELTYPE
  6
BYLAYER
  9
$CECOLOR
 62
   256
  9
$DIMSCALE
 40
1.0
  9
$DIMASZ
 40
0.9
  9
$DIMEXO
 40
0.0625
  9
$DIMDLI
 40
0.38
  9
$DIMRND
 40
0.0
  9
$DIMDLE
 40
0.0
  9
$DIMEXE
 40
0.45
  9
$DIMTP
 40
0.0
  9
$DIMTM
 40
0.0
  9
$DIMTXT
 40
3.0
  9
$DIMCEN
 40
0.09
  9
$DIMTSZ
 40
0.0
  9
$DIMTOL
 70
     0
  9
$DIMLIM
 70
     0
  9
$DIMTIH
 70
     1
  9
$DIMTOH
 70
     1
  9
$DIMSE1
 70
     0
  9
$DIMSE2
 70
     0
  9
$DIMTAD
 70
     1
  9
$DIMZIN
 70
     0
  9
$DIMBLK
  1

  9
$DIMASO
 70
     1
  9
$DIMSHO
 70
     1
  9
$DIMPOST
  1

  9
$DIMAPOST
  1

  9
$DIMALT
 70
     0
  9
$DIMALTD
 70
     2
  9
$DIMALTF
 40
25.4
  9
$DIMLFAC
 40
1.0
  9
$DIMTOFL
 70
     0
  9
$DIMTVP
 40
0.0
  9
$DIMTIX
 70
     0
  9
$DIMSOXD
 70
     0
  9
$DIMSAH
 70
     0
  9
$DIMBLK1
  1

  9
$DIMBLK2
  1

  9
$LUNITS
 70
     2
  9
$LUPREC
 70
     4
  9
$SKETCHINC
 40
0.1
  9
$FILLETRAD
 40
0.5
  9
$AUNITS
 70
     0
  9
$AUPREC
 70
     0
  9
$MENU
  1
.
  9
$ELEVATION
 40
0.0
  9
$THICKNESS
 40
0.0
  9
$LIMCHECK
 70
     0
  9
$CHAMFERA
 40
0.0
  9
$CHAMFERB
 40
0.0
  9
$SKPOLY
 70
     0
  9
$TDCREATE
 40
2459986.485923634
  9
$TDUPDATE
 40
2459986.485924143
  9
$TDINDWG
 40
0.0000000116
  9
$TDUSRTIMER
 40
0.0000000116
  9
$USRTIMER
 70
     1
  9
$ANGBASE
 50
0.0
  9
$ANGDIR
 70
     0
  9
$PDMODE
 70
     0
  9
$PDSIZE
 40
0.0
  9
$PLINEWID
 40
0.0
  9
$COORDS
 70
     1
  9
$SPLFRAME
 70
     0
  9
$SPLINETYPE
 70
     6
  9
$SPLINESEGS
 70
     8
  9
$ATTDIA
 70
     0
  9
$ATTREQ
 70
     1
  9
$HANDLING
 70
     1
  9
$HANDSEED
  5
2DC
  9
$SURFTAB1
 70
     6
  9
$SURFTAB2
 70
     6
  9
$SURFTYPE
 70
     6
  9
$SURFU
 70
     6
  9
$SURFV
 70
     6
  9
$UCSNAME
  2

  9
$UCSORG
 10
0.0
 20
0.0
 30
0.0
  9
$UCSXDIR
 10
1.0
 20
0.0
 30
0.0
  9
$UCSYDIR
 10
0.0
 20
1.0
 30
0.0
  9
$USERI1
 70
     0
  9
$USERI2
 70
     0
  9
$USERI3
 70
     0
  9
$USERI4
 70
     0
  9
$USERI5
 70
     0
  9
$USERR1
 40
0.0
  9
$USERR2
 40
0.0
  9
$USERR3
 40
0.0
  9
$USERR4
 40
0.0
  9
$USERR5
 40
0.0
  9
$WORLDVIEW
 70
     1
  0
ENDSEC
  0
SECTION
  2
TABLES
  0
TABLE
  2
VPORT
 70
     1
  0
VPORT
  2
*ACTIVE
 70
     0
 10
0.0
 20
0.0
 11
1.0
 21
1.0
 12
3011.272905016056
 22
148.5
 13
0.0
 23
0.0
 14
0.5
 24
0.5
 15
0.5
 25
0.5
 16
0.0
 26
0.0
 36
1.0
 17
0.0
 27
0.0
 37
0.0
 40
297.0
 41
1.6
 42
50.0
 43
0.0
 44
0.0
 50
0.0
 51
0.0
 71
     0
 72
   100
 73
     1
 74
     3
 75
     0
 76
     0
 77
     0
 78
     0
  0
ENDTAB
  0
TABLE
  2
LTYPE
 70
     2
  0
LTYPE
  2
CONTINUOUS
 70
     0
  3
Solid line
 72
    65
 73
     0
 40
0.0
  0
LTYPE
  2
CENTER
 70
     0
  3

 72
    65
 73
     0
 40
0.0
  0
ENDTAB
  0
TABLE
  2
LAYER
 70
     2
  0
LAYER
  2
0
 70
     0
 62
     7
  6
CONTINUOUS
  0
LAYER
  2
1
 70
     0
 62
     7
  6
CONTINUOUS
  0
ENDTAB
  0
TABLE
  2
STYLE
 70
     2
  0
STYLE
  2
STANDARD
 70
     0
 40
0.0
 41
1.0
 50
0.0
 71
     0
 42
0.2
  3
txt
  4

  0
STYLE
  2
ＭＳ_ゴシック
 70
     0
 40
0.0
 41
1.0
 50
0.0
 71
     0
 42
0.2
  3
ＭＳ ゴシック.shx
  4

  0
ENDTAB
  0
TABLE
  2
VIEW
 70
     0
  0
ENDTAB
  0
TABLE
  2
UCS
 70
     0
  0
ENDTAB
  0
ENDSEC
  0
SECTION
  2
BLOCKS
  0
BLOCK
  8
0
  2
D_FRAME_DRAWING_21
 70
     0
 10
0.0
 20
0.0
 30
0.0
  0
LINE
  5
20E
  8
0
  6
CONTINUOUS
 62
     7
 10
0.0
 20
0.0
 30
0.0
 11
420.0
 21
0.0
 31
0.0
  0
LINE
  5
20F
  8
0
  6
CONTINUOUS
 62
     7
 10
420.0
 20
0.0
 30
0.0
 11
420.0
 21
297.0
 31
0.0
  0
LINE
  5
210
  8
0
  6
CONTINUOUS
 62
     7
 10
420.0
 20
297.0
 30
0.0
 11
0.0
 21
297.0
 31
0.0
  0
LINE
  5
211
  8
0
  6
CONTINUOUS
 62
     7
 10
0.0
 20
297.0
 30
0.0
 11
0.0
 21
0.0
 31
0.0
  0
LINE
  5
212
  8
0
  6
CONTINUOUS
 62
     7
 10
10.0
 20
10.0
 30
0.0
 11
409.9999999999999
 21
10.0
 31
0.0
  0
LINE
  5
213
  8
0
  6
CONTINUOUS
 62
     7
 10
409.9999999999999
 20
10.0
 30
0.0
 11
409.9999999999999
 21
286.9999999999999
 31
0.0
  0
LINE
  5
214
  8
0
  6
CONTINUOUS
 62
     7
 10
409.9999999999999
 20
286.9999999999999
 30
0.0
 11
10.00000000000006
 21
286.9999999999999
 31
0.0
  0
LINE
  5
215
  8
0
  6
CONTINUOUS
 62
     7
 10
10.0
 20
286.9999999999999
 30
0.0
 11
10.0
 21
10.00000000000001
 31
0.0
  0
LINE
  5
216
  8
0
  6
CONTINUOUS
 62
     7
 10
210.0
 20
0.0
 30
0.0
 11
210.0
 21
10.0
 31
0.0
  0
LINE
  5
217
  8
0
  6
CONTINUOUS
 62
     7
 10
420.0
 20
148.5
 30
0.0
 11
409.9999999999999
 21
148.5
 31
0.0
  0
LINE
  5
218
  8
0
  6
CONTINUOUS
 62
     7
 10
210.0
 20
297.0
 30
0.0
 11
210.0
 21
286.9999999999999
 31
0.0
  0
LINE
  5
219
  8
0
  6
CONTINUOUS
 62
     7
 10
0.0
 20
148.5
 30
0.0
 11
10.0
 21
148.5
 31
0.0
  0
POLYLINE
  5
21A
  8
0
  6
CONTINUOUS
 62
     7
 66
     1
 10
0.0
 20
0.0
 30
0.0
 70
     1
  0
VERTEX
  5
287
  8
0
  6
CONTINUOUS
 62
     7
 10
11.0
 20
152.5
 30
0.0
  0
VERTEX
  5
288
  8
0
  6
CONTINUOUS
 62
     7
 10
0.0
 20
148.5
 30
0.0
  0
VERTEX
  5
289
  8
0
  6
CONTINUOUS
 62
     7
 10
11.0
 20
144.5
 30
0.0
  0
VERTEX
  5
28A
  8
0
  6
CONTINUOUS
 62
     7
 10
11.0
 20
152.5
 30
0.0
  0
SEQEND
  5
2DA
  8
0
  6
CONTINUOUS
 62
     7
  0
INSERT
  5
21B
  8
0
 62
     7
  2
*U21
 10
0.0
 20
0.0
 30
0.0
  0
POLYLINE
  5
21C
  8
0
  6
CONTINUOUS
 62
     7
 66
     1
 10
0.0
 20
0.0
 30
0.0
 70
     1
  0
VERTEX
  5
28D
  8
0
  6
CONTINUOUS
 62
     7
 10
206.0
 20
11.0
 30
0.0
  0
VERTEX
  5
28E
  8
0
  6
CONTINUOUS
 62
     7
 10
210.0
 20
0.0
 30
0.0
  0
VERTEX
  5
28F
  8
0
  6
CONTINUOUS
 62
     7
 10
214.0
 20
11.0
 30
0.0
  0
VERTEX
  5
290
  8
0
  6
CONTINUOUS
 62
     7
 10
206.0
 20
11.0
 30
0.0
  0
SEQEND
  5
2DB
  8
0
  6
CONTINUOUS
 62
     7
  0
INSERT
  5
21D
  8
0
 62
     7
  2
*U22
 10
0.0
 20
0.0
 30
0.0
  0
LINE
  5
21E
  8
0
  6
CONTINUOUS
 62
     7
 10
367.5
 20
286.9999999999999
 30
0.0
 11
367.5
 21
292.0
 31
0.0
  0
TEXT
  5
21F
  8
0
  6
CONTINUOUS
 62
     7
 10
391.6340909090909
 20
291.8324293485057
 30
0.0
 40
3.5
  1
A
 50
270.0
  0
LINE
  5
220
  8
0
  6
CONTINUOUS
 62
     7
 10
367.5
 20
10.0
 30
0.0
 11
367.5
 21
5.0
 31
0.0
  0
TEXT
  5
221
  8
0
  6
CONTINUOUS
 62
     7
 10
392.9868888333125
 20
4.602272727272727
 30
0.0
 40
3.5
  1
A
  0
LINE
  5
222
  8
0
  6
CONTINUOUS
 62
     7
 10
315.0
 20
286.9999999999999
 30
0.0
 11
315.0
 21
292.0
 31
0.0
  0
TEXT
  5
223
  8
0
  6
CONTINUOUS
 62
     7
 10
339.1340909090909
 20
291.9745607727899
 30
0.0
 40
3.5
  1
B
 50
270.0
  0
LINE
  5
224
  8
0
  6
CONTINUOUS
 62
     7
 10
315.0
 20
10.0
 30
0.0
 11
315.0
 21
5.0
 31
0.0
  0
TEXT
  5
225
  8
0
  6
CONTINUOUS
 62
     7
 10
340.3447574090284
 20
4.602272727272727
 30
0.0
 40
3.5
  1
B
  0
LINE
  5
226
  8
0
  6
CONTINUOUS
 62
     7
 10
262.5
 20
286.9999999999999
 30
0.0
 11
262.5
 21
292.0
 31
0.0
  0
TEXT
  5
227
  8
0
  6
CONTINUOUS
 62
     7
 10
286.6327779167187
 20
291.9399305989747
 30
0.0
 40
3.5
  1
C
 50
270.0
  0
LINE
  5
228
  8
0
  6
CONTINUOUS
 62
     7
 10
262.5
 20
10.0
 30
0.0
 11
262.5
 21
5.0
 31
0.0
  0
TEXT
  5
229
  8
0
  6
CONTINUOUS
 62
     7
 10
287.8793875828435
 20
4.600959734900587
 30
0.0
 40
3.5
  1
C
  0
LINE
  5
22A
  8
0
  6
CONTINUOUS
 62
     7
 10
210.0
 20
286.9999999999999
 30
0.0
 11
210.0
 21
292.0
 31
0.0
  0
TEXT
  5
22B
  8
0
  6
CONTINUOUS
 62
     7
 10
234.1340909090909
 20
291.9745607727898
 30
0.0
 40
3.5
  1
D
 50
270.0
  0
LINE
  5
22C
  8
0
  6
CONTINUOUS
 62
     7
 10
157.5
 20
286.9999999999999
 30
0.0
 11
157.5
 21
292.0
 31
0.0
  0
TEXT
  5
22D
  8
0
  6
CONTINUOUS
 62
     7
 10
181.6327779167188
 20
292.027463423784
 30
0.0
 40
3.5
  1
E
 50
270.0
  0
LINE
  5
22E
  8
0
  6
CONTINUOUS
 62
     7
 10
157.5
 20
10.0
 30
0.0
 11
157.5
 21
5.0
 31
0.0
  0
LINE
  5
22F
  8
0
  6
CONTINUOUS
 62
     7
 10
105.0
 20
286.9999999999999
 30
0.0
 11
105.0
 21
292.0
 31
0.0
  0
TEXT
  5
230
  8
0
  6
CONTINUOUS
 62
     7
 10
129.1327779167188
 20
291.9924502938602
 30
0.0
 40
3.5
  1
F
 50
270.0
  0
LINE
  5
231
  8
0
  6
CONTINUOUS
 62
     7
 10
105.0
 20
10.0
 30
0.0
 11
105.0
 21
5.0
 31
0.0
  0
TEXT
  5
232
  8
0
  6
CONTINUOUS
 62
     7
 10
130.326867887958
 20
4.600959734900587
 30
0.0
 40
3.5
  1
F
  0
LINE
  5
233
  8
0
  6
CONTINUOUS
 62
     7
 10
52.50000000000004
 20
286.9999999999999
 30
0.0
 11
52.50000000000004
 21
292.0
 31
0.0
  0
TEXT
  5
234
  8
0
  6
CONTINUOUS
 62
     7
 10
76.6327779167188
 20
291.9399305989746
 30
0.0
 40
3.5
  1
G
 50
270.0
  0
LINE
  5
235
  8
0
  6
CONTINUOUS
 62
     7
 10
52.50000000000004
 20
10.0
 30
0.0
 11
52.50000000000004
 21
5.0
 31
0.0
  0
TEXT
  5
236
  8
0
  6
CONTINUOUS
 62
     7
 10
77.8793875828436
 20
4.600959734900587
 30
0.0
 40
3.5
  1
G
  0
TEXT
  5
237
  8
0
  6
CONTINUOUS
 62
     7
 10
24.13277791671879
 20
291.9749437288983
 30
0.0
 40
3.5
  1
H
 50
270.0
  0
TEXT
  5
238
  8
0
  6
CONTINUOUS
 62
     7
 10
25.34437445291988
 20
4.600959734900587
 30
0.0
 40
3.5
  1
H
  0
LINE
  5
239
  8
0
  6
CONTINUOUS
 62
     7
 10
409.9999999999999
 20
74.25
 30
0.0
 11
414.9999999999999
 21
74.25
 31
0.0
  0
TEXT
  5
23A
  8
0
  6
CONTINUOUS
 62
     7
 10
412.9326059772414
 20
35.00777791671877
 30
0.0
 40
3.5
  1
1
  0
LINE
  5
23B
  8
0
  6
CONTINUOUS
 62
     7
 10
10.0
 20
74.25
 30
0.0
 11
5.0
 21
74.25
 31
0.0
  0
TEXT
  5
23C
  8
0
  6
CONTINUOUS
 62
     7
 10
4.600959734900584
 20
38.26171220457671
 30
0.0
 40
3.5
  1
1
 50
270.0
  0
LINE
  5
23D
  8
0
  6
CONTINUOUS
 62
     7
 10
409.9999999999999
 20
148.5
 30
0.0
 11
414.9999999999999
 21
148.5
 31
0.0
  0
TEXT
  5
23E
  8
0
  6
CONTINUOUS
 62
     7
 10
413.163692634738
 20
109.2577779167188
 30
0.0
 40
3.5
  1
2
  0
LINE
  5
23F
  8
0
  6
CONTINUOUS
 62
     7
 10
10.0
 20
148.5
 30
0.0
 11
5.0
 21
148.5
 31
0.0
  0
TEXT
  5
240
  8
0
  6
CONTINUOUS
 62
     7
 10
4.600959734900599
 20
112.2806255470802
 30
0.0
 40
3.5
  1
2
 50
270.0
  0
LINE
  5
241
  8
0
  6
CONTINUOUS
 62
     7
 10
409.9999999999999
 20
222.75
 30
0.0
 11
414.9999999999999
 21
222.75
 31
0.0
  0
TEXT
  5
242
  8
0
  6
CONTINUOUS
 62
     7
 10
413.1811991996998
 20
183.5077779167188
 30
0.0
 40
3.5
  1
3
  0
LINE
  5
243
  8
0
  6
CONTINUOUS
 62
     7
 10
10.0
 20
222.75
 30
0.0
 11
5.0
 21
222.75
 31
0.0
  0
TEXT
  5
244
  8
0
  6
CONTINUOUS
 62
     7
 10
4.600959734900584
 20
186.5131189821183
 30
0.0
 40
3.5
  1
3
 50
270.0
  0
TEXT
  5
245
  8
0
  6
CONTINUOUS
 62
     7
 10
413.2351413029886
 20
257.7590909090909
 30
0.0
 40
3.5
  1
4
  0
TEXT
  5
246
  8
0
  6
CONTINUOUS
 62
     7
 10
4.60227272727272
 20
260.7091768788295
 30
0.0
 40
3.5
  1
4
 50
270.0
  0
LINE
  5
247
  8
0
  6
CONTINUOUS
 62
     7
 10
220.0
 20
10.0
 30
0.0
 11
220.0
 21
7.0
 31
0.0
  0
LINE
  5
248
  8
0
  6
CONTINUOUS
 62
     7
 10
200.0
 20
10.0
 30
0.0
 11
200.0
 21
7.0
 31
0.0
  0
LINE
  5
249
  8
0
  6
CONTINUOUS
 62
     7
 10
230.0
 20
10.0
 30
0.0
 11
230.0
 21
7.0
 31
0.0
  0
LINE
  5
24A
  8
0
  6
CONTINUOUS
 62
     7
 10
190.0
 20
10.0
 30
0.0
 11
190.0
 21
7.0
 31
0.0
  0
LINE
  5
24B
  8
0
  6
CONTINUOUS
 62
     7
 10
240.0
 20
10.0
 30
0.0
 11
240.0
 21
7.0
 31
0.0
  0
LINE
  5
24C
  8
0
  6
CONTINUOUS
 62
     7
 10
180.0
 20
10.0
 30
0.0
 11
180.0
 21
7.0
 31
0.0
  0
LINE
  5
24D
  8
0
  6
CONTINUOUS
 62
     7
 10
250.0
 20
10.0
 30
0.0
 11
250.0
 21
7.0
 31
0.0
  0
LINE
  5
24E
  8
0
  6
CONTINUOUS
 62
     7
 10
170.0
 20
10.0
 30
0.0
 11
170.0
 21
7.0
 31
0.0
  0
LINE
  5
24F
  8
0
  6
CONTINUOUS
 62
     7
 10
260.0
 20
10.0
 30
0.0
 11
260.0
 21
5.0
 31
0.0
  0
LINE
  5
250
  8
0
  6
CONTINUOUS
 62
     7
 10
160.0
 20
10.0
 30
0.0
 11
160.0
 21
5.0
 31
0.0
  0
LINE
  5
251
  8
0
  6
CONTINUOUS
 62
     7
 10
260.0
 20
10.0
 30
0.0
 11
160.0
 21
10.0
 31
0.0
  0
LINE
  5
252
  8
0
  6
CONTINUOUS
 62
     7
 10
260.0
 20
7.0
 30
0.0
 11
160.0
 21
7.0
 31
0.0
  0
INSERT
  5
253
  8
0
 62
     7
  2
*U23
 10
0.0
 20
0.0
 30
0.0
  0
INSERT
  5
254
  8
0
 62
     7
  2
*U24
 10
0.0
 20
0.0
 30
0.0
  0
INSERT
  5
255
  8
0
 62
     7
  2
*U25
 10
0.0
 20
0.0
 30
0.0
  0
INSERT
  5
256
  8
0
 62
     7
  2
*U26
 10
0.0
 20
0.0
 30
0.0
  0
ENDBLK
  8
0
  0
BLOCK
  8
0
  2
*U2
 70
     1
 10
0.0
 20
0.0
 30
0.0
  0
SOLID
  5
260
  8
0
  6
CONTINUOUS
 62
     7
 10
11.0
 20
144.5
 30
0.0
 11
6.999999999999999
 21
148.5
 31
0.0
 12
11.0
 22
152.5
 32
0.0
 13
11.0
 23
152.5
 33
0.0
  0
ENDBLK
  8
0
  0
BLOCK
  8
0
  2
*U3
 70
     1
 10
0.0
 20
0.0
 30
0.0
  0
SOLID
  5
262
  8
0
  6
CONTINUOUS
 62
     7
 10
210.0
 20
6.999999999999999
 30
0.0
 11
206.0
 21
11.0
 31
0.0
 12
210.0
 22
11.0
 32
0.0
 13
210.0
 23
11.0
 33
0.0
  0
ENDBLK
  8
0
  0
BLOCK
  8
0
  2
*U4
 70
     1
 10
0.0
 20
0.0
 30
0.0
  0
SOLID
  5
264
  8
0
  6
CONTINUOUS
 62
     7
 10
210.0
 20
6.999999999999999
 30
0.0
 11
210.0
 21
11.0
 31
0.0
 12
214.0
 22
11.0
 32
0.0
 13
214.0
 23
11.0
 33
0.0
  0
ENDBLK
  8
0
  0
BLOCK
  8
0
  2
*U5
 70
     1
 10
0.0
 20
0.0
 30
0.0
  0
SOLID
  5
266
  8
0
  6
CONTINUOUS
 62
     7
 10
0.0
 20
0.0
 30
0.0
 11
0.0
 21
10.0
 31
0.0
 12
2.0
 22
0.0
 32
0.0
 13
2.0
 23
0.0
 33
0.0
  0
ENDBLK
  8
0
  0
BLOCK
  8
0
  2
*U6
 70
     1
 10
0.0
 20
0.0
 30
0.0
  0
SOLID
  5
268
  8
0
  6
CONTINUOUS
 62
     7
 10
2.0
 20
0.0
 30
0.0
 11
0.0
 21
10.0
 31
0.0
 12
2.0
 22
10.0
 32
0.0
 13
2.0
 23
10.0
 33
0.0
  0
ENDBLK
  8
0
  0
BLOCK
  8
0
  2
*U7
 70
     1
 10
0.0
 20
0.0
 30
0.0
  0
SOLID
  5
26A
  8
0
  6
CONTINUOUS
 62
     7
 10
2.0
 20
0.0
 30
0.0
 11
2.0
 21
2.0
 31
0.0
 12
10.0
 22
0.0
 32
0.0
 13
10.0
 23
0.0
 33
0.0
  0
ENDBLK
  8
0
  0
BLOCK
  8
0
  2
*U8
 70
     1
 10
0.0
 20
0.0
 30
0.0
  0
SOLID
  5
26C
  8
0
  6
CONTINUOUS
 62
     7
 10
10.0
 20
0.0
 30
0.0
 11
2.0
 21
2.0
 31
0.0
 12
10.0
 22
2.0
 32
0.0
 13
10.0
 23
2.0
 33
0.0
  0
ENDBLK
  8
0
  0
BLOCK
  8
0
  2
*U9
 70
     1
 10
0.0
 20
0.0
 30
0.0
  0
SOLID
  5
26E
  8
0
  6
CONTINUOUS
 62
     7
 10
409.9999999999999
 20
0.0
 30
0.0
 11
409.9999999999999
 21
2.0
 31
0.0
 12
418.0
 22
0.0
 32
0.0
 13
418.0
 23
0.0
 33
0.0
  0
ENDBLK
  8
0
  0
BLOCK
  8
0
  2
*U10
 70
     1
 10
0.0
 20
0.0
 30
0.0
  0
SOLID
  5
270
  8
0
  6
CONTINUOUS
 62
     7
 10
418.0
 20
0.0
 30
0.0
 11
409.9999999999999
 21
2.0
 31
0.0
 12
418.0
 22
2.0
 32
0.0
 13
418.0
 23
2.0
 33
0.0
  0
ENDBLK
  8
0
  0
BLOCK
  8
0
  2
*U11
 70
     1
 10
0.0
 20
0.0
 30
0.0
  0
SOLID
  5
272
  8
0
  6
CONTINUOUS
 62
     7
 10
418.0
 20
0.0
 30
0.0
 11
418.0
 21
10.0
 31
0.0
 12
420.0
 22
0.0
 32
0.0
 13
420.0
 23
0.0
 33
0.0
  0
ENDBLK
  8
0
  0
BLOCK
  8
0
  2
*U12
 70
     1
 10
0.0
 20
0.0
 30
0.0
  0
SOLID
  5
274
  8
0
  6
CONTINUOUS
 62
     7
 10
420.0
 20
0.0
 30
0.0
 11
418.0
 21
10.0
 31
0.0
 12
420.0
 22
10.0
 32
0.0
 13
420.0
 23
10.0
 33
0.0
  0
ENDBLK
  8
0
  0
BLOCK
  8
0
  2
*U13
 70
     1
 10
0.0
 20
0.0
 30
0.0
  0
SOLID
  5
276
  8
0
  6
CONTINUOUS
 62
     7
 10
409.9999999999999
 20
295.0
 30
0.0
 11
409.9999999999999
 21
297.0
 31
0.0
 12
418.0
 22
295.0
 32
0.0
 13
418.0
 23
295.0
 33
0.0
  0
ENDBLK
  8
0
  0
BLOCK
  8
0
  2
*U14
 70
     1
 10
0.0
 20
0.0
 30
0.0
  0
SOLID
  5
278
  8
0
  6
CONTINUOUS
 62
     7
 10
418.0
 20
295.0
 30
0.0
 11
409.9999999999999
 21
297.0
 31
0.0
 12
418.0
 22
297.0
 32
0.0
 13
418.0
 23
297.0
 33
0.0
  0
ENDBLK
  8
0
  0
BLOCK
  8
0
  2
*U15
 70
     1
 10
0.0
 20
0.0
 30
0.0
  0
SOLID
  5
27A
  8
0
  6
CONTINUOUS
 62
     7
 10
418.0
 20
286.9999999999999
 30
0.0
 11
418.0
 21
297.0
 31
0.0
 12
420.0
 22
286.9999999999999
 32
0.0
 13
420.0
 23
286.9999999999999
 33
0.0
  0
ENDBLK
  8
0
  0
BLOCK
  8
0
  2
*U16
 70
     1
 10
0.0
 20
0.0
 30
0.0
  0
SOLID
  5
27C
  8
0
  6
CONTINUOUS
 62
     7
 10
420.0
 20
286.9999999999999
 30
0.0
 11
418.0
 21
297.0
 31
0.0
 12
420.0
 22
297.0
 32
0.0
 13
420.0
 23
297.0
 33
0.0
  0
ENDBLK
  8
0
  0
BLOCK
  8
0
  2
*U17
 70
     1
 10
0.0
 20
0.0
 30
0.0
  0
SOLID
  5
27E
  8
0
  6
CONTINUOUS
 62
     7
 10
0.0
 20
286.9999999999999
 30
0.0
 11
0.0
 21
297.0
 31
0.0
 12
2.0
 22
286.9999999999999
 32
0.0
 13
2.0
 23
286.9999999999999
 33
0.0
  0
ENDBLK
  8
0
  0
BLOCK
  8
0
  2
*U18
 70
     1
 10
0.0
 20
0.0
 30
0.0
  0
SOLID
  5
280
  8
0
  6
CONTINUOUS
 62
     7
 10
2.0
 20
286.9999999999999
 30
0.0
 11
0.0
 21
297.0
 31
0.0
 12
2.0
 22
297.0
 32
0.0
 13
2.0
 23
297.0
 33
0.0
  0
ENDBLK
  8
0
  0
BLOCK
  8
0
  2
*U19
 70
     1
 10
0.0
 20
0.0
 30
0.0
  0
SOLID
  5
282
  8
0
  6
CONTINUOUS
 62
     7
 10
2.0
 20
295.0
 30
0.0
 11
2.0
 21
297.0
 31
0.0
 12
10.0
 22
295.0
 32
0.0
 13
10.0
 23
295.0
 33
0.0
  0
ENDBLK
  8
0
  0
BLOCK
  8
0
  2
*U20
 70
     1
 10
0.0
 20
0.0
 30
0.0
  0
SOLID
  5
284
  8
0
  6
CONTINUOUS
 62
     7
 10
10.0
 20
295.0
 30
0.0
 11
2.0
 21
297.0
 31
0.0
 12
10.0
 22
297.0
 32
0.0
 13
10.0
 23
297.0
 33
0.0
  0
ENDBLK
  8
0
  0
BLOCK
  8
0
  2
*U21
 70
     1
 10
0.0
 20
0.0
 30
0.0
  0
SOLID
  5
28C
  8
0
  6
CONTINUOUS
 62
     7
 10
11.0
 20
144.5
 30
0.0
 11
6.999999999999999
 21
148.5
 31
0.0
 12
11.0
 22
152.5
 32
0.0
 13
11.0
 23
152.5
 33
0.0
  0
ENDBLK
  8
0
  0
BLOCK
  8
0
  2
*U22
 70
     1
 10
0.0
 20
0.0
 30
0.0
  0
SOLID
  5
292
  8
0
  6
CONTINUOUS
 62
     7
 10
210.0
 20
6.999999999999999
 30
0.0
 11
206.0
 21
11.0
 31
0.0
 12
210.0
 22
11.0
 32
0.0
 13
210.0
 23
11.0
 33
0.0
  0
SOLID
  5
293
  8
0
  6
CONTINUOUS
 62
     7
 10
210.0
 20
6.999999999999999
 30
0.0
 11
210.0
 21
11.0
 31
0.0
 12
214.0
 22
11.0
 32
0.0
 13
214.0
 23
11.0
 33
0.0
  0
ENDBLK
  8
0
  0
BLOCK
  8
0
  2
*U23
 70
     1
 10
0.0
 20
0.0
 30
0.0
  0
SOLID
  5
295
  8
0
  6
CONTINUOUS
 62
     7
 10
0.0
 20
0.0
 30
0.0
 11
0.0
 21
10.0
 31
0.0
 12
2.0
 22
0.0
 32
0.0
 13
2.0
 23
0.0
 33
0.0
  0
SOLID
  5
296
  8
0
  6
CONTINUOUS
 62
     7
 10
2.0
 20
0.0
 30
0.0
 11
0.0
 21
10.0
 31
0.0
 12
2.0
 22
10.0
 32
0.0
 13
2.0
 23
10.0
 33
0.0
  0
SOLID
  5
297
  8
0
  6
CONTINUOUS
 62
     7
 10
2.0
 20
0.0
 30
0.0
 11
2.0
 21
2.0
 31
0.0
 12
10.0
 22
0.0
 32
0.0
 13
10.0
 23
0.0
 33
0.0
  0
SOLID
  5
298
  8
0
  6
CONTINUOUS
 62
     7
 10
10.0
 20
0.0
 30
0.0
 11
2.0
 21
2.0
 31
0.0
 12
10.0
 22
2.0
 32
0.0
 13
10.0
 23
2.0
 33
0.0
  0
ENDBLK
  8
0
  0
BLOCK
  8
0
  2
*U24
 70
     1
 10
0.0
 20
0.0
 30
0.0
  0
SOLID
  5
29A
  8
0
  6
CONTINUOUS
 62
     7
 10
409.9999999999999
 20
0.0
 30
0.0
 11
409.9999999999999
 21
2.0
 31
0.0
 12
418.0
 22
0.0
 32
0.0
 13
418.0
 23
0.0
 33
0.0
  0
SOLID
  5
29B
  8
0
  6
CONTINUOUS
 62
     7
 10
418.0
 20
0.0
 30
0.0
 11
409.9999999999999
 21
2.0
 31
0.0
 12
418.0
 22
2.0
 32
0.0
 13
418.0
 23
2.0
 33
0.0
  0
SOLID
  5
29C
  8
0
  6
CONTINUOUS
 62
     7
 10
418.0
 20
0.0
 30
0.0
 11
418.0
 21
10.0
 31
0.0
 12
420.0
 22
0.0
 32
0.0
 13
420.0
 23
0.0
 33
0.0
  0
SOLID
  5
29D
  8
0
  6
CONTINUOUS
 62
     7
 10
420.0
 20
0.0
 30
0.0
 11
418.0
 21
10.0
 31
0.0
 12
420.0
 22
10.0
 32
0.0
 13
420.0
 23
10.0
 33
0.0
  0
ENDBLK
  8
0
  0
BLOCK
  8
0
  2
*U25
 70
     1
 10
0.0
 20
0.0
 30
0.0
  0
SOLID
  5
29F
  8
0
  6
CONTINUOUS
 62
     7
 10
409.9999999999999
 20
295.0
 30
0.0
 11
409.9999999999999
 21
297.0
 31
0.0
 12
418.0
 22
295.0
 32
0.0
 13
418.0
 23
295.0
 33
0.0
  0
SOLID
  5
2A0
  8
0
  6
CONTINUOUS
 62
     7
 10
418.0
 20
295.0
 30
0.0
 11
409.9999999999999
 21
297.0
 31
0.0
 12
418.0
 22
297.0
 32
0.0
 13
418.0
 23
297.0
 33
0.0
  0
SOLID
  5
2A1
  8
0
  6
CONTINUOUS
 62
     7
 10
418.0
 20
286.9999999999999
 30
0.0
 11
418.0
 21
297.0
 31
0.0
 12
420.0
 22
286.9999999999999
 32
0.0
 13
420.0
 23
286.9999999999999
 33
0.0
  0
SOLID
  5
2A2
  8
0
  6
CONTINUOUS
 62
     7
 10
420.0
 20
286.9999999999999
 30
0.0
 11
418.0
 21
297.0
 31
0.0
 12
420.0
 22
297.0
 32
0.0
 13
420.0
 23
297.0
 33
0.0
  0
ENDBLK
  8
0
  0
BLOCK
  8
0
  2
*U26
 70
     1
 10
0.0
 20
0.0
 30
0.0
  0
SOLID
  5
2A4
  8
0
  6
CONTINUOUS
 62
     7
 10
0.0
 20
286.9999999999999
 30
0.0
 11
0.0
 21
297.0
 31
0.0
 12
2.0
 22
286.9999999999999
 32
0.0
 13
2.0
 23
286.9999999999999
 33
0.0
  0
SOLID
  5
2A5
  8
0
  6
CONTINUOUS
 62
     7
 10
2.0
 20
286.9999999999999
 30
0.0
 11
0.0
 21
297.0
 31
0.0
 12
2.0
 22
297.0
 32
0.0
 13
2.0
 23
297.0
 33
0.0
  0
SOLID
  5
2A6
  8
0
  6
CONTINUOUS
 62
     7
 10
2.0
 20
295.0
 30
0.0
 11
2.0
 21
297.0
 31
0.0
 12
10.0
 22
295.0
 32
0.0
 13
10.0
 23
295.0
 33
0.0
  0
SOLID
  5
2A7
  8
0
  6
CONTINUOUS
 62
     7
 10
10.0
 20
295.0
 30
0.0
 11
2.0
 21
297.0
 31
0.0
 12
10.0
 22
297.0
 32
0.0
 13
10.0
 23
297.0
 33
0.0
  0
ENDBLK
  8
0
  0
ENDSEC
  0
SECTION
  2
ENTITIES
  0
ARC
  5
70
  8
1
  6
CONTINUOUS
 62
     7
 10
5742.422141448401
 20
273.3733418659
 30
0.0
 40
0.999830867900009
 50
116.5049564873
 51
134.9257038384
  0
LINE
  5
71
  8
1
  6
CONTINUOUS
 62
     7
 10
5752.9231552939
 20
201.0719879029
 30
0.0
 11
5742.3359992939
 21
201.9959879029
 31
0.0
  0
ARC
  5
72
  8
1
  6
CONTINUOUS
 62
     7
 10
5731.9231552939
 20
201.1827969029
 30
0.0
 40
3.000000000000114
 50
180.0
 51
270.0
  0
LINE
  5
73
  8
1
  6
CONTINUOUS
 62
     7
 10
5808.7232702939
 20
270.4323849029
 30
0.0
 11
5812.2232702939
 21
270.4323769029
 31
0.0
  0
LINE
  5
74
  8
1
  6
CONTINUOUS
 62
     7
 10
5823.7236062939
 20
205.9332459029
 30
0.0
 11
5823.3706352939
 21
207.9327969029
 31
0.0
  0
LINE
  5
75
  8
1
  6
CONTINUOUS
 62
     7
 10
5752.9231552939
 20
275.2936049029
 30
0.0
 11
5742.3359992939
 21
274.3696059029
 31
0.0
  0
LINE
  5
76
  8
1
  6
CONTINUOUS
 62
     7
 10
5817.2236062939
 20
205.9332539029
 30
0.0
 11
5813.7236062939
 21
205.9332459029
 31
0.0
  0
LINE
  5
77
  8
1
  6
CONTINUOUS
 62
     7
 10
5802.5758062939
 20
268.4327969029
 30
0.0
 11
5808.5682718196
 21
268.4327969029
 31
0.0
  0
LINE
  5
78
  8
1
  6
CONTINUOUS
 62
     7
 10
5828.7232702939
 20
270.4323849029
 30
0.0
 11
5832.2232702939
 21
270.4323769029
 31
0.0
  0
LINE
  5
79
  8
1
  6
CONTINUOUS
 62
     7
 10
5798.7232702939
 20
270.4323849029
 30
0.0
 11
5802.2232702939
 21
270.4323769029
 31
0.0
  0
LINE
  5
7A
  8
1
  6
CONTINUOUS
 62
     7
 10
5728.9231552939
 20
241.5101399029
 30
0.0
 11
5728.9231552939
 21
275.1827969029
 31
0.0
  0
LINE
  5
7B
  8
1
  6
CONTINUOUS
 62
     7
 10
5813.3706352939
 20
207.9327969029
 30
0.0
 11
5807.3786013184
 21
207.9327969029
 31
0.0
  0
LINE
  5
7C
  8
1
  6
CONTINUOUS
 62
     7
 10
5731.9231552939
 20
278.1827969029
 30
0.0
 11
5756.816854293901
 21
278.1827969029
 31
0.0
  0
LINE
  5
7D
  8
1
  6
CONTINUOUS
 62
     7
 10
5833.3706362939
 20
207.9327969029
 30
0.0
 11
5827.8054342939
 21
207.9327969029
 31
0.0
  0
ARC
  5
7E
  8
1
  6
CONTINUOUS
 62
     7
 10
5731.7133202939
 20
265.3077159029
 30
0.0
 40
2.86338999999991
 50
85.797484
 51
165.469418
  0
ARC
  5
7F
  8
1
  6
CONTINUOUS
 62
     7
 10
5742.421294971601
 20
202.9910746077
 30
0.0
 40
0.9983995437004012
 50
225.0609768224
 51
243.5083628518
  0
LINE
  5
80
  8
1
  6
CONTINUOUS
 62
     7
 10
5813.7236062939
 20
205.9332459029
 30
0.0
 11
5813.3706352939
 21
207.9327969029
 31
0.0
  0
LINE
  5
81
  8
1
  6
CONTINUOUS
 62
     7
 10
5797.2236062939
 20
205.9332539029
 30
0.0
 11
5793.7236062939
 21
205.9332459029
 31
0.0
  0
LINE
  5
82
  8
1
  6
CONTINUOUS
 62
     7
 10
5822.5758062939
 20
268.4327969029
 30
0.0
 11
5828.1410152939
 21
268.4327969029
 31
0.0
  0
LINE
  5
83
  8
1
  6
CONTINUOUS
 62
     7
 10
5752.9231552939
 20
235.4264189029
 30
0.0
 11
5731.9231552939
 21
235.4264189029
 31
0.0
  0
LINE
  5
84
  8
1
  6
CONTINUOUS
 62
     7
 10
5787.2236062939
 20
205.9332539029
 30
0.0
 11
5783.7236062939
 21
205.9332459029
 31
0.0
  0
LINE
  5
85
  8
1
  6
CONTINUOUS
 62
     7
 10
5741.423155293901
 20
203.0114979029
 30
0.0
 11
5741.423155293901
 21
208.2021859029
 31
0.0
  0
LINE
  5
86
  8
1
  6
CONTINUOUS
 62
     7
 10
5798.7232702939
 20
270.4323849029
 30
0.0
 11
5793.7236062939
 21
205.9332459029
 31
0.0
  0
LINE
  5
87
  8
1
  6
CONTINUOUS
 62
     7
 10
5793.3706352939
 20
207.9327969029
 30
0.0
 11
5787.3786013184
 21
207.9327969029
 31
0.0
  0
LINE
  5
88
  8
1
  6
CONTINUOUS
 62
     7
 10
5828.7232702939
 20
270.4323849029
 30
0.0
 11
5823.7236062939
 21
205.9332459029
 31
0.0
  0
ARC
  5
89
  8
1
  6
CONTINUOUS
 62
     7
 10
5742.366644800201
 20
215.5536633817
 30
0.0
 40
1.169923409600315
 50
250.4909263505
 51
268.4990091867
  0
LINE
  5
8A
  8
1
  6
CONTINUOUS
 62
     7
 10
5772.575822293901
 20
268.4327969029
 30
0.0
 11
5772.2232702939
 21
270.4323769029
 31
0.0
  0
LINE
  5
8B
  8
1
  6
CONTINUOUS
 62
     7
 10
5773.723606293901
 20
205.9332459029
 30
0.0
 11
5773.3706352939
 21
207.9327969029
 31
0.0
  0
LINE
  5
8C
  8
1
  6
CONTINUOUS
 62
     7
 10
5768.723270293901
 20
270.4323849029
 30
0.0
 11
5772.2232702939
 21
270.4323769029
 31
0.0
  0
LINE
  5
8D
  8
1
  6
CONTINUOUS
 62
     7
 10
5778.7232702939
 20
270.4323849029
 30
0.0
 11
5773.723606293901
 21
205.9332459029
 31
0.0
  0
LINE
  5
8E
  8
1
  6
CONTINUOUS
 62
     7
 10
5762.575806293901
 20
268.4327969029
 30
0.0
 11
5768.5682718196
 21
268.4327969029
 31
0.0
  0
LINE
  5
8F
  8
1
  6
CONTINUOUS
 62
     7
 10
5782.575822293901
 20
268.4327969029
 30
0.0
 11
5782.2232702939
 21
270.4323769029
 31
0.0
  0
LINE
  5
90
  8
1
  6
CONTINUOUS
 62
     7
 10
5772.5758062939
 20
268.4327969029
 30
0.0
 11
5778.5682718196
 21
268.4327969029
 31
0.0
  0
LINE
  5
91
  8
1
  6
CONTINUOUS
 62
     7
 10
5778.7232702939
 20
270.4323849029
 30
0.0
 11
5782.2232702939
 21
270.4323769029
 31
0.0
  0
LINE
  5
92
  8
1
  6
CONTINUOUS
 62
     7
 10
5808.7232702939
 20
270.4323849029
 30
0.0
 11
5803.7236062939
 21
205.9332459029
 31
0.0
  0
LINE
  5
93
  8
1
  6
CONTINUOUS
 62
     7
 10
5802.5758222939
 20
268.4327969029
 30
0.0
 11
5802.2232702939
 21
270.4323769029
 31
0.0
  0
LINE
  5
94
  8
1
  6
CONTINUOUS
 62
     7
 10
5777.223606293901
 20
205.9332539029
 30
0.0
 11
5773.723606293901
 21
205.9332459029
 31
0.0
  0
ARC
  5
95
  8
1
  6
CONTINUOUS
 62
     7
 10
5731.7115142939
 20
211.0553589029
 30
0.0
 40
2.861011000000246
 50
194.49082
 51
274.2422790000001
  0
LINE
  5
96
  8
1
  6
CONTINUOUS
 62
     7
 10
5777.223606293901
 20
205.9332539029
 30
0.0
 11
5782.2232702939
 21
270.4323769029
 31
0.0
  0
LINE
  5
97
  8
1
  6
CONTINUOUS
 62
     7
 10
5757.2236062939
 20
205.9332539029
 30
0.0
 11
5756.816854293901
 21
205.9332529732
 31
0.0
  0
ARC
  5
98
  8
1
  6
CONTINUOUS
 62
     7
 10
5731.649657293901
 20
222.7715549029
 30
0.0
 40
18.16353799999959
 50
89.13723399999999
 51
97.14744600000002
  0
ARC
  5
99
  8
1
  6
CONTINUOUS
 62
     7
 10
5742.3714751978
 20
202.8110741594
 30
0.0
 40
0.8158578764003721
 50
241.0001804818
 51
267.507843024
  0
LINE
  5
9A
  8
1
  6
CONTINUOUS
 62
     7
 10
5797.2236062939
 20
205.9332539029
 30
0.0
 11
5802.2232702939
 21
270.4323769029
 31
0.0
  0
ARC
  5
9B
  8
1
  6
CONTINUOUS
 62
     7
 10
5731.9231552939
 20
275.1827969029
 30
0.0
 40
3.000000000000114
 50
90.0
 51
180.0
  0
LINE
  5
9C
  8
1
  6
CONTINUOUS
 62
     7
 10
5731.9231552939
 20
268.1634069029
 30
0.0
 11
5752.9231552939
 21
268.1634069029
 31
0.0
  0
ARC
  5
9D
  8
1
  6
CONTINUOUS
 62
     7
 10
5742.2719134818
 20
261.3228034645
 30
0.0
 40
0.6617583604002775
 50
84.4426466961
 51
116.5674177667
  0
LINE
  5
9E
  8
1
  6
CONTINUOUS
 62
     7
 10
5812.5758062939
 20
268.4327969029
 30
0.0
 11
5818.5682718196
 21
268.4327969029
 31
0.0
  0
LINE
  5
9F
  8
1
  6
CONTINUOUS
 62
     7
 10
5812.5758222939
 20
268.4327969029
 30
0.0
 11
5812.2232702939
 21
270.4323769029
 31
0.0
  0
LINE
  5
A0
  8
1
  6
CONTINUOUS
 62
     7
 10
5803.3706352939
 20
207.9327969029
 30
0.0
 11
5797.3786013184
 21
207.9327969029
 31
0.0
  0
CIRCLE
  5
A1
  8
1
  6
CONTINUOUS
 62
     7
 10
5969.7090018963
 20
238.1827969029
 30
0.0
 40
25.664574
  0
LINE
  5
A2
  8
1
  6
CENTER
 62
     1
 10
6011.7090018963
 20
238.1827969029
 30
0.0
 11
5927.7090018963
 21
238.1827969029
 31
0.0
  0
ARC
  5
A4
  8
1
  6
CONTINUOUS
 62
     7
 10
5987.7212298963
 20
269.9288149029
 30
0.0
 40
1.0
 50
152.0
 51
240.430056
  0
LINE
  5
A5
  8
1
  6
CONTINUOUS
 62
     7
 10
5930.7090018963
 20
237.1827969029
 30
0.0
 11
5930.7090018963
 21
239.1827969029
 31
0.0
  0
ARC
  5
A6
  8
1
  6
CONTINUOUS
 62
     7
 10
5856.2231552939
 20
207.9327969029
 30
0.0
 40
0.5
 50
90.0
 51
180.0
  0
LINE
  5
A7
  8
1
  6
CENTER
 62
     1
 10
5969.7090018963
 20
280.1827969029
 30
0.0
 11
5969.7090018963
 21
196.1827969029
 31
0.0
  0
LINE
  5
A8
  8
1
  6
CONTINUOUS
 62
     7
 10
5946.2560608963
 20
266.1329239029
 30
0.0
 11
5943.9974981922
 21
268.8245751512
 31
0.0
  0
CIRCLE
  5
A9
  8
1
  6
CONTINUOUS
 62
     7
 10
5969.7090018963
 20
238.1827969029
 30
0.0
 40
20.0
  0
LINE
  5
AA
  8
1
  6
CONTINUOUS
 62
     7
 10
5848.7231552939
 20
206.9327969029
 30
0.0
 11
5848.7231552939
 21
269.4327969029
 31
0.0
  0
LINE
  5
AB
  8
1
  6
CONTINUOUS
 62
     7
 10
5862.7231552939
 20
206.9327969029
 30
0.0
 11
5858.7231552939
 21
206.9327969029
 31
0.0
  0
LINE
  5
AC
  8
1
  6
CONTINUOUS
 62
     7
 10
5848.7231552939
 20
206.9327969029
 30
0.0
 11
5844.7231552939
 21
206.9327969029
 31
0.0
  0
LINE
  5
AD
  8
1
  6
CONTINUOUS
 62
     7
 10
5988.4878648238
 20
273.5007009414
 30
0.0
 11
5986.8382818963
 21
270.3982869029
 31
0.0
  0
ARC
  5
AE
  8
1
  6
CONTINUOUS
 62
     7
 10
5947.0221058963
 20
266.7757109029
 30
0.0
 40
1.0
 50
220.0
 51
308.430056
  0
ARC
  5
AF
  8
1
  6
CONTINUOUS
 62
     7
 10
5858.2231552939
 20
268.4327969029
 30
0.0
 40
0.5
 50
270.0
 51
0.0
  0
LINE
  5
B0
  8
1
  6
CONTINUOUS
 62
     7
 10
5858.7231552939
 20
206.9327969029
 30
0.0
 11
5858.7231552939
 21
269.4327969029
 31
0.0
  0
LINE
  5
B1
  8
1
  6
CONTINUOUS
 62
     7
 10
5851.7231552939
 20
269.4327969029
 30
0.0
 11
5855.7231552939
 21
269.4327969029
 31
0.0
  0
LINE
  5
B2
  8
1
  6
CONTINUOUS
 62
     7
 10
5856.2231552939
 20
267.9327969029
 30
0.0
 11
5858.2231552939
 21
267.9327969029
 31
0.0
  0
LINE
  5
B3
  8
1
  6
CONTINUOUS
 62
     7
 10
5855.7231552939
 20
206.9327969029
 30
0.0
 11
5855.7231552939
 21
269.4327969029
 31
0.0
  0
LINE
  5
B4
  8
1
  6
CONTINUOUS
 62
     7
 10
5858.7231552939
 20
269.4327969029
 30
0.0
 11
5862.7231552939
 21
269.4327969029
 31
0.0
  0
ARC
  5
B5
  8
1
  6
CONTINUOUS
 62
     7
 10
5856.2231552939
 20
268.4327969029
 30
0.0
 40
0.5
 50
180.0
 51
270.0
  0
ARC
  5
B6
  8
1
  6
CONTINUOUS
 62
     7
 10
5858.2231552939
 20
207.9327969029
 30
0.0
 40
0.5
 50
0.0
 51
90.0
  0
ARC
  5
B7
  8
1
  6
CONTINUOUS
 62
     7
 10
5969.7090018963
 20
238.1827969029
 30
0.0
 40
35.5
 50
119.569944
 51
128.430056
  0
LINE
  5
B8
  8
1
  6
CONTINUOUS
 62
     7
 10
5858.2231552939
 20
208.4327969029
 30
0.0
 11
5856.2231552939
 21
208.4327969029
 31
0.0
  0
LINE
  5
B9
  8
1
  6
CONTINUOUS
 62
     7
 10
5844.7231552939
 20
206.9327969029
 30
0.0
 11
5844.7231552939
 21
269.4327969029
 31
0.0
  0
ARC
  5
BA
  8
1
  6
CONTINUOUS
 62
     7
 10
5969.7090018963
 20
238.1827969029
 30
0.0
 40
35.5
 50
141.569944
 51
150.430056
  0
LINE
  5
BB
  8
1
  6
CONTINUOUS
 62
     7
 10
5855.7231552939
 20
206.9327969029
 30
0.0
 11
5851.7231552939
 21
206.9327969029
 31
0.0
  0
LINE
  5
BC
  8
1
  6
CONTINUOUS
 62
     7
 10
5851.7231552939
 20
206.9327969029
 30
0.0
 11
5851.7231552939
 21
269.4327969029
 31
0.0
  0
ARC
  5
BD
  8
1
  6
CONTINUOUS
 62
     7
 10
5951.6967748963
 20
269.9288149029
 30
0.0
 40
1.0
 50
299.569944
 51
28.0
  0
TEXT
  5
BE
  8
1
  6
CONTINUOUS
 62
     7
 10
5984.628688536953
 20
186.8763098573214
 30
0.0
 40
6.0
  1
KFEKH-50
 41
1.373232
  0
ARC
  5
BF
  8
1
  6
CONTINUOUS
 62
     7
 10
5941.1160878963
 20
215.4959009029
 30
0.0
 40
1.0
 50
310.0
 51
38.43005600010002
  0
ARC
  5
C0
  8
1
  6
CONTINUOUS
 62
     7
 10
5969.7090018963
 20
238.1827969029
 30
0.0
 40
40.0
 50
181.432544
 51
178.567456
  0
ARC
  5
C1
  8
1
  6
CONTINUOUS
 62
     7
 10
5951.6967748963
 20
206.4367789029
 30
0.0
 40
1.0
 50
332.0
 51
60.43005599999997
  0
LINE
  5
C2
  8
1
  6
CONTINUOUS
 62
     7
 10
5988.4878648238
 20
202.8648928643
 30
0.0
 11
5986.8382818963
 21
205.9673069029
 31
0.0
  0
ARC
  5
C3
  8
1
  6
CONTINUOUS
 62
     7
 10
5987.7212298963
 20
206.4367789029
 30
0.0
 40
1.0
 50
119.569944
 51
208.0
  0
LINE
  5
C4
  8
1
  6
CONTINUOUS
 62
     7
 10
5841.7231552939
 20
205.9327969029
 30
0.0
 11
5836.718844667
 21
205.9327969029
 31
0.0
  0
ARC
  5
C5
  8
1
  6
CONTINUOUS
 62
     7
 10
5992.3958988963
 20
209.5898829029
 30
0.0
 40
1.0
 50
40.0
 51
128.430056
  0
LINE
  5
C6
  8
1
  6
CONTINUOUS
 62
     7
 10
5997.6591288963
 20
214.7298559029
 30
0.0
 11
6000.3507801446
 21
212.4712931988
 31
0.0
  0
ARC
  5
C7
  8
1
  6
CONTINUOUS
 62
     7
 10
5969.7090018963
 20
238.1827969029
 30
0.0
 40
35.5
 50
299.569944
 51
308.430056
  0
ARC
  5
C8
  8
1
  6
CONTINUOUS
 62
     7
 10
5969.7090018963
 20
238.1827969029
 30
0.0
 40
35.5
 50
321.569944
 51
330.4300559999999
  0
LINE
  5
C9
  8
1
  6
CONTINUOUS
 62
     7
 10
5844.2231552939
 20
208.4327969029
 30
0.0
 11
5842.2231552939
 21
208.4327969029
 31
0.0
  0
ARC
  5
CA
  8
1
  6
CONTINUOUS
 62
     7
 10
6001.4550198963
 20
256.1950239029
 30
0.0
 40
1.0
 50
209.5699440001
 51
298.0
  0
LINE
  5
CB
  8
1
  6
CONTINUOUS
 62
     7
 10
5720.723606293901
 20
205.9332459029
 30
0.0
 11
5720.3706352939
 21
207.9327969029
 31
0.0
  0
LINE
  5
CC
  8
1
  6
CONTINUOUS
 62
     7
 10
5724.223606293901
 20
205.9332539029
 30
0.0
 11
5728.9231552939
 21
266.5606858653848
 31
0.0
  0
LINE
  5
CD
  8
1
  6
CONTINUOUS
 62
     7
 10
5728.9231552939
 20
207.9327969029
 30
0.0
 11
5724.3786013184
 21
207.9327969029
 31
0.0
  0
LINE
  5
CE
  8
1
  6
CONTINUOUS
 62
     7
 10
5719.5758062939
 20
268.4327969029
 30
0.0
 11
5725.5682718196
 21
268.4327969029
 31
0.0
  0
LINE
  5
CF
  8
1
  6
CONTINUOUS
 62
     7
 10
5724.223606293901
 20
205.9332539029
 30
0.0
 11
5720.723606293901
 21
205.9332459029
 31
0.0
  0
LINE
  5
D0
  8
1
  6
CONTINUOUS
 62
     7
 10
5719.5758222939
 20
268.4327969029
 30
0.0
 11
5719.2232702939
 21
270.4323769029
 31
0.0
  0
LINE
  5
D1
  8
1
  6
CONTINUOUS
 62
     7
 10
5714.223606293901
 20
205.9332539029
 30
0.0
 11
5719.2232702939
 21
270.4323769029
 31
0.0
  0
LINE
  5
D2
  8
1
  6
CONTINUOUS
 62
     7
 10
5725.7232702939
 20
270.4323849029
 30
0.0
 11
5720.723606293901
 21
205.9332459029
 31
0.0
  0
LINE
  5
D3
  8
1
  6
CONTINUOUS
 62
     7
 10
5714.223606293901
 20
205.9332539029
 30
0.0
 11
5712.723155293901
 21
205.9332504733
 31
0.0
  0
LINE
  5
D4
  8
1
  6
CONTINUOUS
 62
     7
 10
5715.723270293901
 20
270.4323849029
 30
0.0
 11
5719.2232702939
 21
270.4323769029
 31
0.0
  0
LINE
  5
D5
  8
1
  6
CONTINUOUS
 62
     7
 10
5715.723270293901
 20
270.4323849029
 30
0.0
 11
5712.723155293901
 21
231.7288171429
 31
0.0
  0
LINE
  5
D6
  8
1
  6
CONTINUOUS
 62
     7
 10
5596.123077888601
 20
278.1827969029
 30
0.0
 11
5596.123108785201
 21
258.7040861843
 31
0.0
  0
LINE
  5
D7
  8
1
  6
CONTINUOUS
 62
     7
 10
5714.222344089701
 20
205.9330776809
 30
0.0
 11
5712.7231553085
 21
205.9330742372
 31
0.0
  0
LINE
  5
D8
  8
1
  6
CONTINUOUS
 62
     7
 10
5648.2231552939
 20
273.1827969029
 30
0.0
 11
5712.723155293901
 21
273.1827969029
 31
0.0
  0
LINE
  5
D9
  8
1
  6
CONTINUOUS
 62
     7
 10
5646.7231552939
 20
198.1827969029
 30
0.0
 11
5648.2231552939
 21
203.1827969029
 31
0.0
  0
ARC
  5
DA
  8
1
  6
CONTINUOUS
 62
     7
 10
5596.523108785201
 20
217.661506987
 30
0.0
 40
0.3999999999999559
 50
75.0
 51
179.9999091189
  0
LINE
  5
DB
  8
1
  6
CONTINUOUS
 62
     7
 10
5577.7231552939
 20
198.1827969029
 30
0.0
 11
5577.7231552939
 21
278.1827969029
 31
0.0
  0
LINE
  5
DC
  8
1
  6
CONTINUOUS
 62
     7
 10
5601.7230844871
 20
274.022797004
 30
0.0
 11
5596.123084427801
 21
274.0601303378
 31
0.0
  0
LINE
  5
DD
  8
1
  6
CONTINUOUS
 62
     7
 10
5646.7231552939
 20
198.1827969029
 30
0.0
 11
5646.7231552939
 21
278.1827969029
 31
0.0
  0
ARC
  5
DE
  8
1
  6
CONTINUOUS
 62
     7
 10
5599.323104310901
 20
261.5248957195
 30
0.0
 40
2.399999999999736
 50
285.0
 51
0.0000908810999931
  0
LINE
  5
DF
  8
1
  6
CONTINUOUS
 62
     7
 10
5601.7230844871
 20
202.3427968017
 30
0.0
 11
5596.123084427801
 21
202.305463468
 31
0.0
  0
LINE
  5
E0
  8
1
  6
CONTINUOUS
 62
     7
 10
5596.123077888601
 20
198.1827969029
 30
0.0
 11
5596.123108785201
 21
217.6615076215
 31
0.0
  0
LINE
  5
E1
  8
1
  6
CONTINUOUS
 62
     7
 10
5712.723155293901
 20
268.4327969029
 30
0.0
 11
5715.568271819601
 21
268.4327969029
 31
0.0
  0
LINE
  5
E2
  8
1
  6
CONTINUOUS
 62
     7
 10
5601.723104310901
 20
214.8406942794
 30
0.0
 11
5601.723077888601
 21
198.1827969029
 31
0.0
  0
ARC
  5
E3
  8
1
  6
CONTINUOUS
 62
     7
 10
5596.523108785201
 20
258.7040868188
 30
0.0
 40
0.3999999999999559
 50
180.0000908811
 51
285.0
  0
LINE
  5
E4
  8
1
  6
CONTINUOUS
 62
     7
 10
5596.626636403201
 20
258.3177164882
 30
0.0
 11
5599.9442700192
 21
259.2066737364
 31
0.0
  0
ARC
  5
E5
  8
1
  6
CONTINUOUS
 62
     7
 10
5599.323104310901
 20
214.8406980863
 30
0.0
 40
2.399999999999736
 50
0.0
 51
75.0
  0
LINE
  5
E6
  8
1
  6
CONTINUOUS
 62
     7
 10
5601.723104310901
 20
261.5248995263
 30
0.0
 11
5601.723077888601
 21
278.1827969029
 31
0.0
  0
LINE
  5
E7
  8
1
  6
CONTINUOUS
 62
     7
 10
5648.2231552939
 20
203.1827969029
 30
0.0
 11
5712.723155293901
 21
203.1827969029
 31
0.0
  0
LINE
  5
E8
  8
1
  6
CONTINUOUS
 62
     7
 10
5712.723155293901
 20
273.1827969029
 30
0.0
 11
5712.723155293901
 21
203.1827969029
 31
0.0
  0
LINE
  5
E9
  8
1
  6
CONTINUOUS
 62
     7
 10
5596.626636403201
 20
218.0478773175
 30
0.0
 11
5599.9442700192
 21
217.1589200693
 31
0.0
  0
LINE
  5
EA
  8
1
  6
CONTINUOUS
 62
     7
 10
5577.7231552939
 20
278.1827969029
 30
0.0
 11
5646.7231552939
 21
278.1827969029
 31
0.0
  0
LINE
  5
EB
  8
1
  6
CONTINUOUS
 62
     7
 10
5648.2231552939
 20
273.1827969029
 30
0.0
 11
5648.2231552939
 21
203.1827969029
 31
0.0
  0
LINE
  5
EC
  8
1
  6
CONTINUOUS
 62
     7
 10
5577.7231552939
 20
198.1827969029
 30
0.0
 11
5646.7231552939
 21
198.1827969029
 31
0.0
  0
LINE
  5
ED
  8
1
  6
CONTINUOUS
 62
     7
 10
5646.7231552939
 20
278.1827969029
 30
0.0
 11
5648.2231552939
 21
273.1827969029
 31
0.0
  0
LINE
  5
EE
  8
1
  6
CONTINUOUS
 62
     7
 10
5720.3706352939
 20
207.9327969029
 30
0.0
 11
5714.3786013184
 21
207.9327969029
 31
0.0
  0
LINE
  5
EF
  8
1
  6
CONTINUOUS
 62
     7
 10
5725.7232702939
 20
270.4323849029
 30
0.0
 11
5728.9231552939
 21
270.4323775888772
 31
0.0
  0
LINE
  5
F0
  8
1
  6
CONTINUOUS
 62
     7
 10
5882.6025099284
 20
277.995954914
 30
0.0
 11
5882.6157591808
 21
277.9798510309
 31
0.0
  0
LINE
  5
F1
  8
1
  6
CONTINUOUS
 62
     7
 10
5882.7229381541
 20
277.6848754319
 30
0.0
 11
5882.7231552939
 21
277.6701366462
 31
0.0
  0
LINE
  5
F2
  8
1
  6
CONTINUOUS
 62
     7
 10
5882.2750557032
 20
278.1675931571
 30
0.0
 11
5882.2955986718
 21
278.1650172356
 31
0.0
  0
ARC
  5
F3
  8
1
  6
CONTINUOUS
 62
     7
 10
5882.3232729192
 20
203.3075078233
 30
0.0
 40
0.3998840021
 50
330.2260871065
 51
359.8365393263
  0
LINE
  5
F4
  8
1
  6
CONTINUOUS
 62
     7
 10
5752.9231552939
 20
198.2481119029
 30
0.0
 11
5752.9231552939
 21
208.3290139029
 31
0.0
  0
LINE
  5
F5
  8
1
  6
CONTINUOUS
 62
     7
 10
5752.9231552939
 20
268.0365799029
 30
0.0
 11
5752.9231552939
 21
278.1174819029
 31
0.0
  0
ARC
  5
F6
  8
1
  6
CONTINUOUS
 62
     7
 10
5882.2231552939
 20
198.6827969029
 30
0.0
 40
0.5
 50
270.0
 51
0.0
  0
ARC
  5
F7
  8
1
  6
CONTINUOUS
 62
     7
 10
5742.1219140967
 20
215.0958518524
 30
0.0
 40
0.6612578469002983
 50
232.1393471459
 51
257.2469361876
  0
LINE
  5
F8
  8
1
  6
CONTINUOUS
 62
     7
 10
5882.7196997749
 20
277.7288374431
 30
0.0
 11
5882.7212077866
 21
277.7142383435
 31
0.0
  0
ARC
  5
F9
  8
1
  6
CONTINUOUS
 62
     7
 10
5874.7231552939
 20
206.4327969029
 30
0.0
 40
2.0
 50
0.0
 51
90.0
  0
LINE
  5
FA
  8
1
  6
CONTINUOUS
 62
     7
 10
5752.9231552939
 20
262.5891299029
 30
0.0
 11
5742.3359992939
 21
261.9814519029
 31
0.0
  0
LINE
  5
FB
  8
1
  6
CONTINUOUS
 62
     7
 10
5882.7222876753
 20
277.6995886642
 30
0.0
 11
5882.7229381541
 21
277.6848754319
 31
0.0
  0
LINE
  5
FC
  8
1
  6
CONTINUOUS
 62
     7
 10
5882.6404375953
 20
277.9456790191
 30
0.0
 11
5882.6517920534
 21
277.9276492761
 31
0.0
  0
LINE
  5
FD
  8
1
  6
CONTINUOUS
 62
     7
 10
5882.3770213355
 20
278.146023667
 30
0.0
 11
5882.3971440055
 21
278.1390366285
 31
0.0
  0
LINE
  5
FE
  8
1
  6
CONTINUOUS
 62
     7
 10
5882.4911860601
 20
278.0923597746
 30
0.0
 11
5882.5085478607
 21
278.0808166526
 31
0.0
  0
LINE
  5
FF
  8
1
  6
CONTINUOUS
 62
     7
 10
5882.3971440055
 20
278.1390366285
 30
0.0
 11
5882.4170950693
 21
278.1311375036
 31
0.0
  0
LINE
  5
100
  8
1
  6
CONTINUOUS
 62
     7
 10
5731.9231552939
 20
235.4264189029
 30
0.0
 11
5731.9231552939
 21
235.4325599029
 31
0.0
  0
LINE
  5
101
  8
1
  6
CONTINUOUS
 62
     7
 10
5882.7167235622
 20
277.7501006536
 30
0.0
 11
5882.7196997749
 21
277.7288374431
 31
0.0
  0
LINE
  5
102
  8
1
  6
CONTINUOUS
 62
     7
 10
5882.3160174084
 20
278.1615931831
 30
0.0
 11
5882.3364168639
 21
278.1572935821
 31
0.0
  0
LINE
  5
103
  8
1
  6
CONTINUOUS
 62
     7
 10
5882.6961042657
 20
277.8324200136
 30
0.0
 11
5882.7024580012
 21
277.8125510667
 31
0.0
  0
LINE
  5
104
  8
1
  6
CONTINUOUS
 62
     7
 10
5863.2231552939
 20
267.9327969029
 30
0.0
 11
5874.7231552939
 21
267.9327969029
 31
0.0
  0
LINE
  5
105
  8
1
  6
CONTINUOUS
 62
     7
 10
5882.6517920534
 20
277.9276492761
 30
0.0
 11
5882.6624428258
 21
277.9090144504
 31
0.0
  0
LINE
  5
106
  8
1
  6
CONTINUOUS
 62
     7
 10
5882.3566193897
 20
278.1521474852
 30
0.0
 11
5882.3770213355
 21
278.146023667
 31
0.0
  0
LINE
  5
107
  8
1
  6
CONTINUOUS
 62
     7
 10
5882.3364168639
 20
278.1572935821
 30
0.0
 11
5882.3566193897
 21
278.1521474852
 31
0.0
  0
LINE
  5
108
  8
1
  6
CONTINUOUS
 62
     7
 10
5752.9231552939
 20
213.7764629029
 30
0.0
 11
5742.3359992939
 21
214.3841419029
 31
0.0
  0
LINE
  5
109
  8
1
  6
CONTINUOUS
 62
     7
 10
5882.4366889498
 20
278.1223898764
 30
0.0
 11
5882.4552225915
 21
278.1131592009
 31
0.0
  0
LINE
  5
10A
  8
1
  6
CONTINUOUS
 62
     7
 10
6005.0269059348
 20
256.9616598304
 30
0.0
 11
6001.9244918963
 21
255.3120769029
 31
0.0
  0
LINE
  5
10B
  8
1
  6
CONTINUOUS
 62
     7
 10
5993.1619428963
 20
266.1329239029
 30
0.0
 11
5995.4205066978
 21
268.8245750695
 31
0.0
  0
ARC
  5
10C
  8
1
  6
CONTINUOUS
 62
     7
 10
5969.7090018963
 20
238.1827969029
 30
0.0
 40
35.5
 50
231.569944
 51
240.430056
  0
ARC
  5
10D
  8
1
  6
CONTINUOUS
 62
     7
 10
5844.2231552939
 20
207.9327969029
 30
0.0
 40
0.5
 50
0.0
 51
90.0
  0
ARC
  5
10E
  8
1
  6
CONTINUOUS
 62
     7
 10
6001.4550198963
 20
220.1705699029
 30
0.0
 40
1.0
 50
62.0
 51
150.430056
  0
LINE
  5
10F
  8
1
  6
CONTINUOUS
 62
     7
 10
5946.2560608963
 20
210.2326709029
 30
0.0
 11
5943.9974976998
 21
207.5410190678
 31
0.0
  0
ARC
  5
110
  8
1
  6
CONTINUOUS
 62
     7
 10
5992.3958988963
 20
266.7757109029
 30
0.0
 40
1.0
 50
231.569944
 51
320.0
  0
LINE
  5
111
  8
1
  6
CONTINUOUS
 62
     7
 10
6005.0269055203
 20
219.4039341958
 30
0.0
 11
6001.9244918963
 21
221.0535169029
 31
0.0
  0
LINE
  5
112
  8
1
  6
CONTINUOUS
 62
     7
 10
5993.1619428963
 20
210.2326709029
 30
0.0
 11
5995.4205071902
 21
207.5410191495
 31
0.0
  0
ARC
  5
113
  8
1
  6
CONTINUOUS
 62
     7
 10
5842.2231552939
 20
268.4327969029
 30
0.0
 40
0.5
 50
180.0
 51
270.0
  0
ARC
  5
114
  8
1
  6
CONTINUOUS
 62
     7
 10
5842.2231552939
 20
207.9327969029
 30
0.0
 40
0.5
 50
90.0
 51
180.0
  0
ARC
  5
115
  8
1
  6
CONTINUOUS
 62
     7
 10
5844.2231552939
 20
268.4327969029
 30
0.0
 40
0.5
 50
270.0
 51
0.0
  0
LINE
  5
116
  8
1
  6
CONTINUOUS
 62
     7
 10
5930.7090018963
 20
239.1827969029
 30
0.0
 11
5929.72150385
 21
239.1827969029
 31
0.0
  0
LINE
  5
117
  8
1
  6
CONTINUOUS
 62
     7
 10
5997.6591288963
 20
261.6357379029
 30
0.0
 11
6000.3507800629
 21
263.8943017043
 31
0.0
  0
ARC
  5
118
  8
1
  6
CONTINUOUS
 62
     7
 10
5937.9629838963
 20
256.1950239029
 30
0.0
 40
1.0
 50
242.0000000001001
 51
330.4300559999999
  0
ARC
  5
119
  8
1
  6
CONTINUOUS
 62
     7
 10
5998.3019158963
 20
260.8696929029
 30
0.0
 40
1.0
 50
130.0
 51
218.430056
  0
LINE
  5
11A
  8
1
  6
CONTINUOUS
 62
     7
 10
5941.7588758963
 20
214.7298559029
 30
0.0
 11
5939.0672240612
 21
212.4712927064
 31
0.0
  0
LINE
  5
11B
  8
1
  6
CONTINUOUS
 62
     7
 10
5937.4935111152
 20
255.3120735531
 30
0.0
 11
5934.3910988963
 21
256.9616599029
 31
0.0
  0
ARC
  5
11C
  8
1
  6
CONTINUOUS
 62
     7
 10
5969.7090018963
 20
238.1827969029
 30
0.0
 40
35.5
 50
51.56994399999999
 51
60.430056
  0
LINE
  5
11D
  8
1
  6
CONTINUOUS
 62
     7
 10
5930.7090018963
 20
237.1827969029
 30
0.0
 11
5929.72150385
 21
237.1827969029
 31
0.0
  0
LINE
  5
11E
  8
1
  6
CONTINUOUS
 62
     7
 10
5836.7231552939
 20
270.4327969029
 30
0.0
 11
5841.7231552939
 21
270.4327969029
 31
0.0
  0
ARC
  5
11F
  8
1
  6
CONTINUOUS
 62
     7
 10
5998.3019158963
 20
215.4959009029
 30
0.0
 40
1.0
 50
141.569944
 51
230.0
  0
ARC
  5
120
  8
1
  6
CONTINUOUS
 62
     7
 10
5969.7090018963
 20
238.1827969029
 30
0.0
 40
35.5
 50
209.569944
 51
218.430056
  0
LINE
  5
121
  8
1
  6
CONTINUOUS
 62
     7
 10
5937.4935136136
 20
221.0535155537
 30
0.0
 11
5934.3910988963
 21
219.4039349029
 31
0.0
  0
ARC
  5
122
  8
1
  6
CONTINUOUS
 62
     7
 10
5969.7090018963
 20
238.1827969029
 30
0.0
 40
35.5
 50
29.569944
 51
38.430056
  0
ARC
  5
123
  8
1
  6
CONTINUOUS
 62
     7
 10
5937.9629838963
 20
220.1705699029
 30
0.0
 40
1.0
 50
29.569944
 51
117.9999999999
  0
LINE
  5
124
  8
1
  6
CONTINUOUS
 62
     7
 10
5762.5758222939
 20
268.4327969029
 30
0.0
 11
5762.223270293901
 21
270.4323769029
 31
0.0
  0
LINE
  5
125
  8
1
  6
CONTINUOUS
 62
     7
 10
5757.2236062939
 20
205.9332539029
 30
0.0
 11
5762.223270293901
 21
270.4323769029
 31
0.0
  0
LINE
  5
126
  8
1
  6
CONTINUOUS
 62
     7
 10
5792.5758222939
 20
268.4327969029
 30
0.0
 11
5792.2232702939
 21
270.4323769029
 31
0.0
  0
LINE
  5
127
  8
1
  6
CONTINUOUS
 62
     7
 10
5756.816854293901
 20
268.4327969029
 30
0.0
 11
5758.568271819601
 21
268.4327969029
 31
0.0
  0
LINE
  5
128
  8
1
  6
CONTINUOUS
 62
     7
 10
5833.7236062939
 20
205.9332459029
 30
0.0
 11
5833.3706352939
 21
207.9327969029
 31
0.0
  0
LINE
  5
129
  8
1
  6
CONTINUOUS
 62
     7
 10
5758.723270293901
 20
270.4323849029
 30
0.0
 11
5762.223270293901
 21
270.4323769029
 31
0.0
  0
LINE
  5
12A
  8
1
  6
CONTINUOUS
 62
     7
 10
5836.7231552939
 20
244.6295118696
 30
0.0
 11
5833.7236062939
 21
205.9332459029
 31
0.0
  0
LINE
  5
12B
  8
1
  6
CONTINUOUS
 62
     7
 10
5758.723270293901
 20
270.4323849029
 30
0.0
 11
5756.816854293901
 21
245.8382940648
 31
0.0
  0
LINE
  5
12C
  8
1
  6
CONTINUOUS
 62
     7
 10
5728.9261252939
 20
202.2409799029
 30
0.0
 11
5728.923172293901
 21
202.2995989029
 31
0.0
  0
LINE
  5
12D
  8
1
  6
CONTINUOUS
 62
     7
 10
5832.5758222939
 20
268.4327969029
 30
0.0
 11
5836.7231552939
 21
268.4327969029
 31
0.0
  0
LINE
  5
12E
  8
1
  6
CONTINUOUS
 62
     7
 10
5827.2236062939
 20
205.9332539029
 30
0.0
 11
5823.7236062939
 21
205.9332459029
 31
0.0
  0
LINE
  5
12F
  8
1
  6
CONTINUOUS
 62
     7
 10
5741.423155293901
 20
268.1634069029
 30
0.0
 11
5741.423155293901
 21
273.3540959029
 31
0.0
  0
LINE
  5
130
  8
1
  6
CONTINUOUS
 62
     7
 10
5741.423155293901
 20
240.9370769029
 30
0.0
 11
5741.423155293901
 21
261.1050909029
 31
0.0
  0
LINE
  5
131
  8
1
  6
CONTINUOUS
 62
     7
 10
5728.923172293901
 20
274.0659939029
 30
0.0
 11
5728.9261252939
 21
274.1246139029
 31
0.0
  0
LINE
  5
132
  8
1
  6
CONTINUOUS
 62
     7
 10
5752.9231552939
 20
208.2021859029
 30
0.0
 11
5731.9231552939
 21
208.2021859029
 31
0.0
  0
ARC
  5
133
  8
1
  6
CONTINUOUS
 62
     7
 10
5742.3120801709
 20
260.8675661175
 30
0.0
 40
1.099749487599944
 50
107.7972760097
 51
122.8164406208
  0
LINE
  5
134
  8
1
  6
CONTINUOUS
 62
     7
 10
5832.5758222939
 20
268.4327969029
 30
0.0
 11
5832.2232702939
 21
270.4323769029
 31
0.0
  0
LINE
  5
135
  8
1
  6
CONTINUOUS
 62
     7
 10
5731.9231552939
 20
240.9391749029
 30
0.0
 11
5752.9231552939
 21
240.9391749029
 31
0.0
  0
LINE
  5
136
  8
1
  6
CONTINUOUS
 62
     7
 10
5823.3706352939
 20
207.9327969029
 30
0.0
 11
5817.3786013184
 21
207.9327969029
 31
0.0
  0
LINE
  5
137
  8
1
  6
CONTINUOUS
 62
     7
 10
5827.2236062939
 20
205.9332539029
 30
0.0
 11
5832.2232702939
 21
270.4323769029
 31
0.0
  0
ARC
  5
138
  8
1
  6
CONTINUOUS
 62
     7
 10
5731.5615902939
 20
249.7795099029
 30
0.0
 40
14.3515049999996
 50
260.786186
 51
271.443635
  0
LINE
  5
139
  8
1
  6
CONTINUOUS
 62
     7
 10
5822.5758222939
 20
268.4327969029
 30
0.0
 11
5822.2232702939
 21
270.4323769029
 31
0.0
  0
LINE
  5
13A
  8
1
  6
CONTINUOUS
 62
     7
 10
5792.5758062939
 20
268.4327969029
 30
0.0
 11
5798.5682718196
 21
268.4327969029
 31
0.0
  0
ARC
  5
13B
  8
1
  6
CONTINUOUS
 62
     7
 10
5742.4219405075
 20
273.3755351863
 30
0.0
 40
0.997778719700193
 50
94.94113856199999
 51
116.5508379322
  0
LINE
  5
13C
  8
1
  6
CONTINUOUS
 62
     7
 10
5793.7236062939
 20
205.9332459029
 30
0.0
 11
5793.3706352939
 21
207.9327969029
 31
0.0
  0
LINE
  5
13D
  8
1
  6
CONTINUOUS
 62
     7
 10
5741.423155293901
 20
215.2605029029
 30
0.0
 11
5741.423155293901
 21
235.4285169029
 31
0.0
  0
LINE
  5
13E
  8
1
  6
CONTINUOUS
 62
     7
 10
5807.2236062939
 20
205.9332539029
 30
0.0
 11
5803.7236062939
 21
205.9332459029
 31
0.0
  0
LINE
  5
13F
  8
1
  6
CONTINUOUS
 62
     7
 10
5756.816854293901
 20
198.1827969029
 30
0.0
 11
5731.9231552939
 21
198.1827969029
 31
0.0
  0
LINE
  5
140
  8
1
  6
CONTINUOUS
 62
     7
 10
5817.2236062939
 20
205.9332539029
 30
0.0
 11
5822.2232702939
 21
270.4323769029
 31
0.0
  0
LINE
  5
141
  8
1
  6
CONTINUOUS
 62
     7
 10
5803.7236062939
 20
205.9332459029
 30
0.0
 11
5803.3706352939
 21
207.9327969029
 31
0.0
  0
LINE
  5
142
  8
1
  6
CONTINUOUS
 62
     7
 10
5807.2236062939
 20
205.9332539029
 30
0.0
 11
5812.2232702939
 21
270.4323769029
 31
0.0
  0
LINE
  5
143
  8
1
  6
CONTINUOUS
 62
     7
 10
5818.7232702939
 20
270.4323849029
 30
0.0
 11
5813.7236062939
 21
205.9332459029
 31
0.0
  0
LINE
  5
144
  8
1
  6
CONTINUOUS
 62
     7
 10
5818.7232702939
 20
270.4323849029
 30
0.0
 11
5822.2232702939
 21
270.4323769029
 31
0.0
  0
LINE
  5
145
  8
1
  6
CONTINUOUS
 62
     7
 10
5742.046679440901
 20
202.6620158379
 30
0.0
 11
5742.0771044409
 21
202.6302608379
 31
0.0
  0
ARC
  5
146
  8
1
  6
CONTINUOUS
 62
     7
 10
5941.1160878963
 20
260.8696929029
 30
0.0
 40
1.0
 50
321.5699439999
 51
50.0
  0
LINE
  5
147
  8
1
  6
CONTINUOUS
 62
     7
 10
5851.2231552939
 20
208.4327969029
 30
0.0
 11
5849.2231552939
 21
208.4327969029
 31
0.0
  0
ARC
  5
148
  8
1
  6
CONTINUOUS
 62
     7
 10
5882.5758959152
 20
219.6469577206
 30
0.0
 40
0.1474924
 50
309.8311832812
 51
356.7788731361999
  0
ARC
  5
149
  8
1
  6
CONTINUOUS
 62
     7
 10
5882.3776072791
 20
263.482639631
 30
0.0
 40
0.3747867956
 50
38.6347686093
 51
57.9107849132
  0
ARC
  5
14A
  8
1
  6
CONTINUOUS
 62
     7
 10
5882.2265879494
 20
220.3941604845
 30
0.0
 40
0.9902320427
 50
269.8013828523
 51
282.846862834
  0
ARC
  5
14B
  8
1
  6
CONTINUOUS
 62
     7
 10
5882.2635045248
 20
208.0669146334
 30
0.0
 40
0.5188964329
 50
290.6812013028
 51
307.1279268944
  0
LINE
  5
14C
  8
1
  6
CONTINUOUS
 62
     7
 10
5950.9301390598
 20
273.5007004581
 30
0.0
 11
5952.5797228963
 21
270.3982869029
 31
0.0
  0
LINE
  5
14D
  8
1
  6
CONTINUOUS
 62
     7
 10
5879.2231552939
 20
207.5410191781
 30
0.0
 11
5882.2231552939
 21
207.5410191781
 31
0.0
  0
LINE
  5
14E
  8
1
  6
CONTINUOUS
 62
     7
 10
5879.2231552939
 20
273.5007006173
 30
0.0
 11
5879.2231552939
 21
268.8245746277
 31
0.0
  0
LINE
  5
14F
  8
1
  6
CONTINUOUS
 62
     7
 10
5879.2231552939
 20
256.9616594143
 30
0.0
 11
5879.2231552939
 21
263.8943012904
 31
0.0
  0
ARC
  5
150
  8
1
  6
CONTINUOUS
 62
     7
 10
5882.4107309487
 20
207.9265397739
 30
0.0
 40
0.3124343344
 50
326.2032508850999
 51
359.5418306844
  0
ARC
  5
151
  8
1
  6
CONTINUOUS
 62
     7
 10
5882.5758959152
 20
256.7186360852
 30
0.0
 40
0.1474924
 50
3.2211268638
 51
50.1688167188
  0
LINE
  5
152
  8
1
  6
CONTINUOUS
 62
     7
 10
5882.2231552939
 20
273.5007006173
 30
0.0
 11
5879.2231552939
 21
273.5007006173
 31
0.0
  0
LINE
  5
153
  8
1
  6
CONTINUOUS
 62
     7
 10
5941.7588758963
 20
261.6357379029
 30
0.0
 11
5939.0672241429
 21
263.8943021967
 31
0.0
  0
LINE
  5
154
  8
1
  6
CONTINUOUS
 62
     7
 10
5844.7231552939
 20
269.4327969029
 30
0.0
 11
5848.7231552939
 21
269.4327969029
 31
0.0
  0
ARC
  5
155
  8
1
  6
CONTINUOUS
 62
     7
 10
5882.4893168388
 20
263.5685876914
 30
0.0
 40
0.2338783523
 50
1.0583281458
 51
39.2738549231
  0
LINE
  5
156
  8
1
  6
CONTINUOUS
 62
     7
 10
5882.7231552939
 20
198.6827969029
 30
0.0
 11
5882.7231552939
 21
277.6701366462
 31
0.0
  0
ARC
  5
157
  8
1
  6
CONTINUOUS
 62
     7
 10
5882.4277551159
 20
219.8037681586
 30
0.0
 40
0.3630453948
 50
294.2229969518
 51
311.933985425
  0
ARC
  5
158
  8
1
  6
CONTINUOUS
 62
     7
 10
5882.2265879494
 20
255.9714333213
 30
0.0
 40
0.9902320427
 50
77.153137166
 51
90.1986171477
  0
ARC
  5
159
  8
1
  6
CONTINUOUS
 62
     7
 10
5882.2803366382
 20
263.3308060532
 30
0.0
 40
0.5551002602
 50
57.730166747
 51
72.5537169914
  0
ARC
  5
15A
  8
1
  6
CONTINUOUS
 62
     7
 10
5882.2989042269
 20
220.0796798875
 30
0.0
 40
0.6675445987
 50
282.7968632180999
 51
294.5923032761
  0
LINE
  5
15B
  8
1
  6
CONTINUOUS
 62
     7
 10
5767.223606293901
 20
205.9332539029
 30
0.0
 11
5763.723606293901
 21
205.9332459029
 31
0.0
  0
LINE
  5
15C
  8
1
  6
CONTINUOUS
 62
     7
 10
5783.370635293901
 20
207.9327969029
 30
0.0
 11
5777.3786013184
 21
207.9327969029
 31
0.0
  0
LINE
  5
15D
  8
1
  6
CONTINUOUS
 62
     7
 10
5763.723606293901
 20
205.9332459029
 30
0.0
 11
5763.3706352939
 21
207.9327969029
 31
0.0
  0
LINE
  5
15E
  8
1
  6
CONTINUOUS
 62
     7
 10
5773.3706352939
 20
207.9327969029
 30
0.0
 11
5767.3786013184
 21
207.9327969029
 31
0.0
  0
LINE
  5
15F
  8
1
  6
CONTINUOUS
 62
     7
 10
5767.223606293901
 20
205.9332539029
 30
0.0
 11
5772.2232702939
 21
270.4323769029
 31
0.0
  0
LINE
  5
160
  8
1
  6
CONTINUOUS
 62
     7
 10
5768.723270293901
 20
270.4323849029
 30
0.0
 11
5763.723606293901
 21
205.9332459029
 31
0.0
  0
LINE
  5
161
  8
1
  6
CONTINUOUS
 62
     7
 10
5882.2491054985
 20
278.1696208713
 30
0.0
 11
5882.2750557032
 21
278.1675931571
 31
0.0
  0
LINE
  5
162
  8
1
  6
CONTINUOUS
 62
     7
 10
5728.9231552939
 20
240.2647689029
 30
0.0
 11
5728.9231552939
 21
201.1827969029
 31
0.0
  0
LINE
  5
163
  8
1
  6
CONTINUOUS
 62
     7
 10
5882.7080882483
 20
277.7919943986
 30
0.0
 11
5882.7128382128
 21
277.7712166669
 31
0.0
  0
LINE
  5
164
  8
1
  6
CONTINUOUS
 62
     7
 10
5882.2231552939
 20
219.4039343915
 30
0.0
 11
5879.2231552939
 21
219.4039343915
 31
0.0
  0
ARC
  5
165
  8
1
  6
CONTINUOUS
 62
     7
 10
5882.2447244781
 20
272.993174998
 30
0.0
 40
0.5032540027
 50
48.7248903415
 51
66.330361273
  0
LINE
  5
166
  8
1
  6
CONTINUOUS
 62
     7
 10
5882.5085478607
 20
278.0808166526
 30
0.0
 11
5882.5257742103
 21
278.0682850763
 31
0.0
  0
LINE
  5
167
  8
1
  6
CONTINUOUS
 62
     7
 10
5882.6157591808
 20
277.9798510309
 30
0.0
 11
5882.6283258896
 21
277.9632090482
 31
0.0
  0
ARC
  5
168
  8
1
  6
CONTINUOUS
 62
     7
 10
5882.4277551159
 20
256.5618256472
 30
0.0
 40
0.3630453948
 50
48.0660145749
 51
65.7770030481
  0
LINE
  5
169
  8
1
  6
CONTINUOUS
 62
     7
 10
5879.2231552939
 20
219.4039343915
 30
0.0
 11
5879.2231552939
 21
212.4712925154
 31
0.0
  0
ARC
  5
16A
  8
1
  6
CONTINUOUS
 62
     7
 10
5882.2257576794
 20
213.2079090023
 30
0.0
 40
0.7366210838
 50
269.7975811214
 51
287.4590779073
  0
ARC
  5
16B
  8
1
  6
CONTINUOUS
 62
     7
 10
5882.2241456037
 20
203.4198387237
 30
0.0
 40
0.5549464188
 50
269.897754806
 51
293.6500600249
  0
LINE
  5
16C
  8
1
  6
CONTINUOUS
 62
     7
 10
5882.6283258896
 20
277.9632090482
 30
0.0
 11
5882.6404375953
 21
277.9456790191
 31
0.0
  0
LINE
  5
16D
  8
1
  6
CONTINUOUS
 62
     7
 10
5882.6624428258
 20
277.9090144504
 30
0.0
 11
5882.6722847351
 21
277.889940056
 31
0.0
  0
LINE
  5
16E
  8
1
  6
CONTINUOUS
 62
     7
 10
5882.4733583114
 20
278.1031693601
 30
0.0
 11
5882.4911860601
 21
278.0923597746
 31
0.0
  0
LINE
  5
16F
  8
1
  6
CONTINUOUS
 62
     7
 10
5882.7212077866
 20
277.7142383435
 30
0.0
 11
5882.7222876753
 21
277.6995886642
 31
0.0
  0
LINE
  5
170
  8
1
  6
CONTINUOUS
 62
     7
 10
5882.2231552939
 20
256.9616594143
 30
0.0
 11
5879.2231552939
 21
256.9616594143
 31
0.0
  0
LINE
  5
171
  8
1
  6
CONTINUOUS
 62
     7
 10
5879.2231552939
 20
202.8648931885
 30
0.0
 11
5879.2231552939
 21
207.5410191781
 31
0.0
  0
ARC
  5
172
  8
1
  6
CONTINUOUS
 62
     7
 10
5874.7231552939
 20
269.9327969029
 30
0.0
 40
2.0
 50
270.0
 51
0.0
  0
ARC
  5
173
  8
1
  6
CONTINUOUS
 62
     7
 10
5863.2231552939
 20
268.4327969029
 30
0.0
 40
0.5
 50
180.0
 51
270.0
  0
LINE
  5
174
  8
1
  6
CONTINUOUS
 62
     7
 10
5882.5424514172
 20
278.0550314611
 30
0.0
 11
5882.5586648882
 21
278.0409741047
 31
0.0
  0
LINE
  5
175
  8
1
  6
CONTINUOUS
 62
     7
 10
5882.588698688
 20
278.0113870539
 30
0.0
 11
5882.6025099284
 21
277.995954914
 31
0.0
  0
ARC
  5
176
  8
1
  6
CONTINUOUS
 62
     7
 10
5882.2447244781
 20
203.3724188078
 30
0.0
 40
0.5032540027
 50
293.6696387269
 51
311.2751096585
  0
ARC
  5
177
  8
1
  6
CONTINUOUS
 62
     7
 10
5863.2231552939
 20
207.9327969029
 30
0.0
 40
0.5
 50
90.0
 51
180.0
  0
LINE
  5
178
  8
1
  6
CONTINUOUS
 62
     7
 10
5882.4170950693
 20
278.1311375036
 30
0.0
 11
5882.4366889498
 21
278.1223898764
 31
0.0
  0
ARC
  5
179
  8
1
  6
CONTINUOUS
 62
     7
 10
5882.281346726
 20
273.0346930144
 30
0.0
 40
0.4478923352
 50
29.7080633751
 51
48.74216910219999
  0
LINE
  5
17A
  8
1
  6
CONTINUOUS
 62
     7
 10
5882.2231552939
 20
198.1827969029
 30
0.0
 11
5876.7231552939
 21
198.1827969029
 31
0.0
  0
LINE
  5
17B
  8
1
  6
CONTINUOUS
 62
     7
 10
5876.7231552939
 20
198.1827969029
 30
0.0
 11
5876.7231552939
 21
278.1702949492
 31
0.0
  0
LINE
  5
17C
  8
1
  6
CONTINUOUS
 62
     7
 10
5882.6809990587
 20
277.8711457713
 30
0.0
 11
5882.6889280927
 21
277.8520069362
 31
0.0
  0
LINE
  5
17D
  8
1
  6
CONTINUOUS
 62
     7
 10
5882.2955986718
 20
278.1650172356
 30
0.0
 11
5882.3160174084
 21
278.1615931831
 31
0.0
  0
ARC
  5
17E
  8
1
  6
CONTINUOUS
 62
     7
 10
5851.2231552939
 20
207.9327969029
 30
0.0
 40
0.5
 50
0.0
 51
90.0
  0
ARC
  5
17F
  8
1
  6
CONTINUOUS
 62
     7
 10
5882.2813467263
 20
203.3309007914
 30
0.0
 40
0.447892335
 50
311.2578308738
 51
330.2919366001
  0
LINE
  5
180
  8
1
  6
CONTINUOUS
 62
     7
 10
5836.7231552939
 20
244.6295118696
 30
0.0
 11
5836.7231552939
 21
270.4327969029
 31
0.0
  0
LINE
  5
181
  8
1
  6
CONTINUOUS
 62
     7
 10
5882.2231552939
 20
278.1702949492
 30
0.0
 11
5882.2491054985
 21
278.1696208713
 31
0.0
  0
ARC
  5
182
  8
1
  6
CONTINUOUS
 62
     7
 10
5882.3232729194
 20
273.0580859825
 30
0.0
 40
0.3998840019
 50
0.1634606808
 51
29.7739129009
  0
LINE
  5
183
  8
1
  6
CONTINUOUS
 62
     7
 10
5882.7024580012
 20
277.8125510667
 30
0.0
 11
5882.7080882483
 21
277.7919943986
 31
0.0
  0
LINE
  5
184
  8
1
  6
CONTINUOUS
 62
     7
 10
5876.7231552939
 20
278.1702949492
 30
0.0
 11
5882.2231552939
 21
278.1702949492
 31
0.0
  0
ARC
  5
185
  8
1
  6
CONTINUOUS
 62
     7
 10
5882.224145604
 20
272.9457550821
 30
0.0
 40
0.5549464187
 50
66.3499399995
 51
90.10224521869999
  0
ARC
  5
186
  8
1
  6
CONTINUOUS
 62
     7
 10
5882.2249991554
 20
268.1963026697
 30
0.0
 40
0.6282746636
 50
69.3308377184
 51
90.16815198979997
  0
LINE
  5
187
  8
1
  6
CONTINUOUS
 62
     7
 10
5882.4552225915
 20
278.1131592009
 30
0.0
 11
5882.4733583114
 21
278.1031693601
 31
0.0
  0
LINE
  5
188
  8
1
  6
CONTINUOUS
 62
     7
 10
5882.6889280927
 20
277.8520069362
 30
0.0
 11
5882.6961042657
 21
277.8324200136
 31
0.0
  0
ARC
  5
189
  8
1
  6
CONTINUOUS
 62
     7
 10
5882.4893168387
 20
212.7970061143
 30
0.0
 40
0.2338783525
 50
320.7261450901
 51
358.9416718668
  0
LINE
  5
18A
  8
1
  6
CONTINUOUS
 62
     7
 10
5731.9231552939
 20
240.9330329029
 30
0.0
 11
5731.9231552939
 21
240.9391749029
 31
0.0
  0
LINE
  5
18B
  8
1
  6
CONTINUOUS
 62
     7
 10
5882.5257742103
 20
278.0682850763
 30
0.0
 11
5882.5424514172
 21
278.0550314611
 31
0.0
  0
LINE
  5
18C
  8
1
  6
CONTINUOUS
 62
     7
 10
5874.7231552939
 20
208.4327969029
 30
0.0
 11
5863.2231552939
 21
208.4327969029
 31
0.0
  0
LINE
  5
18D
  8
1
  6
CONTINUOUS
 62
     7
 10
5752.9231552939
 20
240.4677359029
 30
0.0
 11
5752.9231552939
 21
264.8051869029
 31
0.0
  0
LINE
  5
18E
  8
1
  6
CONTINUOUS
 62
     7
 10
5752.9231552939
 20
211.5604069029
 30
0.0
 11
5752.9231552939
 21
235.8978569029
 31
0.0
  0
LINE
  5
18F
  8
1
  6
CONTINUOUS
 62
     7
 10
5882.7128382128
 20
277.7712166669
 30
0.0
 11
5882.7167235622
 21
277.7501006536
 31
0.0
  0
LINE
  5
190
  8
1
  6
CONTINUOUS
 62
     7
 10
5756.816854293901
 20
198.1827969029
 30
0.0
 11
5756.816854293901
 21
278.1827969029
 31
0.0
  0
LINE
  5
191
  8
1
  6
CONTINUOUS
 62
     7
 10
5882.5586648882
 20
278.0409741047
 30
0.0
 11
5882.5742606138
 21
278.026234387
 31
0.0
  0
LINE
  5
192
  8
1
  6
CONTINUOUS
 62
     7
 10
5882.6722847351
 20
277.889940056
 30
0.0
 11
5882.6809990587
 21
277.8711457713
 31
0.0
  0
LINE
  5
193
  8
1
  6
CONTINUOUS
 62
     7
 10
5882.5742606138
 20
278.026234387
 30
0.0
 11
5882.588698688
 21
278.0113870539
 31
0.0
  0
ARC
  5
194
  8
1
  6
CONTINUOUS
 62
     7
 10
5947.0221058963
 20
209.5898829029
 30
0.0
 40
1.0
 50
51.56994399999999
 51
140.0
  0
LINE
  5
195
  8
1
  6
CONTINUOUS
 62
     7
 10
5787.2236062939
 20
205.9332539029
 30
0.0
 11
5792.2232702939
 21
270.4323769029
 31
0.0
  0
LINE
  5
196
  8
1
  6
CONTINUOUS
 62
     7
 10
5950.9301390598
 20
202.8648933476
 30
0.0
 11
5952.5797228963
 21
205.9673069029
 31
0.0
  0
LINE
  5
197
  8
1
  6
CONTINUOUS
 62
     7
 10
5763.3706352939
 20
207.9327969029
 30
0.0
 11
5757.378601318401
 21
207.9327969029
 31
0.0
  0
LINE
  5
198
  8
1
  6
CONTINUOUS
 62
     7
 10
5788.7232702939
 20
270.4323849029
 30
0.0
 11
5792.2232702939
 21
270.4323769029
 31
0.0
  0
LINE
  5
199
  8
1
  6
CONTINUOUS
 62
     7
 10
5782.5758062939
 20
268.4327969029
 30
0.0
 11
5788.5682718196
 21
268.4327969029
 31
0.0
  0
LINE
  5
19A
  8
1
  6
CONTINUOUS
 62
     7
 10
5841.7231552939
 20
205.9327969029
 30
0.0
 11
5841.7231552939
 21
270.4327969029
 31
0.0
  0
LINE
  5
19B
  8
1
  6
CONTINUOUS
 62
     7
 10
5783.7236062939
 20
205.9332459029
 30
0.0
 11
5783.3706352939
 21
207.9327969029
 31
0.0
  0
LINE
  5
19C
  8
1
  6
CONTINUOUS
 62
     7
 10
5788.7232702939
 20
270.4323849029
 30
0.0
 11
5783.7236062939
 21
205.9332459029
 31
0.0
  0
LINE
  5
19D
  8
1
  6
CONTINUOUS
 62
     7
 10
5842.2231552939
 20
267.9327969029
 30
0.0
 11
5844.2231552939
 21
267.9327969029
 31
0.0
  0
LINE
  5
19E
  8
0
  6
CONTINUOUS
 62
     7
 10
5577.7231552939
 20
198.6827969029
 30
0.0
 11
5577.7231552939
 21
277.6701366462
 31
0.0
  0
POINT
  5
19F
  8
1
 62
     1
 10
5718.723155293901
 20
238.1827969029
 30
0.0
  0
ARC
  5
1A0
  8
1
  6
CONTINUOUS
 62
     7
 10
5882.2249991554
 20
208.169291136
 30
0.0
 40
0.6282746636
 50
269.8318480102
 51
290.6691622816
  0
ARC
  5
1A1
  8
1
  6
CONTINUOUS
 62
     7
 10
5882.3320921134
 20
207.9771938333
 30
0.0
 40
0.4059640567
 50
307.0532650082
 51
326.4358980845999
  0
ARC
  5
1A2
  8
1
  6
CONTINUOUS
 62
     7
 10
5882.4107309489
 20
268.4390540318
 30
0.0
 40
0.3124343342
 50
0.458169325
 51
33.7967491244
  0
ARC
  5
1A3
  8
1
  6
CONTINUOUS
 62
     7
 10
5882.3776072791
 20
212.8829541747
 30
0.0
 40
0.3747867956
 50
302.0892150867
 51
321.3652313907
  0
LINE
  5
1A4
  8
1
  6
CONTINUOUS
 62
     7
 10
5862.7231552939
 20
206.9327969029
 30
0.0
 11
5862.7231552939
 21
269.4327969029
 31
0.0
  0
ARC
  5
1A5
  8
1
  6
CONTINUOUS
 62
     7
 10
5882.2803366386
 20
213.0347877526
 30
0.0
 40
0.55510026
 50
287.4462829719
 51
302.2698332171
  0
LINE
  5
1A6
  8
1
  6
CONTINUOUS
 62
     7
 10
5879.2231552939
 20
268.8245746277
 30
0.0
 11
5882.2231552939
 21
268.8245746277
 31
0.0
  0
ARC
  5
1A7
  8
1
  6
CONTINUOUS
 62
     7
 10
5882.2989042269
 20
256.2859139183
 30
0.0
 40
0.6675445987
 50
65.4076967239
 51
77.2031367819
  0
LINE
  5
1A8
  8
1
  6
CONTINUOUS
 62
     7
 10
5879.2231552939
 20
212.4712925154
 30
0.0
 11
5882.2231552939
 21
212.4712925154
 31
0.0
  0
ARC
  5
1A9
  8
1
  6
CONTINUOUS
 62
     7
 10
5849.2231552939
 20
207.9327969029
 30
0.0
 40
0.5
 50
90.0
 51
180.0
  0
ARC
  5
1AA
  8
1
  6
CONTINUOUS
 62
     7
 10
5851.2231552939
 20
268.4327969029
 30
0.0
 40
0.5
 50
270.0
 51
0.0
  0
LINE
  5
1AB
  8
1
  6
CONTINUOUS
 62
     7
 10
5879.2231552939
 20
263.8943012904
 30
0.0
 11
5882.2231552939
 21
263.8943012904
 31
0.0
  0
ARC
  5
1AC
  8
1
  6
CONTINUOUS
 62
     7
 10
5849.2231552939
 20
268.4327969029
 30
0.0
 40
0.5
 50
180.0
 51
270.0
  0
ARC
  5
1AD
  8
1
  6
CONTINUOUS
 62
     7
 10
5882.2257576797
 20
263.1576848035
 30
0.0
 40
0.7366210838
 50
72.5409221177
 51
90.2024189036
  0
ARC
  5
1AE
  8
1
  6
CONTINUOUS
 62
     7
 10
5882.3320921131
 20
268.3883999725
 30
0.0
 40
0.4059640569
 50
33.5641018862
 51
52.9467349633
  0
LINE
  5
1AF
  8
1
  6
CONTINUOUS
 62
     7
 10
5849.2231552939
 20
267.9327969029
 30
0.0
 11
5851.2231552939
 21
267.9327969029
 31
0.0
  0
LINE
  5
1B0
  8
1
  6
CONTINUOUS
 62
     7
 10
5882.2231552939
 20
202.8648931885
 30
0.0
 11
5879.2231552939
 21
202.8648931885
 31
0.0
  0
ARC
  5
1B1
  8
1
  6
CONTINUOUS
 62
     7
 10
5882.2635045251
 20
268.2986791723
 30
0.0
 40
0.5188964327
 50
52.8720731394
 51
69.31879873099999
  0
LINE
  5
1B2
  8
0
  6
CONTINUOUS
 62
     7
 10
0.0
 20
0.0
 30
0.0
 11
420.0
 21
0.0
 31
0.0
  0
LINE
  5
1B3
  8
0
  6
CONTINUOUS
 62
     7
 10
420.0
 20
0.0
 30
0.0
 11
420.0
 21
297.0
 31
0.0
  0
LINE
  5
1B4
  8
0
  6
CONTINUOUS
 62
     7
 10
420.0
 20
297.0
 30
0.0
 11
0.0
 21
297.0
 31
0.0
  0
LINE
  5
1B5
  8
0
  6
CONTINUOUS
 62
     7
 10
0.0
 20
297.0
 30
0.0
 11
0.0
 21
0.0
 31
0.0
  0
LINE
  5
1B6
  8
0
  6
CONTINUOUS
 62
     7
 10
10.0
 20
10.0
 30
0.0
 11
409.9999999999999
 21
10.0
 31
0.0
  0
LINE
  5
1B7
  8
0
  6
CONTINUOUS
 62
     7
 10
409.9999999999999
 20
10.0
 30
0.0
 11
409.9999999999999
 21
286.9999999999999
 31
0.0
  0
LINE
  5
1B8
  8
0
  6
CONTINUOUS
 62
     7
 10
409.9999999999999
 20
286.9999999999999
 30
0.0
 11
10.00000000000006
 21
286.9999999999999
 31
0.0
  0
LINE
  5
1B9
  8
0
  6
CONTINUOUS
 62
     7
 10
10.0
 20
286.9999999999999
 30
0.0
 11
10.0
 21
10.00000000000001
 31
0.0
  0
LINE
  5
1BA
  8
0
  6
CONTINUOUS
 62
     7
 10
210.0
 20
0.0
 30
0.0
 11
210.0
 21
10.0
 31
0.0
  0
LINE
  5
1BB
  8
0
  6
CONTINUOUS
 62
     7
 10
420.0
 20
148.5
 30
0.0
 11
409.9999999999999
 21
148.5
 31
0.0
  0
LINE
  5
1BC
  8
0
  6
CONTINUOUS
 62
     7
 10
210.0
 20
297.0
 30
0.0
 11
210.0
 21
286.9999999999999
 31
0.0
  0
LINE
  5
1BD
  8
0
  6
CONTINUOUS
 62
     7
 10
0.0
 20
148.5
 30
0.0
 11
10.0
 21
148.5
 31
0.0
  0
LINE
  5
1BE
  8
0
  6
CONTINUOUS
 62
     7
 10
11.0
 20
152.5
 30
0.0
 11
0.0000000000000017
 21
148.5
 31
0.0
  0
LINE
  5
1BF
  8
0
  6
CONTINUOUS
 62
     7
 10
0.0
 20
148.5
 30
0.0
 11
11.0
 21
144.5
 31
0.0
  0
LINE
  5
1C0
  8
0
  6
CONTINUOUS
 62
     7
 10
11.0
 20
144.5
 30
0.0
 11
11.0
 21
152.5
 31
0.0
  0
INSERT
  5
1C1
  8
0
 62
     7
  2
*U2
 10
0.0
 20
0.0
 30
0.0
  0
LINE
  5
1C2
  8
0
  6
CONTINUOUS
 62
     7
 10
206.0
 20
11.0
 30
0.0
 11
210.0
 21
-0.0000000000000017
 31
0.0
  0
LINE
  5
1C3
  8
0
  6
CONTINUOUS
 62
     7
 10
210.0
 20
0.0
 30
0.0
 11
214.0
 21
11.0
 31
0.0
  0
LINE
  5
1C4
  8
0
  6
CONTINUOUS
 62
     7
 10
214.0
 20
11.0
 30
0.0
 11
206.0
 21
11.0
 31
0.0
  0
INSERT
  5
1C5
  8
0
 62
     7
  2
*U3
 10
0.0
 20
0.0
 30
0.0
  0
INSERT
  5
1C6
  8
0
 62
     7
  2
*U4
 10
0.0
 20
0.0
 30
0.0
  0
LINE
  5
1C7
  8
0
  6
CONTINUOUS
 62
     7
 10
367.5
 20
286.9999999999999
 30
0.0
 11
367.5
 21
292.0
 31
0.0
  0
TEXT
  5
1C8
  8
0
  6
CONTINUOUS
 62
     7
 10
391.2681818181818
 20
291.6648586970114
 30
0.0
 40
3.5
  1
A
 50
270.0
  0
LINE
  5
1C9
  8
0
  6
CONTINUOUS
 62
     7
 10
367.5
 20
10.0
 30
0.0
 11
367.5
 21
5.0
 31
0.0
  0
TEXT
  5
1CA
  8
0
  6
CONTINUOUS
 62
     7
 10
393.1544594848068
 20
4.236363636363635
 30
0.0
 40
3.5
  1
A
  0
LINE
  5
1CB
  8
0
  6
CONTINUOUS
 62
     7
 10
315.0
 20
286.9999999999999
 30
0.0
 11
315.0
 21
292.0
 31
0.0
  0
TEXT
  5
1CC
  8
0
  6
CONTINUOUS
 62
     7
 10
338.7681818181818
 20
291.9491215455798
 30
0.0
 40
3.5
  1
B
 50
270.0
  0
LINE
  5
1CD
  8
0
  6
CONTINUOUS
 62
     7
 10
315.0
 20
10.0
 30
0.0
 11
315.0
 21
5.0
 31
0.0
  0
TEXT
  5
1CE
  8
0
  6
CONTINUOUS
 62
     7
 10
340.3701966362385
 20
4.236363636363635
 30
0.0
 40
3.5
  1
B
  0
LINE
  5
1CF
  8
0
  6
CONTINUOUS
 62
     7
 10
262.5
 20
286.9999999999999
 30
0.0
 11
262.5
 21
292.0
 31
0.0
  0
TEXT
  5
1D0
  8
0
  6
CONTINUOUS
 62
     7
 10
286.2655558334374
 20
291.8798611979494
 30
0.0
 40
3.5
  1
C
 50
270.0
  0
LINE
  5
1D1
  8
0
  6
CONTINUOUS
 62
     7
 10
262.5
 20
10.0
 30
0.0
 11
262.5
 21
5.0
 31
0.0
  0
TEXT
  5
1D2
  8
0
  6
CONTINUOUS
 62
     7
 10
287.9394569838688
 20
4.233737651619357
 30
0.0
 40
3.5
  1
C
  0
LINE
  5
1D3
  8
0
  6
CONTINUOUS
 62
     7
 10
210.0
 20
286.9999999999999
 30
0.0
 11
210.0
 21
292.0
 31
0.0
  0
TEXT
  5
1D4
  8
0
  6
CONTINUOUS
 62
     7
 10
233.7681818181818
 20
291.9491215455796
 30
0.0
 40
3.5
  1
D
 50
270.0
  0
LINE
  5
1D5
  8
0
  6
CONTINUOUS
 62
     7
 10
157.5
 20
286.9999999999999
 30
0.0
 11
157.5
 21
292.0
 31
0.0
  0
TEXT
  5
1D6
  8
0
  6
CONTINUOUS
 62
     7
 10
181.2655558334376
 20
292.0549268475679
 30
0.0
 40
3.5
  1
E
 50
270.0
  0
LINE
  5
1D7
  8
0
  6
CONTINUOUS
 62
     7
 10
157.5
 20
10.0
 30
0.0
 11
157.5
 21
5.0
 31
0.0
  0
LINE
  5
1D8
  8
0
  6
CONTINUOUS
 62
     7
 10
105.0
 20
286.9999999999999
 30
0.0
 11
105.0
 21
292.0
 31
0.0
  0
TEXT
  5
1D9
  8
0
  6
CONTINUOUS
 62
     7
 10
128.7655558334375
 20
291.9849005877204
 30
0.0
 40
3.5
  1
F
 50
270.0
  0
LINE
  5
1DA
  8
0
  6
CONTINUOUS
 62
     7
 10
105.0
 20
10.0
 30
0.0
 11
105.0
 21
5.0
 31
0.0
  0
TEXT
  5
1DB
  8
0
  6
CONTINUOUS
 62
     7
 10
130.3344175940978
 20
4.233737651619357
 30
0.0
 40
3.5
  1
F
  0
LINE
  5
1DC
  8
0
  6
CONTINUOUS
 62
     7
 10
52.50000000000004
 20
286.9999999999999
 30
0.0
 11
52.50000000000004
 21
292.0
 31
0.0
  0
TEXT
  5
1DD
  8
0
  6
CONTINUOUS
 62
     7
 10
76.26555583343753
 20
291.8798611979493
 30
0.0
 40
3.5
  1
G
 50
270.0
  0
LINE
  5
1DE
  8
0
  6
CONTINUOUS
 62
     7
 10
52.50000000000004
 20
10.0
 30
0.0
 11
52.50000000000004
 21
5.0
 31
0.0
  0
TEXT
  5
1DF
  8
0
  6
CONTINUOUS
 62
     7
 10
77.93945698386898
 20
4.233737651619357
 30
0.0
 40
3.5
  1
G
  0
TEXT
  5
1E0
  8
0
  6
CONTINUOUS
 62
     7
 10
23.76555583343753
 20
291.9498874577966
 30
0.0
 40
3.5
  1
H
 50
270.0
  0
TEXT
  5
1E1
  8
0
  6
CONTINUOUS
 62
     7
 10
25.36943072402154
 20
4.233737651619357
 30
0.0
 40
3.5
  1
H
  0
LINE
  5
1E2
  8
0
  6
CONTINUOUS
 62
     7
 10
409.9999999999999
 20
74.25
 30
0.0
 11
414.9999999999999
 21
74.25
 31
0.0
  0
TEXT
  5
1E3
  8
0
  6
CONTINUOUS
 62
     7
 10
412.7265755908465
 20
34.64055583343754
 30
0.0
 40
3.5
  1
1
  0
LINE
  5
1E4
  8
0
  6
CONTINUOUS
 62
     7
 10
10.0
 20
74.25
 30
0.0
 11
5.0
 21
74.25
 31
0.0
  0
TEXT
  5
1E5
  8
0
  6
CONTINUOUS
 62
     7
 10
4.23373765161935
 20
38.46774259097161
 30
0.0
 40
3.5
  1
1
 50
270.0
  0
LINE
  5
1E6
  8
0
  6
CONTINUOUS
 62
     7
 10
409.9999999999999
 20
148.5
 30
0.0
 11
414.9999999999999
 21
148.5
 31
0.0
  0
TEXT
  5
1E7
  8
0
  6
CONTINUOUS
 62
     7
 10
413.1887489058396
 20
108.8905558334376
 30
0.0
 40
3.5
  1
2
  0
LINE
  5
1E8
  8
0
  6
CONTINUOUS
 62
     7
 10
10.0
 20
148.5
 30
0.0
 11
5.0
 21
148.5
 31
0.0
  0
TEXT
  5
1E9
  8
0
  6
CONTINUOUS
 62
     7
 10
4.233737651619379
 20
112.2555692759785
 30
0.0
 40
3.5
  1
2
 50
270.0
  0
LINE
  5
1EA
  8
0
  6
CONTINUOUS
 62
     7
 10
409.9999999999999
 20
222.75
 30
0.0
 11
414.9999999999999
 21
222.75
 31
0.0
  0
TEXT
  5
1EB
  8
0
  6
CONTINUOUS
 62
     7
 10
413.2237620357633
 20
183.1405558334376
 30
0.0
 40
3.5
  1
3
  0
LINE
  5
1EC
  8
0
  6
CONTINUOUS
 62
     7
 10
10.0
 20
222.75
 30
0.0
 11
5.0
 21
222.75
 31
0.0
  0
TEXT
  5
1ED
  8
0
  6
CONTINUOUS
 62
     7
 10
4.23373765161935
 20
186.4705561460548
 30
0.0
 40
3.5
  1
3
 50
270.0
  0
TEXT
  5
1EE
  8
0
  6
CONTINUOUS
 62
     7
 10
413.3316462423409
 20
257.3931818181817
 30
0.0
 40
3.5
  1
4
  0
TEXT
  5
1EF
  8
0
  6
CONTINUOUS
 62
     7
 10
4.23636363636362
 20
260.6126719394773
 30
0.0
 40
3.5
  1
4
 50
270.0
  0
LINE
  5
1F0
  8
0
  6
CONTINUOUS
 62
     7
 10
220.0
 20
10.0
 30
0.0
 11
220.0
 21
7.0
 31
0.0
  0
LINE
  5
1F1
  8
0
  6
CONTINUOUS
 62
     7
 10
200.0
 20
10.0
 30
0.0
 11
200.0
 21
7.0
 31
0.0
  0
LINE
  5
1F2
  8
0
  6
CONTINUOUS
 62
     7
 10
230.0
 20
10.0
 30
0.0
 11
230.0
 21
7.0
 31
0.0
  0
LINE
  5
1F3
  8
0
  6
CONTINUOUS
 62
     7
 10
190.0
 20
10.0
 30
0.0
 11
190.0
 21
7.0
 31
0.0
  0
LINE
  5
1F4
  8
0
  6
CONTINUOUS
 62
     7
 10
240.0
 20
10.0
 30
0.0
 11
240.0
 21
7.0
 31
0.0
  0
LINE
  5
1F5
  8
0
  6
CONTINUOUS
 62
     7
 10
180.0
 20
10.0
 30
0.0
 11
180.0
 21
7.0
 31
0.0
  0
LINE
  5
1F6
  8
0
  6
CONTINUOUS
 62
     7
 10
250.0
 20
10.0
 30
0.0
 11
250.0
 21
7.0
 31
0.0
  0
LINE
  5
1F7
  8
0
  6
CONTINUOUS
 62
     7
 10
170.0
 20
10.0
 30
0.0
 11
170.0
 21
7.0
 31
0.0
  0
LINE
  5
1F8
  8
0
  6
CONTINUOUS
 62
     7
 10
260.0
 20
10.0
 30
0.0
 11
260.0
 21
5.0
 31
0.0
  0
LINE
  5
1F9
  8
0
  6
CONTINUOUS
 62
     7
 10
160.0
 20
10.0
 30
0.0
 11
160.0
 21
5.0
 31
0.0
  0
LINE
  5
1FA
  8
0
  6
CONTINUOUS
 62
     7
 10
260.0
 20
10.0
 30
0.0
 11
160.0
 21
10.0
 31
0.0
  0
LINE
  5
1FB
  8
0
  6
CONTINUOUS
 62
     7
 10
260.0
 20
7.0
 30
0.0
 11
160.0
 21
7.0
 31
0.0
  0
INSERT
  5
1FC
  8
0
 62
     7
  2
*U5
 10
0.0
 20
0.0
 30
0.0
  0
INSERT
  5
1FD
  8
0
 62
     7
  2
*U6
 10
0.0
 20
0.0
 30
0.0
  0
INSERT
  5
1FE
  8
0
 62
     7
  2
*U7
 10
0.0
 20
0.0
 30
0.0
  0
INSERT
  5
1FF
  8
0
 62
     7
  2
*U8
 10
0.0
 20
0.0
 30
0.0
  0
INSERT
  5
200
  8
0
 62
     7
  2
*U9
 10
0.0
 20
0.0
 30
0.0
  0
INSERT
  5
201
  8
0
 62
     7
  2
*U10
 10
0.0
 20
0.0
 30
0.0
  0
INSERT
  5
202
  8
0
 62
     7
  2
*U11
 10
0.0
 20
0.0
 30
0.0
  0
INSERT
  5
203
  8
0
 62
     7
  2
*U12
 10
0.0
 20
0.0
 30
0.0
  0
INSERT
  5
204
  8
0
 62
     7
  2
*U13
 10
0.0
 20
0.0
 30
0.0
  0
INSERT
  5
205
  8
0
 62
     7
  2
*U14
 10
0.0
 20
0.0
 30
0.0
  0
INSERT
  5
206
  8
0
 62
     7
  2
*U15
 10
0.0
 20
0.0
 30
0.0
  0
INSERT
  5
207
  8
0
 62
     7
  2
*U16
 10
0.0
 20
0.0
 30
0.0
  0
INSERT
  5
208
  8
0
 62
     7
  2
*U17
 10
0.0
 20
0.0
 30
0.0
  0
INSERT
  5
209
  8
0
 62
     7
  2
*U18
 10
0.0
 20
0.0
 30
0.0
  0
INSERT
  5
20A
  8
0
 62
     7
  2
*U19
 10
0.0
 20
0.0
 30
0.0
  0
INSERT
  5
20B
  8
0
 62
     7
  2
*U20
 10
0.0
 20
0.0
 30
0.0
  0
INSERT
  5
20D
  8
0
 62
     7
  2
D_FRAME_DRAWING_21
 10
0.0
 20
0.0
 30
0.0
  0
LINE
  5
257
  8
1
  6
CENTER
 62
     5
 10
5894.8321493833
 20
238.1827969029
 30
0.0
 11
5567.1167909899
 21
238.1827969029
 31
0.0
  0
ENDSEC
  0
EOF
