  0
SECTION
  2
HEADER
  9
$ACADVER
  1
AC1006
  9
$DWGCODEPAGE
  3
ansi_932
  9
$INSBASE
 10
0.0
 20
0.0
 30
0.0
  9
$EXTMIN
 10
0.0
 20
-0.0000000000000017
  9
$EXTMAX
 10
496.1592272301613
 20
1535.1147959168
  9
$LIMMIN
 10
0.0
 20
0.0
  9
$LIMMAX
 10
12.0
 20
9.0
  9
$ORTHOMODE
 70
     0
  9
$REGENMODE
 70
     1
  9
$FILLMODE
 70
     1
  9
$QTEXTMODE
 70
     0
  9
$MIRRTEXT
 70
     1
  9
$DRAGMODE
 70
     2
  9
$LTSCALE
 40
1.0
  9
$OSMODE
 70
    37
  9
$ATTMODE
 70
     1
  9
$TEXTSIZE
 40
0.2
  9
$TRACEWID
 40
0.05
  9
$TEXTSTYLE
  7
STANDARD
  9
$CLAYER
  8
0
  9
$CELTYPE
  6
BYLAYER
  9
$CECOLOR
 62
   256
  9
$DIMSCALE
 40
1.0
  9
$DIMASZ
 40
3.0
  9
$DIMEXO
 40
0.0625
  9
$DIMDLI
 40
0.38
  9
$DIMRND
 40
0.0
  9
$DIMDLE
 40
0.0
  9
$DIMEXE
 40
1.5
  9
$DIMTP
 40
0.0
  9
$DIMTM
 40
0.0
  9
$DIMTXT
 40
3.5
  9
$DIMCEN
 40
0.09
  9
$DIMTSZ
 40
0.0
  9
$DIMTOL
 70
     0
  9
$DIMLIM
 70
     0
  9
$DIMTIH
 70
     1
  9
$DIMTOH
 70
     1
  9
$DIMSE1
 70
     0
  9
$DIMSE2
 70
     0
  9
$DIMTAD
 70
     1
  9
$DIMZIN
 70
     0
  9
$DIMBLK
  1

  9
$DIMASO
 70
     1
  9
$DIMSHO
 70
     1
  9
$DIMPOST
  1

  9
$DIMAPOST
  1

  9
$DIMALT
 70
     0
  9
$DIMALTD
 70
     2
  9
$DIMALTF
 40
25.4
  9
$DIMLFAC
 40
1.0
  9
$DIMTOFL
 70
     0
  9
$DIMTVP
 40
0.0
  9
$DIMTIX
 70
     0
  9
$DIMSOXD
 70
     0
  9
$DIMSAH
 70
     0
  9
$DIMBLK1
  1

  9
$DIMBLK2
  1

  9
$LUNITS
 70
     2
  9
$LUPREC
 70
     4
  9
$SKETCHINC
 40
0.1
  9
$FILLETRAD
 40
0.5
  9
$AUNITS
 70
     0
  9
$AUPREC
 70
     0
  9
$MENU
  1
.
  9
$ELEVATION
 40
0.0
  9
$THICKNESS
 40
0.0
  9
$LIMCHECK
 70
     0
  9
$CHAMFERA
 40
0.0
  9
$CHAMFERB
 40
0.0
  9
$SKPOLY
 70
     0
  9
$TDCREATE
 40
2459986.545326227
  9
$TDUPDATE
 40
2459986.545326655
  9
$TDINDWG
 40
0.0000000116
  9
$TDUSRTIMER
 40
0.0000000116
  9
$USRTIMER
 70
     1
  9
$ANGBASE
 50
0.0
  9
$ANGDIR
 70
     0
  9
$PDMODE
 70
     0
  9
$PDSIZE
 40
0.0
  9
$PLINEWID
 40
0.0
  9
$COORDS
 70
     1
  9
$SPLFRAME
 70
     0
  9
$SPLINETYPE
 70
     6
  9
$SPLINESEGS
 70
     8
  9
$ATTDIA
 70
     0
  9
$ATTREQ
 70
     1
  9
$HANDLING
 70
     1
  9
$HANDSEED
  5
2DD
  9
$SURFTAB1
 70
     6
  9
$SURFTAB2
 70
     6
  9
$SURFTYPE
 70
     6
  9
$SURFU
 70
     6
  9
$SURFV
 70
     6
  9
$UCSNAME
  2

  9
$UCSORG
 10
0.0
 20
0.0
 30
0.0
  9
$UCSXDIR
 10
1.0
 20
0.0
 30
0.0
  9
$UCSYDIR
 10
0.0
 20
1.0
 30
0.0
  9
$USERI1
 70
     0
  9
$USERI2
 70
     0
  9
$USERI3
 70
     0
  9
$USERI4
 70
     0
  9
$USERI5
 70
     0
  9
$USERR1
 40
0.0
  9
$USERR2
 40
0.0
  9
$USERR3
 40
0.0
  9
$USERR4
 40
0.0
  9
$USERR5
 40
0.0
  9
$WORLDVIEW
 70
     1
  0
ENDSEC
  0
SECTION
  2
TABLES
  0
TABLE
  2
VPORT
 70
     1
  0
VPORT
  2
*ACTIVE
 70
     0
 10
0.0
 20
0.0
 11
1.0
 21
1.0
 12
248.0796136150807
 22
767.5573979584
 13
0.0
 23
0.0
 14
0.5
 24
0.5
 15
0.5
 25
0.5
 16
0.0
 26
0.0
 36
1.0
 17
0.0
 27
0.0
 37
0.0
 40
1535.1147959168
 41
1.6
 42
50.0
 43
0.0
 44
0.0
 50
0.0
 51
0.0
 71
     0
 72
   100
 73
     1
 74
     3
 75
     0
 76
     0
 77
     0
 78
     0
  0
ENDTAB
  0
TABLE
  2
LTYPE
 70
     2
  0
LTYPE
  2
CONTINUOUS
 70
     0
  3
Solid line
 72
    65
 73
     0
 40
0.0
  0
LTYPE
  2
CENTER
 70
     0
  3

 72
    65
 73
     0
 40
0.0
  0
ENDTAB
  0
TABLE
  2
LAYER
 70
     2
  0
LAYER
  2
0
 70
     0
 62
     7
  6
CONTINUOUS
  0
LAYER
  2
1
 70
     0
 62
     7
  6
CONTINUOUS
  0
ENDTAB
  0
TABLE
  2
STYLE
 70
     2
  0
STYLE
  2
STANDARD
 70
     0
 40
0.0
 41
1.0
 50
0.0
 71
     0
 42
0.2
  3
txt
  4

  0
STYLE
  2
ＭＳ_ゴシック
 70
     0
 40
0.0
 41
1.0
 50
0.0
 71
     0
 42
0.2
  3
ＭＳ ゴシック.shx
  4

  0
ENDTAB
  0
TABLE
  2
VIEW
 70
     0
  0
ENDTAB
  0
TABLE
  2
UCS
 70
     0
  0
ENDTAB
  0
ENDSEC
  0
SECTION
  2
BLOCKS
  0
BLOCK
  8
0
  2
D_FRAME_DRAWING_21
 70
     0
 10
0.0
 20
0.0
 30
0.0
  0
LINE
  5
1E4
  8
0
  6
CONTINUOUS
 62
     7
 10
0.0
 20
0.0
 30
0.0
 11
420.0
 21
0.0
 31
0.0
  0
LINE
  5
1E5
  8
0
  6
CONTINUOUS
 62
     7
 10
420.0
 20
0.0
 30
0.0
 11
420.0
 21
297.0
 31
0.0
  0
LINE
  5
1E6
  8
0
  6
CONTINUOUS
 62
     7
 10
420.0
 20
297.0
 30
0.0
 11
0.0
 21
297.0
 31
0.0
  0
LINE
  5
1E7
  8
0
  6
CONTINUOUS
 62
     7
 10
0.0
 20
297.0
 30
0.0
 11
0.0
 21
0.0
 31
0.0
  0
LINE
  5
1E8
  8
0
  6
CONTINUOUS
 62
     7
 10
10.0
 20
10.0
 30
0.0
 11
409.9999999999999
 21
10.0
 31
0.0
  0
LINE
  5
1E9
  8
0
  6
CONTINUOUS
 62
     7
 10
409.9999999999999
 20
10.0
 30
0.0
 11
409.9999999999999
 21
286.9999999999999
 31
0.0
  0
LINE
  5
1EA
  8
0
  6
CONTINUOUS
 62
     7
 10
409.9999999999999
 20
286.9999999999999
 30
0.0
 11
10.00000000000006
 21
286.9999999999999
 31
0.0
  0
LINE
  5
1EB
  8
0
  6
CONTINUOUS
 62
     7
 10
10.0
 20
286.9999999999999
 30
0.0
 11
10.0
 21
10.00000000000001
 31
0.0
  0
LINE
  5
1EC
  8
0
  6
CONTINUOUS
 62
     7
 10
210.0
 20
0.0
 30
0.0
 11
210.0
 21
10.0
 31
0.0
  0
LINE
  5
1ED
  8
0
  6
CONTINUOUS
 62
     7
 10
420.0
 20
148.5
 30
0.0
 11
409.9999999999999
 21
148.5
 31
0.0
  0
LINE
  5
1EE
  8
0
  6
CONTINUOUS
 62
     7
 10
210.0
 20
297.0
 30
0.0
 11
210.0
 21
286.9999999999999
 31
0.0
  0
LINE
  5
1EF
  8
0
  6
CONTINUOUS
 62
     7
 10
0.0
 20
148.5
 30
0.0
 11
10.0
 21
148.5
 31
0.0
  0
POLYLINE
  5
1F0
  8
0
  6
CONTINUOUS
 62
     7
 66
     1
 10
0.0
 20
0.0
 30
0.0
 70
     1
  0
VERTEX
  5
288
  8
0
  6
CONTINUOUS
 62
     7
 10
11.0
 20
152.5
 30
0.0
  0
VERTEX
  5
289
  8
0
  6
CONTINUOUS
 62
     7
 10
0.0
 20
148.5
 30
0.0
  0
VERTEX
  5
28A
  8
0
  6
CONTINUOUS
 62
     7
 10
11.0
 20
144.5
 30
0.0
  0
VERTEX
  5
28B
  8
0
  6
CONTINUOUS
 62
     7
 10
11.0
 20
152.5
 30
0.0
  0
SEQEND
  5
2DB
  8
0
  6
CONTINUOUS
 62
     7
  0
INSERT
  5
1F1
  8
0
 62
     7
  2
*U21
 10
0.0
 20
0.0
 30
0.0
  0
POLYLINE
  5
1F2
  8
0
  6
CONTINUOUS
 62
     7
 66
     1
 10
0.0
 20
0.0
 30
0.0
 70
     1
  0
VERTEX
  5
28E
  8
0
  6
CONTINUOUS
 62
     7
 10
206.0
 20
11.0
 30
0.0
  0
VERTEX
  5
28F
  8
0
  6
CONTINUOUS
 62
     7
 10
210.0
 20
0.0
 30
0.0
  0
VERTEX
  5
290
  8
0
  6
CONTINUOUS
 62
     7
 10
214.0
 20
11.0
 30
0.0
  0
VERTEX
  5
291
  8
0
  6
CONTINUOUS
 62
     7
 10
206.0
 20
11.0
 30
0.0
  0
SEQEND
  5
2DC
  8
0
  6
CONTINUOUS
 62
     7
  0
INSERT
  5
1F3
  8
0
 62
     7
  2
*U22
 10
0.0
 20
0.0
 30
0.0
  0
LINE
  5
1F4
  8
0
  6
CONTINUOUS
 62
     7
 10
367.5
 20
286.9999999999999
 30
0.0
 11
367.5
 21
292.0
 31
0.0
  0
TEXT
  5
1F5
  8
0
  6
CONTINUOUS
 62
     7
 10
391.6340909090909
 20
291.8324293485057
 30
0.0
 40
3.5
  1
A
 50
270.0
  0
LINE
  5
1F6
  8
0
  6
CONTINUOUS
 62
     7
 10
367.5
 20
10.0
 30
0.0
 11
367.5
 21
5.0
 31
0.0
  0
TEXT
  5
1F7
  8
0
  6
CONTINUOUS
 62
     7
 10
392.9868888333125
 20
4.602272727272727
 30
0.0
 40
3.5
  1
A
  0
LINE
  5
1F8
  8
0
  6
CONTINUOUS
 62
     7
 10
315.0
 20
286.9999999999999
 30
0.0
 11
315.0
 21
292.0
 31
0.0
  0
TEXT
  5
1F9
  8
0
  6
CONTINUOUS
 62
     7
 10
339.1340909090909
 20
291.9745607727899
 30
0.0
 40
3.5
  1
B
 50
270.0
  0
LINE
  5
1FA
  8
0
  6
CONTINUOUS
 62
     7
 10
315.0
 20
10.0
 30
0.0
 11
315.0
 21
5.0
 31
0.0
  0
TEXT
  5
1FB
  8
0
  6
CONTINUOUS
 62
     7
 10
340.3447574090284
 20
4.602272727272727
 30
0.0
 40
3.5
  1
B
  0
LINE
  5
1FC
  8
0
  6
CONTINUOUS
 62
     7
 10
262.5
 20
286.9999999999999
 30
0.0
 11
262.5
 21
292.0
 31
0.0
  0
TEXT
  5
1FD
  8
0
  6
CONTINUOUS
 62
     7
 10
286.6327779167187
 20
291.9399305989747
 30
0.0
 40
3.5
  1
C
 50
270.0
  0
LINE
  5
1FE
  8
0
  6
CONTINUOUS
 62
     7
 10
262.5
 20
10.0
 30
0.0
 11
262.5
 21
5.0
 31
0.0
  0
TEXT
  5
1FF
  8
0
  6
CONTINUOUS
 62
     7
 10
287.8793875828435
 20
4.600959734900587
 30
0.0
 40
3.5
  1
C
  0
LINE
  5
200
  8
0
  6
CONTINUOUS
 62
     7
 10
210.0
 20
286.9999999999999
 30
0.0
 11
210.0
 21
292.0
 31
0.0
  0
TEXT
  5
201
  8
0
  6
CONTINUOUS
 62
     7
 10
234.1340909090909
 20
291.9745607727898
 30
0.0
 40
3.5
  1
D
 50
270.0
  0
LINE
  5
202
  8
0
  6
CONTINUOUS
 62
     7
 10
157.5
 20
286.9999999999999
 30
0.0
 11
157.5
 21
292.0
 31
0.0
  0
TEXT
  5
203
  8
0
  6
CONTINUOUS
 62
     7
 10
181.6327779167188
 20
292.027463423784
 30
0.0
 40
3.5
  1
E
 50
270.0
  0
LINE
  5
204
  8
0
  6
CONTINUOUS
 62
     7
 10
157.5
 20
10.0
 30
0.0
 11
157.5
 21
5.0
 31
0.0
  0
LINE
  5
205
  8
0
  6
CONTINUOUS
 62
     7
 10
105.0
 20
286.9999999999999
 30
0.0
 11
105.0
 21
292.0
 31
0.0
  0
TEXT
  5
206
  8
0
  6
CONTINUOUS
 62
     7
 10
129.1327779167188
 20
291.9924502938602
 30
0.0
 40
3.5
  1
F
 50
270.0
  0
LINE
  5
207
  8
0
  6
CONTINUOUS
 62
     7
 10
105.0
 20
10.0
 30
0.0
 11
105.0
 21
5.0
 31
0.0
  0
TEXT
  5
208
  8
0
  6
CONTINUOUS
 62
     7
 10
130.326867887958
 20
4.600959734900587
 30
0.0
 40
3.5
  1
F
  0
LINE
  5
209
  8
0
  6
CONTINUOUS
 62
     7
 10
52.50000000000004
 20
286.9999999999999
 30
0.0
 11
52.50000000000004
 21
292.0
 31
0.0
  0
TEXT
  5
20A
  8
0
  6
CONTINUOUS
 62
     7
 10
76.6327779167188
 20
291.9399305989746
 30
0.0
 40
3.5
  1
G
 50
270.0
  0
LINE
  5
20B
  8
0
  6
CONTINUOUS
 62
     7
 10
52.50000000000004
 20
10.0
 30
0.0
 11
52.50000000000004
 21
5.0
 31
0.0
  0
TEXT
  5
20C
  8
0
  6
CONTINUOUS
 62
     7
 10
77.8793875828436
 20
4.600959734900587
 30
0.0
 40
3.5
  1
G
  0
TEXT
  5
20D
  8
0
  6
CONTINUOUS
 62
     7
 10
24.13277791671879
 20
291.9749437288983
 30
0.0
 40
3.5
  1
H
 50
270.0
  0
TEXT
  5
20E
  8
0
  6
CONTINUOUS
 62
     7
 10
25.34437445291988
 20
4.600959734900587
 30
0.0
 40
3.5
  1
H
  0
LINE
  5
20F
  8
0
  6
CONTINUOUS
 62
     7
 10
409.9999999999999
 20
74.25
 30
0.0
 11
414.9999999999999
 21
74.25
 31
0.0
  0
TEXT
  5
210
  8
0
  6
CONTINUOUS
 62
     7
 10
412.9326059772414
 20
35.00777791671877
 30
0.0
 40
3.5
  1
1
  0
LINE
  5
211
  8
0
  6
CONTINUOUS
 62
     7
 10
10.0
 20
74.25
 30
0.0
 11
5.0
 21
74.25
 31
0.0
  0
TEXT
  5
212
  8
0
  6
CONTINUOUS
 62
     7
 10
4.600959734900584
 20
38.26171220457671
 30
0.0
 40
3.5
  1
1
 50
270.0
  0
LINE
  5
213
  8
0
  6
CONTINUOUS
 62
     7
 10
409.9999999999999
 20
148.5
 30
0.0
 11
414.9999999999999
 21
148.5
 31
0.0
  0
TEXT
  5
214
  8
0
  6
CONTINUOUS
 62
     7
 10
413.163692634738
 20
109.2577779167188
 30
0.0
 40
3.5
  1
2
  0
LINE
  5
215
  8
0
  6
CONTINUOUS
 62
     7
 10
10.0
 20
148.5
 30
0.0
 11
5.0
 21
148.5
 31
0.0
  0
TEXT
  5
216
  8
0
  6
CONTINUOUS
 62
     7
 10
4.600959734900599
 20
112.2806255470802
 30
0.0
 40
3.5
  1
2
 50
270.0
  0
LINE
  5
217
  8
0
  6
CONTINUOUS
 62
     7
 10
409.9999999999999
 20
222.75
 30
0.0
 11
414.9999999999999
 21
222.75
 31
0.0
  0
TEXT
  5
218
  8
0
  6
CONTINUOUS
 62
     7
 10
413.1811991996998
 20
183.5077779167188
 30
0.0
 40
3.5
  1
3
  0
LINE
  5
219
  8
0
  6
CONTINUOUS
 62
     7
 10
10.0
 20
222.75
 30
0.0
 11
5.0
 21
222.75
 31
0.0
  0
TEXT
  5
21A
  8
0
  6
CONTINUOUS
 62
     7
 10
4.600959734900584
 20
186.5131189821183
 30
0.0
 40
3.5
  1
3
 50
270.0
  0
TEXT
  5
21B
  8
0
  6
CONTINUOUS
 62
     7
 10
413.2351413029886
 20
257.7590909090909
 30
0.0
 40
3.5
  1
4
  0
TEXT
  5
21C
  8
0
  6
CONTINUOUS
 62
     7
 10
4.60227272727272
 20
260.7091768788295
 30
0.0
 40
3.5
  1
4
 50
270.0
  0
LINE
  5
21D
  8
0
  6
CONTINUOUS
 62
     7
 10
220.0
 20
10.0
 30
0.0
 11
220.0
 21
7.0
 31
0.0
  0
LINE
  5
21E
  8
0
  6
CONTINUOUS
 62
     7
 10
200.0
 20
10.0
 30
0.0
 11
200.0
 21
7.0
 31
0.0
  0
LINE
  5
21F
  8
0
  6
CONTINUOUS
 62
     7
 10
230.0
 20
10.0
 30
0.0
 11
230.0
 21
7.0
 31
0.0
  0
LINE
  5
220
  8
0
  6
CONTINUOUS
 62
     7
 10
190.0
 20
10.0
 30
0.0
 11
190.0
 21
7.0
 31
0.0
  0
LINE
  5
221
  8
0
  6
CONTINUOUS
 62
     7
 10
240.0
 20
10.0
 30
0.0
 11
240.0
 21
7.0
 31
0.0
  0
LINE
  5
222
  8
0
  6
CONTINUOUS
 62
     7
 10
180.0
 20
10.0
 30
0.0
 11
180.0
 21
7.0
 31
0.0
  0
LINE
  5
223
  8
0
  6
CONTINUOUS
 62
     7
 10
250.0
 20
10.0
 30
0.0
 11
250.0
 21
7.0
 31
0.0
  0
LINE
  5
224
  8
0
  6
CONTINUOUS
 62
     7
 10
170.0
 20
10.0
 30
0.0
 11
170.0
 21
7.0
 31
0.0
  0
LINE
  5
225
  8
0
  6
CONTINUOUS
 62
     7
 10
260.0
 20
10.0
 30
0.0
 11
260.0
 21
5.0
 31
0.0
  0
LINE
  5
226
  8
0
  6
CONTINUOUS
 62
     7
 10
160.0
 20
10.0
 30
0.0
 11
160.0
 21
5.0
 31
0.0
  0
LINE
  5
227
  8
0
  6
CONTINUOUS
 62
     7
 10
260.0
 20
10.0
 30
0.0
 11
160.0
 21
10.0
 31
0.0
  0
LINE
  5
228
  8
0
  6
CONTINUOUS
 62
     7
 10
260.0
 20
7.0
 30
0.0
 11
160.0
 21
7.0
 31
0.0
  0
INSERT
  5
229
  8
0
 62
     7
  2
*U23
 10
0.0
 20
0.0
 30
0.0
  0
INSERT
  5
22A
  8
0
 62
     7
  2
*U24
 10
0.0
 20
0.0
 30
0.0
  0
INSERT
  5
22B
  8
0
 62
     7
  2
*U25
 10
0.0
 20
0.0
 30
0.0
  0
INSERT
  5
22C
  8
0
 62
     7
  2
*U26
 10
0.0
 20
0.0
 30
0.0
  0
ENDBLK
  8
0
  0
BLOCK
  8
0
  2
*U2
 70
     1
 10
0.0
 20
0.0
 30
0.0
  0
SOLID
  5
261
  8
0
  6
CONTINUOUS
 62
     7
 10
11.0
 20
144.5
 30
0.0
 11
6.999999999999999
 21
148.5
 31
0.0
 12
11.0
 22
152.5
 32
0.0
 13
11.0
 23
152.5
 33
0.0
  0
ENDBLK
  8
0
  0
BLOCK
  8
0
  2
*U3
 70
     1
 10
0.0
 20
0.0
 30
0.0
  0
SOLID
  5
263
  8
0
  6
CONTINUOUS
 62
     7
 10
210.0
 20
6.999999999999999
 30
0.0
 11
206.0
 21
11.0
 31
0.0
 12
210.0
 22
11.0
 32
0.0
 13
210.0
 23
11.0
 33
0.0
  0
ENDBLK
  8
0
  0
BLOCK
  8
0
  2
*U4
 70
     1
 10
0.0
 20
0.0
 30
0.0
  0
SOLID
  5
265
  8
0
  6
CONTINUOUS
 62
     7
 10
210.0
 20
6.999999999999999
 30
0.0
 11
210.0
 21
11.0
 31
0.0
 12
214.0
 22
11.0
 32
0.0
 13
214.0
 23
11.0
 33
0.0
  0
ENDBLK
  8
0
  0
BLOCK
  8
0
  2
*U5
 70
     1
 10
0.0
 20
0.0
 30
0.0
  0
SOLID
  5
267
  8
0
  6
CONTINUOUS
 62
     7
 10
0.0
 20
0.0
 30
0.0
 11
0.0
 21
10.0
 31
0.0
 12
2.0
 22
0.0
 32
0.0
 13
2.0
 23
0.0
 33
0.0
  0
ENDBLK
  8
0
  0
BLOCK
  8
0
  2
*U6
 70
     1
 10
0.0
 20
0.0
 30
0.0
  0
SOLID
  5
269
  8
0
  6
CONTINUOUS
 62
     7
 10
2.0
 20
0.0
 30
0.0
 11
0.0
 21
10.0
 31
0.0
 12
2.0
 22
10.0
 32
0.0
 13
2.0
 23
10.0
 33
0.0
  0
ENDBLK
  8
0
  0
BLOCK
  8
0
  2
*U7
 70
     1
 10
0.0
 20
0.0
 30
0.0
  0
SOLID
  5
26B
  8
0
  6
CONTINUOUS
 62
     7
 10
2.0
 20
0.0
 30
0.0
 11
2.0
 21
2.0
 31
0.0
 12
10.0
 22
0.0
 32
0.0
 13
10.0
 23
0.0
 33
0.0
  0
ENDBLK
  8
0
  0
BLOCK
  8
0
  2
*U8
 70
     1
 10
0.0
 20
0.0
 30
0.0
  0
SOLID
  5
26D
  8
0
  6
CONTINUOUS
 62
     7
 10
10.0
 20
0.0
 30
0.0
 11
2.0
 21
2.0
 31
0.0
 12
10.0
 22
2.0
 32
0.0
 13
10.0
 23
2.0
 33
0.0
  0
ENDBLK
  8
0
  0
BLOCK
  8
0
  2
*U9
 70
     1
 10
0.0
 20
0.0
 30
0.0
  0
SOLID
  5
26F
  8
0
  6
CONTINUOUS
 62
     7
 10
409.9999999999999
 20
0.0
 30
0.0
 11
409.9999999999999
 21
2.0
 31
0.0
 12
418.0
 22
0.0
 32
0.0
 13
418.0
 23
0.0
 33
0.0
  0
ENDBLK
  8
0
  0
BLOCK
  8
0
  2
*U10
 70
     1
 10
0.0
 20
0.0
 30
0.0
  0
SOLID
  5
271
  8
0
  6
CONTINUOUS
 62
     7
 10
418.0
 20
0.0
 30
0.0
 11
409.9999999999999
 21
2.0
 31
0.0
 12
418.0
 22
2.0
 32
0.0
 13
418.0
 23
2.0
 33
0.0
  0
ENDBLK
  8
0
  0
BLOCK
  8
0
  2
*U11
 70
     1
 10
0.0
 20
0.0
 30
0.0
  0
SOLID
  5
273
  8
0
  6
CONTINUOUS
 62
     7
 10
418.0
 20
0.0
 30
0.0
 11
418.0
 21
10.0
 31
0.0
 12
420.0
 22
0.0
 32
0.0
 13
420.0
 23
0.0
 33
0.0
  0
ENDBLK
  8
0
  0
BLOCK
  8
0
  2
*U12
 70
     1
 10
0.0
 20
0.0
 30
0.0
  0
SOLID
  5
275
  8
0
  6
CONTINUOUS
 62
     7
 10
420.0
 20
0.0
 30
0.0
 11
418.0
 21
10.0
 31
0.0
 12
420.0
 22
10.0
 32
0.0
 13
420.0
 23
10.0
 33
0.0
  0
ENDBLK
  8
0
  0
BLOCK
  8
0
  2
*U13
 70
     1
 10
0.0
 20
0.0
 30
0.0
  0
SOLID
  5
277
  8
0
  6
CONTINUOUS
 62
     7
 10
409.9999999999999
 20
295.0
 30
0.0
 11
409.9999999999999
 21
297.0
 31
0.0
 12
418.0
 22
295.0
 32
0.0
 13
418.0
 23
295.0
 33
0.0
  0
ENDBLK
  8
0
  0
BLOCK
  8
0
  2
*U14
 70
     1
 10
0.0
 20
0.0
 30
0.0
  0
SOLID
  5
279
  8
0
  6
CONTINUOUS
 62
     7
 10
418.0
 20
295.0
 30
0.0
 11
409.9999999999999
 21
297.0
 31
0.0
 12
418.0
 22
297.0
 32
0.0
 13
418.0
 23
297.0
 33
0.0
  0
ENDBLK
  8
0
  0
BLOCK
  8
0
  2
*U15
 70
     1
 10
0.0
 20
0.0
 30
0.0
  0
SOLID
  5
27B
  8
0
  6
CONTINUOUS
 62
     7
 10
418.0
 20
286.9999999999999
 30
0.0
 11
418.0
 21
297.0
 31
0.0
 12
420.0
 22
286.9999999999999
 32
0.0
 13
420.0
 23
286.9999999999999
 33
0.0
  0
ENDBLK
  8
0
  0
BLOCK
  8
0
  2
*U16
 70
     1
 10
0.0
 20
0.0
 30
0.0
  0
SOLID
  5
27D
  8
0
  6
CONTINUOUS
 62
     7
 10
420.0
 20
286.9999999999999
 30
0.0
 11
418.0
 21
297.0
 31
0.0
 12
420.0
 22
297.0
 32
0.0
 13
420.0
 23
297.0
 33
0.0
  0
ENDBLK
  8
0
  0
BLOCK
  8
0
  2
*U17
 70
     1
 10
0.0
 20
0.0
 30
0.0
  0
SOLID
  5
27F
  8
0
  6
CONTINUOUS
 62
     7
 10
0.0
 20
286.9999999999999
 30
0.0
 11
0.0
 21
297.0
 31
0.0
 12
2.0
 22
286.9999999999999
 32
0.0
 13
2.0
 23
286.9999999999999
 33
0.0
  0
ENDBLK
  8
0
  0
BLOCK
  8
0
  2
*U18
 70
     1
 10
0.0
 20
0.0
 30
0.0
  0
SOLID
  5
281
  8
0
  6
CONTINUOUS
 62
     7
 10
2.0
 20
286.9999999999999
 30
0.0
 11
0.0
 21
297.0
 31
0.0
 12
2.0
 22
297.0
 32
0.0
 13
2.0
 23
297.0
 33
0.0
  0
ENDBLK
  8
0
  0
BLOCK
  8
0
  2
*U19
 70
     1
 10
0.0
 20
0.0
 30
0.0
  0
SOLID
  5
283
  8
0
  6
CONTINUOUS
 62
     7
 10
2.0
 20
295.0
 30
0.0
 11
2.0
 21
297.0
 31
0.0
 12
10.0
 22
295.0
 32
0.0
 13
10.0
 23
295.0
 33
0.0
  0
ENDBLK
  8
0
  0
BLOCK
  8
0
  2
*U20
 70
     1
 10
0.0
 20
0.0
 30
0.0
  0
SOLID
  5
285
  8
0
  6
CONTINUOUS
 62
     7
 10
10.0
 20
295.0
 30
0.0
 11
2.0
 21
297.0
 31
0.0
 12
10.0
 22
297.0
 32
0.0
 13
10.0
 23
297.0
 33
0.0
  0
ENDBLK
  8
0
  0
BLOCK
  8
0
  2
*U21
 70
     1
 10
0.0
 20
0.0
 30
0.0
  0
SOLID
  5
28D
  8
0
  6
CONTINUOUS
 62
     7
 10
11.0
 20
144.5
 30
0.0
 11
6.999999999999999
 21
148.5
 31
0.0
 12
11.0
 22
152.5
 32
0.0
 13
11.0
 23
152.5
 33
0.0
  0
ENDBLK
  8
0
  0
BLOCK
  8
0
  2
*U22
 70
     1
 10
0.0
 20
0.0
 30
0.0
  0
SOLID
  5
293
  8
0
  6
CONTINUOUS
 62
     7
 10
210.0
 20
6.999999999999999
 30
0.0
 11
206.0
 21
11.0
 31
0.0
 12
210.0
 22
11.0
 32
0.0
 13
210.0
 23
11.0
 33
0.0
  0
SOLID
  5
294
  8
0
  6
CONTINUOUS
 62
     7
 10
210.0
 20
6.999999999999999
 30
0.0
 11
210.0
 21
11.0
 31
0.0
 12
214.0
 22
11.0
 32
0.0
 13
214.0
 23
11.0
 33
0.0
  0
ENDBLK
  8
0
  0
BLOCK
  8
0
  2
*U23
 70
     1
 10
0.0
 20
0.0
 30
0.0
  0
SOLID
  5
296
  8
0
  6
CONTINUOUS
 62
     7
 10
0.0
 20
0.0
 30
0.0
 11
0.0
 21
10.0
 31
0.0
 12
2.0
 22
0.0
 32
0.0
 13
2.0
 23
0.0
 33
0.0
  0
SOLID
  5
297
  8
0
  6
CONTINUOUS
 62
     7
 10
2.0
 20
0.0
 30
0.0
 11
0.0
 21
10.0
 31
0.0
 12
2.0
 22
10.0
 32
0.0
 13
2.0
 23
10.0
 33
0.0
  0
SOLID
  5
298
  8
0
  6
CONTINUOUS
 62
     7
 10
2.0
 20
0.0
 30
0.0
 11
2.0
 21
2.0
 31
0.0
 12
10.0
 22
0.0
 32
0.0
 13
10.0
 23
0.0
 33
0.0
  0
SOLID
  5
299
  8
0
  6
CONTINUOUS
 62
     7
 10
10.0
 20
0.0
 30
0.0
 11
2.0
 21
2.0
 31
0.0
 12
10.0
 22
2.0
 32
0.0
 13
10.0
 23
2.0
 33
0.0
  0
ENDBLK
  8
0
  0
BLOCK
  8
0
  2
*U24
 70
     1
 10
0.0
 20
0.0
 30
0.0
  0
SOLID
  5
29B
  8
0
  6
CONTINUOUS
 62
     7
 10
409.9999999999999
 20
0.0
 30
0.0
 11
409.9999999999999
 21
2.0
 31
0.0
 12
418.0
 22
0.0
 32
0.0
 13
418.0
 23
0.0
 33
0.0
  0
SOLID
  5
29C
  8
0
  6
CONTINUOUS
 62
     7
 10
418.0
 20
0.0
 30
0.0
 11
409.9999999999999
 21
2.0
 31
0.0
 12
418.0
 22
2.0
 32
0.0
 13
418.0
 23
2.0
 33
0.0
  0
SOLID
  5
29D
  8
0
  6
CONTINUOUS
 62
     7
 10
418.0
 20
0.0
 30
0.0
 11
418.0
 21
10.0
 31
0.0
 12
420.0
 22
0.0
 32
0.0
 13
420.0
 23
0.0
 33
0.0
  0
SOLID
  5
29E
  8
0
  6
CONTINUOUS
 62
     7
 10
420.0
 20
0.0
 30
0.0
 11
418.0
 21
10.0
 31
0.0
 12
420.0
 22
10.0
 32
0.0
 13
420.0
 23
10.0
 33
0.0
  0
ENDBLK
  8
0
  0
BLOCK
  8
0
  2
*U25
 70
     1
 10
0.0
 20
0.0
 30
0.0
  0
SOLID
  5
2A0
  8
0
  6
CONTINUOUS
 62
     7
 10
409.9999999999999
 20
295.0
 30
0.0
 11
409.9999999999999
 21
297.0
 31
0.0
 12
418.0
 22
295.0
 32
0.0
 13
418.0
 23
295.0
 33
0.0
  0
SOLID
  5
2A1
  8
0
  6
CONTINUOUS
 62
     7
 10
418.0
 20
295.0
 30
0.0
 11
409.9999999999999
 21
297.0
 31
0.0
 12
418.0
 22
297.0
 32
0.0
 13
418.0
 23
297.0
 33
0.0
  0
SOLID
  5
2A2
  8
0
  6
CONTINUOUS
 62
     7
 10
418.0
 20
286.9999999999999
 30
0.0
 11
418.0
 21
297.0
 31
0.0
 12
420.0
 22
286.9999999999999
 32
0.0
 13
420.0
 23
286.9999999999999
 33
0.0
  0
SOLID
  5
2A3
  8
0
  6
CONTINUOUS
 62
     7
 10
420.0
 20
286.9999999999999
 30
0.0
 11
418.0
 21
297.0
 31
0.0
 12
420.0
 22
297.0
 32
0.0
 13
420.0
 23
297.0
 33
0.0
  0
ENDBLK
  8
0
  0
BLOCK
  8
0
  2
*U26
 70
     1
 10
0.0
 20
0.0
 30
0.0
  0
SOLID
  5
2A5
  8
0
  6
CONTINUOUS
 62
     7
 10
0.0
 20
286.9999999999999
 30
0.0
 11
0.0
 21
297.0
 31
0.0
 12
2.0
 22
286.9999999999999
 32
0.0
 13
2.0
 23
286.9999999999999
 33
0.0
  0
SOLID
  5
2A6
  8
0
  6
CONTINUOUS
 62
     7
 10
2.0
 20
286.9999999999999
 30
0.0
 11
0.0
 21
297.0
 31
0.0
 12
2.0
 22
297.0
 32
0.0
 13
2.0
 23
297.0
 33
0.0
  0
SOLID
  5
2A7
  8
0
  6
CONTINUOUS
 62
     7
 10
2.0
 20
295.0
 30
0.0
 11
2.0
 21
297.0
 31
0.0
 12
10.0
 22
295.0
 32
0.0
 13
10.0
 23
295.0
 33
0.0
  0
SOLID
  5
2A8
  8
0
  6
CONTINUOUS
 62
     7
 10
10.0
 20
295.0
 30
0.0
 11
2.0
 21
297.0
 31
0.0
 12
10.0
 22
297.0
 32
0.0
 13
10.0
 23
297.0
 33
0.0
  0
ENDBLK
  8
0
  0
ENDSEC
  0
SECTION
  2
ENTITIES
  0
LINE
  5
70
  8
1
  6
CONTINUOUS
 62
     7
 10
341.5561632733
 20
1528.4281006312
 30
0.0
 11
338.5561632733
 21
1528.4281006312
 31
0.0
  0
LINE
  5
71
  8
1
  6
CONTINUOUS
 62
     7
 10
341.6080636826
 20
1533.094993171
 30
0.0
 11
341.6286066512
 21
1533.0924172495
 31
0.0
  0
ARC
  5
72
  8
1
  6
CONTINUOUS
 62
     7
 10
341.6319122063
 20
1511.2133139322
 30
0.0
 40
0.6675445987
 50
65.4076967239
 51
77.2031367819
  0
ARC
  5
73
  8
1
  6
CONTINUOUS
 62
     7
 10
341.5777324575
 20
1458.2998188217
 30
0.0
 40
0.5032540027
 50
293.6696387269
 51
311.2751096585
  0
LINE
  5
74
  8
1
  6
CONTINUOUS
 62
     7
 10
61.05609246650001
 20
1457.2701968156
 30
0.0
 11
55.45609240720002
 21
1457.2328634819
 31
0.0
  0
LINE
  5
75
  8
1
  6
CONTINUOUS
 62
     7
 10
338.5561632733
 20
1518.8217013043
 30
0.0
 11
341.5561632733
 21
1518.8217013043
 31
0.0
  0
LINE
  5
76
  8
1
  6
CONTINUOUS
 62
     7
 10
341.5821134779
 20
1533.0970208852
 30
0.0
 11
341.6080636826
 21
1533.094993171
 31
0.0
  0
ARC
  5
77
  8
1
  6
CONTINUOUS
 62
     7
 10
58.65611229030003
 20
1469.7680981002
 30
0.0
 40
2.399999999999999
 50
0.0
 51
75.0
  0
LINE
  5
78
  8
1
  6
CONTINUOUS
 62
     7
 10
341.6286066512
 20
1533.0924172495
 30
0.0
 11
341.6490253878
 21
1533.088993197
 31
0.0
  0
LINE
  5
79
  8
1
  6
CONTINUOUS
 62
     7
 10
336.0561632733
 20
1533.0976949631
 30
0.0
 11
341.5561632733
 21
1533.0976949631
 31
0.0
  0
ARC
  5
7A
  8
1
  6
CONTINUOUS
 62
     7
 10
55.85611676460004
 20
1513.6314868327
 30
0.0
 40
0.3999999999999976
 50
180.0000908811
 51
285.0
  0
LINE
  5
7B
  8
1
  6
CONTINUOUS
 62
     7
 10
338.5561632733
 20
1474.3313344054
 30
0.0
 11
338.5561632733
 21
1467.3986925293
 31
0.0
  0
ARC
  5
7C
  8
1
  6
CONTINUOUS
 62
     7
 10
341.6562808986
 20
1458.2349078372
 30
0.0
 40
0.3998840021
 50
330.2260871065
 51
359.8365393263
  0
ARC
  5
7D
  8
1
  6
CONTINUOUS
 62
     7
 10
341.6133446176
 20
1518.2582060671
 30
0.0
 40
0.5551002602
 50
57.730166747
 51
72.5537169914
  0
LINE
  5
7E
  8
1
  6
CONTINUOUS
 62
     7
 10
61.05611229030001
 20
1516.4522995402
 30
0.0
 11
61.05608586800001
 21
1533.1101969168
 31
0.0
  0
LINE
  5
7F
  8
1
  6
CONTINUOUS
 62
     7
 10
55.45608586800002
 20
1533.1101969168
 30
0.0
 11
55.45611676460002
 21
1513.6314861982
 31
0.0
  0
ARC
  5
80
  8
1
  6
CONTINUOUS
 62
     7
 10
341.5595959288
 20
1510.8988333352
 30
0.0
 40
0.9902320427
 50
77.153137166
 51
90.1986171477
  0
ARC
  5
81
  8
1
  6
CONTINUOUS
 62
     7
 10
341.5965125045
 20
1523.2260791862
 30
0.0
 40
0.5188964327
 50
52.8720731394
 51
69.31879873099999
  0
ARC
  5
82
  8
1
  6
CONTINUOUS
 62
     7
 10
341.7106152585
 20
1518.4100396449
 30
0.0
 40
0.3747867956
 50
38.6347686093
 51
57.9107849132
  0
ARC
  5
83
  8
1
  6
CONTINUOUS
 62
     7
 10
341.6651000925
 20
1523.3157999864
 30
0.0
 40
0.4059640569
 50
33.5641018862
 51
52.9467349633
  0
LINE
  5
84
  8
1
  6
CONTINUOUS
 62
     7
 10
341.5561632733
 20
1474.3313344054
 30
0.0
 11
338.5561632733
 21
1474.3313344054
 31
0.0
  0
ARC
  5
85
  8
1
  6
CONTINUOUS
 62
     7
 10
341.5571535831
 20
1458.3472387376
 30
0.0
 40
0.5549464188
 50
269.897754806
 51
293.6500600249
  0
LINE
  5
86
  8
1
  6
CONTINUOUS
 62
     7
 10
341.5561632733
 20
1511.8890594282
 30
0.0
 11
338.5561632733
 21
1511.8890594282
 31
0.0
  0
LINE
  5
87
  8
1
  6
CONTINUOUS
 62
     7
 10
322.0561632733
 20
1461.8601969168
 30
0.0
 11
322.0561632733
 21
1524.3601969168
 31
0.0
  0
ARC
  5
88
  8
1
  6
CONTINUOUS
 62
     7
 10
341.6562808988
 20
1527.9854859964
 30
0.0
 40
0.3998840019
 50
0.1634606808
 51
29.7739129009
  0
ARC
  5
89
  8
1
  6
CONTINUOUS
 62
     7
 10
341.5571535834
 20
1527.873155096
 30
0.0
 40
0.5549464187
 50
66.3499399995
 51
90.10224521869999
  0
ARC
  5
8A
  8
1
  6
CONTINUOUS
 62
     7
 10
341.613344618
 20
1467.9621877665
 30
0.0
 40
0.55510026
 50
287.4462829719
 51
302.2698332171
  0
ARC
  5
8B
  8
1
  6
CONTINUOUS
 62
     7
 10
341.7607630953
 20
1511.4892256611
 30
0.0
 40
0.3630453948
 50
48.0660145749
 51
65.7770030481
  0
ARC
  5
8C
  8
1
  6
CONTINUOUS
 62
     7
 10
55.85611676460004
 20
1472.5889070009
 30
0.0
 40
0.3999999999999976
 50
75.0
 51
179.9999091189
  0
ARC
  5
8D
  8
1
  6
CONTINUOUS
 62
     7
 10
341.8223248181
 20
1467.7244061282
 30
0.0
 40
0.2338783525
 50
320.7261450902
 51
358.9416718668
  0
ARC
  5
8E
  8
1
  6
CONTINUOUS
 62
     7
 10
58.65611229030003
 20
1516.4522957334
 30
0.0
 40
2.399999999999999
 50
285.0
 51
0.0000908810999931
  0
LINE
  5
8F
  8
1
  6
CONTINUOUS
 62
     7
 10
336.0561632733
 20
1453.1101969168
 30
0.0
 11
336.0561632733
 21
1533.0976949631
 31
0.0
  0
LINE
  5
90
  8
1
  6
CONTINUOUS
 62
     7
 10
55.95964438260002
 20
1472.9752773314
 30
0.0
 11
59.27727799860003
 21
1472.0863200832
 31
0.0
  0
ARC
  5
91
  8
1
  6
CONTINUOUS
 62
     7
 10
341.7607630953
 20
1474.7311681725
 30
0.0
 40
0.3630453948
 50
294.2229969518
 51
311.933985425
  0
ARC
  5
92
  8
1
  6
CONTINUOUS
 62
     7
 10
341.8223248182
 20
1518.4959877053
 30
0.0
 40
0.2338783523
 50
1.0583281458
 51
39.273854923
  0
ARC
  5
93
  8
1
  6
CONTINUOUS
 62
     7
 10
341.7106152585
 20
1467.8103541886
 30
0.0
 40
0.3747867956
 50
302.0892150867
 51
321.3652313907
  0
LINE
  5
94
  8
1
  6
CONTINUOUS
 62
     7
 10
55.45608586800002
 20
1453.1101969168
 30
0.0
 11
55.45611676460002
 21
1472.5889076354
 31
0.0
  0
LINE
  5
95
  8
1
  6
CONTINUOUS
 62
     7
 10
200.7561632733
 20
1495.8644769168
 30
0.0
 11
200.7561632733
 21
1516.0324909168
 31
0.0
  0
LINE
  5
96
  8
1
  6
CONTINUOUS
 62
     7
 10
55.95964438260002
 20
1513.2451165021
 30
0.0
 11
59.27727799860003
 21
1514.1340737503
 31
0.0
  0
ARC
  5
97
  8
1
  6
CONTINUOUS
 62
     7
 10
341.5777324575
 20
1527.9205750119
 30
0.0
 40
0.5032540027
 50
48.7248903415
 51
66.330361273
  0
LINE
  5
98
  8
1
  6
CONTINUOUS
 62
     7
 10
342.0354659806
 20
1532.7399510806
 30
0.0
 11
342.0410962277
 21
1532.7193944125
 31
0.0
  0
ARC
  5
99
  8
1
  6
CONTINUOUS
 62
     7
 10
341.6651000928
 20
1462.9045938472
 30
0.0
 40
0.4059640567
 50
307.0532650082
 51
326.4358980845999
  0
ARC
  5
9A
  8
1
  6
CONTINUOUS
 62
     7
 10
341.5587656591
 20
1518.0850848174
 30
0.0
 40
0.7366210838
 50
72.5409221177
 51
90.2024189036
  0
ARC
  5
9B
  8
1
  6
CONTINUOUS
 62
     7
 10
341.9089038946
 20
1474.5743577345
 30
0.0
 40
0.1474924
 50
309.8311832812
 51
356.7788731361999
  0
ARC
  5
9C
  8
1
  6
CONTINUOUS
 62
     7
 10
341.7437389283
 20
1523.3664540457
 30
0.0
 40
0.3124343342
 50
0.458169325
 51
33.7967491244
  0
ARC
  5
9D
  8
1
  6
CONTINUOUS
 62
     7
 10
341.7437389281
 20
1462.8539397878
 30
0.0
 40
0.3124343344
 50
326.2032508850999
 51
359.5418306844
  0
LINE
  5
9E
  8
1
  6
CONTINUOUS
 62
     7
 10
338.5561632733
 20
1523.7519746416
 30
0.0
 11
341.5561632733
 21
1523.7519746416
 31
0.0
  0
ARC
  5
9F
  8
1
  6
CONTINUOUS
 62
     7
 10
341.5595959288
 20
1475.3215604984
 30
0.0
 40
0.9902320427
 50
269.8013828523
 51
282.846862834
  0
ARC
  5
A0
  8
1
  6
CONTINUOUS
 62
     7
 10
341.9089038946
 20
1511.6460360991
 30
0.0
 40
0.1474924
 50
3.2211268638
 51
50.1688167188
  0
LINE
  5
A1
  8
1
  6
CONTINUOUS
 62
     7
 10
342.0561632733
 20
1453.6101969168
 30
0.0
 11
342.0561632733
 21
1532.5975366601
 31
0.0
  0
LINE
  5
A2
  8
1
  6
CONTINUOUS
 62
     7
 10
341.5561632733
 20
1457.7922932024
 30
0.0
 11
338.5561632733
 21
1457.7922932024
 31
0.0
  0
ARC
  5
A3
  8
1
  6
CONTINUOUS
 62
     7
 10
341.6319122063
 20
1475.0070799014
 30
0.0
 40
0.6675445987
 50
282.7968632180999
 51
294.5923032761
  0
LINE
  5
A4
  8
1
  6
CONTINUOUS
 62
     7
 10
338.5561632733
 20
1457.7922932024
 30
0.0
 11
338.5561632733
 21
1462.468419192
 31
0.0
  0
ARC
  5
A5
  8
1
  6
CONTINUOUS
 62
     7
 10
341.5580071348
 20
1463.0966911499
 30
0.0
 40
0.6282746636
 50
269.8318480102
 51
290.6691622816
  0
ARC
  5
A6
  8
1
  6
CONTINUOUS
 62
     7
 10
341.6143547054
 20
1527.9620930283
 30
0.0
 40
0.4478923352
 50
29.7080633751
 51
48.74216910219999
  0
LINE
  5
A7
  8
1
  6
CONTINUOUS
 62
     7
 10
61.05611229030001
 20
1469.7680942933
 30
0.0
 11
61.05608586800001
 21
1453.1101969168
 31
0.0
  0
LINE
  5
A8
  8
1
  6
CONTINUOUS
 62
     7
 10
447.8208728032
 20
1528.4281009553
 30
0.0
 11
446.1712898757
 21
1525.3256869168
 31
0.0
  0
ARC
  5
A9
  8
1
  6
CONTINUOUS
 62
     7
 10
429.0420098757
 20
1493.1101969168
 30
0.0
 40
35.5
 50
119.569944
 51
128.430056
  0
ARC
  5
AA
  8
1
  6
CONTINUOUS
 62
     7
 10
315.5561632733
 20
1523.3601969168
 30
0.0
 40
0.5
 50
180.0
 51
270.0
  0
ARC
  5
AB
  8
1
  6
CONTINUOUS
 62
     7
 10
429.0420098757
 20
1493.1101969168
 30
0.0
 40
35.5
 50
321.569944
 51
330.4300559999999
  0
LINE
  5
AC
  8
1
  6
CONTINUOUS
 62
     7
 10
308.5561632733
 20
1522.8601969168
 30
0.0
 11
310.5561632733
 21
1522.8601969168
 31
0.0
  0
ARC
  5
AD
  8
1
  6
CONTINUOUS
 62
     7
 10
429.0420098757
 20
1493.1101969168
 30
0.0
 40
35.5
 50
29.569944
 51
38.430056
  0
LINE
  5
AE
  8
1
  6
CONTINUOUS
 62
     7
 10
410.2631470392
 20
1528.428100472
 30
0.0
 11
411.9127308757
 21
1525.3256869168
 31
0.0
  0
ARC
  5
AF
  8
1
  6
CONTINUOUS
 62
     7
 10
406.3551138757
 20
1464.5172829168
 30
0.0
 40
1.0
 50
51.56994399999999
 51
140.0
  0
ARC
  5
B0
  8
1
  6
CONTINUOUS
 62
     7
 10
451.7289068757
 20
1464.5172829168
 30
0.0
 40
1.0
 50
40.0
 51
128.430056
  0
LINE
  5
B1
  8
1
  6
CONTINUOUS
 62
     7
 10
464.3599134997
 20
1474.3313342097
 30
0.0
 11
461.2574998757
 21
1475.9809169168
 31
0.0
  0
ARC
  5
B2
  8
1
  6
CONTINUOUS
 62
     7
 10
447.0542378757
 20
1524.8562149168
 30
0.0
 40
1.0
 50
152.0
 51
240.430056
  0
LINE
  5
B3
  8
1
  6
CONTINUOUS
 62
     7
 10
318.0561632733
 20
1524.3601969168
 30
0.0
 11
322.0561632733
 21
1524.3601969168
 31
0.0
  0
ARC
  5
B4
  8
1
  6
CONTINUOUS
 62
     7
 10
308.5561632733
 20
1462.8601969168
 30
0.0
 40
0.5
 50
90.0
 51
180.0
  0
ARC
  5
B5
  8
1
  6
CONTINUOUS
 62
     7
 10
315.5561632733
 20
1462.8601969168
 30
0.0
 40
0.5
 50
90.0
 51
180.0
  0
LINE
  5
B6
  8
1
  6
CONTINUOUS
 62
     7
 10
311.0561632733
 20
1524.3601969168
 30
0.0
 11
315.0561632733
 21
1524.3601969168
 31
0.0
  0
LINE
  5
B7
  8
1
  6
CONTINUOUS
 62
     7
 10
315.0561632733
 20
1461.8601969168
 30
0.0
 11
315.0561632733
 21
1524.3601969168
 31
0.0
  0
ARC
  5
B8
  8
1
  6
CONTINUOUS
 62
     7
 10
317.5561632733
 20
1462.8601969168
 30
0.0
 40
0.5
 50
0.0
 51
90.0
  0
LINE
  5
B9
  8
1
  6
CONTINUOUS
 62
     7
 10
304.0561632733
 20
1524.3601969168
 30
0.0
 11
308.0561632733
 21
1524.3601969168
 31
0.0
  0
LINE
  5
BA
  8
1
  6
CONTINUOUS
 62
     7
 10
37.05616327330002
 20
1453.1101969168
 30
0.0
 11
106.0561632733
 21
1453.1101969168
 31
0.0
  0
LINE
  5
BB
  8
1
  6
CENTER
 62
     5
 10
471.0420098757
 20
1493.1101969168
 30
0.0
 11
387.0420098757
 21
1493.1101969168
 31
0.0
  0
ARC
  5
BD
  8
1
  6
CONTINUOUS
 62
     7
 10
411.0297828757
 20
1461.3641789168
 30
0.0
 40
1.0
 50
332.0
 51
60.43005599999997
  0
ARC
  5
BE
  8
1
  6
CONTINUOUS
 62
     7
 10
400.4490958757
 20
1515.7970929168
 30
0.0
 40
1.0
 50
321.5699439999
 51
50.0
  0
LINE
  5
BF
  8
1
  6
CONTINUOUS
 62
     7
 10
310.5561632733
 20
1463.3601969168
 30
0.0
 11
308.5561632733
 21
1463.3601969168
 31
0.0
  0
LINE
  5
C0
  8
1
  6
CONTINUOUS
 62
     7
 10
315.5561632733
 20
1522.8601969168
 30
0.0
 11
317.5561632733
 21
1522.8601969168
 31
0.0
  0
ARC
  5
C1
  8
1
  6
CONTINUOUS
 62
     7
 10
429.0420098757
 20
1493.1101969168
 30
0.0
 40
35.5
 50
51.56994399999999
 51
60.430056
  0
LINE
  5
C2
  8
1
  6
CONTINUOUS
 62
     7
 10
447.8208728032
 20
1457.7922928782
 30
0.0
 11
446.1712898757
 21
1460.8947069168
 31
0.0
  0
ARC
  5
C3
  8
1
  6
CONTINUOUS
 62
     7
 10
310.5561632733
 20
1523.3601969168
 30
0.0
 40
0.5
 50
270.0
 51
0.0
  0
LINE
  5
C4
  8
1
  6
CONTINUOUS
 62
     7
 10
308.0561632733
 20
1461.8601969168
 30
0.0
 11
304.0561632733
 21
1461.8601969168
 31
0.0
  0
TEXT
  5
C5
  8
1
  6
CONTINUOUS
 62
     7
 10
441.5901144966862
 20
1441.808211545454
 30
0.0
 40
6.0
  1
ＫＦＥＫＨ－５０Ｐ
 41
0.869752
  0
LINE
  5
C6
  8
1
  6
CONTINUOUS
 62
     7
 10
288.0562782733
 20
1525.3597849168
 30
0.0
 11
291.5562782733
 21
1525.3597769168
 31
0.0
  0
LINE
  5
C7
  8
1
  6
CONTINUOUS
 62
     7
 10
246.5566142733
 20
1460.8606539168
 30
0.0
 11
251.5562782733
 21
1525.3597769168
 31
0.0
  0
LINE
  5
C8
  8
1
  6
CONTINUOUS
 62
     7
 10
288.0562782733
 20
1525.3597849168
 30
0.0
 11
283.0566142733
 21
1460.8606459168
 31
0.0
  0
ARC
  5
C9
  8
1
  6
CONTINUOUS
 62
     7
 10
190.8945982733
 20
1504.7069099168
 30
0.0
 40
14.35150500000001
 50
260.786186
 51
271.443635
  0
LINE
  5
CA
  8
1
  6
CONTINUOUS
 62
     7
 10
271.9088302733
 20
1523.3601969168
 30
0.0
 11
271.5562782733
 21
1525.3597769168
 31
0.0
  0
LINE
  5
CB
  8
1
  6
CONTINUOUS
 62
     7
 10
248.0562782733
 20
1525.3597849168
 30
0.0
 11
243.0566142733
 21
1460.8606459168
 31
0.0
  0
LINE
  5
CC
  8
1
  6
CONTINUOUS
 62
     7
 10
281.9088302733
 20
1523.3601969168
 30
0.0
 11
281.5562782733
 21
1525.3597769168
 31
0.0
  0
LINE
  5
CD
  8
1
  6
CONTINUOUS
 62
     7
 10
253.0566142733
 20
1460.8606459168
 30
0.0
 11
252.7036432733
 21
1462.8601969168
 31
0.0
  0
LINE
  5
CE
  8
1
  6
CONTINUOUS
 62
     7
 10
268.0562782733
 20
1525.3597849168
 30
0.0
 11
271.5562782733
 21
1525.3597769168
 31
0.0
  0
ARC
  5
CF
  8
1
  6
CONTINUOUS
 62
     7
 10
191.0445222733
 20
1465.9827589168
 30
0.0
 40
2.861010999999996
 50
194.49082
 51
274.2422790000001
  0
LINE
  5
D0
  8
1
  6
CONTINUOUS
 62
     7
 10
218.0562782733
 20
1525.3597849168
 30
0.0
 11
221.5562782733
 21
1525.3597769168
 31
0.0
  0
LINE
  5
D1
  8
1
  6
CONTINUOUS
 62
     7
 10
216.1498622733
 20
1523.3601969168
 30
0.0
 11
217.901279799
 21
1523.3601969168
 31
0.0
  0
LINE
  5
D2
  8
1
  6
CONTINUOUS
 62
     7
 10
212.2561632733
 20
1490.3538189168
 30
0.0
 11
191.2561632733
 21
1490.3538189168
 31
0.0
  0
LINE
  5
D3
  8
1
  6
CONTINUOUS
 62
     7
 10
271.9088142733
 20
1523.3601969168
 30
0.0
 11
277.901279799
 21
1523.3601969168
 31
0.0
  0
LINE
  5
D4
  8
1
  6
CONTINUOUS
 62
     7
 10
291.9088302733
 20
1523.3601969168
 30
0.0
 11
291.5562782733
 21
1525.3597769168
 31
0.0
  0
LINE
  5
D5
  8
1
  6
CONTINUOUS
 62
     7
 10
272.7036432733
 20
1462.8601969168
 30
0.0
 11
266.7116092978
 21
1462.8601969168
 31
0.0
  0
LINE
  5
D6
  8
1
  6
CONTINUOUS
 62
     7
 10
262.7036432733
 20
1462.8601969168
 30
0.0
 11
256.7116092978
 21
1462.8601969168
 31
0.0
  0
LINE
  5
D7
  8
1
  6
CONTINUOUS
 62
     7
 10
252.7036432733
 20
1462.8601969168
 30
0.0
 11
246.7116092978
 21
1462.8601969168
 31
0.0
  0
LINE
  5
D8
  8
1
  6
CONTINUOUS
 62
     7
 10
251.9088302733
 20
1523.3601969168
 30
0.0
 11
251.5562782733
 21
1525.3597769168
 31
0.0
  0
LINE
  5
D9
  8
1
  6
CONTINUOUS
 62
     7
 10
256.5566142733
 20
1460.8606539168
 30
0.0
 11
253.0566142733
 21
1460.8606459168
 31
0.0
  0
LINE
  5
DA
  8
1
  6
CONTINUOUS
 62
     7
 10
188.2591332733
 20
1457.1683799168
 30
0.0
 11
188.2561802733
 21
1457.2269989168
 31
0.0
  0
LINE
  5
DB
  8
1
  6
CONTINUOUS
 62
     7
 10
216.1498622733
 20
1453.1101969168
 30
0.0
 11
191.2561632733
 21
1453.1101969168
 31
0.0
  0
LINE
  5
DC
  8
1
  6
CONTINUOUS
 62
     7
 10
261.9088142733
 20
1523.3601969168
 30
0.0
 11
267.901279799
 21
1523.3601969168
 31
0.0
  0
LINE
  5
DD
  8
1
  6
CONTINUOUS
 62
     7
 10
256.5566142733
 20
1460.8606539168
 30
0.0
 11
261.5562782733
 21
1525.3597769168
 31
0.0
  0
LINE
  5
DE
  8
1
  6
CONTINUOUS
 62
     7
 10
283.0566142733
 20
1460.8606459168
 30
0.0
 11
282.7036432733
 21
1462.8601969168
 31
0.0
  0
LINE
  5
DF
  8
1
  6
CONTINUOUS
 62
     7
 10
278.0562782733
 20
1525.3597849168
 30
0.0
 11
273.0566142733
 21
1460.8606459168
 31
0.0
  0
LINE
  5
E0
  8
1
  6
CONTINUOUS
 62
     7
 10
258.0562782733
 20
1525.3597849168
 30
0.0
 11
261.5562782733
 21
1525.3597769168
 31
0.0
  0
ARC
  5
E1
  8
1
  6
CONTINUOUS
 62
     7
 10
317.5561632733
 20
1523.3601969168
 30
0.0
 40
0.5
 50
270.0
 51
0.0
  0
LINE
  5
E2
  8
1
  6
CONTINUOUS
 62
     7
 10
37.05616327330002
 20
1453.1101969168
 30
0.0
 11
37.05616327330002
 21
1533.1101969168
 31
0.0
  0
LINE
  5
E3
  8
1
  6
CONTINUOUS
 62
     7
 10
311.0561632733
 20
1461.8601969168
 30
0.0
 11
311.0561632733
 21
1524.3601969168
 31
0.0
  0
LINE
  5
E4
  8
1
  6
CONTINUOUS
 62
     7
 10
317.5561632733
 20
1463.3601969168
 30
0.0
 11
315.5561632733
 21
1463.3601969168
 31
0.0
  0
LINE
  5
E5
  8
1
  6
CONTINUOUS
 62
     7
 10
106.0561632733
 20
1453.1101969168
 30
0.0
 11
107.5561632733
 21
1458.1101969168
 31
0.0
  0
LINE
  5
E6
  8
1
  6
CONTINUOUS
 62
     7
 10
308.0561632733
 20
1461.8601969168
 30
0.0
 11
308.0561632733
 21
1524.3601969168
 31
0.0
  0
LINE
  5
E7
  8
1
  6
CONTINUOUS
 62
     7
 10
341.6490253878
 20
1533.088993197
 30
0.0
 11
341.6694248433
 21
1533.084693596
 31
0.0
  0
LINE
  5
E8
  8
1
  6
CONTINUOUS
 62
     7
 10
37.05616327330002
 20
1533.1101969168
 30
0.0
 11
106.0561632733
 21
1533.1101969168
 31
0.0
  0
ARC
  5
E9
  8
1
  6
CONTINUOUS
 62
     7
 10
341.5587656588
 20
1468.1353090162
 30
0.0
 40
0.7366210838
 50
269.7975811214
 51
287.4590779073
  0
LINE
  5
EA
  8
1
  6
CONTINUOUS
 62
     7
 10
338.5561632733
 20
1511.8890594282
 30
0.0
 11
338.5561632733
 21
1518.8217013043
 31
0.0
  0
LINE
  5
EB
  8
1
  6
CONTINUOUS
 62
     7
 10
322.0561632733
 20
1461.8601969168
 30
0.0
 11
318.0561632733
 21
1461.8601969168
 31
0.0
  0
LINE
  5
EC
  8
1
  6
CONTINUOUS
 62
     7
 10
338.5561632733
 20
1467.3986925293
 30
0.0
 11
341.5561632733
 21
1467.3986925293
 31
0.0
  0
LINE
  5
ED
  8
1
  6
CONTINUOUS
 62
     7
 10
318.0561632733
 20
1461.8601969168
 30
0.0
 11
318.0561632733
 21
1524.3601969168
 31
0.0
  0
ARC
  5
EE
  8
1
  6
CONTINUOUS
 62
     7
 10
308.5561632733
 20
1523.3601969168
 30
0.0
 40
0.5
 50
180.0
 51
270.0
  0
ARC
  5
EF
  8
1
  6
CONTINUOUS
 62
     7
 10
341.6143547057
 20
1458.2583008053
 30
0.0
 40
0.447892335
 50
311.2578308738
 51
330.2919366001
  0
LINE
  5
F0
  8
1
  6
CONTINUOUS
 62
     7
 10
338.5561632733
 20
1528.4281006312
 30
0.0
 11
338.5561632733
 21
1523.7519746416
 31
0.0
  0
LINE
  5
F1
  8
1
  6
CONTINUOUS
 62
     7
 10
304.0561632733
 20
1461.8601969168
 30
0.0
 11
304.0561632733
 21
1524.3601969168
 31
0.0
  0
ARC
  5
F2
  8
1
  6
CONTINUOUS
 62
     7
 10
310.5561632733
 20
1462.8601969168
 30
0.0
 40
0.5
 50
0.0
 51
90.0
  0
LINE
  5
F3
  8
1
  6
CONTINUOUS
 62
     7
 10
315.0561632733
 20
1461.8601969168
 30
0.0
 11
311.0561632733
 21
1461.8601969168
 31
0.0
  0
LINE
  5
F4
  8
1
  6
CONTINUOUS
 62
     7
 10
61.05609246650001
 20
1528.9501970179
 30
0.0
 11
55.45609240720002
 21
1528.9875303517
 31
0.0
  0
LINE
  5
F5
  8
1
  6
CONTINUOUS
 62
     7
 10
106.0561632733
 20
1453.1101969168
 30
0.0
 11
106.0561632733
 21
1533.1101969168
 31
0.0
  0
LINE
  5
F6
  8
1
  6
CENTER
 62
     5
 10
429.0420098757
 20
1535.1101969168
 30
0.0
 11
429.0420098757
 21
1451.1101969168
 31
0.0
  0
LINE
  5
F7
  8
1
  6
CONTINUOUS
 62
     7
 10
107.5561632733
 20
1528.1101969168
 30
0.0
 11
107.5561632733
 21
1458.1101969168
 31
0.0
  0
LINE
  5
F8
  8
1
  6
CONTINUOUS
 62
     7
 10
338.5561632733
 20
1462.468419192
 30
0.0
 11
341.5561632733
 21
1462.468419192
 31
0.0
  0
LINE
  5
F9
  8
1
  6
CONTINUOUS
 62
     7
 10
106.0561632733
 20
1533.1101969168
 30
0.0
 11
107.5561632733
 21
1528.1101969168
 31
0.0
  0
LINE
  5
FA
  8
1
  6
CONTINUOUS
 62
     7
 10
341.5561632733
 20
1533.0976949631
 30
0.0
 11
341.5821134779
 21
1533.0970208852
 31
0.0
  0
ARC
  5
FB
  8
1
  6
CONTINUOUS
 62
     7
 10
341.5965125042
 20
1462.9943146473
 30
0.0
 40
0.5188964329
 50
290.6812013028
 51
307.1279268944
  0
ARC
  5
FC
  8
1
  6
CONTINUOUS
 62
     7
 10
341.5580071348
 20
1523.1237026836
 30
0.0
 40
0.6282746636
 50
69.3308377184
 51
90.16815198979997
  0
LINE
  5
FD
  8
1
  6
CONTINUOUS
 62
     7
 10
185.0562782733
 20
1525.3597849168
 30
0.0
 11
188.2561632733
 21
1525.359777602777
 31
0.0
  0
LINE
  5
FE
  8
1
  6
CONTINUOUS
 62
     7
 10
188.2561632733
 20
1462.8601969168
 30
0.0
 11
183.7116092978
 21
1462.8601969168
 31
0.0
  0
LINE
  5
FF
  8
1
  6
CONTINUOUS
 62
     7
 10
183.5566142733
 20
1460.8606539168
 30
0.0
 11
188.2561632733
 21
1521.488085879274
 31
0.0
  0
LINE
  5
100
  8
1
  6
CONTINUOUS
 62
     7
 10
107.5561632733
 20
1528.1101969168
 30
0.0
 11
172.0561632733
 21
1528.1101969168
 31
0.0
  0
LINE
  5
101
  8
1
  6
CONTINUOUS
 62
     7
 10
107.5561632733
 20
1458.1101969168
 30
0.0
 11
172.0561632733
 21
1458.1101969168
 31
0.0
  0
LINE
  5
102
  8
1
  6
CONTINUOUS
 62
     7
 10
396.8265190946
 20
1510.239473567
 30
0.0
 11
393.7241068757
 21
1511.8890599168
 31
0.0
  0
ARC
  5
103
  8
1
  6
CONTINUOUS
 62
     7
 10
460.7880278757
 20
1511.1224239168
 30
0.0
 40
1.0
 50
209.5699440001
 51
298.0
  0
ARC
  5
104
  8
1
  6
CONTINUOUS
 62
     7
 10
429.0420098757
 20
1493.1101969168
 30
0.0
 40
35.5
 50
231.569944
 51
240.430056
  0
ARC
  5
105
  8
1
  6
CONTINUOUS
 62
     7
 10
457.6349238757
 20
1515.7970929168
 30
0.0
 40
1.0
 50
130.0
 51
218.430056
  0
ARC
  5
106
  8
1
  6
CONTINUOUS
 62
     7
 10
451.7289068757
 20
1521.7031109168
 30
0.0
 40
1.0
 50
231.569944
 51
320.0
  0
ARC
  5
107
  8
1
  6
CONTINUOUS
 62
     7
 10
406.3551138757
 20
1521.7031109168
 30
0.0
 40
1.0
 50
220.0
 51
308.430056
  0
LINE
  5
108
  8
1
  6
CONTINUOUS
 62
     7
 10
396.826521593
 20
1475.9809155676
 30
0.0
 11
393.7241068757
 21
1474.3313349168
 31
0.0
  0
LINE
  5
109
  8
1
  6
CONTINUOUS
 62
     7
 10
410.2631470392
 20
1457.7922933615
 30
0.0
 11
411.9127308757
 21
1460.8947069168
 31
0.0
  0
ARC
  5
10A
  8
1
  6
CONTINUOUS
 62
     7
 10
397.2959918757
 20
1475.0979699168
 30
0.0
 40
1.0
 50
29.569944
 51
117.9999999999
  0
ARC
  5
10B
  8
1
  6
CONTINUOUS
 62
     7
 10
397.2959918757
 20
1511.1224239168
 30
0.0
 40
1.0
 50
242.0000000001001
 51
330.4300559999999
  0
LINE
  5
10C
  8
1
  6
CONTINUOUS
 62
     7
 10
390.0420098757
 20
1492.1101969168
 30
0.0
 11
390.0420098757
 21
1494.1101969168
 31
0.0
  0
ARC
  5
10D
  8
1
  6
CONTINUOUS
 62
     7
 10
447.0542378757
 20
1461.3641789168
 30
0.0
 40
1.0
 50
119.569944
 51
208.0
  0
LINE
  5
10E
  8
1
  6
CONTINUOUS
 62
     7
 10
390.0420098757
 20
1494.1101969168
 30
0.0
 11
389.0545118294
 21
1494.1101969168
 31
0.0
  0
LINE
  5
10F
  8
1
  6
CONTINUOUS
 62
     7
 10
401.0918838757
 20
1516.5631379168
 30
0.0
 11
398.4002321223
 21
1518.8217022106
 31
0.0
  0
ARC
  5
110
  8
1
  6
CONTINUOUS
 62
     7
 10
429.0420098757
 20
1493.1101969168
 30
0.0
 40
35.5
 50
209.569944
 51
218.430056
  0
ARC
  5
111
  8
1
  6
CONTINUOUS
 62
     7
 10
429.0420098757
 20
1493.1101969168
 30
0.0
 40
35.5
 50
141.569944
 51
150.430056
  0
LINE
  5
112
  8
1
  6
CONTINUOUS
 62
     7
 10
405.5890688757
 20
1521.0603239168
 30
0.0
 11
403.3305061716
 21
1523.7519751651
 31
0.0
  0
ARC
  5
113
  8
1
  6
CONTINUOUS
 62
     7
 10
411.0297828757
 20
1524.8562149168
 30
0.0
 40
1.0
 50
299.569944
 51
28.0
  0
CIRCLE
  5
114
  8
1
  6
CONTINUOUS
 62
     7
 10
429.0420098757
 20
1493.1101969168
 30
0.0
 40
25.664574
  0
CIRCLE
  5
115
  8
1
  6
CONTINUOUS
 62
     7
 10
429.0420098757
 20
1493.1101969168
 30
0.0
 40
20.0
  0
LINE
  5
116
  8
1
  6
CONTINUOUS
 62
     7
 10
390.0420098757
 20
1492.1101969168
 30
0.0
 11
389.0545118294
 21
1492.1101969168
 31
0.0
  0
LINE
  5
117
  8
1
  6
CONTINUOUS
 62
     7
 10
405.5890688757
 20
1465.1600709168
 30
0.0
 11
403.3305056792
 21
1462.4684190817
 31
0.0
  0
LINE
  5
118
  8
1
  6
CONTINUOUS
 62
     7
 10
303.5561632733
 20
1463.3601969168
 30
0.0
 11
301.5561632733
 21
1463.3601969168
 31
0.0
  0
ARC
  5
119
  8
1
  6
CONTINUOUS
 62
     7
 10
457.6349238757
 20
1470.4233009168
 30
0.0
 40
1.0
 50
141.569944
 51
230.0
  0
LINE
  5
11A
  8
1
  6
CONTINUOUS
 62
     7
 10
452.4949508757
 20
1465.1600709168
 30
0.0
 11
454.7535151696
 21
1462.4684191634
 31
0.0
  0
ARC
  5
11B
  8
1
  6
CONTINUOUS
 62
     7
 10
460.7880278757
 20
1475.0979699168
 30
0.0
 40
1.0
 50
62.0
 51
150.430056
  0
LINE
  5
11C
  8
1
  6
CONTINUOUS
 62
     7
 10
452.4949508757
 20
1521.0603239168
 30
0.0
 11
454.7535146772
 21
1523.7519750834
 31
0.0
  0
ARC
  5
11D
  8
1
  6
CONTINUOUS
 62
     7
 10
303.5561632733
 20
1523.3601969168
 30
0.0
 40
0.5
 50
270.0
 51
0.0
  0
ARC
  5
11E
  8
1
  6
CONTINUOUS
 62
     7
 10
201.7551494278
 20
1528.3007418798
 30
0.0
 40
0.999830867900009
 50
116.5049564873
 51
134.9257038384
  0
ARC
  5
11F
  8
1
  6
CONTINUOUS
 62
     7
 10
201.7044831772
 20
1457.7384741733
 30
0.0
 40
0.8158578764000113
 50
241.0001804818
 51
267.507843024
  0
LINE
  5
120
  8
1
  6
CONTINUOUS
 62
     7
 10
341.6896273691
 20
1533.0795474991
 30
0.0
 11
341.7100293149
 21
1533.0734236809
 31
0.0
  0
LINE
  5
121
  8
1
  6
CONTINUOUS
 62
     7
 10
322.5561632733
 20
1522.8601969168
 30
0.0
 11
327.0855155267
 21
1522.8601969168
 31
0.0
  0
LINE
  5
122
  8
1
  6
CONTINUOUS
 62
     7
 10
172.0561632733
 20
1523.3601969168
 30
0.0
 11
174.901279799
 21
1523.3601969168
 31
0.0
  0
LINE
  5
123
  8
1
  6
CONTINUOUS
 62
     7
 10
200.7561632733
 20
1457.9388979168
 30
0.0
 11
200.7561632733
 21
1463.1295859168
 31
0.0
  0
LINE
  5
124
  8
1
  6
CENTER
 62
     5
 10
354.1651573627
 20
1493.1101969168
 30
0.0
 11
29.6167909899
 21
1493.1101969168
 31
0.0
  0
LINE
  5
125
  8
1
  6
CONTINUOUS
 62
     7
 10
341.5561632733
 20
1453.1101969168
 30
0.0
 11
336.0561632733
 21
1453.1101969168
 31
0.0
  0
ARC
  5
126
  8
1
  6
CONTINUOUS
 62
     7
 10
201.7549484869
 20
1528.3029352002
 30
0.0
 40
0.9977787196999988
 50
94.94113856199999
 51
116.5508379322
  0
LINE
  5
127
  8
1
  6
CONTINUOUS
 62
     7
 10
341.8754593966
 20
1532.982431475
 30
0.0
 11
341.8916728676
 21
1532.9683741186
 31
0.0
  0
LINE
  5
128
  8
1
  6
CONTINUOUS
 62
     7
 10
341.961333869
 20
1532.8906090621
 30
0.0
 11
341.9734455747
 21
1532.873079033
 31
0.0
  0
LINE
  5
129
  8
1
  6
CONTINUOUS
 62
     7
 10
200.7561632733
 20
1523.0908069168
 30
0.0
 11
200.7561632733
 21
1528.2814959168
 31
0.0
  0
LINE
  5
12A
  8
1
  6
CONTINUOUS
 62
     7
 10
286.5566142733
 20
1460.8606539168
 30
0.0
 11
283.0566142733
 21
1460.8606459168
 31
0.0
  0
LINE
  5
12B
  8
1
  6
CONTINUOUS
 62
     7
 10
296.0561632733
 20
1499.5569118835
 30
0.0
 11
293.0566142733
 21
1460.8606459168
 31
0.0
  0
LINE
  5
12C
  8
1
  6
CONTINUOUS
 62
     7
 10
266.5566142733
 20
1460.8606539168
 30
0.0
 11
263.0566142733
 21
1460.8606459168
 31
0.0
  0
LINE
  5
12D
  8
1
  6
CONTINUOUS
 62
     7
 10
251.9088142733
 20
1523.3601969168
 30
0.0
 11
257.901279799
 21
1523.3601969168
 31
0.0
  0
LINE
  5
12E
  8
1
  6
CONTINUOUS
 62
     7
 10
336.0561632733
 20
1533.1101969168
 30
0.0
 11
327.0855155267
 21
1535.1147959168
 31
0.0
  0
LINE
  5
12F
  8
1
  6
CONTINUOUS
 62
     7
 10
293.0566142733
 20
1460.8606459168
 30
0.0
 11
292.7036432733
 21
1462.8601969168
 31
0.0
  0
LINE
  5
130
  8
1
  6
CONTINUOUS
 62
     7
 10
175.0562782733
 20
1525.3597849168
 30
0.0
 11
172.0561632733
 21
1486.6562171568
 31
0.0
  0
ARC
  5
131
  8
1
  6
CONTINUOUS
 62
     7
 10
190.9826652733
 20
1477.6989549168
 30
0.0
 40
18.16353800000001
 50
89.13723399999999
 51
97.14744600000002
  0
LINE
  5
132
  8
1
  6
CONTINUOUS
 62
     7
 10
191.2561632733
 20
1523.0908069168
 30
0.0
 11
212.2561632733
 21
1523.0908069168
 31
0.0
  0
LINE
  5
133
  8
1
  6
CONTINUOUS
 62
     7
 10
258.0562782733
 20
1525.3597849168
 30
0.0
 11
253.0566142733
 21
1460.8606459168
 31
0.0
  0
LINE
  5
134
  8
1
  6
CONTINUOUS
 62
     7
 10
191.2561632733
 20
1533.1101969168
 30
0.0
 11
216.1498622733
 21
1533.1101969168
 31
0.0
  0
LINE
  5
135
  8
1
  6
CONTINUOUS
 62
     7
 10
292.7036442733
 20
1462.8601969168
 30
0.0
 11
287.1384422733
 21
1462.8601969168
 31
0.0
  0
LINE
  5
136
  8
1
  6
CONTINUOUS
 62
     7
 10
216.5566142733
 20
1460.8606539168
 30
0.0
 11
221.5562782733
 21
1525.3597769168
 31
0.0
  0
LINE
  5
137
  8
1
  6
CONTINUOUS
 62
     7
 10
185.0562782733
 20
1525.3597849168
 30
0.0
 11
180.0566142733
 21
1460.8606459168
 31
0.0
  0
LINE
  5
138
  8
1
  6
CONTINUOUS
 62
     7
 10
178.9088302733
 20
1523.3601969168
 30
0.0
 11
178.5562782733
 21
1525.3597769168
 31
0.0
  0
LINE
  5
139
  8
1
  6
CONTINUOUS
 62
     7
 10
336.0561632733
 20
1453.1101969168
 30
0.0
 11
327.0855155267
 21
1451.1055979168
 31
0.0
  0
LINE
  5
13A
  8
1
  6
CONTINUOUS
 62
     7
 10
173.5566142733
 20
1460.8606539168
 30
0.0
 11
178.5562782733
 21
1525.3597769168
 31
0.0
  0
LINE
  5
13B
  8
1
  6
CONTINUOUS
 62
     7
 10
173.5566142733
 20
1460.8606539168
 30
0.0
 11
172.0561632733
 21
1460.8606504872
 31
0.0
  0
LINE
  5
13C
  8
1
  6
CONTINUOUS
 62
     7
 10
327.0855155267
 20
1451.1055979168
 30
0.0
 11
327.0855155267
 21
1535.1147959168
 31
0.0
  0
LINE
  5
13D
  8
1
  6
CONTINUOUS
 62
     7
 10
175.0562782733
 20
1525.3597849168
 30
0.0
 11
178.5562782733
 21
1525.3597769168
 31
0.0
  0
LINE
  5
13E
  8
1
  6
CONTINUOUS
 62
     7
 10
212.2561632733
 20
1463.1295859168
 30
0.0
 11
191.2561632733
 21
1463.1295859168
 31
0.0
  0
LINE
  5
13F
  8
0
  6
CONTINUOUS
 62
     7
 10
37.05616327330002
 20
1453.6101969168
 30
0.0
 11
37.05616327330002
 21
1532.5975366601
 31
0.0
  0
LINE
  5
140
  8
1
  6
CONTINUOUS
 62
     7
 10
301.0561632733
 20
1460.8601969168
 30
0.0
 11
296.0518526464
 21
1460.8601969168
 31
0.0
  0
ARC
  5
141
  8
1
  6
CONTINUOUS
 62
     7
 10
429.0420098757
 20
1493.1101969168
 30
0.0
 40
40.0
 50
181.432544
 51
178.567456
  0
LINE
  5
142
  8
1
  6
CONTINUOUS
 62
     7
 10
464.3599139142
 20
1511.8890598443
 30
0.0
 11
461.2574998757
 21
1510.2394769168
 31
0.0
  0
LINE
  5
143
  8
1
  6
CONTINUOUS
 62
     7
 10
456.9921368757
 20
1516.5631379168
 30
0.0
 11
459.6837880423
 21
1518.8217017182
 31
0.0
  0
LINE
  5
144
  8
1
  6
CONTINUOUS
 62
     7
 10
301.5561632733
 20
1522.8601969168
 30
0.0
 11
303.5561632733
 21
1522.8601969168
 31
0.0
  0
ARC
  5
145
  8
1
  6
CONTINUOUS
 62
     7
 10
429.0420098757
 20
1493.1101969168
 30
0.0
 40
35.5
 50
299.569944
 51
308.430056
  0
LINE
  5
146
  8
1
  6
CONTINUOUS
 62
     7
 10
456.9921368757
 20
1469.6572559168
 30
0.0
 11
459.683788124
 21
1467.3986932127
 31
0.0
  0
ARC
  5
147
  8
1
  6
CONTINUOUS
 62
     7
 10
400.4490958757
 20
1470.4233009168
 30
0.0
 40
1.0
 50
310.0
 51
38.43005600010002
  0
ARC
  5
148
  8
1
  6
CONTINUOUS
 62
     7
 10
301.5561632733
 20
1523.3601969168
 30
0.0
 40
0.5
 50
180.0
 51
270.0
  0
LINE
  5
149
  8
1
  6
CONTINUOUS
 62
     7
 10
401.0918838757
 20
1469.6572559168
 30
0.0
 11
398.4002320406
 21
1467.3986927203
 31
0.0
  0
LINE
  5
14A
  8
1
  6
CONTINUOUS
 62
     7
 10
178.9088142733
 20
1523.3601969168
 30
0.0
 11
184.901279799
 21
1523.3601969168
 31
0.0
  0
LINE
  5
14B
  8
1
  6
CONTINUOUS
 62
     7
 10
172.0561632733
 20
1528.1101969168
 30
0.0
 11
172.0561632733
 21
1458.1101969168
 31
0.0
  0
LINE
  5
14C
  8
1
  6
CONTINUOUS
 62
     7
 10
301.0561632733
 20
1460.8601969168
 30
0.0
 11
301.0561632733
 21
1525.3601969168
 31
0.0
  0
ARC
  5
14D
  8
1
  6
CONTINUOUS
 62
     7
 10
301.5561632733
 20
1462.8601969168
 30
0.0
 40
0.5
 50
90.0
 51
180.0
  0
ARC
  5
14E
  8
1
  6
CONTINUOUS
 62
     7
 10
303.5561632733
 20
1462.8601969168
 30
0.0
 40
0.5
 50
0.0
 51
90.0
  0
LINE
  5
14F
  8
1
  6
CONTINUOUS
 62
     7
 10
296.0561632733
 20
1525.3601969168
 30
0.0
 11
301.0561632733
 21
1525.3601969168
 31
0.0
  0
LINE
  5
150
  8
0
  6
CONTINUOUS
 62
     7
 10
0.0
 20
0.0
 30
0.0
 11
420.0
 21
0.0
 31
0.0
  0
LINE
  5
151
  8
0
  6
CONTINUOUS
 62
     7
 10
420.0
 20
0.0
 30
0.0
 11
420.0
 21
297.0
 31
0.0
  0
LINE
  5
152
  8
0
  6
CONTINUOUS
 62
     7
 10
420.0
 20
297.0
 30
0.0
 11
0.0
 21
297.0
 31
0.0
  0
LINE
  5
153
  8
0
  6
CONTINUOUS
 62
     7
 10
0.0
 20
297.0
 30
0.0
 11
0.0
 21
0.0
 31
0.0
  0
LINE
  5
154
  8
0
  6
CONTINUOUS
 62
     7
 10
10.0
 20
10.0
 30
0.0
 11
409.9999999999999
 21
10.0
 31
0.0
  0
LINE
  5
155
  8
0
  6
CONTINUOUS
 62
     7
 10
409.9999999999999
 20
10.0
 30
0.0
 11
409.9999999999999
 21
286.9999999999999
 31
0.0
  0
LINE
  5
156
  8
0
  6
CONTINUOUS
 62
     7
 10
409.9999999999999
 20
286.9999999999999
 30
0.0
 11
10.00000000000006
 21
286.9999999999999
 31
0.0
  0
LINE
  5
157
  8
0
  6
CONTINUOUS
 62
     7
 10
10.0
 20
286.9999999999999
 30
0.0
 11
10.0
 21
10.00000000000001
 31
0.0
  0
LINE
  5
158
  8
0
  6
CONTINUOUS
 62
     7
 10
210.0
 20
0.0
 30
0.0
 11
210.0
 21
10.0
 31
0.0
  0
LINE
  5
159
  8
0
  6
CONTINUOUS
 62
     7
 10
420.0
 20
148.5
 30
0.0
 11
409.9999999999999
 21
148.5
 31
0.0
  0
LINE
  5
15A
  8
0
  6
CONTINUOUS
 62
     7
 10
210.0
 20
297.0
 30
0.0
 11
210.0
 21
286.9999999999999
 31
0.0
  0
LINE
  5
15B
  8
0
  6
CONTINUOUS
 62
     7
 10
0.0
 20
148.5
 30
0.0
 11
10.0
 21
148.5
 31
0.0
  0
LINE
  5
15C
  8
0
  6
CONTINUOUS
 62
     7
 10
11.0
 20
152.5
 30
0.0
 11
0.0000000000000017
 21
148.5
 31
0.0
  0
LINE
  5
15D
  8
0
  6
CONTINUOUS
 62
     7
 10
0.0
 20
148.5
 30
0.0
 11
11.0
 21
144.5
 31
0.0
  0
LINE
  5
15E
  8
0
  6
CONTINUOUS
 62
     7
 10
11.0
 20
144.5
 30
0.0
 11
11.0
 21
152.5
 31
0.0
  0
INSERT
  5
15F
  8
0
 62
     7
  2
*U2
 10
0.0
 20
0.0
 30
0.0
  0
LINE
  5
160
  8
0
  6
CONTINUOUS
 62
     7
 10
206.0
 20
11.0
 30
0.0
 11
210.0
 21
-0.0000000000000017
 31
0.0
  0
LINE
  5
161
  8
0
  6
CONTINUOUS
 62
     7
 10
210.0
 20
0.0
 30
0.0
 11
214.0
 21
11.0
 31
0.0
  0
LINE
  5
162
  8
0
  6
CONTINUOUS
 62
     7
 10
214.0
 20
11.0
 30
0.0
 11
206.0
 21
11.0
 31
0.0
  0
INSERT
  5
163
  8
0
 62
     7
  2
*U3
 10
0.0
 20
0.0
 30
0.0
  0
INSERT
  5
164
  8
0
 62
     7
  2
*U4
 10
0.0
 20
0.0
 30
0.0
  0
LINE
  5
165
  8
0
  6
CONTINUOUS
 62
     7
 10
367.5
 20
286.9999999999999
 30
0.0
 11
367.5
 21
292.0
 31
0.0
  0
TEXT
  5
166
  8
0
  6
CONTINUOUS
 62
     7
 10
391.2681818181818
 20
291.6648586970114
 30
0.0
 40
3.5
  1
A
 50
270.0
  0
LINE
  5
167
  8
0
  6
CONTINUOUS
 62
     7
 10
367.5
 20
10.0
 30
0.0
 11
367.5
 21
5.0
 31
0.0
  0
TEXT
  5
168
  8
0
  6
CONTINUOUS
 62
     7
 10
393.1544594848068
 20
4.236363636363635
 30
0.0
 40
3.5
  1
A
  0
LINE
  5
169
  8
0
  6
CONTINUOUS
 62
     7
 10
315.0
 20
286.9999999999999
 30
0.0
 11
315.0
 21
292.0
 31
0.0
  0
TEXT
  5
16A
  8
0
  6
CONTINUOUS
 62
     7
 10
338.7681818181818
 20
291.9491215455798
 30
0.0
 40
3.5
  1
B
 50
270.0
  0
LINE
  5
16B
  8
0
  6
CONTINUOUS
 62
     7
 10
315.0
 20
10.0
 30
0.0
 11
315.0
 21
5.0
 31
0.0
  0
TEXT
  5
16C
  8
0
  6
CONTINUOUS
 62
     7
 10
340.3701966362385
 20
4.236363636363635
 30
0.0
 40
3.5
  1
B
  0
LINE
  5
16D
  8
0
  6
CONTINUOUS
 62
     7
 10
262.5
 20
286.9999999999999
 30
0.0
 11
262.5
 21
292.0
 31
0.0
  0
TEXT
  5
16E
  8
0
  6
CONTINUOUS
 62
     7
 10
286.2655558334374
 20
291.8798611979494
 30
0.0
 40
3.5
  1
C
 50
270.0
  0
LINE
  5
16F
  8
0
  6
CONTINUOUS
 62
     7
 10
262.5
 20
10.0
 30
0.0
 11
262.5
 21
5.0
 31
0.0
  0
TEXT
  5
170
  8
0
  6
CONTINUOUS
 62
     7
 10
287.9394569838688
 20
4.233737651619357
 30
0.0
 40
3.5
  1
C
  0
LINE
  5
171
  8
0
  6
CONTINUOUS
 62
     7
 10
210.0
 20
286.9999999999999
 30
0.0
 11
210.0
 21
292.0
 31
0.0
  0
TEXT
  5
172
  8
0
  6
CONTINUOUS
 62
     7
 10
233.7681818181818
 20
291.9491215455796
 30
0.0
 40
3.5
  1
D
 50
270.0
  0
LINE
  5
173
  8
0
  6
CONTINUOUS
 62
     7
 10
157.5
 20
286.9999999999999
 30
0.0
 11
157.5
 21
292.0
 31
0.0
  0
TEXT
  5
174
  8
0
  6
CONTINUOUS
 62
     7
 10
181.2655558334376
 20
292.0549268475679
 30
0.0
 40
3.5
  1
E
 50
270.0
  0
LINE
  5
175
  8
0
  6
CONTINUOUS
 62
     7
 10
157.5
 20
10.0
 30
0.0
 11
157.5
 21
5.0
 31
0.0
  0
LINE
  5
176
  8
0
  6
CONTINUOUS
 62
     7
 10
105.0
 20
286.9999999999999
 30
0.0
 11
105.0
 21
292.0
 31
0.0
  0
TEXT
  5
177
  8
0
  6
CONTINUOUS
 62
     7
 10
128.7655558334375
 20
291.9849005877204
 30
0.0
 40
3.5
  1
F
 50
270.0
  0
LINE
  5
178
  8
0
  6
CONTINUOUS
 62
     7
 10
105.0
 20
10.0
 30
0.0
 11
105.0
 21
5.0
 31
0.0
  0
TEXT
  5
179
  8
0
  6
CONTINUOUS
 62
     7
 10
130.3344175940978
 20
4.233737651619357
 30
0.0
 40
3.5
  1
F
  0
LINE
  5
17A
  8
0
  6
CONTINUOUS
 62
     7
 10
52.50000000000004
 20
286.9999999999999
 30
0.0
 11
52.50000000000004
 21
292.0
 31
0.0
  0
TEXT
  5
17B
  8
0
  6
CONTINUOUS
 62
     7
 10
76.26555583343753
 20
291.8798611979493
 30
0.0
 40
3.5
  1
G
 50
270.0
  0
LINE
  5
17C
  8
0
  6
CONTINUOUS
 62
     7
 10
52.50000000000004
 20
10.0
 30
0.0
 11
52.50000000000004
 21
5.0
 31
0.0
  0
TEXT
  5
17D
  8
0
  6
CONTINUOUS
 62
     7
 10
77.93945698386898
 20
4.233737651619357
 30
0.0
 40
3.5
  1
G
  0
TEXT
  5
17E
  8
0
  6
CONTINUOUS
 62
     7
 10
23.76555583343753
 20
291.9498874577966
 30
0.0
 40
3.5
  1
H
 50
270.0
  0
TEXT
  5
17F
  8
0
  6
CONTINUOUS
 62
     7
 10
25.36943072402154
 20
4.233737651619357
 30
0.0
 40
3.5
  1
H
  0
LINE
  5
180
  8
0
  6
CONTINUOUS
 62
     7
 10
409.9999999999999
 20
74.25
 30
0.0
 11
414.9999999999999
 21
74.25
 31
0.0
  0
TEXT
  5
181
  8
0
  6
CONTINUOUS
 62
     7
 10
412.7265755908465
 20
34.64055583343754
 30
0.0
 40
3.5
  1
1
  0
LINE
  5
182
  8
0
  6
CONTINUOUS
 62
     7
 10
10.0
 20
74.25
 30
0.0
 11
5.0
 21
74.25
 31
0.0
  0
TEXT
  5
183
  8
0
  6
CONTINUOUS
 62
     7
 10
4.23373765161935
 20
38.46774259097161
 30
0.0
 40
3.5
  1
1
 50
270.0
  0
LINE
  5
184
  8
0
  6
CONTINUOUS
 62
     7
 10
409.9999999999999
 20
148.5
 30
0.0
 11
414.9999999999999
 21
148.5
 31
0.0
  0
TEXT
  5
185
  8
0
  6
CONTINUOUS
 62
     7
 10
413.1887489058396
 20
108.8905558334376
 30
0.0
 40
3.5
  1
2
  0
LINE
  5
186
  8
0
  6
CONTINUOUS
 62
     7
 10
10.0
 20
148.5
 30
0.0
 11
5.0
 21
148.5
 31
0.0
  0
TEXT
  5
187
  8
0
  6
CONTINUOUS
 62
     7
 10
4.233737651619379
 20
112.2555692759785
 30
0.0
 40
3.5
  1
2
 50
270.0
  0
LINE
  5
188
  8
0
  6
CONTINUOUS
 62
     7
 10
409.9999999999999
 20
222.75
 30
0.0
 11
414.9999999999999
 21
222.75
 31
0.0
  0
TEXT
  5
189
  8
0
  6
CONTINUOUS
 62
     7
 10
413.2237620357633
 20
183.1405558334376
 30
0.0
 40
3.5
  1
3
  0
LINE
  5
18A
  8
0
  6
CONTINUOUS
 62
     7
 10
10.0
 20
222.75
 30
0.0
 11
5.0
 21
222.75
 31
0.0
  0
TEXT
  5
18B
  8
0
  6
CONTINUOUS
 62
     7
 10
4.23373765161935
 20
186.4705561460548
 30
0.0
 40
3.5
  1
3
 50
270.0
  0
TEXT
  5
18C
  8
0
  6
CONTINUOUS
 62
     7
 10
413.3316462423409
 20
257.3931818181817
 30
0.0
 40
3.5
  1
4
  0
TEXT
  5
18D
  8
0
  6
CONTINUOUS
 62
     7
 10
4.23636363636362
 20
260.6126719394773
 30
0.0
 40
3.5
  1
4
 50
270.0
  0
LINE
  5
18E
  8
0
  6
CONTINUOUS
 62
     7
 10
220.0
 20
10.0
 30
0.0
 11
220.0
 21
7.0
 31
0.0
  0
LINE
  5
18F
  8
0
  6
CONTINUOUS
 62
     7
 10
200.0
 20
10.0
 30
0.0
 11
200.0
 21
7.0
 31
0.0
  0
LINE
  5
190
  8
0
  6
CONTINUOUS
 62
     7
 10
230.0
 20
10.0
 30
0.0
 11
230.0
 21
7.0
 31
0.0
  0
LINE
  5
191
  8
0
  6
CONTINUOUS
 62
     7
 10
190.0
 20
10.0
 30
0.0
 11
190.0
 21
7.0
 31
0.0
  0
LINE
  5
192
  8
0
  6
CONTINUOUS
 62
     7
 10
240.0
 20
10.0
 30
0.0
 11
240.0
 21
7.0
 31
0.0
  0
LINE
  5
193
  8
0
  6
CONTINUOUS
 62
     7
 10
180.0
 20
10.0
 30
0.0
 11
180.0
 21
7.0
 31
0.0
  0
LINE
  5
194
  8
0
  6
CONTINUOUS
 62
     7
 10
250.0
 20
10.0
 30
0.0
 11
250.0
 21
7.0
 31
0.0
  0
LINE
  5
195
  8
0
  6
CONTINUOUS
 62
     7
 10
170.0
 20
10.0
 30
0.0
 11
170.0
 21
7.0
 31
0.0
  0
LINE
  5
196
  8
0
  6
CONTINUOUS
 62
     7
 10
260.0
 20
10.0
 30
0.0
 11
260.0
 21
5.0
 31
0.0
  0
LINE
  5
197
  8
0
  6
CONTINUOUS
 62
     7
 10
160.0
 20
10.0
 30
0.0
 11
160.0
 21
5.0
 31
0.0
  0
LINE
  5
198
  8
0
  6
CONTINUOUS
 62
     7
 10
260.0
 20
10.0
 30
0.0
 11
160.0
 21
10.0
 31
0.0
  0
LINE
  5
199
  8
0
  6
CONTINUOUS
 62
     7
 10
260.0
 20
7.0
 30
0.0
 11
160.0
 21
7.0
 31
0.0
  0
INSERT
  5
19A
  8
0
 62
     7
  2
*U5
 10
0.0
 20
0.0
 30
0.0
  0
INSERT
  5
19B
  8
0
 62
     7
  2
*U6
 10
0.0
 20
0.0
 30
0.0
  0
INSERT
  5
19C
  8
0
 62
     7
  2
*U7
 10
0.0
 20
0.0
 30
0.0
  0
INSERT
  5
19D
  8
0
 62
     7
  2
*U8
 10
0.0
 20
0.0
 30
0.0
  0
INSERT
  5
19E
  8
0
 62
     7
  2
*U9
 10
0.0
 20
0.0
 30
0.0
  0
INSERT
  5
19F
  8
0
 62
     7
  2
*U10
 10
0.0
 20
0.0
 30
0.0
  0
INSERT
  5
1A0
  8
0
 62
     7
  2
*U11
 10
0.0
 20
0.0
 30
0.0
  0
INSERT
  5
1A1
  8
0
 62
     7
  2
*U12
 10
0.0
 20
0.0
 30
0.0
  0
INSERT
  5
1A2
  8
0
 62
     7
  2
*U13
 10
0.0
 20
0.0
 30
0.0
  0
INSERT
  5
1A3
  8
0
 62
     7
  2
*U14
 10
0.0
 20
0.0
 30
0.0
  0
INSERT
  5
1A4
  8
0
 62
     7
  2
*U15
 10
0.0
 20
0.0
 30
0.0
  0
INSERT
  5
1A5
  8
0
 62
     7
  2
*U16
 10
0.0
 20
0.0
 30
0.0
  0
INSERT
  5
1A6
  8
0
 62
     7
  2
*U17
 10
0.0
 20
0.0
 30
0.0
  0
INSERT
  5
1A7
  8
0
 62
     7
  2
*U18
 10
0.0
 20
0.0
 30
0.0
  0
INSERT
  5
1A8
  8
0
 62
     7
  2
*U19
 10
0.0
 20
0.0
 30
0.0
  0
INSERT
  5
1A9
  8
0
 62
     7
  2
*U20
 10
0.0
 20
0.0
 30
0.0
  0
LINE
  5
1AA
  8
1
  6
CONTINUOUS
 62
     7
 10
212.2561632733
 20
1453.1755119168
 30
0.0
 11
212.2561632733
 21
1463.2564139168
 31
0.0
  0
LINE
  5
1AB
  8
1
  6
CONTINUOUS
 62
     7
 10
342.0219360721
 20
1532.7794069501
 30
0.0
 11
342.0291122451
 21
1532.7598200275
 31
0.0
  0
LINE
  5
1AC
  8
1
  6
CONTINUOUS
 62
     7
 10
296.0561632733
 20
1499.5569118835
 30
0.0
 11
296.0561632733
 21
1525.3601969168
 31
0.0
  0
LINE
  5
1AD
  8
1
  6
CONTINUOUS
 62
     7
 10
341.8415558401
 20
1533.0082166665
 30
0.0
 11
341.8587821897
 21
1532.9956850902
 31
0.0
  0
ARC
  5
1AE
  8
1
  6
CONTINUOUS
 62
     7
 10
201.4549220761
 20
1470.0232518663
 30
0.0
 40
0.661257846899993
 50
232.1393471459
 51
257.2469361876
  0
LINE
  5
1AF
  8
1
  6
CONTINUOUS
 62
     7
 10
212.2561632733
 20
1468.7038629168
 30
0.0
 11
201.6690072733
 21
1469.3115419168
 31
0.0
  0
ARC
  5
1B0
  8
1
  6
CONTINUOUS
 62
     7
 10
322.5561632733
 20
1462.8601969168
 30
0.0
 40
0.5
 50
90.0
 51
180.0
  0
LINE
  5
1B1
  8
1
  6
CONTINUOUS
 62
     7
 10
191.2561632733
 20
1495.8604329168
 30
0.0
 11
191.2561632733
 21
1495.8665749168
 31
0.0
  0
LINE
  5
1B2
  8
1
  6
CONTINUOUS
 62
     7
 10
342.0527077543
 20
1532.656237457
 30
0.0
 11
342.054215766
 21
1532.6416383574
 31
0.0
  0
LINE
  5
1B3
  8
1
  6
CONTINUOUS
 62
     7
 10
191.2561632733
 20
1490.3538189168
 30
0.0
 11
191.2561632733
 21
1490.3599599168
 31
0.0
  0
ARC
  5
1B4
  8
1
  6
CONTINUOUS
 62
     7
 10
201.754302951
 20
1457.9184746216
 30
0.0
 40
0.9983995437000126
 50
225.0609768224
 51
243.5083628518
  0
LINE
  5
1B5
  8
1
  6
CONTINUOUS
 62
     7
 10
342.0559461335
 20
1532.6122754458
 30
0.0
 11
342.0561632733
 21
1532.5975366601
 31
0.0
  0
LINE
  5
1B6
  8
1
  6
CONTINUOUS
 62
     7
 10
341.7301519849
 20
1533.0664366424
 30
0.0
 11
341.7501030487
 21
1533.0585375175
 31
0.0
  0
LINE
  5
1B7
  8
1
  6
CONTINUOUS
 62
     7
 10
341.9848000328
 20
1532.85504929
 30
0.0
 11
341.9954508052
 21
1532.8364144643
 31
0.0
  0
LINE
  5
1B8
  8
1
  6
CONTINUOUS
 62
     7
 10
327.0855155267
 20
1463.3601969168
 30
0.0
 11
322.5561632733
 21
1463.3601969168
 31
0.0
  0
LINE
  5
1B9
  8
1
  6
CONTINUOUS
 62
     7
 10
341.7696969292
 20
1533.0497898903
 30
0.0
 11
341.7882305709
 21
1533.0405592148
 31
0.0
  0
LINE
  5
1BA
  8
1
  6
CONTINUOUS
 62
     7
 10
212.2561632733
 20
1466.4878069168
 30
0.0
 11
212.2561632733
 21
1490.8252569168
 31
0.0
  0
ARC
  5
1BB
  8
1
  6
CONTINUOUS
 62
     7
 10
201.6049214612
 20
1516.2502034784
 30
0.0
 40
0.6617583603999999
 50
84.4426466961
 51
116.5674177667
  0
LINE
  5
1BC
  8
1
  6
CONTINUOUS
 62
     7
 10
341.9355179078
 20
1532.9233549279
 30
0.0
 11
341.9487671602
 21
1532.9072510448
 31
0.0
  0
LINE
  5
1BD
  8
1
  6
CONTINUOUS
 62
     7
 10
200.7561632733
 20
1470.1879029168
 30
0.0
 11
200.7561632733
 21
1490.3559169168
 31
0.0
  0
LINE
  5
1BE
  8
1
  6
CONTINUOUS
 62
     7
 10
201.3796874203
 20
1457.5894158518
 30
0.0
 11
201.4101124203
 21
1457.5576608518
 31
0.0
  0
LINE
  5
1BF
  8
1
  6
CONTINUOUS
 62
     7
 10
342.0497315416
 20
1532.6775006675
 30
0.0
 11
342.0527077543
 21
1532.656237457
 31
0.0
  0
LINE
  5
1C0
  8
1
  6
CONTINUOUS
 62
     7
 10
212.2561632733
 20
1495.3951359168
 30
0.0
 11
212.2561632733
 21
1519.7325869168
 31
0.0
  0
LINE
  5
1C1
  8
1
  6
CONTINUOUS
 62
     7
 10
342.0140070381
 20
1532.7985457852
 30
0.0
 11
342.0219360721
 21
1532.7794069501
 31
0.0
  0
LINE
  5
1C2
  8
1
  6
CONTINUOUS
 62
     7
 10
212.2561632733
 20
1455.9993879168
 30
0.0
 11
201.6690072733
 21
1456.9233879168
 31
0.0
  0
ARC
  5
1C3
  8
1
  6
CONTINUOUS
 62
     7
 10
201.6996527796
 20
1470.4810633956
 30
0.0
 40
1.16992340960001
 50
250.4909263505
 51
268.4990091867
  0
LINE
  5
1C4
  8
1
  6
CONTINUOUS
 62
     7
 10
341.9487671602
 20
1532.9072510448
 30
0.0
 11
341.961333869
 21
1532.8906090621
 31
0.0
  0
LINE
  5
1C5
  8
1
  6
CONTINUOUS
 62
     7
 10
188.2561632733
 20
1495.1921689168
 30
0.0
 11
188.2561632733
 21
1456.1101969168
 31
0.0
  0
LINE
  5
1C6
  8
1
  6
CONTINUOUS
 62
     7
 10
188.2561632733
 20
1496.4375399168
 30
0.0
 11
188.2561632733
 21
1530.1101969168
 31
0.0
  0
LINE
  5
1C7
  8
1
  6
CONTINUOUS
 62
     7
 10
341.9072685932
 20
1532.9536344009
 30
0.0
 11
341.9217066674
 21
1532.9387870678
 31
0.0
  0
LINE
  5
1C8
  8
1
  6
CONTINUOUS
 62
     7
 10
341.7501030487
 20
1533.0585375175
 30
0.0
 11
341.7696969292
 21
1533.0497898903
 31
0.0
  0
ARC
  5
1C9
  8
1
  6
CONTINUOUS
 62
     7
 10
201.6450881503
 20
1515.7949661314
 30
0.0
 40
1.099749487599999
 50
107.7972760097
 51
122.8164406208
  0
LINE
  5
1CA
  8
1
  6
CONTINUOUS
 62
     7
 10
216.1498622733
 20
1453.1101969168
 30
0.0
 11
216.1498622733
 21
1533.1101969168
 31
0.0
  0
LINE
  5
1CB
  8
1
  6
CONTINUOUS
 62
     7
 10
342.054215766
 20
1532.6416383574
 30
0.0
 11
342.0552956547
 21
1532.6269886781
 31
0.0
  0
ARC
  5
1CC
  8
1
  6
CONTINUOUS
 62
     7
 10
322.5561632733
 20
1523.3601969168
 30
0.0
 40
0.5
 50
180.0
 51
270.0
  0
LINE
  5
1CD
  8
1
  6
CONTINUOUS
 62
     7
 10
212.2561632733
 20
1517.5165299168
 30
0.0
 11
201.6690072733
 21
1516.9088519168
 31
0.0
  0
ARC
  5
1CE
  8
1
  6
CONTINUOUS
 62
     7
 10
341.5561632733
 20
1453.6101969168
 30
0.0
 40
0.5
 50
270.0
 51
0.0
  0
LINE
  5
1CF
  8
1
  6
CONTINUOUS
 62
     7
 10
342.0291122451
 20
1532.7598200275
 30
0.0
 11
342.0354659806
 21
1532.7399510806
 31
0.0
  0
LINE
  5
1D0
  8
1
  6
CONTINUOUS
 62
     7
 10
341.8587821897
 20
1532.9956850902
 30
0.0
 11
341.8754593966
 21
1532.982431475
 31
0.0
  0
LINE
  5
1D1
  8
1
  6
CONTINUOUS
 62
     7
 10
341.9217066674
 20
1532.9387870678
 30
0.0
 11
341.9355179078
 21
1532.9233549279
 31
0.0
  0
LINE
  5
1D2
  8
1
  6
CONTINUOUS
 62
     7
 10
212.2561632733
 20
1522.9639799168
 30
0.0
 11
212.2561632733
 21
1533.0448819168
 31
0.0
  0
LINE
  5
1D3
  8
1
  6
CONTINUOUS
 62
     7
 10
341.9734455747
 20
1532.873079033
 30
0.0
 11
341.9848000328
 21
1532.85504929
 31
0.0
  0
LINE
  5
1D4
  8
1
  6
CONTINUOUS
 62
     7
 10
341.8063662908
 20
1533.030569374
 30
0.0
 11
341.8241940395
 21
1533.0197597885
 31
0.0
  0
LINE
  5
1D5
  8
1
  6
CONTINUOUS
 62
     7
 10
173.5553520691
 20
1460.8604776948
 30
0.0
 11
172.0561632879
 21
1460.8604742511
 31
0.0
  0
LINE
  5
1D6
  8
1
  6
CONTINUOUS
 62
     7
 10
341.7882305709
 20
1533.0405592148
 30
0.0
 11
341.8063662908
 21
1533.030569374
 31
0.0
  0
LINE
  5
1D7
  8
1
  6
CONTINUOUS
 62
     7
 10
341.8241940395
 20
1533.0197597885
 30
0.0
 11
341.8415558401
 21
1533.0082166665
 31
0.0
  0
LINE
  5
1D8
  8
1
  6
CONTINUOUS
 62
     7
 10
212.2561632733
 20
1530.2210049168
 30
0.0
 11
201.6690072733
 21
1529.2970059168
 31
0.0
  0
LINE
  5
1D9
  8
1
  6
CONTINUOUS
 62
     7
 10
341.8916728676
 20
1532.9683741186
 30
0.0
 11
341.9072685932
 21
1532.9536344009
 31
0.0
  0
LINE
  5
1DA
  8
1
  6
CONTINUOUS
 62
     7
 10
179.7036432733
 20
1462.8601969168
 30
0.0
 11
173.7116092978
 21
1462.8601969168
 31
0.0
  0
LINE
  5
1DB
  8
1
  6
CONTINUOUS
 62
     7
 10
342.0410962277
 20
1532.7193944125
 30
0.0
 11
342.0458461922
 21
1532.6986166808
 31
0.0
  0
LINE
  5
1DC
  8
1
  6
CONTINUOUS
 62
     7
 10
342.0052927145
 20
1532.8173400699
 30
0.0
 11
342.0140070381
 21
1532.7985457852
 31
0.0
  0
LINE
  5
1DD
  8
1
  6
CONTINUOUS
 62
     7
 10
342.0458461922
 20
1532.6986166808
 30
0.0
 11
342.0497315416
 21
1532.6775006675
 31
0.0
  0
LINE
  5
1DE
  8
1
  6
CONTINUOUS
 62
     7
 10
341.6694248433
 20
1533.084693596
 30
0.0
 11
341.6896273691
 21
1533.0795474991
 31
0.0
  0
LINE
  5
1DF
  8
1
  6
CONTINUOUS
 62
     7
 10
341.9954508052
 20
1532.8364144643
 30
0.0
 11
342.0052927145
 21
1532.8173400699
 31
0.0
  0
LINE
  5
1E0
  8
1
  6
CONTINUOUS
 62
     7
 10
342.0552956547
 20
1532.6269886781
 30
0.0
 11
342.0559461335
 21
1532.6122754458
 31
0.0
  0
LINE
  5
1E1
  8
1
  6
CONTINUOUS
 62
     7
 10
341.7100293149
 20
1533.0734236809
 30
0.0
 11
341.7301519849
 21
1533.0664366424
 31
0.0
  0
INSERT
  5
1E3
  8
0
 62
     7
  2
D_FRAME_DRAWING_21
 10
0.0
 20
0.0
 30
0.0
  0
LINE
  5
22D
  8
1
  6
CONTINUOUS
 62
     7
 10
183.5566142733
 20
1460.8606539168
 30
0.0
 11
180.0566142733
 21
1460.8606459168
 31
0.0
  0
LINE
  5
22E
  8
1
  6
CONTINUOUS
 62
     7
 10
241.9088142733
 20
1523.3601969168
 30
0.0
 11
247.901279799
 21
1523.3601969168
 31
0.0
  0
ARC
  5
22F
  8
1
  6
CONTINUOUS
 62
     7
 10
191.0463282733
 20
1520.2351159168
 30
0.0
 40
2.863389999999993
 50
85.797484
 51
165.469418
  0
LINE
  5
230
  8
1
  6
CONTINUOUS
 62
     7
 10
246.5566142733
 20
1460.8606539168
 30
0.0
 11
243.0566142733
 21
1460.8606459168
 31
0.0
  0
LINE
  5
231
  8
1
  6
CONTINUOUS
 62
     7
 10
242.7036432733
 20
1462.8601969168
 30
0.0
 11
236.7116092978
 21
1462.8601969168
 31
0.0
  0
LINE
  5
232
  8
1
  6
CONTINUOUS
 62
     7
 10
228.0562782733
 20
1525.3597849168
 30
0.0
 11
231.5562782733
 21
1525.3597769168
 31
0.0
  0
LINE
  5
233
  8
1
  6
CONTINUOUS
 62
     7
 10
191.2561632733
 20
1495.8665749168
 30
0.0
 11
212.2561632733
 21
1495.8665749168
 31
0.0
  0
LINE
  5
234
  8
1
  6
CONTINUOUS
 62
     7
 10
273.0566142733
 20
1460.8606459168
 30
0.0
 11
272.7036432733
 21
1462.8601969168
 31
0.0
  0
LINE
  5
235
  8
1
  6
CONTINUOUS
 62
     7
 10
218.0562782733
 20
1525.3597849168
 30
0.0
 11
216.1498622733
 21
1500.7656940787
 31
0.0
  0
LINE
  5
236
  8
1
  6
CONTINUOUS
 62
     7
 10
216.5566142733
 20
1460.8606539168
 30
0.0
 11
216.1498622733
 21
1460.8606529871
 31
0.0
  0
LINE
  5
237
  8
1
  6
CONTINUOUS
 62
     7
 10
221.9088302733
 20
1523.3601969168
 30
0.0
 11
221.5562782733
 21
1525.3597769168
 31
0.0
  0
LINE
  5
238
  8
1
  6
CONTINUOUS
 62
     7
 10
248.0562782733
 20
1525.3597849168
 30
0.0
 11
251.5562782733
 21
1525.3597769168
 31
0.0
  0
LINE
  5
239
  8
1
  6
CONTINUOUS
 62
     7
 10
180.0566142733
 20
1460.8606459168
 30
0.0
 11
179.7036432733
 21
1462.8601969168
 31
0.0
  0
LINE
  5
23A
  8
1
  6
CONTINUOUS
 62
     7
 10
241.9088142733
 20
1523.3601969168
 30
0.0
 11
247.901279799
 21
1523.3601969168
 31
0.0
  0
LINE
  5
23B
  8
1
  6
CONTINUOUS
 62
     7
 10
188.2561802733
 20
1528.9933939168
 30
0.0
 11
188.2591332733
 21
1529.0520139168
 31
0.0
  0
LINE
  5
23C
  8
1
  6
CONTINUOUS
 62
     7
 10
226.5566142733
 20
1460.8606539168
 30
0.0
 11
223.0566142733
 21
1460.8606459168
 31
0.0
  0
LINE
  5
23D
  8
1
  6
CONTINUOUS
 62
     7
 10
233.0566142733
 20
1460.8606459168
 30
0.0
 11
232.7036432733
 21
1462.8601969168
 31
0.0
  0
LINE
  5
23E
  8
1
  6
CONTINUOUS
 62
     7
 10
221.9088142733
 20
1523.3601969168
 30
0.0
 11
227.901279799
 21
1523.3601969168
 31
0.0
  0
LINE
  5
23F
  8
1
  6
CONTINUOUS
 62
     7
 10
231.9088302733
 20
1523.3601969168
 30
0.0
 11
231.5562782733
 21
1525.3597769168
 31
0.0
  0
LINE
  5
240
  8
1
  6
CONTINUOUS
 62
     7
 10
291.9088302733
 20
1523.3601969168
 30
0.0
 11
296.0561632733
 21
1523.3601969168
 31
0.0
  0
LINE
  5
241
  8
1
  6
CONTINUOUS
 62
     7
 10
282.7036432733
 20
1462.8601969168
 30
0.0
 11
276.7116092978
 21
1462.8601969168
 31
0.0
  0
LINE
  5
242
  8
1
  6
CONTINUOUS
 62
     7
 10
223.0566142733
 20
1460.8606459168
 30
0.0
 11
222.7036432733
 21
1462.8601969168
 31
0.0
  0
LINE
  5
243
  8
1
  6
CONTINUOUS
 62
     7
 10
228.0562782733
 20
1525.3597849168
 30
0.0
 11
223.0566142733
 21
1460.8606459168
 31
0.0
  0
LINE
  5
244
  8
1
  6
CONTINUOUS
 62
     7
 10
236.5566142733
 20
1460.8606539168
 30
0.0
 11
241.5562782733
 21
1525.3597769168
 31
0.0
  0
LINE
  5
245
  8
1
  6
CONTINUOUS
 62
     7
 10
268.0562782733
 20
1525.3597849168
 30
0.0
 11
263.0566142733
 21
1460.8606459168
 31
0.0
  0
LINE
  5
246
  8
1
  6
CONTINUOUS
 62
     7
 10
266.5566142733
 20
1460.8606539168
 30
0.0
 11
271.5562782733
 21
1525.3597769168
 31
0.0
  0
LINE
  5
247
  8
1
  6
CONTINUOUS
 62
     7
 10
241.9088302733
 20
1523.3601969168
 30
0.0
 11
241.5562782733
 21
1525.3597769168
 31
0.0
  0
LINE
  5
248
  8
1
  6
CONTINUOUS
 62
     7
 10
232.7036432733
 20
1462.8601969168
 30
0.0
 11
226.7116092978
 21
1462.8601969168
 31
0.0
  0
LINE
  5
249
  8
1
  6
CONTINUOUS
 62
     7
 10
261.9088302733
 20
1523.3601969168
 30
0.0
 11
261.5562782733
 21
1525.3597769168
 31
0.0
  0
LINE
  5
24A
  8
1
  6
CONTINUOUS
 62
     7
 10
238.0562782733
 20
1525.3597849168
 30
0.0
 11
233.0566142733
 21
1460.8606459168
 31
0.0
  0
LINE
  5
24B
  8
1
  6
CONTINUOUS
 62
     7
 10
278.0562782733
 20
1525.3597849168
 30
0.0
 11
281.5562782733
 21
1525.3597769168
 31
0.0
  0
LINE
  5
24C
  8
1
  6
CONTINUOUS
 62
     7
 10
222.7036432733
 20
1462.8601969168
 30
0.0
 11
216.7116092978
 21
1462.8601969168
 31
0.0
  0
LINE
  5
24D
  8
1
  6
CONTINUOUS
 62
     7
 10
238.0562782733
 20
1525.3597849168
 30
0.0
 11
241.5562782733
 21
1525.3597769168
 31
0.0
  0
LINE
  5
24E
  8
1
  6
CONTINUOUS
 62
     7
 10
236.5566142733
 20
1460.8606539168
 30
0.0
 11
233.0566142733
 21
1460.8606459168
 31
0.0
  0
LINE
  5
24F
  8
1
  6
CONTINUOUS
 62
     7
 10
286.5566142733
 20
1460.8606539168
 30
0.0
 11
291.5562782733
 21
1525.3597769168
 31
0.0
  0
ARC
  5
250
  8
1
  6
CONTINUOUS
 62
     7
 10
191.2561632733
 20
1456.1101969168
 30
0.0
 40
3.000000000000003
 50
180.0
 51
270.0
  0
LINE
  5
251
  8
1
  6
CONTINUOUS
 62
     7
 10
276.5566142733
 20
1460.8606539168
 30
0.0
 11
281.5562782733
 21
1525.3597769168
 31
0.0
  0
LINE
  5
252
  8
1
  6
CONTINUOUS
 62
     7
 10
263.0566142733
 20
1460.8606459168
 30
0.0
 11
262.7036432733
 21
1462.8601969168
 31
0.0
  0
LINE
  5
253
  8
1
  6
CONTINUOUS
 62
     7
 10
276.5566142733
 20
1460.8606539168
 30
0.0
 11
273.0566142733
 21
1460.8606459168
 31
0.0
  0
LINE
  5
254
  8
1
  6
CONTINUOUS
 62
     7
 10
243.0566142733
 20
1460.8606459168
 30
0.0
 11
242.7036432733
 21
1462.8601969168
 31
0.0
  0
LINE
  5
255
  8
1
  6
CONTINUOUS
 62
     7
 10
281.9088142733
 20
1523.3601969168
 30
0.0
 11
287.4740232733
 21
1523.3601969168
 31
0.0
  0
LINE
  5
256
  8
1
  6
CONTINUOUS
 62
     7
 10
226.5566142733
 20
1460.8606539168
 30
0.0
 11
231.5562782733
 21
1525.3597769168
 31
0.0
  0
ARC
  5
257
  8
1
  6
CONTINUOUS
 62
     7
 10
191.2561632733
 20
1530.1101969168
 30
0.0
 40
3.000000000000003
 50
90.0
 51
180.0
  0
LINE
  5
258
  8
1
  6
CONTINUOUS
 62
     7
 10
231.9088142733
 20
1523.3601969168
 30
0.0
 11
237.901279799
 21
1523.3601969168
 31
0.0
  0
ENDSEC
  0
EOF
