  0
SECTION
  2
HEADER
  9
$ACADVER
  1
AC1014
  9
$ACADMAINTVER
 70
     9
  9
$DWGCODEPAGE
  3
ANSI_932
  9
$INSBASE
 10
0.0
 20
0.0
 30
0.0
  9
$EXTMIN
 10
326.9999999908978
 20
9.712510941603094
 30
0.0
  9
$EXTMAX
 10
953.0000000091022
 20
168.208916148075
 30
0.0
  9
$LIMMIN
 10
0.0
 20
0.0
  9
$LIMMAX
 10
12.0
 20
9.0
  9
$ORTHOMODE
 70
     0
  9
$REGENMODE
 70
     1
  9
$FILLMODE
 70
     1
  9
$QTEXTMODE
 70
     0
  9
$MIRRTEXT
 70
     1
  9
$DRAGMODE
 70
     2
  9
$LTSCALE
 40
1.0
  9
$OSMODE
 70
    37
  9
$ATTMODE
 70
     1
  9
$TEXTSIZE
 40
0.2
  9
$TRACEWID
 40
0.05
  9
$TEXTSTYLE
  7
STANDARD
  9
$CLAYER
  8
0
  9
$CELTYPE
  6
BYLAYER
  9
$CECOLOR
 62
   256
  9
$CELTSCALE
 40
1.0
  9
$DELOBJ
 70
     1
  9
$DISPSILH
 70
     0
  9
$DIMSCALE
 40
1.0
  9
$DIMASZ
 40
3.0
  9
$DIMEXO
 40
0.0625
  9
$DIMDLI
 40
0.38
  9
$DIMRND
 40
0.0
  9
$DIMDLE
 40
0.0
  9
$DIMEXE
 40
1.5
  9
$DIMTP
 40
0.0
  9
$DIMTM
 40
0.0
  9
$DIMTXT
 40
3.0
  9
$DIMCEN
 40
0.09
  9
$DIMTSZ
 40
0.0
  9
$DIMTOL
 70
     0
  9
$DIMLIM
 70
     0
  9
$DIMTIH
 70
     1
  9
$DIMTOH
 70
     1
  9
$DIMSE1
 70
     0
  9
$DIMSE2
 70
     0
  9
$DIMTAD
 70
     1
  9
$DIMZIN
 70
     0
  9
$DIMBLK
  1

  9
$DIMASO
 70
     1
  9
$DIMSHO
 70
     1
  9
$DIMPOST
  1

  9
$DIMAPOST
  1

  9
$DIMALT
 70
     0
  9
$DIMALTD
 70
     2
  9
$DIMALTF
 40
25.4
  9
$DIMLFAC
 40
1.0
  9
$DIMTOFL
 70
     0
  9
$DIMTVP
 40
0.0
  9
$DIMTIX
 70
     0
  9
$DIMSOXD
 70
     0
  9
$DIMSAH
 70
     0
  9
$DIMBLK1
  1

  9
$DIMBLK2
  1

  9
$DIMSTYLE
  2
STANDARD
  9
$DIMCLRD
 70
     0
  9
$DIMCLRE
 70
     0
  9
$DIMCLRT
 70
     0
  9
$DIMTFAC
 40
1.0
  9
$DIMGAP
 40
1.5
  9
$DIMJUST
 70
     0
  9
$DIMSD1
 70
     0
  9
$DIMSD2
 70
     0
  9
$DIMTOLJ
 70
     1
  9
$DIMTZIN
 70
     0
  9
$DIMALTZ
 70
     0
  9
$DIMALTTZ
 70
     0
  9
$DIMFIT
 70
     3
  9
$DIMUPT
 70
     0
  9
$DIMUNIT
 70
     2
  9
$DIMDEC
 70
     2
  9
$DIMTDEC
 70
     4
  9
$DIMALTU
 70
     2
  9
$DIMALTTD
 70
     2
  9
$DIMTXSTY
  7
ＭＳ_ゴシック
  9
$DIMAUNIT
 70
     0
  9
$LUNITS
 70
     2
  9
$LUPREC
 70
     4
  9
$SKETCHINC
 40
0.1
  9
$FILLETRAD
 40
0.5
  9
$AUNITS
 70
     0
  9
$AUPREC
 70
     0
  9
$MENU
  1
.
  9
$ELEVATION
 40
0.0
  9
$PELEVATION
 40
0.0
  9
$THICKNESS
 40
0.0
  9
$LIMCHECK
 70
     0
  9
$CHAMFERA
 40
0.0
  9
$CHAMFERB
 40
0.0
  9
$CHAMFERC
 40
0.0
  9
$CHAMFERD
 40
0.0
  9
$SKPOLY
 70
     0
  9
$TDCREATE
 40
2459698.6494736
  9
$TDUPDATE
 40
2459698.6494739
  9
$TDINDWG
 40
0.0000000116
  9
$TDUSRTIMER
 40
0.0000000116
  9
$USRTIMER
 70
     1
  9
$ANGBASE
 50
0.0
  9
$ANGDIR
 70
     0
  9
$PDMODE
 70
     0
  9
$PDSIZE
 40
0.0
  9
$PLINEWID
 40
0.0
  9
$COORDS
 70
     1
  9
$SPLFRAME
 70
     0
  9
$SPLINETYPE
 70
     6
  9
$SPLINESEGS
 70
     8
  9
$ATTDIA
 70
     0
  9
$ATTREQ
 70
     1
  9
$HANDLING
 70
     1
  9
$HANDSEED
  5
3A4
  9
$SURFTAB1
 70
     6
  9
$SURFTAB2
 70
     6
  9
$SURFTYPE
 70
     6
  9
$SURFU
 70
     6
  9
$SURFV
 70
     6
  9
$UCSNAME
  2

  9
$UCSORG
 10
0.0
 20
0.0
 30
0.0
  9
$UCSXDIR
 10
1.0
 20
0.0
 30
0.0
  9
$UCSYDIR
 10
0.0
 20
1.0
 30
0.0
  9
$PUCSNAME
  2

  9
$PUCSORG
 10
0.0
 20
0.0
 30
0.0
  9
$PUCSXDIR
 10
1.0
 20
0.0
 30
0.0
  9
$PUCSYDIR
 10
0.0
 20
1.0
 30
0.0
  9
$USERI1
 70
     0
  9
$USERI2
 70
     0
  9
$USERI3
 70
     0
  9
$USERI4
 70
     0
  9
$USERI5
 70
     0
  9
$USERR1
 40
0.0
  9
$USERR2
 40
0.0
  9
$USERR3
 40
0.0
  9
$USERR4
 40
0.0
  9
$USERR5
 40
0.0
  9
$WORLDVIEW
 70
     1
  9
$SHADEDGE
 70
     3
  9
$SHADEDIF
 70
    70
  9
$TILEMODE
 70
     1
  9
$MAXACTVP
 70
    64
  9
$PINSBASE
 10
0.0
 20
0.0
 30
0.0
  9
$PLIMCHECK
 70
     0
  9
$PEXTMIN
 10
1.000000000000000E+20
 20
1.000000000000000E+20
 30
1.000000000000000E+20
  9
$PEXTMAX
 10
-1.000000000000000E+20
 20
-1.000000000000000E+20
 30
-1.000000000000000E+20
  9
$PLIMMIN
 10
0.0
 20
0.0
  9
$PLIMMAX
 10
12.0
 20
9.0
  9
$UNITMODE
 70
     0
  9
$VISRETAIN
 70
     1
  9
$PLINEGEN
 70
     0
  9
$PSLTSCALE
 70
     1
  9
$TREEDEPTH
 70
  3020
  9
$PICKSTYLE
 70
     1
  9
$CMLSTYLE
  2
STANDARD
  9
$CMLJUST
 70
     0
  9
$CMLSCALE
 40
1.0
  9
$PROXYGRAPHICS
 70
     1
  9
$MEASUREMENT
 70
     1
  0
ENDSEC
  0
SECTION
  2
CLASSES
  0
CLASS
  1
ACDBDICTIONARYWDFLT
  2
AcDbDictionaryWithDefault
  3
ObjectDBX Classes
 90
        0
280
     0
281
     0
  0
CLASS
  1
VISUALSTYLE
  2
AcDbVisualStyle
  3
ObjectDBX Classes
 90
     4095
280
     0
281
     0
  0
CLASS
  1
MATERIAL
  2
AcDbMaterial
  3
ObjectDBX Classes
 90
     1153
280
     0
281
     0
  0
CLASS
  1
SCALE
  2
AcDbScale
  3
ObjectDBX Classes
 90
     1153
280
     0
281
     0
  0
CLASS
  1
TABLESTYLE
  2
AcDbTableStyle
  3
ObjectDBX Classes
 90
     4095
280
     0
281
     0
  0
CLASS
  1
MLEADERSTYLE
  2
AcDbMLeaderStyle
  3
ACDB_MLEADERSTYLE_CLASS
 90
     4095
280
     0
281
     0
  0
CLASS
  1
SUN
  2
AcDbSun
  3
SCENEOE
 90
     1153
280
     0
281
     0
  0
CLASS
  1
DICTIONARYVAR
  2
AcDbDictionaryVar
  3
ObjectDBX Classes
 90
        0
280
     0
281
     0
  0
CLASS
  1
XRECORD
  2
AcDbXrecord
  3
ObjectDBX Classes
 90
        0
280
     0
281
     0
  0
CLASS
  1
LWPOLYLINE
  2
AcDbPolyline
  3
ObjectDBX Classes
 90
        0
280
     0
281
     1
  0
CLASS
  1
HATCH
  2
AcDbHatch
  3
ObjectDBX Classes
 90
        0
280
     0
281
     1
  0
CLASS
  1
ACDBPLACEHOLDER
  2
AcDbPlaceHolder
  3
ObjectDBX Classes
 90
        0
280
     0
281
     0
  0
CLASS
  1
LAYOUT
  2
AcDbLayout
  3
ObjectDBX Classes
 90
        0
280
     0
281
     0
  0
ENDSEC
  0
SECTION
  2
TABLES
  0
TABLE
  2
VPORT
  5
8
102
{ACAD_XDICTIONARY
360
399
102
}
330
0
100
AcDbSymbolTable
 70
     1
  0
VPORT
  5
29
330
8
100
AcDbSymbolTableRecord
100
AcDbViewportTableRecord
  2
*ACTIVE
 70
     0
 10
0.0
 20
0.0
 11
1.0
 21
1.0
 12
640.0
 22
88.96071354483904
 13
0.0
 23
0.0
 14
0.5
 24
0.5
 15
0.5
 25
0.5
 16
0.0
 26
0.0
 36
1.0
 17
0.0
 27
0.0
 37
0.0
 40
158.4964052064719
 41
1.6
 42
50.0
 43
0.0
 44
0.0
 50
0.0
 51
0.0
 71
     0
 72
   100
 73
     1
 74
     3
 75
     0
 76
     0
 77
     0
 78
     0
  0
ENDTAB
  0
TABLE
  2
LTYPE
  5
5
330
0
100
AcDbSymbolTable
 70
     2
  0
LTYPE
  5
14
330
5
100
AcDbSymbolTableRecord
100
AcDbLinetypeTableRecord
  2
BYBLOCK
 70
     0
  3

 72
    65
 73
     0
 40
0.0
  0
LTYPE
  5
15
330
5
100
AcDbSymbolTableRecord
100
AcDbLinetypeTableRecord
  2
BYLAYER
 70
     0
  3

 72
    65
 73
     0
 40
0.0
  0
LTYPE
  5
16
330
5
100
AcDbSymbolTableRecord
100
AcDbLinetypeTableRecord
  2
CONTINUOUS
 70
     0
  3
Solid line
 72
    65
 73
     0
 40
0.0
  0
LTYPE
  5
70
330
5
100
AcDbSymbolTableRecord
100
AcDbLinetypeTableRecord
  2
CENTER
 70
     0
  3

 72
    65
 73
     0
 40
0.0
  0
ENDTAB
  0
TABLE
  2
LAYER
  5
2
330
0
100
AcDbSymbolTable
 70
     1
  0
LAYER
  5
10
330
2
100
AcDbSymbolTableRecord
100
AcDbLayerTableRecord
  2
0
 70
     0
 62
     7
  6
CONTINUOUS
  0
ENDTAB
  0
TABLE
  2
STYLE
  5
3
330
0
100
AcDbSymbolTable
 70
     2
  0
STYLE
  5
11
330
3
100
AcDbSymbolTableRecord
100
AcDbTextStyleTableRecord
  2
STANDARD
 70
     0
 40
0.0
 41
1.0
 50
0.0
 71
     0
 42
0.2
  3
txt
  4

  0
STYLE
  5
6E
330
3
100
AcDbSymbolTableRecord
100
AcDbTextStyleTableRecord
  2
ＭＳ_ゴシック
 70
     0
 40
0.0
 41
1.0
 50
0.0
 71
     0
 42
0.2
  3
ＭＳ ゴシック.shx
  4

  0
ENDTAB
  0
TABLE
  2
VIEW
  5
6
330
0
100
AcDbSymbolTable
 70
     0
  0
ENDTAB
  0
TABLE
  2
UCS
  5
7
330
0
100
AcDbSymbolTable
 70
     0
  0
ENDTAB
  0
TABLE
  2
APPID
  5
9
330
0
100
AcDbSymbolTable
 70
     2
  0
APPID
  5
12
330
9
100
AcDbSymbolTableRecord
100
AcDbRegAppTableRecord
  2
ACAD
 70
     0
  0
APPID
  5
3A3
330
9
100
AcDbSymbolTableRecord
100
AcDbRegAppTableRecord
  2
ACAD_MLEADERVER
 70
     0
  0
ENDTAB
  0
TABLE
  2
DIMSTYLE
  5
A
330
0
100
AcDbSymbolTable
 70
     1
  0
DIMSTYLE
105
27
330
A
100
AcDbSymbolTableRecord
100
AcDbDimStyleTableRecord
  2
STANDARD
 70
     0
  3

  4

  5

  6

  7

 40
1.0
 41
0.18
 42
0.0625
 43
0.38
 44
0.18
 45
0.0
 46
0.0
 47
0.0
 48
0.0
140
0.18
141
0.09
142
0.0
143
25.4
144
1.0
145
0.0
146
1.0
147
0.09
 71
     0
 72
     0
 73
     1
 74
     1
 75
     0
 76
     0
 77
     0
 78
     0
170
     0
171
     2
172
     0
173
     0
174
     0
175
     0
176
     0
177
     0
178
     0
270
     2
271
     4
272
     4
273
     2
274
     2
340
11
275
     0
280
     0
281
     0
282
     0
283
     1
284
     0
285
     0
286
     0
287
     3
288
     0
  0
ENDTAB
  0
TABLE
  2
BLOCK_RECORD
  5
1
330
0
100
AcDbSymbolTable
 70
     0
  0
BLOCK_RECORD
  5
1F
330
1
100
AcDbSymbolTableRecord
100
AcDbBlockTableRecord
  2
*MODEL_SPACE
  0
BLOCK_RECORD
  5
1B
330
1
100
AcDbSymbolTableRecord
100
AcDbBlockTableRecord
  2
*PAPER_SPACE
  0
ENDTAB
  0
ENDSEC
  0
SECTION
  2
BLOCKS
  0
BLOCK
  5
20
330
1F
100
AcDbEntity
  8
0
100
AcDbBlockBegin
  2
*MODEL_SPACE
 70
     0
 10
0.0
 20
0.0
 30
0.0
  3
*MODEL_SPACE
  1

  0
ENDBLK
  5
21
330
1F
100
AcDbEntity
  8
0
100
AcDbBlockEnd
  0
BLOCK
  5
1C
330
1B
100
AcDbEntity
 67
     1
  8
0
100
AcDbBlockBegin
  2
*PAPER_SPACE
 70
     0
 10
0.0
 20
0.0
 30
0.0
  3
*PAPER_SPACE
  1

  0
ENDBLK
  5
1D
330
1B
100
AcDbEntity
 67
     1
  8
0
100
AcDbBlockEnd
  0
ENDSEC
  0
SECTION
  2
ENTITIES
  0
LINE
  5
6F
330
1F
100
AcDbEntity
  8
0
  6
CENTER
 62
     1
100
AcDbLine
 10
895.0
 20
51.90891613889003
 30
0.0
 11
895.0
 21
168.208916148075
 31
0.0
  0
LINE
  5
71
330
1F
100
AcDbEntity
  8
0
  6
CONTINUOUS
 62
     7
100
AcDbLine
 10
487.5989613116537
 20
164.908916148075
 30
0.0
 11
506.6000000007137
 21
164.9089161480749
 31
0.0
  0
LINE
  5
72
330
1F
100
AcDbEntity
  8
0
  6
CENTER
 62
     1
100
AcDbLine
 10
836.99999999901
 20
110.0
 30
0.0
 11
953.0000000091022
 21
110.0
 31
0.0
  0
LINE
  5
73
330
1F
100
AcDbEntity
  8
0
  6
CENTER
 62
     1
100
AcDbLine
 10
462.6000000007137
 20
110.0
 30
0.0
 11
817.3999999992478
 21
110.0
 31
0.0
  0
LINE
  5
74
330
1F
100
AcDbEntity
  8
0
  6
CENTER
 62
     1
100
AcDbLine
 10
385.0
 20
51.90891614807487
 30
0.0
 11
385.0
 21
168.208916148075
 31
0.0
  0
LINE
  5
75
330
1F
100
AcDbEntity
  8
0
  6
CENTER
 62
     1
100
AcDbLine
 10
326.9999999908978
 20
110.0
 30
0.0
 11
442.9999999908978
 21
110.0
 31
0.0
  0
POINT
  5
76
330
1F
100
AcDbEntity
  8
0
 62
     1
100
AcDbPoint
 10
895.0
 20
110.0
 30
0.0
  0
POINT
  5
77
330
1F
100
AcDbEntity
  8
0
 62
     1
100
AcDbPoint
 10
385.0
 20
110.0
 30
0.0
  0
POINT
  5
78
330
1F
100
AcDbEntity
  8
0
 62
     1
100
AcDbPoint
 10
640.0
 20
110.0
 30
0.0
  0
POINT
  5
79
330
1F
100
AcDbEntity
  8
0
 62
     1
100
AcDbPoint
 10
385.0
 20
110.0
 30
0.0
  0
POINT
  5
7A
330
1F
100
AcDbEntity
  8
0
 62
     1
100
AcDbPoint
 10
895.0
 20
110.0
 30
0.0
  0
MTEXT
  5
7B
330
1F
100
AcDbEntity
  8
0
 62
     4
100
AcDbMText
 10
640.2260222583467
 20
12.371601850694
 30
0.0
 40
3.0
 41
0.0
 71
     1
 72
     1
  1
{\fＭＳ ゴシック;KFEKH-75}
  0
ARC
  5
7C
330
1F
100
AcDbEntity
  8
0
  6
CONTINUOUS
 62
     7
100
AcDbCircle
 10
894.9999999990044
 20
109.9089161379683
 30
0.0
 40
54.99999999999446
100
AcDbArc
 50
89.99999999938885
 51
116.9999999980981
  0
ARC
  5
7D
330
1F
100
AcDbEntity
  8
0
  6
CONTINUOUS
 62
     7
100
AcDbCircle
 10
894.9999999990044
 20
109.9089161379683
 30
0.0
 40
54.99999999999449
100
AcDbArc
 50
129.9999999980366
 51
139.9999999980365
  0
ARC
  5
7E
330
1F
100
AcDbEntity
  8
0
  6
CONTINUOUS
 62
     7
100
AcDbCircle
 10
894.9999999990044
 20
109.9089161379683
 30
0.0
 40
54.99999999999446
100
AcDbArc
 50
152.9999999980977
 51
178.6972280023475
  0
ARC
  5
7F
330
1F
100
AcDbEntity
  8
0
  6
CONTINUOUS
 62
     7
100
AcDbCircle
 10
894.9999999990044
 20
109.9089161379683
 30
0.0
 40
54.99999999999444
100
AcDbArc
 50
178.6972280023474
 51
181.3027719945243
  0
ARC
  5
80
330
1F
100
AcDbEntity
  8
0
  6
CONTINUOUS
 62
     7
100
AcDbCircle
 10
894.9999999990044
 20
109.9089161379683
 30
0.0
 40
54.99999999999444
100
AcDbArc
 50
181.3027719945241
 51
182.9999999113537
  0
ARC
  5
81
330
1F
100
AcDbEntity
  8
0
  6
CONTINUOUS
 62
     7
100
AcDbCircle
 10
894.9999999990044
 20
109.9089161379683
 30
0.0
 40
54.99999999999443
100
AcDbArc
 50
310.0000000007407
 51
320.0000000007408
  0
ARC
  5
82
330
1F
100
AcDbEntity
  8
0
  6
CONTINUOUS
 62
     7
100
AcDbCircle
 10
894.9999999990044
 20
109.9089161379683
 30
0.0
 40
54.99999999999442
100
AcDbArc
 50
62.99999999891916
 51
89.99999999938885
  0
LINE
  5
83
330
1F
100
AcDbEntity
  8
0
  6
CONTINUOUS
 62
     7
100
AcDbLine
 10
846.8856476934544
 20
85.39342915344835
 30
0.0
 11
845.9946411693063
 21
84.93943865374135
 31
0.0
  0
ARC
  5
84
330
1F
100
AcDbEntity
  8
0
  6
CONTINUOUS
 62
     7
100
AcDbCircle
 10
894.9999999999253
 20
109.90891613889
 30
0.0
 40
55.00000000000001
100
AcDbArc
 50
181.3022889345671
 51
206.999999999389
  0
LINE
  5
85
330
1F
100
AcDbEntity
  8
0
  6
CONTINUOUS
 62
     7
100
AcDbLine
 10
840.9999999998827
 20
108.6589161394287
 30
0.0
 11
840.0142063801134
 21
108.6589161394767
 31
0.0
  0
LINE
  5
86
330
1F
100
AcDbEntity
  8
0
  6
CONTINUOUS
 62
     7
100
AcDbLine
 10
840.9999999998961
 20
109.9089161394285
 30
0.0
 11
840.9999999998827
 21
108.6589161394287
 31
0.0
  0
LINE
  5
87
330
1F
100
AcDbEntity
  8
0
  6
CONTINUOUS
 62
     7
100
AcDbLine
 10
845.9946411698389
 20
134.8783936250841
 30
0.0
 11
846.8856476940076
 21
134.4244031253426
 31
0.0
  0
LINE
  5
88
330
1F
100
AcDbEntity
  8
0
  6
CONTINUOUS
 62
     7
100
AcDbLine
 10
840.9999999999094
 20
111.1589161394284
 30
0.0
 11
840.9999999998961
 21
109.9089161394285
 31
0.0
  0
LINE
  5
89
330
1F
100
AcDbEntity
  8
0
  6
CONTINUOUS
 62
     7
100
AcDbLine
 10
840.01420638014
 20
111.1589161394763
 30
0.0
 11
840.9999999999094
 21
111.1589161394284
 31
0.0
  0
ARC
  5
8A
330
1F
100
AcDbEntity
  8
0
  6
CONTINUOUS
 62
     7
100
AcDbCircle
 10
894.9999999999253
 20
109.90891613889
 30
0.0
 40
55.00000000000001
100
AcDbArc
 50
152.9999999993887
 51
178.6977110642106
  0
ARC
  5
8B
330
1F
100
AcDbEntity
  8
0
  6
CONTINUOUS
 62
     7
100
AcDbCircle
 10
894.9999999998879
 20
109.9089161388525
 30
0.0
 40
48.00000000000004
100
AcDbArc
 50
206.999999999389
 51
219.9999999993891
  0
LINE
  5
8C
330
1F
100
AcDbEntity
  8
0
  6
CONTINUOUS
 62
     7
100
AcDbLine
 10
852.2316868386202
 20
88.11737215181364
 30
0.0
 11
846.8856476934618
 21
85.39342915343379
 31
0.0
  0
LINE
  5
8D
330
1F
100
AcDbEntity
  8
0
  6
CONTINUOUS
 62
     7
100
AcDbLine
 10
846.8856476939848
 20
134.4244031252977
 30
0.0
 11
852.2316868390851
 21
131.7004601268038
 31
0.0
  0
ARC
  5
8E
330
1F
100
AcDbEntity
  8
0
  6
CONTINUOUS
 62
     7
100
AcDbCircle
 10
894.9999999998879
 20
109.9089161388525
 30
0.0
 40
47.99999999999994
100
AcDbArc
 50
139.9999999993887
 51
152.9999999993887
  0
LINE
  5
8F
330
1F
100
AcDbEntity
  8
0
  6
CONTINUOUS
 62
     7
100
AcDbLine
 10
858.2298667305116
 20
140.7627214041942
 30
0.0
 11
853.6336000718396
 21
144.6194470623619
 31
0.0
  0
LINE
  5
90
330
1F
100
AcDbEntity
  8
0
  6
CONTINUOUS
 62
     7
100
AcDbLine
 10
860.2894690772613
 20
151.2753160676416
 30
0.0
 11
864.1461947353309
 21
146.6790494088873
 31
0.0
  0
ARC
  5
91
330
1F
100
AcDbEntity
  8
0
  6
CONTINUOUS
 62
     7
100
AcDbCircle
 10
894.9999999998879
 20
109.9089161388525
 30
0.0
 40
47.99999999999996
100
AcDbArc
 50
116.9999999993886
 51
129.9999999993886
  0
LINE
  5
92
330
1F
100
AcDbEntity
  8
0
  6
CONTINUOUS
 62
     7
100
AcDbLine
 10
873.2084560128491
 20
152.6772293001204
 30
0.0
 11
870.4845130144693
 21
158.0232684452789
 31
0.0
  0
LINE
  5
93
330
1F
100
AcDbEntity
  8
0
  6
CONTINUOUS
 62
     7
100
AcDbLine
 10
919.5154869863329
 20
158.023268444756
 30
0.0
 11
916.791543987839
 21
152.6772292996556
 31
0.0
  0
ARC
  5
94
330
1F
100
AcDbEntity
  8
0
  6
CONTINUOUS
 62
     7
100
AcDbCircle
 10
894.9999999998879
 20
109.9089161388525
 30
0.0
 40
48.00000000000001
100
AcDbArc
 50
49.99999999938905
 51
62.99999999938905
  0
LINE
  5
95
330
1F
100
AcDbEntity
  8
0
  6
CONTINUOUS
 62
     7
100
AcDbLine
 10
925.8538052652293
 20
146.6790494082291
 30
0.0
 11
929.710530923397
 21
151.2753160669012
 31
0.0
  0
LINE
  5
96
330
1F
100
AcDbEntity
  8
0
  6
CONTINUOUS
 62
     7
100
AcDbLine
 10
936.3663999286766
 20
144.6194470614794
 30
0.0
 11
931.7701332699224
 21
140.7627214034098
 31
0.0
  0
ARC
  5
97
330
1F
100
AcDbEntity
  8
0
  6
CONTINUOUS
 62
     7
100
AcDbCircle
 10
894.9999999998879
 20
109.9089161388525
 30
0.0
 40
48.00000000000001
100
AcDbArc
 50
26.99999999938905
 51
39.99999999938905
  0
LINE
  5
98
330
1F
100
AcDbEntity
  8
0
  6
CONTINUOUS
 62
     7
100
AcDbLine
 10
937.7683131611554
 20
131.7004601258914
 30
0.0
 11
943.114352306314
 21
134.4244031242713
 31
0.0
  0
LINE
  5
99
330
1F
100
AcDbEntity
  8
0
  6
CONTINUOUS
 62
     7
100
AcDbLine
 10
943.1143523057909
 20
85.39342915240735
 30
0.0
 11
937.7683131606906
 21
88.11737215090126
 31
0.0
  0
ARC
  5
9A
330
1F
100
AcDbEntity
  8
0
  6
CONTINUOUS
 62
     7
100
AcDbCircle
 10
894.9999999998879
 20
109.9089161388525
 30
0.0
 40
48.00000000000004
100
AcDbArc
 50
319.9999999993887
 51
332.9999999993887
  0
LINE
  5
9B
330
1F
100
AcDbEntity
  8
0
  6
CONTINUOUS
 62
     7
100
AcDbLine
 10
931.7701332692642
 20
79.05511087351091
 30
0.0
 11
936.3663999279362
 21
75.1983852153432
 31
0.0
  0
LINE
  5
9C
330
1F
100
AcDbEntity
  8
0
  6
CONTINUOUS
 62
     7
100
AcDbLine
 10
929.7105309225145
 20
68.54251621006347
 30
0.0
 11
925.8538052644449
 21
73.1387828688178
 31
0.0
  0
ARC
  5
9D
330
1F
100
AcDbEntity
  8
0
  6
CONTINUOUS
 62
     7
100
AcDbCircle
 10
894.9999999998879
 20
109.9089161388525
 30
0.0
 40
48.00000000000006
100
AcDbArc
 50
296.9999999993887
 51
309.9999999993886
  0
LINE
  5
9E
330
1F
100
AcDbEntity
  8
0
  6
CONTINUOUS
 62
     7
100
AcDbLine
 10
916.7915439869266
 20
67.14060297758462
 30
0.0
 11
919.5154869853064
 21
61.79456383242613
 31
0.0
  0
LINE
  5
9F
330
1F
100
AcDbEntity
  8
0
  6
CONTINUOUS
 62
     7
100
AcDbLine
 10
870.4845130134429
 20
61.79456383294912
 30
0.0
 11
873.2084560119367
 21
67.1406029780495
 31
0.0
  0
ARC
  5
A0
330
1F
100
AcDbEntity
  8
0
  6
CONTINUOUS
 62
     7
100
AcDbCircle
 10
894.9999999998879
 20
109.9089161388525
 30
0.0
 40
47.99999999999997
100
AcDbArc
 50
229.9999999993891
 51
242.999999999389
  0
LINE
  5
A1
330
1F
100
AcDbEntity
  8
0
  6
CONTINUOUS
 62
     7
100
AcDbLine
 10
864.1461947345464
 20
73.138782869476
 30
0.0
 11
860.2894690763789
 21
68.54251621080392
 31
0.0
  0
LINE
  5
A2
330
1F
100
AcDbEntity
  8
0
  6
CONTINUOUS
 62
     7
100
AcDbLine
 10
853.6336000710991
 20
75.19838521622569
 30
0.0
 11
858.2298667298535
 21
79.05511087429532
 31
0.0
  0
LINE
  5
A3
330
1F
100
AcDbEntity
  8
0
  6
CONTINUOUS
 62
     7
100
AcDbLine
 10
929.7105309234005
 20
151.2753160668982
 30
0.0
 11
930.3533185331288
 21
152.0413605100503
 31
0.0
  0
ARC
  5
A4
330
1F
100
AcDbEntity
  8
0
  6
CONTINUOUS
 62
     7
100
AcDbCircle
 10
894.9999999999253
 20
109.90891613889
 30
0.0
 40
54.99999999999999
100
AcDbArc
 50
39.99999999938899
 51
49.99999999938905
  0
LINE
  5
A5
330
1F
100
AcDbEntity
  8
0
  6
CONTINUOUS
 62
     7
100
AcDbLine
 10
937.1324443718397
 20
145.262234671195
 30
0.0
 11
936.3663999286738
 21
144.6194470614829
 31
0.0
  0
ARC
  5
A6
330
1F
100
AcDbEntity
  8
0
  6
CONTINUOUS
 62
     7
100
AcDbCircle
 10
894.9999999999253
 20
109.90891613889
 30
0.0
 40
54.99999999999998
100
AcDbArc
 50
62.99999999938905
 51
89.9999999993888
  0
LINE
  5
A7
330
1F
100
AcDbEntity
  8
0
  6
CONTINUOUS
 62
     7
100
AcDbLine
 10
870.4845130145142
 20
158.0232684453018
 30
0.0
 11
870.0305225147769
 21
158.9142749695092
 31
0.0
  0
ARC
  5
A8
330
1F
100
AcDbEntity
  8
0
  6
CONTINUOUS
 62
     7
100
AcDbCircle
 10
894.9999999999253
 20
109.90891613889
 30
0.0
 40
54.99999999999999
100
AcDbArc
 50
89.9999999993888
 51
116.9999999993887
  0
LINE
  5
A9
330
1F
100
AcDbEntity
  8
0
  6
CONTINUOUS
 62
     7
100
AcDbLine
 10
919.9694774861192
 20
158.9142749689766
 30
0.0
 11
919.5154869863475
 21
158.0232684447486
 31
0.0
  0
LINE
  5
AA
330
1F
100
AcDbEntity
  8
0
  6
CONTINUOUS
 62
     7
100
AcDbLine
 10
943.1143523063066
 20
134.4244031242859
 30
0.0
 11
944.0053588305441
 21
134.8783936240386
 31
0.0
  0
ARC
  5
AB
330
1F
100
AcDbEntity
  8
0
  6
CONTINUOUS
 62
     7
100
AcDbCircle
 10
894.9999999999253
 20
109.90891613889
 30
0.0
 40
55.0
100
AcDbArc
 50
332.9999999993886
 51
26.99999999938899
  0
LINE
  5
AC
330
1F
100
AcDbEntity
  8
0
  6
CONTINUOUS
 62
     7
100
AcDbLine
 10
944.0053588300117
 20
84.93943865269583
 30
0.0
 11
943.1143523058139
 21
85.39342915245219
 31
0.0
  0
LINE
  5
AD
330
1F
100
AcDbEntity
  8
0
  6
CONTINUOUS
 62
     7
100
AcDbLine
 10
853.6336000718735
 20
144.6194470624023
 30
0.0
 11
852.8675556287651
 21
145.2622346720937
 31
0.0
  0
ARC
  5
AE
330
1F
100
AcDbEntity
  8
0
  6
CONTINUOUS
 62
     7
100
AcDbCircle
 10
894.9999999999253
 20
109.90891613889
 30
0.0
 40
54.99999999999999
100
AcDbArc
 50
129.9999999993886
 51
139.9999999993887
  0
LINE
  5
AF
330
1F
100
AcDbEntity
  8
0
  6
CONTINUOUS
 62
     7
100
AcDbLine
 10
859.6466814676204
 20
152.0413605108047
 30
0.0
 11
860.2894690773016
 21
151.2753160676755
 31
0.0
  0
ARC
  5
B0
330
1F
100
AcDbEntity
  8
0
  6
CONTINUOUS
 62
     7
100
AcDbCircle
 10
894.9999999999253
 20
109.90891613889
 30
0.0
 40
55.00000000000001
100
AcDbArc
 50
309.9999999993886
 51
319.9999999993886
  0
LINE
  5
B1
330
1F
100
AcDbEntity
  8
0
  6
CONTINUOUS
 62
     7
100
AcDbLine
 10
930.3533185322301
 20
67.77647176697525
 30
0.0
 11
929.7105309225549
 21
68.5425162100973
 31
0.0
  0
LINE
  5
B2
330
1F
100
AcDbEntity
  8
0
  6
CONTINUOUS
 62
     7
100
AcDbLine
 10
936.3663999279701
 20
75.19838521538357
 30
0.0
 11
937.1324443710853
 21
74.5555976056862
 31
0.0
  0
ARC
  5
B3
330
1F
100
AcDbEntity
  8
0
  6
CONTINUOUS
 62
     7
100
AcDbCircle
 10
894.9999999999253
 20
109.90891613889
 30
0.0
 40
55.00000000000001
100
AcDbArc
 50
242.999999999389
 51
296.9999999993885
  0
LINE
  5
B4
330
1F
100
AcDbEntity
  8
0
  6
CONTINUOUS
 62
     7
100
AcDbLine
 10
870.0305225137314
 20
60.90355730880327
 30
0.0
 11
870.4845130134574
 21
61.79456383294171
 31
0.0
  0
LINE
  5
B5
330
1F
100
AcDbEntity
  8
0
  6
CONTINUOUS
 62
     7
100
AcDbLine
 10
919.5154869853513
 20
61.79456383244897
 30
0.0
 11
919.9694774850738
 21
60.90355730827073
 31
0.0
  0
ARC
  5
B6
330
1F
100
AcDbEntity
  8
0
  6
CONTINUOUS
 62
     7
100
AcDbCircle
 10
894.9999999999253
 20
109.90891613889
 30
0.0
 40
54.99999999999999
100
AcDbArc
 50
219.9999999993889
 51
229.9999999993891
  0
LINE
  5
B7
330
1F
100
AcDbEntity
  8
0
  6
CONTINUOUS
 62
     7
100
AcDbLine
 10
860.2894690763824
 20
68.54251621080098
 30
0.0
 11
859.6466814667217
 21
67.77647176772956
 31
0.0
  0
LINE
  5
B8
330
1F
100
AcDbEntity
  8
0
  6
CONTINUOUS
 62
     7
100
AcDbLine
 10
852.8675556280108
 20
74.55559760658491
 30
0.0
 11
853.6336000710961
 21
75.19838521622924
 31
0.0
  0
CIRCLE
  5
B9
330
1F
100
AcDbEntity
  8
0
  6
CONTINUOUS
 62
     7
100
AcDbCircle
 10
895.0000000042801
 20
109.9089161432486
 30
0.0
 40
37.49999999999946
  0
ARC
  5
BA
330
1F
100
AcDbEntity
  8
0
  6
CONTINUOUS
 62
     7
100
AcDbCircle
 10
895.0000000000374
 20
109.9089161390022
 30
0.0
 40
54.99999999999999
100
AcDbArc
 50
49.99999999938907
 51
62.999999999389
  0
ARC
  5
BB
330
1F
100
AcDbEntity
  8
0
  6
CONTINUOUS
 62
     7
100
AcDbCircle
 10
895.0000000000374
 20
109.9089161390022
 30
0.0
 40
55.00000000000001
100
AcDbArc
 50
26.99999999938901
 51
39.99999999938903
  0
ARC
  5
BC
330
1F
100
AcDbEntity
  8
0
  6
CONTINUOUS
 62
     7
100
AcDbCircle
 10
895.0000000000374
 20
109.9089161390022
 30
0.0
 40
55.00000000000001
100
AcDbArc
 50
116.9999999993887
 51
129.9999999993886
  0
ARC
  5
BD
330
1F
100
AcDbEntity
  8
0
  6
CONTINUOUS
 62
     7
100
AcDbCircle
 10
895.0000000000374
 20
109.9089161390022
 30
0.0
 40
55.0
100
AcDbArc
 50
319.9999999993886
 51
332.9999999993886
  0
ARC
  5
BE
330
1F
100
AcDbEntity
  8
0
  6
CONTINUOUS
 62
     7
100
AcDbCircle
 10
895.0000000000374
 20
109.9089161390022
 30
0.0
 40
55.0
100
AcDbArc
 50
139.9999999993887
 51
152.9999999993887
  0
ARC
  5
BF
330
1F
100
AcDbEntity
  8
0
  6
CONTINUOUS
 62
     7
100
AcDbCircle
 10
895.0000000000374
 20
109.9089161390022
 30
0.0
 40
55.0
100
AcDbArc
 50
296.9999999993885
 51
309.9999999993886
  0
ARC
  5
C0
330
1F
100
AcDbEntity
  8
0
  6
CONTINUOUS
 62
     7
100
AcDbCircle
 10
895.0000000000374
 20
109.9089161390022
 30
0.0
 40
55.00000000000001
100
AcDbArc
 50
206.999999999389
 51
219.999999999389
  0
ARC
  5
C1
330
1F
100
AcDbEntity
  8
0
  6
CONTINUOUS
 62
     7
100
AcDbCircle
 10
895.0000000000374
 20
109.9089161390022
 30
0.0
 40
54.99999999999999
100
AcDbArc
 50
229.9999999993891
 51
242.999999999389
  0
LINE
  5
C2
330
1F
100
AcDbEntity
  8
0
  6
CONTINUOUS
 62
     7
100
AcDbLine
 10
869.8669205422941
 20
164.5138542764562
 30
0.0
 11
892.5000000091021
 21
164.9089161480749
 31
0.0
  0
LINE
  5
C3
330
1F
100
AcDbEntity
  8
0
  6
CONTINUOUS
 62
     7
100
AcDbLine
 10
840.0000000091022
 20
112.4089161480745
 30
0.0
 11
840.3950618807208
 21
135.041995614883
 31
0.0
  0
ARC
  5
C4
330
1F
100
AcDbEntity
  8
0
  6
CONTINUOUS
 62
     7
100
AcDbCircle
 10
870.3904927354125
 20
134.5184234217645
 30
0.0
 40
29.99999999999996
100
AcDbArc
 50
91.0
 51
179.0
  0
LINE
  5
C5
330
1F
100
AcDbEntity
  8
0
  6
CONTINUOUS
 62
     7
100
AcDbLine
 10
840.3950618807207
 20
84.77583668126677
 30
0.0
 11
840.0000000091021
 21
107.4089161480749
 31
0.0
  0
LINE
  5
C6
330
1F
100
AcDbEntity
  8
0
  6
CONTINUOUS
 62
     7
100
AcDbLine
 10
840.0000000091022
 20
107.4089161480696
 30
0.0
 11
840.0568249977481
 21
107.4094120522327
 31
0.0
  0
LINE
  5
C7
330
1F
100
AcDbEntity
  8
0
  6
CONTINUOUS
 62
     7
100
AcDbLine
 10
840.0000000091021
 20
107.4089161480749
 30
0.0
 11
840.0000000091022
 21
108.6589161394923
 31
0.0
  0
LINE
  5
C8
330
1F
100
AcDbEntity
  8
0
  6
CONTINUOUS
 62
     7
100
AcDbLine
 10
840.0000000091022
 20
108.6589161394923
 30
0.0
 11
840.0000000091022
 21
109.9089161379683
 31
0.0
  0
LINE
  5
C9
330
1F
100
AcDbEntity
  8
0
  6
CONTINUOUS
 62
     7
100
AcDbLine
 10
840.0000000091022
 20
109.9089161379683
 30
0.0
 11
840.0000000091022
 21
111.1589161394864
 31
0.0
  0
LINE
  5
CA
330
1F
100
AcDbEntity
  8
0
  6
CONTINUOUS
 62
     7
100
AcDbLine
 10
840.0000000091022
 20
111.1589161394864
 30
0.0
 11
840.0000000091022
 21
112.4089161480745
 31
0.0
  0
ARC
  5
CB
330
1F
100
AcDbEntity
  8
0
  6
CONTINUOUS
 62
     7
100
AcDbCircle
 10
870.3904927354125
 20
85.29940887438528
 30
0.0
 40
29.99999999999999
100
AcDbArc
 50
181.0
 51
269.0
  0
LINE
  5
CC
330
1F
100
AcDbEntity
  8
0
  6
CONTINUOUS
 62
     7
100
AcDbLine
 10
892.5000000091022
 20
164.9089161480749
 30
0.0
 11
894.9999999999253
 21
164.9089161480749
 31
0.0
  0
LINE
  5
CD
330
1F
100
AcDbEntity
  8
0
  6
CONTINUOUS
 62
     7
100
AcDbLine
 10
892.5000000091026
 20
54.90891614807491
 30
0.0
 11
869.866920542294
 21
55.30397801969356
 31
0.0
  0
LINE
  5
CE
330
1F
100
AcDbEntity
  8
0
  6
CONTINUOUS
 62
     7
100
AcDbLine
 10
892.5000000091034
 20
54.9089161480749
 30
0.0
 11
892.5004959132664
 21
54.96574113671248
 31
0.0
  0
LINE
  5
CF
330
1F
100
AcDbEntity
  8
0
  6
CONTINUOUS
 62
     7
100
AcDbLine
 10
897.5000000091021
 20
54.90891614807487
 30
0.0
 11
894.9999999999253
 21
54.90891614807491
 31
0.0
  0
LINE
  5
D0
330
1F
100
AcDbEntity
  8
0
  6
CONTINUOUS
 62
     7
100
AcDbLine
 10
894.9999999999253
 20
54.90891614807491
 30
0.0
 11
892.5000000091026
 21
54.90891614807491
 31
0.0
  0
LINE
  5
D1
330
1F
100
AcDbEntity
  8
0
  6
CONTINUOUS
 62
     7
100
AcDbLine
 10
897.5000000091075
 20
54.90891614807493
 30
0.0
 11
897.4995041049372
 21
54.9657411375474
 31
0.0
  0
LINE
  5
D2
330
1F
100
AcDbEntity
  8
0
  6
CONTINUOUS
 62
     7
100
AcDbLine
 10
897.5000000091018
 20
164.9089161480748
 30
0.0
 11
920.1330794759103
 21
164.5138542764562
 31
0.0
  0
LINE
  5
D3
330
1F
100
AcDbEntity
  8
0
  6
CONTINUOUS
 62
     7
100
AcDbLine
 10
920.1330794759102
 20
55.30397801969352
 30
0.0
 11
897.5000000091021
 21
54.90891614807487
 31
0.0
  0
ARC
  5
D4
330
1F
100
AcDbEntity
  8
0
  6
CONTINUOUS
 62
     7
100
AcDbCircle
 10
919.6095072827918
 20
134.5184234217645
 30
0.0
 40
29.99999999999999
100
AcDbArc
 50
1.0
 51
89.00000000000001
  0
ARC
  5
D5
330
1F
100
AcDbEntity
  8
0
  6
CONTINUOUS
 62
     7
100
AcDbCircle
 10
919.6095072827918
 20
85.29940887438525
 30
0.0
 40
29.99999999999996
100
AcDbArc
 50
271.0
 51
358.9999999999999
  0
LINE
  5
D6
330
1F
100
AcDbEntity
  8
0
  6
CONTINUOUS
 62
     7
100
AcDbLine
 10
949.6049381374836
 20
135.041995614883
 30
0.0
 11
950.0000000091022
 21
112.4089161480749
 31
0.0
  0
LINE
  5
D7
330
1F
100
AcDbEntity
  8
0
  6
CONTINUOUS
 62
     7
100
AcDbLine
 10
949.9431750012743
 20
112.4084202437497
 30
0.0
 11
950.0000000091021
 21
112.4089161480802
 31
0.0
  0
LINE
  5
D8
330
1F
100
AcDbEntity
  8
0
  6
CONTINUOUS
 62
     7
100
AcDbLine
 10
950.0000000091021
 20
107.4089161480753
 30
0.0
 11
949.6049381374835
 21
84.77583668126672
 31
0.0
  0
LINE
  5
D9
330
1F
100
AcDbEntity
  8
0
  6
CONTINUOUS
 62
     7
100
AcDbLine
 10
950.0000000091021
 20
107.4089161480761
 30
0.0
 11
949.94317500211
 21
107.4094120523993
 31
0.0
  0
LINE
  5
DA
330
1F
100
AcDbEntity
  8
0
  6
CONTINUOUS
 62
     7
100
AcDbLine
 10
950.0000000091022
 20
112.4089161480749
 30
0.0
 11
950.0000000091021
 21
109.9089161388899
 31
0.0
  0
LINE
  5
DB
330
1F
100
AcDbEntity
  8
0
  6
CONTINUOUS
 62
     7
100
AcDbLine
 10
950.0000000091021
 20
109.9089161388899
 30
0.0
 11
950.0000000091021
 21
107.4089161480753
 31
0.0
  0
LINE
  5
DC
330
1F
100
AcDbEntity
  8
0
  6
CONTINUOUS
 62
     7
100
AcDbLine
 10
758.1000000006394
 20
107.6868869928703
 30
0.0
 11
758.1000000008056
 21
112.1309452863925
 31
0.0
  0
LINE
  5
DD
330
1F
100
AcDbEntity
  8
0
  6
CONTINUOUS
 62
     7
100
AcDbLine
 10
787.7342928133429
 20
164.9089161379731
 30
0.0
 11
787.7342928092274
 21
54.90891613796356
 31
0.0
  0
LINE
  5
DE
330
1F
100
AcDbEntity
  8
0
  6
CONTINUOUS
 62
     7
100
AcDbLine
 10
783.6000000027781
 20
164.8576371044551
 30
0.0
 11
783.6000000022387
 21
150.442526696091
 31
0.0
  0
LINE
  5
DF
330
1F
100
AcDbEntity
  8
0
  6
CONTINUOUS
 62
     7
100
AcDbLine
 10
783.5999999992058
 20
69.37530558094781
 30
0.0
 11
783.5999999986665
 21
54.96019517183927
 31
0.0
  0
LINE
  5
E0
330
1F
100
AcDbEntity
  8
0
  6
CONTINUOUS
 62
     7
100
AcDbLine
 10
783.6000000006336
 20
107.5344553225489
 30
0.0
 11
783.5999999993314
 21
72.7333002705175
 31
0.0
  0
LINE
  5
E1
330
1F
100
AcDbEntity
  8
0
  6
CONTINUOUS
 62
     7
100
AcDbLine
 10
783.6000000021132
 20
147.0845320065898
 30
0.0
 11
783.6000000008112
 21
112.2833769548669
 31
0.0
  0
LINE
  5
E2
330
1F
100
AcDbEntity
  8
0
  6
CONTINUOUS
 62
     7
100
AcDbLine
 10
761.0999999985804
 20
107.0560413308055
 30
0.0
 11
761.0999999985806
 21
107.0629628211904
 31
0.0
  0
LINE
  5
E3
330
1F
100
AcDbEntity
  8
0
  6
CONTINUOUS
 62
     7
100
AcDbLine
 10
761.0999999987939
 20
112.7617909482856
 30
0.0
 11
761.0999999987937
 21
112.7548694575989
 31
0.0
  0
LINE
  5
E4
330
1F
100
AcDbEntity
  8
0
  6
CONTINUOUS
 62
     7
100
AcDbLine
 10
772.0128442553636
 20
76.82609230691068
 30
0.0
 11
783.5999999980576
 21
76.14776465384226
 31
0.0
  0
LINE
  5
E5
330
1F
100
AcDbEntity
  8
0
  6
CONTINUOUS
 62
     7
100
AcDbLine
 10
772.0128442578391
 20
142.9917399709861
 30
0.0
 11
783.6000000005838
 21
143.6700676232036
 31
0.0
  0
LWPOLYLINE
  5
E6
330
1F
100
AcDbEntity
  8
0
  6
CONTINUOUS
 62
     7
100
AcDbPolyline
 90
        9
 70
     0
 43
0.0
 10
771.099999998164
 20
77.49267666932242
 10
771.117145006489
 20
77.36930222122011
 10
771.167992128862
 20
77.2501582849985
 10
771.2507978166094
 20
77.13933030821673
 10
771.3627226613181
 20
77.04061858404606
 10
771.4999287581971
 20
76.95740793915377
 10
771.6577113078976
 20
76.89255166794028
 10
771.8306599441598
 20
76.84827369302661
 10
772.0128442553636
 20
76.82609230691067
  0
LINE
  5
E7
330
1F
100
AcDbEntity
  8
0
  6
CONTINUOUS
 62
     7
100
AcDbLine
 10
771.0999999995096
 20
77.49267666931479
 30
0.0
 11
771.1000000006156
 21
107.0560413304332
 31
0.0
  0
LINE
  5
E8
330
1F
100
AcDbEntity
  8
0
  6
CONTINUOUS
 62
     7
100
AcDbLine
 10
771.1000000008293
 20
112.7617909479118
 30
0.0
 11
771.1000000019352
 21
142.3251556086373
 31
0.0
  0
LWPOLYLINE
  5
E9
330
1F
100
AcDbEntity
  8
0
  6
CONTINUOUS
 62
     7
100
AcDbPolyline
 90
        9
 70
     0
 43
0.0
 10
772.012844257839
 20
142.9917399709861
 10
771.8306599466396
 20
142.9695585848845
 10
771.6577113103792
 20
142.9252806099853
 10
771.4999287606779
 20
142.8604243387859
 10
771.3627226637946
 20
142.7772136939068
 10
771.250797819078
 20
142.6785019697476
 10
771.1679921313194
 20
142.567673992975
 10
771.1171450089317
 20
142.4485300567598
 10
771.1000000005895
 20
142.3251556086606
  0
LINE
  5
EA
330
1F
100
AcDbEntity
  8
0
  6
CONTINUOUS
 62
     7
100
AcDbLine
 10
758.0999999988348
 20
106.5424469342813
 30
0.0
 11
758.0999999988493
 21
107.6392291286232
 31
0.0
  0
LINE
  5
EB
330
1F
100
AcDbEntity
  8
0
  6
CONTINUOUS
 62
     7
100
AcDbLine
 10
758.0999999988493
 20
107.6392291286232
 30
0.0
 11
758.0999999988481
 21
107.7074499137273
 31
0.0
  0
LINE
  5
EC
330
1F
100
AcDbEntity
  8
0
  6
CONTINUOUS
 62
     7
100
AcDbLine
 10
758.0999999988481
 20
107.7074499137273
 30
0.0
 11
758.0999999988445
 21
107.8831566072658
 31
0.0
  0
LINE
  5
ED
330
1F
100
AcDbEntity
  8
0
  6
CONTINUOUS
 62
     7
100
AcDbLine
 10
758.0999999989963
 20
111.9346756719167
 30
0.0
 11
758.0999999990128
 21
112.1103823654495
 31
0.0
  0
LINE
  5
EE
330
1F
100
AcDbEntity
  8
0
  6
CONTINUOUS
 62
     7
100
AcDbLine
 10
758.0999999990129
 20
112.1103823654495
 30
0.0
 11
758.0999999990166
 21
112.1519108661119
 31
0.0
  0
LINE
  5
EF
330
1F
100
AcDbEntity
  8
0
  6
CONTINUOUS
 62
     7
100
AcDbLine
 10
758.0999999990166
 20
112.1519108661119
 30
0.0
 11
758.0999999990867
 21
113.2753853448782
 31
0.0
  0
LINE
  5
F0
330
1F
100
AcDbEntity
  8
0
  6
CONTINUOUS
 62
     7
100
AcDbLine
 10
758.1000000018803
 20
140.8543491586863
 30
0.0
 11
758.1000000008485
 21
113.275385344877
 31
0.0
  0
LINE
  5
F1
330
1F
100
AcDbEntity
  8
0
  6
CONTINUOUS
 62
     7
100
AcDbLine
 10
758.1000000005967
 20
106.5424469342805
 30
0.0
 11
758.0999999995648
 21
78.9634831202268
 31
0.0
  0
LINE
  5
F2
330
1F
100
AcDbEntity
  8
0
  6
CONTINUOUS
 62
     7
100
AcDbLine
 10
758.0999999979751
 20
71.60173696493607
 30
0.0
 11
758.1183571698543
 21
71.35582699862475
 31
0.0
  0
LINE
  5
F3
330
1F
100
AcDbEntity
  8
0
  6
CONTINUOUS
 62
     7
100
AcDbLine
 10
758.0999999992894
 20
71.60173696492674
 30
0.0
 11
758.0999999994069
 21
74.74416072029788
 31
0.0
  0
LINE
  5
F4
330
1F
100
AcDbEntity
  8
0
  6
CONTINUOUS
 62
     7
100
AcDbLine
 10
758.1000000020381
 20
145.0736715586735
 30
0.0
 11
758.1000000021558
 21
148.2160953139778
 31
0.0
  0
LINE
  5
F5
330
1F
100
AcDbEntity
  8
0
  6
CONTINUOUS
 62
     7
100
AcDbLine
 10
758.0999999979749
 20
74.74416072030604
 30
0.0
 11
758.099999998173
 21
77.25352551542785
 31
0.0
  0
LINE
  5
F6
330
1F
100
AcDbEntity
  8
0
  6
CONTINUOUS
 62
     7
100
AcDbLine
 10
758.1000000006164
 20
142.564306763484
 30
0.0
 11
758.1000000006062
 21
145.0736715586652
 31
0.0
  0
LINE
  5
F7
330
1F
100
AcDbEntity
  8
0
  6
CONTINUOUS
 62
     7
100
AcDbLine
 10
758.1183627825185
 20
148.4620427362528
 30
0.0
 11
758.1000000008415
 21
148.2160953139682
 31
0.0
  0
LINE
  5
F8
330
1F
100
AcDbEntity
  8
0
  6
CONTINUOUS
 62
     7
100
AcDbLine
 10
758.0999999981759
 20
77.31809013169368
 30
0.0
 11
758.0999999981805
 21
77.41803743534126
 31
0.0
  0
LINE
  5
F9
330
1F
100
AcDbEntity
  8
0
  6
CONTINUOUS
 62
     7
100
AcDbLine
 10
758.0999999981805
 20
77.41803743534126
 30
0.0
 11
758.0999999982299
 21
78.96348312023528
 31
0.0
  0
LINE
  5
FA
330
1F
100
AcDbEntity
  8
0
  6
CONTINUOUS
 62
     7
100
AcDbLine
 10
758.099999998173
 20
77.25352551542785
 30
0.0
 11
758.0999999981759
 21
77.31809013169368
 31
0.0
  0
LINE
  5
FB
330
1F
100
AcDbEntity
  8
0
  6
CONTINUOUS
 62
     7
100
AcDbLine
 10
758.1000000006146
 20
142.4997421472177
 30
0.0
 11
758.1000000006164
 21
142.564306763484
 31
0.0
  0
LINE
  5
FC
330
1F
100
AcDbEntity
  8
0
  6
CONTINUOUS
 62
     7
100
AcDbLine
 10
758.1000000005455
 20
140.8543491586805
 30
0.0
 11
758.1000000006117
 21
142.3997948435701
 31
0.0
  0
LINE
  5
FD
330
1F
100
AcDbEntity
  8
0
  6
CONTINUOUS
 62
     7
100
AcDbLine
 10
758.1000000006117
 20
142.3997948435701
 30
0.0
 11
758.1000000006146
 21
142.4997421472177
 31
0.0
  0
LINE
  5
FE
330
1F
100
AcDbEntity
  8
0
  6
CONTINUOUS
 62
     7
100
AcDbLine
 10
772.0128442560308
 20
60.53516958179127
 30
0.0
 11
783.5999999987386
 21
59.52281411333375
 31
0.0
  0
LINE
  5
FF
330
1F
100
AcDbEntity
  8
0
  6
CONTINUOUS
 62
     7
100
AcDbLine
 10
772.0128442597253
 20
159.2826626953769
 30
0.0
 11
783.6000000025088
 21
160.2950181629686
 31
0.0
  0
LWPOLYLINE
  5
100
330
1F
100
AcDbEntity
  8
0
  6
CONTINUOUS
 62
     7
100
AcDbPolyline
 90
        9
 70
     0
 43
0.0
 10
771.0999999988177
 20
61.52999902970502
 10
771.1171450071452
 20
61.34587149684469
 10
771.1679921295207
 20
61.16805770015414
 10
771.2507978172703
 20
61.00265487768596
 10
771.362722661981
 20
60.85533469497972
 10
771.4999287588616
 20
60.7311487635562
 10
771.6577113085633
 20
60.63435542107398
 10
771.8306599448265
 20
60.56827371286028
 10
772.0128442560307
 20
60.53516958179127
  0
LINE
  5
101
330
1F
100
AcDbEntity
  8
0
  6
CONTINUOUS
 62
     7
100
AcDbLine
 10
771.0999999989125
 20
61.52999902969386
 30
0.0
 11
771.099999999201
 21
69.2437929501184
 31
0.0
  0
LINE
  5
102
330
1F
100
AcDbEntity
  8
0
  6
CONTINUOUS
 62
     7
100
AcDbLine
 10
771.1000000022439
 20
150.5740393278489
 30
0.0
 11
771.1000000025325
 21
158.2878332475427
 31
0.0
  0
LWPOLYLINE
  5
103
330
1F
100
AcDbEntity
  8
0
  6
CONTINUOUS
 62
     7
100
AcDbPolyline
 90
        9
 70
     0
 43
0.0
 10
772.0128442597252
 20
159.282662695377
 10
771.8306599485185
 20
159.2495585643215
 10
771.6577113122504
 20
159.1834768561207
 10
771.4999287625415
 20
159.0866835136502
 10
771.3627226656515
 20
158.9624975822368
 10
771.2507978209297
 20
158.8151773995387
 10
771.1679921331677
 20
158.6497745770766
 10
771.1171450107789
 20
158.4719607803896
 10
771.1000000024377
 20
158.2878332475304
  0
LINE
  5
104
330
1F
100
AcDbEntity
  8
0
  6
CONTINUOUS
 62
     7
100
AcDbLine
 10
758.1000000008835
 20
145.4281473132351
 30
0.0
 11
758.1000000009016
 21
145.6152555660743
 31
0.0
  0
LINE
  5
105
330
1F
100
AcDbEntity
  8
0
  6
CONTINUOUS
 62
     7
100
AcDbLine
 10
758.1000000024858
 20
157.0388364137131
 30
0.0
 11
758.100000002167
 21
148.5198937416405
 31
0.0
  0
LINE
  5
106
330
1F
100
AcDbEntity
  8
0
  6
CONTINUOUS
 62
     7
100
AcDbLine
 10
758.1000000021671
 20
148.5198937416406
 30
0.0
 11
758.1000000021562
 21
148.228967977436
 31
0.0
  0
LINE
  5
107
330
1F
100
AcDbEntity
  8
0
  6
CONTINUOUS
 62
     7
100
AcDbLine
 10
758.1000000021562
 20
148.228967977436
 30
0.0
 11
758.1000000020584
 21
145.6152555660808
 31
0.0
  0
LINE
  5
108
330
1F
100
AcDbEntity
  8
0
  6
CONTINUOUS
 62
     7
100
AcDbLine
 10
758.0999999993866
 20
74.20257671273316
 30
0.0
 11
758.0999999992886
 21
71.58216149075591
 31
0.0
  0
LINE
  5
109
330
1F
100
AcDbEntity
  8
0
  6
CONTINUOUS
 62
     7
100
AcDbLine
 10
758.0999999992886
 20
71.58216149075622
 30
0.0
 11
758.0999999992781
 21
71.30160166066163
 31
0.0
  0
LINE
  5
10A
330
1F
100
AcDbEntity
  8
0
  6
CONTINUOUS
 62
     7
100
AcDbLine
 10
758.0999999992781
 20
71.30160166066166
 30
0.0
 11
758.0999999989592
 21
62.77899586451156
 31
0.0
  0
LINE
  5
10B
330
1F
100
AcDbEntity
  8
0
  6
CONTINUOUS
 62
     7
100
AcDbLine
 10
758.0999999988433
 20
61.70146030168152
 30
0.0
 11
758.0999999988434
 21
62.70142546183974
 31
0.0
  0
LINE
  5
10C
330
1F
100
AcDbEntity
  8
0
  6
CONTINUOUS
 62
     7
100
AcDbLine
 10
758.0999999988433
 20
62.70139100457564
 30
0.0
 11
758.0999999988334
 21
62.77899586452172
 31
0.0
  0
LINE
  5
10D
330
1F
100
AcDbEntity
  8
0
  6
CONTINUOUS
 62
     7
100
AcDbLine
 10
758.1000000023599
 20
157.0388364137042
 30
0.0
 11
758.1000000023688
 21
157.0716893080998
 31
0.0
  0
LINE
  5
10E
330
1F
100
AcDbEntity
  8
0
  6
CONTINUOUS
 62
     7
100
AcDbLine
 10
758.1000000023688
 20
157.0716893080998
 30
0.0
 11
758.1000000023756
 21
157.1164068163788
 31
0.0
  0
LINE
  5
10F
330
1F
100
AcDbEntity
  8
0
  6
CONTINUOUS
 62
     7
100
AcDbLine
 10
758.1000000023756
 20
157.1164068163788
 30
0.0
 11
758.1000000023786
 21
157.138805461459
 31
0.0
  0
LINE
  5
110
330
1F
100
AcDbEntity
  8
0
  6
CONTINUOUS
 62
     7
100
AcDbLine
 10
758.1000000023786
 20
157.138805461459
 30
0.0
 11
758.1000000024504
 21
158.1163719765158
 31
0.0
  0
LINE
  5
111
330
1F
100
AcDbEntity
  8
0
  6
CONTINUOUS
 62
     7
100
AcDbLine
 10
758.0999999986958
 20
57.95641296100385
 30
0.0
 11
758.0999999988433
 21
61.70146030168152
 31
0.0
  0
LINE
  5
112
330
1F
100
AcDbEntity
  8
0
  6
CONTINUOUS
 62
     7
100
AcDbLine
 10
758.1000000024503
 20
158.1163719765158
 30
0.0
 11
758.1000000025831
 21
161.8614193171976
 31
0.0
  0
LINE
  5
113
330
1F
100
AcDbEntity
  8
0
  6
CONTINUOUS
 62
     7
100
AcDbLine
 10
758.0999999987771
 20
57.90891613907252
 30
0.0
 11
758.0999999987788
 21
57.95641296099184
 31
0.0
  0
LINE
  5
114
330
1F
100
AcDbEntity
  8
0
  6
CONTINUOUS
 62
     7
100
AcDbLine
 10
758.1000000026662
 20
161.8614193172096
 30
0.0
 11
758.1000000026679
 21
161.9089161390816
 31
0.0
  0
LWPOLYLINE
  5
115
330
1F
100
AcDbEntity
  8
0
  6
CONTINUOUS
 62
     7
100
AcDbPolyline
 90
        9
 70
     0
 43
0.0
 10
813.0999999979394
 20
84.93943865374123
 10
813.2950903199617
 20
84.9481619538863
 10
813.4826834303179
 20
84.97399662280361
 10
813.6555702309805
 20
85.01594984865486
 10
813.8071067791554
 20
85.07240939249814
 10
813.9314696102788
 20
85.14120554572632
 10
814.0238795304938
 20
85.21969451075202
 10
814.0807852783903
 20
85.30486000066627
 10
814.0999999979897
 20
85.39342915345284
  0
LINE
  5
116
330
1F
100
AcDbEntity
  8
0
  6
CONTINUOUS
 62
     7
100
AcDbLine
 10
814.0998953655782
 20
108.6589161394287
 30
0.0
 11
813.0999999986033
 21
108.6589161394767
 31
0.0
  0
LINE
  5
117
330
1F
100
AcDbEntity
  8
0
  6
CONTINUOUS
 62
     7
100
AcDbLine
 10
814.0999999986868
 20
109.9089161394285
 30
0.0
 11
814.0998953655782
 21
108.6589161394287
 31
0.0
  0
LINE
  5
118
330
1F
100
AcDbEntity
  8
0
  6
CONTINUOUS
 62
     7
100
AcDbLine
 10
814.1000000007054
 20
109.9089161394285
 30
0.0
 11
814.1000000006586
 21
108.6584565818338
 31
0.0
  0
LINE
  5
119
330
1F
100
AcDbEntity
  8
0
  6
CONTINUOUS
 62
     7
100
AcDbLine
 10
814.1000000006586
 20
108.6584565818338
 30
0.0
 11
814.0999999997882
 21
85.39342915343063
 31
0.0
  0
LWPOLYLINE
  5
11A
330
1F
100
AcDbEntity
  8
0
  6
CONTINUOUS
 62
     7
100
AcDbPolyline
 90
        9
 70
     0
 43
0.0
 10
814.099999999824
 20
134.4244031252977
 10
814.0807852802241
 20
134.5129722780867
 10
814.023879532329
 20
134.5981377680057
 10
813.9314696121174
 20
134.6766267330383
 10
813.807106780999
 20
134.7454228862755
 10
813.65557023283
 20
134.8018824301297
 10
813.482683432174
 20
134.8438356559935
 10
813.2950903218242
 20
134.8696703249246
 10
813.0999999998077
 20
134.8783936250841
  0
LINE
  5
11B
330
1F
100
AcDbEntity
  8
0
  6
CONTINUOUS
 62
     7
100
AcDbLine
 10
814.1000000016227
 20
134.4244031253011
 30
0.0
 11
814.1000000007522
 21
111.1593756970238
 31
0.0
  0
LINE
  5
11C
330
1F
100
AcDbEntity
  8
0
  6
CONTINUOUS
 62
     7
100
AcDbLine
 10
814.1000000007522
 20
111.1593756970236
 30
0.0
 11
814.1000000007054
 21
109.9089161394286
 31
0.0
  0
LINE
  5
11D
330
1F
100
AcDbEntity
  8
0
  6
CONTINUOUS
 62
     7
100
AcDbLine
 10
814.0998953656717
 20
111.1589161394284
 30
0.0
 11
814.0999999986868
 21
109.9089161394286
 31
0.0
  0
LINE
  5
11E
330
1F
100
AcDbEntity
  8
0
  6
CONTINUOUS
 62
     7
100
AcDbLine
 10
813.0999999986967
 20
111.1589161394763
 30
0.0
 11
814.0998953656716
 21
111.1589161394284
 31
0.0
  0
LINE
  5
11F
330
1F
100
AcDbEntity
  8
0
  6
CONTINUOUS
 62
     7
100
AcDbLine
 10
808.1000000027632
 20
164.9089161390762
 30
0.0
 11
808.1000000007522
 21
111.1589161396635
 31
0.0
  0
LINE
  5
120
330
1F
100
AcDbEntity
  8
0
  6
CONTINUOUS
 62
     7
100
AcDbLine
 10
808.1000000006587
 20
108.6589161396635
 30
0.0
 11
808.0999999986477
 21
54.90891613907814
 31
0.0
  0
LINE
  5
121
330
1F
100
AcDbEntity
  8
0
  6
CONTINUOUS
 62
     7
100
AcDbLine
 10
810.0999999979394
 20
84.93943865385346
 30
0.0
 11
813.0999999979394
 21
84.93943865374122
 31
0.0
  0
LINE
  5
122
330
1F
100
AcDbEntity
  8
0
  6
CONTINUOUS
 62
     7
100
AcDbLine
 10
810.0999999997713
 20
84.93943865385002
 30
0.0
 11
810.0999999993827
 21
74.55559760669232
 31
0.0
  0
LINE
  5
123
330
1F
100
AcDbEntity
  8
0
  6
CONTINUOUS
 62
     7
100
AcDbLine
 10
810.0999999978078
 20
74.55559760669705
 30
0.0
 11
813.0999999978078
 21
74.55559760658481
 31
0.0
  0
LINE
  5
124
330
1F
100
AcDbEntity
  8
0
  6
CONTINUOUS
 62
     7
100
AcDbLine
 10
810.0999999978076
 20
67.77647176784157
 30
0.0
 11
813.0999999978076
 21
67.77647176772935
 31
0.0
  0
LINE
  5
125
330
1F
100
AcDbEntity
  8
0
  6
CONTINUOUS
 62
     7
100
AcDbLine
 10
810.0999999991292
 20
67.77647176783601
 30
0.0
 11
810.099999998872
 21
60.90355730890904
 31
0.0
  0
LINE
  5
126
330
1F
100
AcDbEntity
  8
0
  6
CONTINUOUS
 62
     7
100
AcDbLine
 10
810.0999999979385
 20
60.90355730891537
 30
0.0
 11
813.0999999979385
 21
60.90355730880314
 31
0.0
  0
LINE
  5
127
330
1F
100
AcDbEntity
  8
0
  6
CONTINUOUS
 62
     7
100
AcDbLine
 10
810.1000000016055
 20
158.9142749696217
 30
0.0
 11
813.1000000016055
 21
158.9142749695095
 31
0.0
  0
LINE
  5
128
330
1F
100
AcDbEntity
  8
0
  6
CONTINUOUS
 62
     7
100
AcDbLine
 10
810.1000000025389
 20
158.9142749696282
 30
0.0
 11
810.1000000022817
 21
152.0413605109228
 31
0.0
  0
LINE
  5
129
330
1F
100
AcDbEntity
  8
0
  6
CONTINUOUS
 62
     7
100
AcDbLine
 10
810.1000000009602
 20
152.041360510917
 30
0.0
 11
813.1000000009602
 21
152.0413605108048
 31
0.0
  0
LINE
  5
12A
330
1F
100
AcDbEntity
  8
0
  6
CONTINUOUS
 62
     7
100
AcDbLine
 10
810.1000000004532
 20
145.2622346722062
 30
0.0
 11
813.1000000004531
 21
145.2622346720939
 31
0.0
  0
LINE
  5
12B
330
1F
100
AcDbEntity
  8
0
  6
CONTINUOUS
 62
     7
100
AcDbLine
 10
810.1000000020282
 20
145.2622346722108
 30
0.0
 11
810.1000000016397
 21
134.8783936251998
 31
0.0
  0
LINE
  5
12C
330
1F
100
AcDbEntity
  8
0
  6
CONTINUOUS
 62
     7
100
AcDbLine
 10
810.0999999998078
 20
134.8783936251964
 30
0.0
 11
813.0999999998078
 21
134.8783936250842
 31
0.0
  0
LINE
  5
12D
330
1F
100
AcDbEntity
  8
0
  6
CONTINUOUS
 62
     7
100
AcDbLine
 10
813.0999999986967
 20
111.1589161394763
 30
0.0
 11
808.0999999986968
 21
111.1589161396634
 31
0.0
  0
LINE
  5
12E
330
1F
100
AcDbEntity
  8
0
  6
CONTINUOUS
 62
     7
100
AcDbLine
 10
808.0999999986034
 20
108.6589161396637
 30
0.0
 11
813.0999999986033
 21
108.6589161394767
 31
0.0
  0
LINE
  5
12F
330
1F
100
AcDbEntity
  8
0
  6
CONTINUOUS
 62
     7
100
AcDbLine
 10
808.0999999987337
 20
111.1589161396529
 30
0.0
 11
808.0999999986402
 21
108.6589161396532
 31
0.0
  0
LINE
  5
130
330
1F
100
AcDbEntity
  8
0
  6
CONTINUOUS
 62
     7
100
AcDbLine
 10
814.3999999985841
 20
103.8289161393826
 30
0.0
 11
814.3999999987909
 21
109.3561888666545
 31
0.0
  0
LINE
  5
131
330
1F
100
AcDbEntity
  8
0
  6
CONTINUOUS
 62
     7
100
AcDbLine
 10
814.0999999987908
 20
109.3561888666658
 30
0.0
 11
814.3999999987909
 21
109.3561888666545
 31
0.0
  0
LINE
  5
132
330
1F
100
AcDbEntity
  8
0
  6
CONTINUOUS
 62
     7
100
AcDbLine
 10
814.099999998584
 20
103.8289161393938
 30
0.0
 11
814.399999998584
 21
103.8289161393826
 31
0.0
  0
LINE
  5
133
330
1F
100
AcDbEntity
  8
0
  6
CONTINUOUS
 62
     7
100
AcDbLine
 10
814.0999999990104
 20
111.3343706848058
 30
0.0
 11
814.3999999990103
 21
111.3343706847946
 31
0.0
  0
LINE
  5
134
330
1F
100
AcDbEntity
  8
0
  6
CONTINUOUS
 62
     7
100
AcDbLine
 10
814.099999998878
 20
111.6834615939382
 30
0.0
 11
814.399999998878
 21
111.6834615939269
 31
0.0
  0
LINE
  5
135
330
1F
100
AcDbEntity
  8
0
  6
CONTINUOUS
 62
     7
100
AcDbLine
 10
814.3999999990103
 20
111.3343706847946
 30
0.0
 11
814.399999998878
 21
111.6834615939269
 31
0.0
  0
LINE
  5
136
330
1F
100
AcDbEntity
  8
0
  6
CONTINUOUS
 62
     7
100
AcDbLine
 10
814.0999999990652
 20
116.6870979575738
 30
0.0
 11
814.3999999990652
 21
116.6870979575626
 31
0.0
  0
LINE
  5
137
330
1F
100
AcDbEntity
  8
0
  6
CONTINUOUS
 62
     7
100
AcDbLine
 10
814.399999998878
 20
111.6834615939269
 30
0.0
 11
814.3999999990652
 21
116.6870979575626
 31
0.0
  0
LINE
  5
138
330
1F
100
AcDbEntity
  8
0
  6
CONTINUOUS
 62
     7
100
AcDbLine
 10
814.0999999990421
 20
110.9852797757021
 30
0.0
 11
814.399999999042
 21
110.9852797756909
 31
0.0
  0
LINE
  5
139
330
1F
100
AcDbEntity
  8
0
  6
CONTINUOUS
 62
     7
100
AcDbLine
 10
814.3999999992011
 20
116.6874200787302
 30
0.0
 11
814.3999999992477
 21
116.9198248101853
 31
0.0
  0
ARC
  5
13A
330
1F
100
AcDbEntity
  8
0
  6
CONTINUOUS
 62
     7
100
AcDbCircle
 10
647.8054393463868
 20
65.94776427006978
 30
0.0
 40
0.7054997756377143
100
AcDbArc
 50
179.2500857773282
 51
229.7671673606701
  0
LWPOLYLINE
  5
13B
330
1F
100
AcDbEntity
  8
0
  6
CONTINUOUS
 62
     7
100
AcDbPolyline
 90
       33
 70
     0
 43
0.0
 10
652.3499221569613
 20
154.4086232112164
 10
652.3399674918733
 20
154.40769949094
 10
652.3300128267855
 20
154.405036506434
 10
652.3200581616973
 20
154.4006350091186
 10
652.3101034966093
 20
154.394495750414
 10
652.300148831521
 20
154.3866194817406
 10
652.290194166433
 20
154.3770069545186
 10
652.2802395013446
 20
154.3656589201683
 10
652.2702848362562
 20
154.3525761301099
 10
652.2603301711678
 20
154.3377593357638
 10
652.2503755060794
 20
154.3212092885501
 10
652.2404208409907
 20
154.3029267398892
 10
652.2304661759019
 20
154.2829124412014
 10
652.2205115108133
 20
154.2611671439069
 10
652.2105568457246
 20
154.237691599426
 10
652.2006021806355
 20
154.2124865591789
 10
652.1906475155467
 20
154.185552774586
 10
652.1806928504576
 20
154.1568909970674
 10
652.1707381853685
 20
154.1265019780435
 10
652.1607835202793
 20
154.0943864689346
 10
652.1508288551902
 20
154.0605452211609
 10
652.1408741901008
 20
154.0249789861427
 10
652.1309195250116
 20
153.9876885153002
 10
652.1209648599222
 20
153.9486745600537
 10
652.1110101948326
 20
153.9079378718236
 10
652.101055529743
 20
153.86547920203
 10
652.0911008646533
 20
153.8212993020933
 10
652.0811461995637
 20
153.7753989234337
 10
652.0711915344739
 20
153.7277788174714
 10
652.0612368693838
 20
153.6784397356268
 10
652.051282204294
 20
153.6273824293202
 10
652.0413275392038
 20
153.5746076499717
 10
652.0313728741136
 20
153.5201161490081
  0
ARC
  5
13C
330
1F
100
AcDbEntity
  8
0
  6
CONTINUOUS
 62
     7
100
AcDbCircle
 10
659.7171402741535
 20
66.75770247357701
 30
0.0
 40
2.724852602167837
100
AcDbArc
 50
189.7712652171902
 51
209.6611190153826
  0
ARC
  5
13D
330
1F
100
AcDbEntity
  8
0
  6
CONTINUOUS
 62
     7
100
AcDbCircle
 10
664.5702382675547
 20
153.1108869700722
 30
0.0
 40
2.571456147590476
100
AcDbArc
 50
149.6926611668748
 51
170.6066419960601
  0
ARC
  5
13E
330
1F
100
AcDbEntity
  8
0
  6
CONTINUOUS
 62
     7
100
AcDbCircle
 10
669.47272836514
 20
66.67255262522777
 30
0.0
 40
2.469938515522013
100
AcDbArc
 50
188.7453186956042
 51
210.7597769640473
  0
LINE
  5
13F
330
1F
100
AcDbEntity
  8
0
  6
CONTINUOUS
 62
     7
100
AcDbLine
 10
672.3499465279176
 20
154.4084695211874
 30
0.0
 11
672.2623986345956
 21
154.3409769171076
 31
0.0
  0
LINE
  5
140
330
1F
100
AcDbEntity
  8
0
  6
CONTINUOUS
 62
     7
100
AcDbLine
 10
672.2623986345956
 20
154.3409769171076
 30
0.0
 11
672.0316698369103
 21
153.5217016291427
 31
0.0
  0
ARC
  5
141
330
1F
100
AcDbEntity
  8
0
  6
CONTINUOUS
 62
     7
100
AcDbCircle
 10
679.2541576201113
 20
66.59333948022713
 30
0.0
 40
2.242301138190085
100
AcDbArc
 50
187.5972950343139
 51
211.8707539253981
  0
ARC
  5
142
330
1F
100
AcDbEntity
  8
0
  6
CONTINUOUS
 62
     7
100
AcDbCircle
 10
684.1541817565608
 20
153.2615412136916
 30
0.0
 40
2.138430169057068
100
AcDbArc
 50
147.5670629468237
 51
173.0338157216684
  0
ARC
  5
143
330
1F
100
AcDbEntity
  8
0
  6
CONTINUOUS
 62
     7
100
AcDbCircle
 10
689.0354524108835
 20
66.51481568549019
 30
0.0
 40
2.015525916671595
100
AcDbArc
 50
186.2841057843341
 51
213.2593737117577
  0
LINE
  5
144
330
1F
100
AcDbEntity
  8
0
  6
CONTINUOUS
 62
     7
100
AcDbLine
 10
692.3502658291845
 20
154.4083747942517
 30
0.0
 11
692.2670188394039
 21
154.3479653119479
 31
0.0
  0
LINE
  5
145
330
1F
100
AcDbEntity
  8
0
  6
CONTINUOUS
 62
     7
100
AcDbLine
 10
692.2670188394039
 20
154.3479653119479
 30
0.0
 11
692.0318600929367
 21
153.5226090904437
 31
0.0
  0
ARC
  5
146
330
1F
100
AcDbEntity
  8
0
  6
CONTINUOUS
 62
     7
100
AcDbCircle
 10
698.8379975676577
 20
66.44423948509794
 30
0.0
 40
1.812400876421813
100
AcDbArc
 50
184.6726015845206
 51
214.8157640046254
  0
ARC
  5
147
330
1F
100
AcDbEntity
  8
0
  6
CONTINUOUS
 62
     7
100
AcDbCircle
 10
703.7410191055961
 20
153.4085414917955
 30
0.0
 40
1.713054899881808
100
AcDbArc
 50
144.2926364279365
 51
176.2141882219432
  0
ARC
  5
148
330
1F
100
AcDbEntity
  8
0
  6
CONTINUOUS
 62
     7
100
AcDbCircle
 10
708.6533764447969
 20
66.37711576365199
 30
0.0
 40
1.623747435096345
100
AcDbArc
 50
182.8400388723558
 51
216.5789382491763
  0
ARC
  5
149
330
1F
100
AcDbEntity
  8
0
  6
CONTINUOUS
 62
     7
100
AcDbCircle
 10
713.5576520179208
 20
153.4741586836641
 30
0.0
 40
1.526860381861719
100
AcDbArc
 50
142.2768090615449
 51
178.2644937770172
  0
ARC
  5
14A
330
1F
100
AcDbEntity
  8
0
  6
CONTINUOUS
 62
     7
100
AcDbCircle
 10
718.4660152003603
 20
66.31082740931906
 30
0.0
 40
1.43443945965558
100
AcDbArc
 50
180.5678840192256
 51
218.9305341606016
  0
LINE
  5
14B
330
1F
100
AcDbEntity
  8
0
  6
CONTINUOUS
 62
     7
100
AcDbLine
 10
722.3499845456336
 20
154.4083914991812
 30
0.0
 11
722.2623620059686
 21
154.3412340645462
 31
0.0
  0
LINE
  5
14C
330
1F
100
AcDbEntity
  8
0
  6
CONTINUOUS
 62
     7
100
AcDbLine
 10
722.2623620059686
 20
154.3412340645462
 30
0.0
 11
722.032521694966
 21
153.5260491874024
 31
0.0
  0
ARC
  5
14D
330
1F
100
AcDbEntity
  8
0
  6
CONTINUOUS
 62
     7
100
AcDbCircle
 10
728.2976934781016
 20
66.25040745223556
 30
0.0
 40
1.266964109392485
100
AcDbArc
 50
177.8923167139797
 51
221.5889422850971
  0
ARC
  5
14E
330
1F
100
AcDbEntity
  8
0
  6
CONTINUOUS
 62
     7
100
AcDbCircle
 10
733.2176418685957
 20
153.5962242016672
 30
0.0
 40
1.188456513123255
100
AcDbArc
 50
136.8885306382113
 51
183.6395777467672
  0
ARC
  5
14F
330
1F
100
AcDbEntity
  8
0
  6
CONTINUOUS
 62
     7
100
AcDbCircle
 10
738.1407356439266
 20
66.19399563022432
 30
0.0
 40
1.114005941739411
100
AcDbArc
 50
174.6770558516139
 51
224.7758329687832
  0
LINE
  5
150
330
1F
100
AcDbEntity
  8
0
  6
CONTINUOUS
 62
     7
100
AcDbLine
 10
742.3500337129464
 20
154.4085039226269
 30
0.0
 11
742.2669990574179
 21
154.3483239910086
 31
0.0
  0
LINE
  5
151
330
1F
100
AcDbEntity
  8
0
  6
CONTINUOUS
 62
     7
100
AcDbLine
 10
742.2669990574179
 20
154.3483239910086
 30
0.0
 11
742.0314902604805
 21
153.5202348185612
 31
0.0
  0
LWPOLYLINE
  5
152
330
1F
100
AcDbEntity
  8
0
  6
CONTINUOUS
 62
     7
100
AcDbPolyline
 90
       33
 70
     0
 43
0.0
 10
-747.3498288940377
 20
65.40929030310637
 10
-747.3398794145752
 20
65.41015180813005
 10
-747.3299299351125
 20
65.41275070944928
 10
-747.3199804556504
 20
65.41708761457288
 10
-747.310030976188
 20
65.42316313100957
 10
-747.3000814967255
 20
65.43097786626812
 10
-747.2901320172634
 20
65.44053242785735
 10
-747.2801825378011
 20
65.45182742328599
 10
-747.270233058339
 20
65.46486346006283
 10
-747.2602835788772
 20
65.47964114569666
 10
-747.2503340994151
 20
65.49616108769621
 10
-747.2403846199531
 20
65.51442389357028
 10
-747.2304351404914
 20
65.53443017082766
 10
-747.2204856610297
 20
65.55618011791546
 10
-747.2105361815678
 20
65.57967204363179
 10
-747.2005867021064
 20
65.604903711498
 10
-747.1906372226447
 20
65.63187288498311
 10
-747.1806877431833
 20
65.66057732755628
 10
-747.1707382637219
 20
65.69101480268657
 10
-747.1607887842604
 20
65.72318307384307
 10
-747.1508393047992
 20
65.7570799044949
 10
-747.140889825338
 20
65.79270305811116
 10
-747.130940345877
 20
65.83005029816091
 10
-747.1209908664162
 20
65.86911938811326
 10
-747.1110413869549
 20
65.90990809143729
 10
-747.101091907494
 20
65.95241417160216
 10
-747.0911424280332
 20
65.99663539207687
 10
-747.0811929485724
 20
66.04256951633059
 10
-747.0712434691118
 20
66.09021430783238
 10
-747.0612939896514
 20
66.13956753005135
 10
-747.0513445101908
 20
66.19062694645659
 10
-747.0413950307304
 20
66.24339032051718
 10
-747.0314455512698
 20
66.29785541570274
210
0.0
220
0.0
230
-1.0
  0
LWPOLYLINE
  5
153
330
1F
100
AcDbEntity
  8
0
  6
CONTINUOUS
 62
     7
100
AcDbPolyline
 90
       33
 70
     0
 43
0.0
 10
752.3500503465478
 20
154.4085814783512
 10
752.3400969912979
 20
154.4077596948248
 10
752.3301436360479
 20
154.4051984248998
 10
752.3201902807975
 20
154.4008969888896
 10
752.3102369255475
 20
154.3948547071081
 10
752.300283570297
 20
154.3870708998686
 10
752.2903302150468
 20
154.3775448874849
 10
752.2803768597963
 20
154.3662759902705
 10
752.2704235045455
 20
154.353263528539
 10
752.2604701492951
 20
154.3385068226041
 10
752.2505167940445
 20
154.3220051927792
 10
752.2405634387939
 20
154.3037579593781
 10
752.230610083543
 20
154.2837648940315
 10
752.2206567282922
 20
154.2620276667201
 10
752.2107033730413
 20
154.2385484464699
 10
752.2007500177904
 20
154.2133294023092
 10
752.1907966625391
 20
154.186372703266
 10
752.1808433072881
 20
154.1576805183688
 10
752.1708899520368
 20
154.1272550166456
 10
752.1609365967855
 20
154.0950983671247
 10
752.1509832415344
 20
154.0612127388343
 10
752.1410298862827
 20
154.0256003008025
 10
752.1310765310312
 20
153.9882632220578
 10
752.1211231757796
 20
153.9492036716281
 10
752.1111698205283
 20
153.9084238185419
 10
752.1012164652764
 20
153.8659258318272
 10
752.0912631100246
 20
153.8217118805122
 10
752.0813097547727
 20
153.7757841336253
 10
752.0713563995206
 20
153.7281447601946
 10
752.0614030442686
 20
153.6787959292483
 10
752.0514496890165
 20
153.6277398098148
 10
752.0414963337645
 20
153.574978570922
 10
752.0315429785121
 20
153.5205143815983
  0
LWPOLYLINE
  5
154
330
1F
100
AcDbEntity
  8
0
  6
CONTINUOUS
 62
     7
100
AcDbPolyline
 90
       33
 70
     0
 43
0.0
 10
-757.3502037234596
 20
65.40920989501494
 10
-757.3402853501149
 20
65.40999810405364
 10
-757.3303669767703
 20
65.41251439850451
 10
-757.3204486034258
 20
65.41675952160023
 10
-757.3105302300814
 20
65.42273421657347
 10
-757.3006118567369
 20
65.43043922665694
 10
-757.2906934833925
 20
65.43987529508333
 10
-757.2807751100481
 20
65.45104316508525
 10
-757.2708567367039
 20
65.46394357989543
 10
-757.2609383633597
 20
65.47857728274656
 10
-757.2510199900156
 20
65.49494501687128
 10
-757.2411016166716
 20
65.5130470813035
 10
-757.2311832433277
 20
65.53288189604922
 10
-757.2212648699838
 20
65.55444738434575
 10
-757.2113464966399
 20
65.57774146942732
 10
-757.2014281232962
 20
65.60276207452819
 10
-757.1915097499525
 20
65.62950712288263
 10
-757.1815913766087
 20
65.65797453772485
 10
-757.1716730032654
 20
65.68816224228914
 10
-757.1617546299218
 20
65.72006815980971
 10
-757.1518362565785
 20
65.75369021352085
 10
-757.1419178832351
 20
65.7890263266568
 10
-757.1319995098919
 20
65.8260744224518
 10
-757.1220811365486
 20
65.86483242414008
 10
-757.1121627632054
 20
65.90529825495594
 10
-757.1022443898627
 20
65.94746983813361
 10
-757.0923260165196
 20
65.99134509690731
 10
-757.0824076431766
 20
66.03692195451131
 10
-757.0724892698338
 20
66.08419833417989
 10
-757.0625708964913
 20
66.13317215914728
 10
-757.0526525231485
 20
66.1838413526477
 10
-757.042734149806
 20
66.23620383791545
 10
-757.0328157764634
 20
66.2902575381846
210
0.0
220
0.0
230
-1.0
  0
LWPOLYLINE
  5
155
330
1F
100
AcDbEntity
  8
0
  6
CONTINUOUS
 62
     7
100
AcDbPolyline
 90
       33
 70
     0
 43
0.0
 10
792.3497904015352
 20
154.4088856655912
 10
792.3398376267342
 20
154.4079969479848
 10
792.3298848519332
 20
154.4053602270481
 10
792.3199320771322
 20
154.4009742831228
 10
792.3099793023309
 20
154.3948390785127
 10
792.3000265275297
 20
154.3869561146789
 10
792.2900737527284
 20
154.3773269963248
 10
792.280120977927
 20
154.3659533281538
 10
792.2701682031255
 20
154.352836714869
 10
792.2602154283242
 20
154.337978761174
 10
792.2502626535226
 20
154.3213810717721
 10
792.2403098787208
 20
154.3030452513665
 10
792.2303571039192
 20
154.2829729046608
 10
792.2204043291174
 20
154.261165636358
 10
792.2104515543156
 20
154.2376250511618
 10
792.2004987795136
 20
154.2123527537753
 10
792.1905460047117
 20
154.1853503489019
 10
792.1805932299095
 20
154.156619441245
 10
792.1706404551074
 20
154.1261616355079
 10
792.1606876803053
 20
154.0939785363939
 10
792.150734905503
 20
154.0600717486065
 10
792.1407821307007
 20
154.0244428768489
 10
792.1308293558982
 20
153.9870935258244
 10
792.1208765810956
 20
153.9480253002366
 10
792.1109238062929
 20
153.9072398047886
 10
792.1009710314904
 20
153.8647386441838
 10
792.0910182566877
 20
153.8205234231256
 10
792.0810654818849
 20
153.7745957463172
 10
792.0711127070821
 20
153.7269572184622
 10
792.0611599322792
 20
153.6776094442638
 10
792.051207157476
 20
153.6265540284252
 10
792.041254382673
 20
153.57379257565
 10
792.0313016078698
 20
153.5193266906414
  0
LWPOLYLINE
  5
156
330
1F
100
AcDbEntity
  8
0
  6
CONTINUOUS
 62
     7
100
AcDbPolyline
 90
       97
 70
     0
 43
0.0
 10
-650.84976038141
 20
65.40916737639232
 10
-650.8107003773865
 20
65.42288433376326
 10
-650.7716403733643
 20
65.4633536137422
 10
-650.7325803693429
 20
65.53052550672673
 10
-650.6935203653228
 20
65.62435030311447
 10
-650.6544603613036
 20
65.74477829330304
 10
-650.6154003572858
 20
65.89175976769003
 10
-650.5763403532691
 20
66.06524501667305
 10
-650.5372803492531
 20
66.26518433064967
 10
-650.4982203452389
 20
66.4915222753948
 10
-650.4591603412255
 20
66.74411357402995
 10
-650.4201003372134
 20
67.02274158352542
 10
-650.3810403332026
 20
67.3271876930425
 10
-650.341980329193
 20
67.65723329174247
 10
-650.3029203251847
 20
68.01265976878663
 10
-650.2638603211777
 20
68.39324851333626
 10
-650.2248003171719
 20
68.79878091455264
 10
-650.1857403131676
 20
69.22903836159708
 10
-650.1466803091643
 20
69.68380224363084
 10
-650.1076203051626
 20
70.16285394981526
 10
-650.0685603011623
 20
70.66595626241386
 10
-650.0295002971632
 20
71.19277084325405
 10
-649.9904402931655
 20
71.7429251670151
 10
-649.9513802891693
 20
72.31604668150119
 10
-649.9123202851742
 20
72.91176283451648
 10
-649.8732602811807
 20
73.5297010738652
 10
-649.8342002771886
 20
74.16948884735156
 10
-649.7951402731978
 20
74.83075360277974
 10
-649.7560802692086
 20
75.51312278795395
 10
-649.7170202652206
 20
76.21622385067838
 10
-649.677960261234
 20
76.93968404381273
 10
-649.6389002572489
 20
77.68309358521962
 10
-649.5998402532653
 20
78.44596207779695
 10
-649.5607802492831
 20
79.22778852231716
 10
-649.521720245302
 20
80.02807191955273
 10
-649.4826602413227
 20
80.8463112702762
 10
-649.4436002373448
 20
81.68200557526006
 10
-649.404540233368
 20
82.53465383527677
 10
-649.3654802293927
 20
83.40375505109886
 10
-649.3264202254189
 20
84.2888082234988
 10
-649.2873602214465
 20
85.18931235324914
 10
-649.2483002174756
 20
86.10476424454983
 10
-649.209240213506
 20
87.03461446064571
 10
-649.1701802095375
 20
87.978269583679
 10
-649.1311202055707
 20
88.93513445154578
 10
-649.0920602016051
 20
89.90461390214209
 10
-649.0530001976409
 20
90.88611277336398
 10
-649.013940193678
 20
91.8790359031075
 10
-648.9748801897166
 20
92.88278812926873
 10
-648.9358201857563
 20
93.8967742897437
 10
-648.8967601817975
 20
94.92039922242849
 10
-648.8577001778399
 20
95.95306776521912
 10
-648.8186401738834
 20
96.99417967137138
 10
-648.7795801699283
 20
98.04310049036584
 10
-648.7405201659742
 20
99.09918166916337
 10
-648.7014601620216
 20
100.1617746106508
 10
-648.6624001580701
 20
101.2302307177148
 10
-648.6233401541199
 20
102.3039013932422
 10
-648.5842801501708
 20
103.3821380401197
 10
-648.5452201462227
 20
104.4642920612341
 10
-648.5061601422757
 20
105.5497148594721
 10
-648.46710013833
 20
106.6377578377205
 10
-648.4280401343852
 20
107.7277723947298
 10
-648.3889801304415
 20
108.8191077111945
 10
-648.3499201264989
 20
109.911107099043
 10
-648.3108601225573
 20
111.0031129106606
 10
-648.2718001186166
 20
112.0944674984325
 10
-648.2327401146769
 20
113.184513214744
 10
-648.1936801107381
 20
114.2725924119803
 10
-648.1546201068003
 20
115.3580474425269
 10
-648.1155601028632
 20
116.4402206587688
 10
-648.076500098927
 20
117.5184544130915
 10
-648.0374400949917
 20
118.5920910578802
 10
-647.9983800910569
 20
119.6604734928374
 10
-647.9593200871232
 20
120.7229607096812
 10
-647.9202600831901
 20
121.77893001909
 10
-647.8812000792576
 20
122.8277597267952
 10
-647.8421400753259
 20
123.8688281385283
 10
-647.803080071395
 20
124.9015135600208
 10
-647.7640200674643
 20
125.9251942970043
 10
-647.7249600635344
 20
126.9392486552102
 10
-647.685900059605
 20
127.9430549403701
 10
-647.6468400556762
 20
128.9359914582154
 10
-647.6077800517478
 20
129.9174365144777
 10
-647.5687200478199
 20
130.8867741745349
 10
-647.5296600438924
 20
131.8434368787359
 10
-647.4906000399651
 20
132.7868812504555
 10
-647.4515400360383
 20
133.7165640922758
 10
-647.4124800321118
 20
134.631942206779
 10
-647.3734200281856
 20
135.5324723965471
 10
-647.3343600242595
 20
136.4176114641623
 10
-647.295300020334
 20
137.2868162122066
 10
-647.2562400164081
 20
138.139543443262
 10
-647.2171800124829
 20
138.9752499599109
 10
-647.1781200085575
 20
139.7933925716681
 10
-647.1390600046321
 20
140.5934517506473
 10
-647.1000000007075
 20
141.3749845172587
210
0.0
220
0.0
230
-1.0
  0
LWPOLYLINE
  5
157
330
1F
100
AcDbEntity
  8
0
  6
CONTINUOUS
 62
     7
100
AcDbPolyline
 90
      113
 70
     0
 43
0.0
 10
-660.8493318299595
 20
65.40925712001739
 10
-660.807539602959
 20
65.42522953251407
 10
-660.76574737596
 20
65.47180602893944
 10
-660.7239551489619
 20
65.54893629555292
 10
-660.6821629219652
 20
65.65657001861389
 10
-660.6403706949696
 20
65.79465688438172
 10
-660.5985784679754
 20
65.96314657911583
 10
-660.5567862409824
 20
66.16198878907558
 10
-660.5149940139909
 20
66.39112380244681
 10
-660.4732017870007
 20
66.6503748191425
 10
-660.4314095600121
 20
66.93948560303399
 10
-660.3896173330246
 20
67.25819840751844
 10
-660.3478251060385
 20
67.606255485993
 10
-660.3060328790541
 20
67.98339909185489
 10
-660.264240652071
 20
68.38937147850119
 10
-660.2224484250894
 20
68.82391489932913
 10
-660.1806561981093
 20
69.28677160773582
 10
-660.1388639711307
 20
69.77768385711845
 10
-660.0970717441537
 20
70.29638492910057
 10
-660.0552795171782
 20
70.84250007273056
 10
-660.0134872902044
 20
71.41558302275239
 10
-659.971695063232
 20
72.01518623770134
 10
-659.9299028362612
 20
72.64086217611272
 10
-659.888110609292
 20
73.29216329652179
 10
-659.8463183823244
 20
73.96864205746387
 10
-659.8045261553583
 20
74.66985091747418
 10
-659.7627339283939
 20
75.39534233508806
 10
-659.7209417014311
 20
76.14466876884079
 10
-659.67914947447
 20
76.9173748316432
 10
-659.6373572475104
 20
77.71291379447732
 10
-659.5955650205526
 20
78.53067993314703
 10
-659.5537727935963
 20
79.37006653728332
 10
-659.5119805666417
 20
80.23046689651706
 10
-659.4701883396885
 20
81.11127430047922
 10
-659.428396112737
 20
82.01188203880069
 10
-659.3866038857874
 20
82.93168340111247
 10
-659.3448116588391
 20
83.87007167704546
 10
-659.3030194318925
 20
84.82644015623053
 10
-659.2612272049473
 20
85.80017608478603
 10
-659.2194349780041
 20
86.79059865448207
 10
-659.1776427510621
 20
87.79698417429464
 10
-659.1358505241219
 20
88.81860828308321
 10
-659.0940582971831
 20
89.85474661970726
 10
-659.052266070246
 20
90.90467482302621
 10
-659.0104738433101
 20
91.96766853189948
 10
-658.9686816163763
 20
93.04300338518661
 10
-658.9268893894433
 20
94.12995502174691
 10
-658.885097162512
 20
95.2277990804399
 10
-658.8433049355825
 20
96.33580755756614
 10
-658.8015127086543
 20
97.45321276247195
 10
-658.7597204817273
 20
98.57922260802782
 10
-658.7179282548018
 20
99.71304465147959
 10
-658.676136027878
 20
100.8538864500732
 10
-658.6343438009552
 20
102.0009555610543
 10
-658.5925515740338
 20
103.153459541669
 10
-658.5507593471139
 20
104.3106059491629
 10
-658.5089671201948
 20
105.4716023407819
 10
-658.4671748932775
 20
106.6356562737719
 10
-658.4253826663611
 20
107.8019745337962
 10
-658.383590439446
 20
108.9697557699191
 10
-658.3417982125319
 20
110.1381937520545
 10
-658.3000059856194
 20
111.3064821839228
 10
-658.2582137587076
 20
112.4738147692448
 10
-658.216421531797
 20
113.6393852117411
 10
-658.1746293048874
 20
114.8023872151325
 10
-658.1328370779788
 20
115.9620144831396
 10
-658.0910448510713
 20
117.1174607194831
 10
-658.0492526241646
 20
118.2679196278837
 10
-658.0074603972589
 20
119.4125873066144
 10
-657.9656681703541
 20
120.5506843019145
 10
-657.9238759434501
 20
121.6814454599743
 10
-657.8820837165468
 20
122.8041058070958
 10
-657.8402914896443
 20
123.9179003695814
 10
-657.7984992627428
 20
125.0220641737332
 10
-657.7567070358417
 20
126.1158322458535
 10
-657.7149148089413
 20
127.1984396122444
 10
-657.6731225820416
 20
128.2691212992082
 10
-657.6313303551424
 20
129.327112333047
 10
-657.5895381282437
 20
130.371653384648
 10
-657.5477459013456
 20
131.402040938604
 10
-657.5059536744478
 20
132.4176033207698
 10
-657.4641614475506
 20
133.4176692283675
 10
-657.4223692206538
 20
134.4015673586191
 10
-657.380576993757
 20
135.3686264087464
 10
-657.338784766861
 20
136.3181750759717
 10
-657.2969925399645
 20
137.2495420575166
 10
-657.2552003130687
 20
138.1620560506034
 10
-657.2134080861731
 20
139.055045752454
 10
-657.1716158592774
 20
139.9278486043459
 10
-657.129823632382
 20
140.7798858080274
 10
-657.0880314054865
 20
141.610625168036
 10
-657.0462391785909
 20
142.4195349908052
 10
-657.0044469516952
 20
143.2060835827686
 10
-656.9626547247997
 20
143.9697392503596
 10
-656.9208624979038
 20
144.7099703000117
 10
-656.8790702710078
 20
145.4262450381585
 10
-656.8372780441117
 20
146.1180317712334
 10
-656.7954858172151
 20
146.7847988056699
 10
-656.7536935903183
 20
147.4260258991999
 10
-656.7119013634211
 20
148.0412991062231
 10
-656.6701091365237
 20
148.6302621551742
 10
-656.6283169096258
 20
149.1925593463146
 10
-656.5865246827271
 20
149.7278349799058
 10
-656.5447324558284
 20
150.2357333562095
 10
-656.5029402289288
 20
150.7158987754872
 10
-656.4611480020287
 20
151.1679755380004
 10
-656.419355775128
 20
151.5916079440107
 10
-656.3775635482264
 20
151.9864402937798
 10
-656.3357713213245
 20
152.3521304227662
 10
-656.2939790944214
 20
152.6884579487533
 10
-656.2521868675177
 20
152.9952669206992
 10
-656.2103946406132
 20
153.2724019737791
 10
-656.1686024137082
 20
153.5197077431666
210
0.0
220
0.0
230
-1.0
  0
LWPOLYLINE
  5
158
330
1F
100
AcDbEntity
  8
0
  6
CONTINUOUS
 62
     7
100
AcDbPolyline
 90
      113
 70
     0
 43
0.0
 10
-670.8502628949116
 20
65.40932794214076
 10
-670.8084611386258
 20
65.42459533182524
 10
-670.7666593823413
 20
65.47046979016068
 10
-670.7248576260579
 20
65.54691155889648
 10
-670.6830558697759
 20
65.65388087978214
 10
-670.641254113495
 20
65.79133799456702
 10
-670.5994523572155
 20
65.95924314500056
 10
-670.5576506009372
 20
66.15755650242284
 10
-670.5158488446604
 20
66.38618892506061
 10
-670.4740470883849
 20
66.64491566933
 10
-670.4322453321106
 20
66.93348888657971
 10
-670.390443575838
 20
67.2516607281585
 10
-670.3486418195666
 20
67.59918334541506
 10
-670.3068400632968
 20
67.97580888969809
 10
-670.2650383070285
 20
68.38128951235635
 10
-670.2232365507615
 20
68.81537736473854
 10
-670.1814347944961
 20
69.27782459819335
 10
-670.1396330382321
 20
69.76838328011641
 10
-670.0978312819697
 20
70.28675885111761
 10
-670.0560295257089
 20
70.8325327268384
 10
-670.0142277694498
 20
71.40526592889492
 10
-669.9724260131919
 20
72.00451947890332
 10
-669.930624256936
 20
72.62985439847978
 10
-669.8888225006813
 20
73.28083170924047
 10
-669.8470207444284
 20
73.95701243280153
 10
-669.8052189881771
 20
74.65795759077915
 10
-669.7634172319274
 20
75.38322820478946
 10
-669.7216154756793
 20
76.13238520649205
 10
-669.6798137194329
 20
76.90494909313726
 10
-669.6380119631881
 20
77.70033630592705
 10
-669.5962102069449
 20
78.51794677671762
 10
-669.554408450703
 20
79.35718043736513
 10
-669.5126066944632
 20
80.21743721972587
 10
-669.4708049382248
 20
81.09811705565598
 10
-669.4290031819882
 20
81.99861987701172
 10
-669.387201425753
 20
82.91834561564924
 10
-669.3453996695195
 20
83.8566942034248
 10
-669.3035979132875
 20
84.81306548848607
 10
-669.2617961570571
 20
85.78682833659124
 10
-669.2199944008285
 20
86.77727446170708
 10
-669.1781926446014
 20
87.78368376952483
 10
-669.1363908883758
 20
88.80533616573591
 10
-669.0945891321518
 20
89.84151155603153
 10
-669.0527873759294
 20
90.89148984610314
 10
-669.0109856197082
 20
91.95455094164198
 10
-668.9691838634888
 20
93.0299747483394
 10
-668.9273821072709
 20
94.11704117188675
 10
-668.8855803510544
 20
95.21503005729033
 10
-668.8437785948391
 20
96.32320247818339
 10
-668.8019768386257
 20
97.4407742690768
 10
-668.7601750824135
 20
98.56695458666898
 10
-668.7183733262028
 20
99.70095258765838
 10
-668.6765715699934
 20
100.8419774287433
 10
-668.6347698137855
 20
101.9892382666222
 10
-668.5929680575788
 20
103.1419442579934
 10
-668.5511663013734
 20
104.2993045595554
 10
-668.5093645451693
 20
105.4605283280066
 10
-668.4675627889663
 20
106.6248247027339
 10
-668.4257610327647
 20
107.7913982900117
 10
-668.3839592765644
 20
108.9594431212859
 10
-668.342157520365
 20
110.1281517228976
 10
-668.300355764167
 20
111.2967166211876
 10
-668.2585540079702
 20
112.4643303424968
 10
-668.2167522517741
 20
113.6301854131661
 10
-668.1749504955794
 20
114.7934743595363
 10
-668.1331487393855
 20
115.9533897079484
 10
-668.0913469831926
 20
117.1091239847432
 10
-668.0495452270006
 20
118.2598697644876
 10
-668.0077434708098
 20
119.4048304331372
 10
-667.9659417146197
 20
120.5432337933832
 10
-667.9241399584303
 20
121.6743109978856
 10
-667.8823382022417
 20
122.7972931993046
 10
-667.8405364460542
 20
123.9114115503
 10
-667.7987346898672
 20
125.0158972035318
 10
-667.7569329336809
 20
126.1099813116601
 10
-667.7151311774953
 20
127.1928950273448
 10
-667.6733294213103
 20
128.2638695032459
 10
-667.6315276651258
 20
129.3221360272422
 10
-667.5897259089419
 20
130.3669520974662
 10
-667.5479241527586
 20
131.397632528101
 10
-667.5061223965755
 20
132.4134997115432
 10
-667.4643206403929
 20
133.4138760401896
 10
-667.4225188842106
 20
134.3980839064368
 10
-667.3807171280289
 20
135.3654457026816
 10
-667.3389153718472
 20
136.3152838213206
 10
-667.2971136156658
 20
137.2469206547506
 10
-667.2553118594847
 20
138.1596785953683
 10
-667.2135101033036
 20
139.0528802754154
 10
-667.1717083471228
 20
139.9258888791484
 10
-667.1299065909419
 20
140.7781534693291
 10
-667.0881048347611
 20
141.6091340478316
 10
-667.0463030785803
 20
142.4182906165301
 10
-667.0045013223994
 20
143.2050831772987
 10
-666.9626995662185
 20
143.9689717320115
 10
-666.9208978100374
 20
144.7094162825428
 10
-666.8790960538562
 20
145.4258768307665
 10
-666.8372942976747
 20
146.1178133785569
 10
-666.7954925414929
 20
146.7846862826423
 10
-666.7536907853108
 20
147.4260086447891
 10
-666.7118890291284
 20
148.0414017567612
 10
-666.6700872729455
 20
148.6305001828208
 10
-666.6282855167623
 20
149.1929384872298
 10
-666.5864837605786
 20
149.7283512342503
 10
-666.5446820043944
 20
150.2363729881442
 10
-666.5028802482096
 20
150.7166383131736
 10
-666.4610784920242
 20
151.1687817736004
 10
-666.4192767358383
 20
151.5924379336868
 10
-666.3774749796514
 20
151.9872418273192
 10
-666.335673223464
 20
152.3528902878357
 10
-666.2938714672762
 20
152.6892029456906
 10
-666.2520697110871
 20
152.9960139348689
 10
-666.2102679548972
 20
153.2731573893555
 10
-666.1684661987074
 20
153.5204674431307
210
0.0
220
0.0
230
-1.0
  0
LWPOLYLINE
  5
159
330
1F
100
AcDbEntity
  8
0
  6
CONTINUOUS
 62
     7
100
AcDbPolyline
 90
      113
 70
     0
 43
0.0
 10
-680.8499028568391
 20
65.40939345497978
 10
-680.8081046726953
 20
65.42488486339784
 10
-680.7663064885527
 20
65.4709710938227
 10
-680.7245083044112
 20
65.5476229922348
 10
-680.6827101202712
 20
65.65481140461463
 10
-680.6409119361323
 20
65.79250717694251
 10
-680.5991137519945
 20
65.9606811551989
 10
-680.5573155678583
 20
66.15929532410448
 10
-680.5155173837234
 20
66.38819546489248
 10
-680.4737191995897
 20
66.64714560903876
 10
-680.4319210154576
 20
66.93590808578016
 10
-680.3901228313268
 20
67.25424522435351
 10
-680.3483246471974
 20
67.60191935399564
 10
-680.3065264630694
 20
67.97869280394337
 10
-680.2647282789429
 20
68.38432790343352
 10
-680.222930094818
 20
68.81858698170294
 10
-680.1811319106946
 20
69.28123236798845
 10
-680.1393337265724
 20
69.77201780268776
 10
-680.097535542452
 20
70.29058880895505
 10
-680.0557373583331
 20
70.83651689978365
 10
-680.0139391742158
 20
71.4093721518463
 10
-679.9721409900999
 20
72.00872464181565
 10
-679.9303428059858
 20
72.63414444636445
 10
-679.8885446218733
 20
73.28520164216538
 10
-679.8467464377622
 20
73.9614663058911
 10
-679.8049482536527
 20
74.66250851421435
 10
-679.763150069545
 20
75.38789834380783
 10
-679.7213518854387
 20
76.13719823026392
 10
-679.6795537013342
 20
76.90987805697442
 10
-679.6377555172314
 20
77.70534617868569
 10
-679.5959573331302
 20
78.52300983982735
 10
-679.5541591490304
 20
79.36227628482894
 10
-679.5123609649324
 20
80.22255275812012
 10
-679.470562780836
 20
81.10324650413042
 10
-679.4287645967411
 20
82.00376476728944
 10
-679.3869664126478
 20
82.92351479202677
 10
-679.3451682285563
 20
83.861903822772
 10
-679.3033700444662
 20
84.81833308198358
 10
-679.2615718603778
 20
85.7921336366923
 10
-679.219773676291
 20
86.78259122102868
 10
-679.1779754922059
 20
87.78899081036349
 10
-679.1361773081221
 20
88.81061738006748
 10
-679.09437912404
 20
89.84675590551151
 10
-679.0525809399593
 20
90.8966913620663
 10
-679.0107827558803
 20
91.95970872510271
 10
-678.9689845718028
 20
93.03509296999151
 10
-678.9271863877267
 20
94.12212907210346
 10
-678.8853882036522
 20
95.22009821863158
 10
-678.843590019579
 20
96.32823912956526
 10
-678.8017918355073
 20
97.44576385439184
 10
-678.7599936514372
 20
98.57188402966922
 10
-678.7181954673682
 20
99.70581129195531
 10
-678.6763972833008
 20
100.846757277808
 10
-678.6345990992347
 20
101.9939336237853
 10
-678.59280091517
 20
103.146551966445
 10
-678.5510027311065
 20
104.303823942345
 10
-678.5092045470443
 20
105.4649611880433
 10
-678.4674063629834
 20
106.6291742904998
 10
-678.4256081789238
 20
107.7956625088377
 10
-678.3838099948653
 20
108.9636181884682
 10
-678.3420118108079
 20
110.1322335760712
 10
-678.3002136267518
 20
111.3007009183264
 10
-678.2584154426966
 20
112.4682124619137
 10
-678.2166172586427
 20
113.6339604535129
 10
-678.1748190745898
 20
114.7971371398038
 10
-678.1330208905378
 20
115.9569347674662
 10
-678.0912227064867
 20
117.11254558318
 10
-678.0494245224367
 20
118.2631638679042
 10
-678.0076263383877
 20
119.4080050484696
 10
-677.9658281543394
 20
120.5462970928165
 10
-677.9240299702922
 20
121.6772681335608
 10
-677.8822317862455
 20
122.8001463033186
 10
-677.8404336021998
 20
123.9141597347058
 10
-677.7986354181547
 20
125.0185365603384
 10
-677.7568372341104
 20
126.1125049128323
 10
-677.7150390500666
 20
127.1952929248035
 10
-677.6732408660234
 20
128.2661287288681
 10
-677.631442681981
 20
129.3242457199263
 10
-677.5896444979389
 20
130.3689299990275
 10
-677.5478463138973
 20
131.3994980393313
 10
-677.5060481298563
 20
132.4152666794737
 10
-677.4642499458155
 20
133.4155527580908
 10
-677.4224517617752
 20
134.3996731138186
 10
-677.3806535777353
 20
135.366944585293
 10
-677.3388553936956
 20
136.3166840111502
 10
-677.2970572096561
 20
137.2482082300263
 10
-677.2552590256169
 20
138.1608340805572
 10
-677.2134608415779
 20
139.0538868048613
 10
-677.1716626575387
 20
139.9267727767151
 10
-677.1298644734999
 20
140.7789437914976
 10
-677.0880662894609
 20
141.6098521436581
 10
-677.046268105422
 20
142.4189501276458
 10
-677.0044699213831
 20
143.2056900379102
 10
-676.9626717373441
 20
143.9695241689003
 10
-676.9208735533048
 20
144.7099048150656
 10
-676.8790753692657
 20
145.4262842708554
 10
-676.837277185226
 20
146.1181148307188
 10
-676.795479001186
 20
146.7848600015949
 10
-676.7536808171459
 20
147.426087676053
 10
-676.7118826331053
 20
148.0414225173763
 10
-676.6700844490643
 20
148.6304897561688
 10
-676.6282862650231
 20
149.1929146230346
 10
-676.5864880809812
 20
149.7283223485777
 10
-676.544689896939
 20
150.2363381634022
 10
-676.502891712896
 20
150.7165872981121
 10
-676.4610935288525
 20
151.1686949833114
 10
-676.4192953448085
 20
151.5922864496041
 10
-676.3774971607637
 20
151.9870003748502
 10
-676.3356989767182
 20
152.3525962002709
 10
-676.2939007926719
 20
152.6888971613362
 10
-676.2521026086248
 20
152.9957270708568
 10
-676.210304424577
 20
153.2729097416432
 10
-676.1685062405272
 20
153.5202689865112
210
0.0
220
0.0
230
-1.0
  0
LWPOLYLINE
  5
15A
330
1F
100
AcDbEntity
  8
0
  6
CONTINUOUS
 62
     7
100
AcDbPolyline
 90
      113
 70
     0
 43
0.0
 10
-690.8500768091625
 20
65.40944072531923
 10
-690.8082765873258
 20
65.42476443467278
 10
-690.7664763654906
 20
65.47068466954863
 10
-690.7246761436566
 20
65.54718287226895
 10
-690.6828759218236
 20
65.65424048515587
 10
-690.6410756999921
 20
65.79183895053163
 10
-690.5992754781616
 20
65.95995963470799
 10
-690.5574752563327
 20
66.15853398826744
 10
-690.515675034505
 20
66.38735742243203
 10
-690.4738748126787
 20
66.64620238841047
 10
-690.4320745908537
 20
66.93484133741148
 10
-690.3902743690301
 20
67.25304672064382
 10
-690.3484741472081
 20
67.60059098931622
 10
-690.3066739253874
 20
67.97724659463736
 10
-690.2648737035681
 20
68.38278598781602
 10
-690.2230734817504
 20
68.81698162006091
 10
-690.1812732599341
 20
69.27960585250581
 10
-690.1394730381195
 20
69.7703835399469
 10
-690.0976728163064
 20
70.28891415766307
 10
-690.0558725944948
 20
70.83477673726676
 10
-690.0140723726845
 20
71.40755031037048
 10
-689.972272150876
 20
72.00681390858675
 10
-689.9304719290692
 20
72.63214656352801
 10
-689.8886717072639
 20
73.28312730680678
 10
-689.84687148546
 20
73.95933517003552
 10
-689.805071263658
 20
74.66034918482674
 10
-689.7632710418574
 20
75.3857482864662
 10
-689.7214708200586
 20
76.1350698529388
 10
-689.6796705982614
 20
76.907745034512
 10
-689.6378703764656
 20
77.70318825072269
 10
-689.5960701546716
 20
78.52081392110767
 10
-689.5542699328792
 20
79.36003646520379
 10
-689.5124697110883
 20
80.22027030254787
 10
-689.4706694892993
 20
81.10092985267674
 10
-689.4288692675117
 20
82.00142953512722
 10
-689.3870690457259
 20
82.92118376943614
 10
-689.3452688239415
 20
83.85960688503384
 10
-689.3034686021588
 20
84.81608090985995
 10
-689.2616683803776
 20
85.78990788910578
 10
-689.219868158598
 20
86.7803777024131
 10
-689.1780679368201
 20
87.78678022942364
 10
-689.1362677150438
 20
88.80840534977916
 10
-689.0944674932687
 20
89.84454294312141
 10
-689.0526672714956
 20
90.89448288909216
 10
-689.0108670497236
 20
91.95751506733315
 10
-688.9690668279535
 20
93.03292935748614
 10
-688.9272666061847
 20
94.12001557220134
 10
-688.8854663844176
 20
95.21804329682155
 10
-688.8436661626516
 20
96.32623359201425
 10
-688.8018659408873
 20
97.44380039216513
 10
-688.7600657191242
 20
98.56995763165995
 10
-688.7182654973626
 20
99.70391924488433
 10
-688.6764652756026
 20
100.8448991662241
 10
-688.6346650538437
 20
101.9921113300649
 10
-688.5928648320863
 20
103.1447696707925
 10
-688.5510646103301
 20
104.3020881227925
 10
-688.5092643885752
 20
105.4632805969166
 10
-688.4674641668216
 20
106.6275549478102
 10
-688.4256639450691
 20
107.7941049520518
 10
-688.3838637233181
 20
108.9621223904621
 10
-688.3420635015678
 20
110.1307990438615
 10
-688.3002632798189
 20
111.2993266930706
 10
-688.2584630580711
 20
112.4668971189099
 10
-688.2166628363244
 20
113.6327021022
 10
-688.1748626145788
 20
114.7959334237613
 10
-688.1330623928341
 20
115.9557828644144
 10
-688.0912621710904
 20
117.111442246938
 10
-688.0494619493477
 20
118.2621126925907
 10
-688.0076617276059
 20
119.4070162704281
 10
-687.965861505865
 20
120.545377915399
 10
-687.9240612841251
 20
121.6764225624528
 10
-687.8822610623856
 20
122.7993751465382
 10
-687.8404608406472
 20
123.9134606026047
 10
-687.7986606189094
 20
125.017903865601
 10
-687.7568603971722
 20
126.1119298704764
 10
-687.7150601754357
 20
127.1947635521799
 10
-687.6732599536999
 20
128.2656299743619
 10
-687.6314597319646
 20
129.3237789899145
 10
-687.5896595102298
 20
130.3685145818198
 10
-687.5478592884957
 20
131.3991478780605
 10
-687.5060590667618
 20
132.4149900066197
 10
-687.4642588450284
 20
133.4153520954801
 10
-687.4224586232955
 20
134.3995452726246
 10
-687.3806584015626
 20
135.3668806660359
 10
-687.3388581798304
 20
136.316669403697
 10
-687.2970579580981
 20
137.2482226135907
 10
-687.2552577363663
 20
138.1608516565774
 10
-687.2134575146343
 20
139.0539071985991
 10
-687.1716572929028
 20
139.926823108234
 10
-687.129857071171
 20
140.7790438470807
 10
-687.0880568494393
 20
141.610013876738
 10
-687.0462566277077
 20
142.4191776588044
 10
-687.0044564059762
 20
143.2059796548787
 10
-686.9626561842445
 20
143.9698643265596
 10
-686.9208559625124
 20
144.7102761354455
 10
-686.8790557407804
 20
145.4266595431354
 10
-686.8372555190482
 20
146.1184593585784
 10
-686.7954552973154
 20
146.7851721411834
 10
-686.7536550755825
 20
147.4264006633726
 10
-686.7118548538493
 20
148.0417607367163
 10
-686.6700546321157
 20
148.6308681727846
 10
-686.6282544103816
 20
149.1933387831476
 10
-686.586454188647
 20
149.7287883793753
 10
-686.5446539669119
 20
150.236832773038
 10
-686.5028537451763
 20
150.7170877757057
 10
-686.4610535234401
 20
151.1691691989486
 10
-686.4192533017034
 20
151.5926933160742
 10
-686.3774530799658
 20
151.9873375273231
 10
-686.3356528582276
 20
152.3529008884593
 10
-686.2938526364886
 20
152.6891968516354
 10
-686.2520524147487
 20
152.9960388690038
 10
-686.2102521930083
 20
153.2732403927172
 10
-686.168451971267
 20
153.5206148749264
210
0.0
220
0.0
230
-1.0
  0
LWPOLYLINE
  5
15B
330
1F
100
AcDbEntity
  8
0
  6
CONTINUOUS
 62
     7
100
AcDbPolyline
 90
      113
 70
     0
 43
0.0
 10
-700.8500306655424
 20
65.40946828551694
 10
-700.8082296653445
 20
65.42478250224106
 10
-700.7664286651478
 20
65.47069830159249
 10
-700.7246276649525
 20
65.54720772924792
 10
-700.6828266647583
 20
65.65430283088402
 10
-700.6410256645654
 20
65.7919756521775
 10
-700.5992246643737
 20
65.96020949697875
 10
-700.5574236641833
 20
66.15887138700113
 10
-700.5156226639943
 20
66.38774572000104
 10
-700.4738216638067
 20
66.64661513093075
 10
-700.4320206636205
 20
66.93526225474255
 10
-700.3902196634356
 20
67.25346972638873
 10
-700.3484186632521
 20
67.60102018082155
 10
-700.30661766307
 20
67.97769625299331
 10
-700.2648166628895
 20
68.38328057785628
 10
-700.2230156627105
 20
68.81755579036277
 10
-700.1812146625331
 20
69.28029595889812
 10
-700.139413662357
 20
69.77116596321449
 10
-700.0976126621824
 20
70.28975539378655
 10
-700.0558116620095
 20
70.83565234946994
 10
-700.0140106618383
 20
71.40844492912036
 10
-699.9722096616684
 20
72.00772123159348
 10
-699.9304086615003
 20
72.63306935574502
 10
-699.8886076613336
 20
73.28407740043063
 10
-699.8468066611686
 20
73.96033346450602
 10
-699.8050056610052
 20
74.66142564682687
 10
-699.7632046608435
 20
75.38693432612413
 10
-699.7214036606832
 20
76.13634553581606
 10
-699.6796026605244
 20
76.90908218401545
 10
-699.6378016603676
 20
77.70456602051641
 10
-699.5960006602122
 20
78.5222187951131
 10
-699.5541996600584
 20
79.36146225759965
 10
-699.5123986599064
 20
80.22171815777021
 10
-699.4705976597559
 20
81.1024082454189
 10
-699.4287966596071
 20
82.00295427033986
 10
-699.3869956594597
 20
82.92277798232722
 10
-699.3451946593142
 20
83.86129493598165
 10
-699.30339365917
 20
84.81784805382803
 10
-699.2615926590277
 20
85.7917331062829
 10
-699.2197916588867
 20
86.78224506463856
 10
-699.1779906587475
 20
87.78867890018726
 10
-699.1361896586097
 20
88.8103295842213
 10
-699.0943886584736
 20
89.84649208803293
 10
-699.052587658339
 20
90.89646138291447
 10
-699.0107866582058
 20
91.95953244015817
 10
-698.9689856580743
 20
93.03500023105636
 10
-698.9271846579442
 20
94.12215568966614
 10
-698.8853836578156
 20
95.22024431671484
 10
-698.8435826576884
 20
96.32848299777646
 10
-698.8017816575629
 20
97.44608817185095
 10
-698.7599806574384
 20
98.57227627793816
 10
-698.7181796573155
 20
99.70626375503805
 10
-698.676378657194
 20
100.8472670421505
 10
-698.634577657074
 20
101.9945025782754
 10
-698.5927766569552
 20
103.1471868024127
 10
-698.5509756568376
 20
104.3045361535622
 10
-698.5091746567215
 20
105.4657657245394
 10
-698.4673736566066
 20
106.630076058955
 10
-698.4255726564927
 20
107.7966588111458
 10
-698.3837716563803
 20
108.9647055081154
 10
-698.3419706562689
 20
110.1334076768676
 10
-698.3001696561588
 20
111.3019568444061
 10
-698.2583686560497
 20
112.4695445377347
 10
-698.2165676559416
 20
113.6353622838572
 10
-698.1747666558347
 20
114.7986016097772
 10
-698.1329656557288
 20
115.9584540424985
 10
-698.0911646556237
 20
117.1141128351107
 10
-698.0493636555195
 20
118.2647891655994
 10
-698.0075626554167
 20
119.4097048348564
 10
-697.9657616553142
 20
120.5480817829524
 10
-697.9239606552129
 20
121.6791419499575
 10
-697.8821596551122
 20
122.8021072759423
 10
-697.8403586550124
 20
123.9161997009771
 10
-697.7985576549133
 20
125.0206411651324
 10
-697.7567566548149
 20
126.1146536084785
 10
-697.7149556547172
 20
127.1974589710859
 10
-697.67315465462
 20
128.268284175754
 10
-697.6313536545233
 20
129.326405887543
 10
-697.5895526544273
 20
130.3711293621248
 10
-697.5477516543319
 20
131.4017601964858
 10
-697.5059506542367
 20
132.4176039876124
 10
-697.4641496541419
 20
133.4179663324911
 10
-697.4223486540477
 20
134.4021528281083
 10
-697.3805476539536
 20
135.3694690714506
 10
-697.3387466538599
 20
136.3192206595043
 10
-697.2969456537664
 20
137.250713189256
 10
-697.255144653673
 20
138.1632604508458
 10
-697.21334365358
 20
139.05625489677
 10
-697.1715426534869
 20
139.9291328250389
 10
-697.129741653394
 20
140.781331008632
 10
-697.0879406533011
 20
141.6122862205285
 10
-697.046139653208
 20
142.4214352337075
 10
-697.0043386531153
 20
143.2082148211486
 10
-696.9625376530221
 20
143.9720617558306
 10
-696.9207366529289
 20
144.7124128107331
 10
-696.8789356528355
 20
145.4287047588353
 10
-696.8371346527418
 20
146.1203854811093
 10
-696.7953336526481
 20
146.7870054691812
 10
-696.7535326525538
 20
147.4281706718365
 10
-696.7117316524592
 20
148.0434875805472
 10
-696.6699306523643
 20
148.6325626867849
 10
-696.6281296522689
 20
149.1950024820217
 10
-696.586328652173
 20
149.7304134577293
 10
-696.5445276520767
 20
150.2384021053797
 10
-696.5027266519799
 20
150.7185749164447
 10
-696.4609256518822
 20
151.170538382396
 10
-696.4191246517842
 20
151.5939124716512
 10
-696.3773236516853
 20
151.9884369818812
 10
-696.3355226515857
 20
152.3539144991425
 10
-696.2937216514853
 20
152.6901481617993
 10
-696.2519206513842
 20
152.9969411082158
 10
-696.2101196512825
 20
153.2740964767563
 10
-696.1683186511792
 20
153.521417405787
210
0.0
220
0.0
230
-1.0
  0
LWPOLYLINE
  5
15C
330
1F
100
AcDbEntity
  8
0
  6
CONTINUOUS
 62
     7
100
AcDbPolyline
 90
      113
 70
     0
 43
0.0
 10
-710.8494478392867
 20
65.40947640799702
 10
-710.8076534880503
 20
65.42516927654704
 10
-710.765859136815
 20
65.47146329314866
 10
-710.7240647855813
 20
65.54836110797335
 10
-710.6822704343484
 20
65.65586537119268
 10
-710.6404760831169
 20
65.79397863087465
 10
-710.5986817318867
 20
65.96265166371057
 10
-710.5568873806578
 20
66.16169943702798
 10
-710.5150930294303
 20
66.3909149184591
 10
-710.4732986782041
 20
66.65009107563614
 10
-710.4315043269793
 20
66.93902087619132
 10
-710.3897099757559
 20
67.25749728775683
 10
-710.3479156245339
 20
67.60531327796492
 10
-710.3061212733132
 20
67.98226181444777
 10
-710.2643269220943
 20
68.38813586483761
 10
-710.2225325708766
 20
68.82272828075213
 10
-710.1807382196606
 20
69.2857824695139
 10
-710.1389438684461
 20
69.7769157057179
 10
-710.097149517233
 20
70.2957254420034
 10
-710.0553551660216
 20
70.8418091310099
 10
-710.0135608148117
 20
71.4147642253767
 10
-709.9717664636033
 20
72.01418817774324
 10
-709.9299721123966
 20
72.63967844074888
 10
-709.8881777611914
 20
73.29083246703303
 10
-709.8463834099879
 20
73.9672477092351
 10
-709.8045890587858
 20
74.66852150001584
 10
-709.7627947075854
 20
75.39420767956913
 10
-709.7210003563868
 20
76.1437521812385
 10
-709.6792060051895
 20
76.91658448961157
 10
-709.637411653994
 20
77.712134089276
 10
-709.5956173028001
 20
78.52983046481951
 10
-709.5538229516079
 20
79.36910310082972
 10
-709.5120286004171
 20
80.22938148189432
 10
-709.4702342492282
 20
81.11009509260097
 10
-709.4284398980408
 20
82.01067341753732
 10
-709.386645546855
 20
82.9305458316245
 10
-709.3448511956707
 20
83.86910754135151
 10
-709.3030568444882
 20
84.82567129478163
 10
-709.2612624933072
 20
85.7995376497066
 10
-709.2194681421279
 20
86.79000716391805
 10
-709.1776737909497
 20
87.7963803952077
 10
-709.1358794397736
 20
88.81795790136731
 10
-709.0940850885988
 20
89.85404024018854
 10
-709.0522907374257
 20
90.90392796946307
 10
-709.0104963862539
 20
91.96692164698263
 10
-708.9687020350839
 20
93.04232174921228
 10
-708.9269076839153
 20
94.1294067718669
 10
-708.885113332748
 20
95.22740360720181
 10
-708.8433189815825
 20
96.33553175012939
 10
-708.8015246304182
 20
97.45301069556204
 10
-708.7597302792553
 20
98.57905993841214
 10
-708.7179359280939
 20
99.71289897359203
 10
-708.6761415769339
 20
100.8537472960141
 10
-708.6343472257752
 20
102.0008244005908
 10
-708.5925528746177
 20
103.1533497822345
 10
-708.5507585234618
 20
104.3105429034181
 10
-708.508964172307
 20
105.4716155578375
 10
-708.4671698211534
 20
106.6357620230039
 10
-708.4253754700011
 20
107.8021741421257
 10
-708.3835811188501
 20
108.9700437584112
 10
-708.3417867677002
 20
110.138562715069
 10
-708.2999924165515
 20
111.3069228553075
 10
-708.2581980654037
 20
112.4743160223351
 10
-708.2164037142572
 20
113.6399340593603
 10
-708.1746093631116
 20
114.8029688095916
 10
-708.132815011967
 20
115.9626121538771
 10
-708.0910206608235
 20
117.1180638137908
 10
-708.0492263096809
 20
118.2685409368746
 10
-708.0074319585392
 20
119.4132630180577
 10
-707.9656376073984
 20
120.5514495522688
 10
-707.9238432562585
 20
121.6823200344371
 10
-707.8820489051192
 20
122.8050939594912
 10
-707.8402545539808
 20
123.9189908223603
 10
-707.7984602028431
 20
125.0232301179732
 10
-707.7566658517062
 20
126.117031341259
 10
-707.7148715005698
 20
127.1996141142828
 10
-707.6730771494341
 20
128.2702215518385
 10
-707.6312827982988
 20
129.3281475788907
 10
-707.5894884471642
 20
130.3726927532632
 10
-707.5476940960301
 20
131.4031576327794
 10
-707.5058997448965
 20
132.4188427752632
 10
-707.4641053937631
 20
133.4190487385383
 10
-707.4223110426302
 20
134.4030760804283
 10
-707.3805166914977
 20
135.3702253587568
 10
-707.3387223403654
 20
136.3197971313476
 10
-707.2969279892332
 20
137.2510921875182
 10
-707.2551336381015
 20
138.1634494917067
 10
-707.2133392869697
 20
139.0562883651345
 10
-707.1715449358383
 20
139.9290382924347
 10
-707.1297505847066
 20
140.78112875824
 10
-707.0879562335751
 20
141.6119892471833
 10
-707.0461618824438
 20
142.4210492438976
 10
-707.004367531312
 20
143.2077382330157
 10
-706.9625731801805
 20
143.9714856991704
 10
-706.9207788290487
 20
144.7117211269947
 10
-706.8789844779167
 20
145.427874344392
 10
-706.8371901267843
 20
146.1194259764471
 10
-706.7953957756522
 20
146.7859607250657
 10
-706.7536014245193
 20
147.4270760429424
 10
-706.711807073386
 20
148.042369382772
 10
-706.6700127222525
 20
148.6314381972493
 10
-706.6282183711186
 20
149.1938799390689
 10
-706.5864240199843
 20
149.7292920609258
 10
-706.5446296688492
 20
150.2372720155144
 10
-706.5028353177137
 20
150.7174172555297
 10
-706.4610409665776
 20
151.1693256860198
 10
-706.4192466154408
 20
151.5926555818637
 10
-706.3774522643035
 20
151.987185625243
 10
-706.3356579131653
 20
152.3527087838517
 10
-706.2938635620264
 20
152.6890180253838
 10
-706.2520692108868
 20
152.9959063175332
 10
-706.2102748597464
 20
153.2731666279937
 10
-706.1684805086053
 20
153.520591924458
210
0.0
220
0.0
230
-1.0
  0
LWPOLYLINE
  5
15D
330
1F
100
AcDbEntity
  8
0
  6
CONTINUOUS
 62
     7
100
AcDbPolyline
 90
      113
 70
     0
 43
0.0
 10
-720.8501527198888
 20
65.40945762452563
 10
-720.8083506768207
 20
65.42460012322354
 10
-720.7665486337539
 20
65.47036955324036
 10
-720.7247465906881
 20
65.54677917230848
 10
-720.682944547624
 20
65.65384223816034
 10
-720.6411425045605
 20
65.79156340010556
 10
-720.5993404614986
 20
65.95983106782992
 10
-720.5575384184381
 20
66.1584501910139
 10
-720.5157363753789
 20
66.38722389322515
 10
-720.473934332321
 20
66.64595529803145
 10
-720.4321322892647
 20
66.93444752900044
 10
-720.3903302462095
 20
67.25250370969988
 10
-720.348528203156
 20
67.59992696369746
 10
-720.3067261601036
 20
67.97652041456087
 10
-720.2649241170529
 20
68.38208718585784
 10
-720.2231220740038
 20
68.8164218897045
 10
-720.1813200309559
 20
69.27920913855216
 10
-720.1395179879098
 20
69.77005694940237
 10
-720.0977159448651
 20
70.28857178421816
 10
-720.055913901822
 20
70.8343601049626
 10
-720.0141118587803
 20
71.40702837359865
 10
-719.9723098157403
 20
72.00618305208941
 10
-719.9305077727018
 20
72.63143060239793
 10
-719.8887057296649
 20
73.2823774864872
 10
-719.8469036866298
 20
73.9586301663203
 10
-719.8051016435961
 20
74.65978735078806
 10
-719.7632996005641
 20
75.38535178644015
 10
-719.7214975575337
 20
76.13476142147566
 10
-719.6796955145048
 20
76.90745298667203
 10
-719.6378934714778
 20
77.70286321280672
 10
-719.5960914284522
 20
78.52042883065717
 10
-719.5542893854282
 20
79.35958657100086
 10
-719.5124873424058
 20
80.21977316461523
 10
-719.4706852993852
 20
81.10042534227773
 10
-719.4288832563661
 20
82.00097983476586
 10
-719.3870812133484
 20
82.9208670543673
 10
-719.3452791703328
 20
83.85944246759384
 10
-719.3034771273185
 20
84.81601247017433
 10
-719.2616750843058
 20
85.7898826070883
 10
-719.2198730412947
 20
86.78035842331545
 10
-719.1780709982853
 20
87.78674546383533
 10
-719.1362689552776
 20
88.80834927362758
 10
-719.094466912271
 20
89.84447539767177
 10
-719.0526648692662
 20
90.89442938094757
 10
-719.010862826263
 20
91.95751676843456
 10
-718.969060783261
 20
93.03303886013339
 10
-718.9272587402609
 20
94.12024867573814
 10
-718.885456697262
 20
95.21836858590197
 10
-718.8436546542648
 20
96.3266204724423
 10
-718.8018526112688
 20
97.44422621717649
 10
-718.7600505682743
 20
98.57040770192201
 10
-718.7182485252812
 20
99.70438680849618
 10
-718.6764464822896
 20
100.8453854187165
 10
-718.6346444392993
 20
101.9926254144003
 10
-718.5928423963102
 20
103.1453286773649
 10
-718.5510403533224
 20
104.3027154651411
 10
-718.5092383103358
 20
105.4639883113991
 10
-718.4674362673509
 20
106.6283388421458
 10
-718.425634224367
 20
107.7949585238723
 10
-718.3838321813843
 20
108.9630388230694
 10
-718.3420301384027
 20
110.1317712062282
 10
-718.3002280954221
 20
111.3003471398394
 10
-718.2584260524428
 20
112.4679580903942
 10
-718.2166240094646
 20
113.6337955243835
 10
-718.1748219664876
 20
114.7970509082982
 10
-718.1330199235114
 20
115.9569171077899
 10
-718.0912178805362
 20
117.1126016437289
 10
-718.0494158375619
 20
118.2633207796725
 10
-718.0076137945886
 20
119.4082908959889
 10
-717.9658117516162
 20
120.5467283730466
 10
-717.9240097086445
 20
121.6778495912138
 10
-717.8822076656736
 20
122.8008709308588
 10
-717.8404056227037
 20
123.9150087723498
 10
-717.7986035797343
 20
125.0194794960553
 10
-717.7568015367658
 20
126.1134994823434
 10
-717.7149994937977
 20
127.1962897460792
 10
-717.6731974508303
 20
128.2671179221311
 10
-717.6313954078635
 20
129.3252786012866
 10
-717.5895933648974
 20
130.3700667021
 10
-717.5477913219316
 20
131.4007771431254
 10
-717.5059892789664
 20
132.4167048429167
 10
-717.4641872360013
 20
133.4171447200282
 10
-717.4223851930368
 20
134.4013916930139
 10
-717.3805831500727
 20
135.368740680428
 10
-717.3387811071087
 20
136.3184866008246
 10
-717.296979064145
 20
137.2499322277623
 10
-717.2551770211815
 20
138.1624562564369
 10
-717.2133749782181
 20
139.0554799246344
 10
-717.1715729352551
 20
139.9284249389133
 10
-717.1297708922917
 20
140.7807130058318
 10
-717.0879688493287
 20
141.6117658319485
 10
-717.0461668063655
 20
142.4210051238215
 10
-717.0043647634022
 20
143.2078525880094
 10
-716.9625627204391
 20
143.9717299310704
 10
-716.9207606774756
 20
144.7120588595629
 10
-716.878958634512
 20
145.4282718926412
 10
-716.8371565915481
 20
146.1199020091564
 10
-716.7953545485842
 20
146.7865367350344
 10
-716.7535525056197
 20
147.4277641383563
 10
-716.711750462655
 20
148.043172287203
 10
-716.6699484196897
 20
148.6323492496556
 10
-716.6281463767242
 20
149.1948830937951
 10
-716.5863443337582
 20
149.7303618877025
 10
-716.5445422907917
 20
150.2383736994586
 10
-716.5027402478245
 20
150.7185065971447
 10
-716.4609382048567
 20
151.1703619042005
 10
-716.4191361618884
 20
151.5936593787501
 10
-716.3773341189194
 20
151.9881810837846
 10
-716.3355320759495
 20
152.3537096380484
 10
-716.293730032979
 20
152.6900276602865
 10
-716.2519279900077
 20
152.9969177692432
 10
-716.2101259470355
 20
153.2741625836634
 10
-716.168323904063
 20
153.52154472229
210
0.0
220
0.0
230
-1.0
  0
LWPOLYLINE
  5
15E
330
1F
100
AcDbEntity
  8
0
  6
CONTINUOUS
 62
     7
100
AcDbPolyline
 90
      113
 70
     0
 43
0.0
 10
-730.8500978135094
 20
65.40941963334751
 10
-730.8082889306115
 20
65.42457345250513
 10
-730.7664800477148
 20
65.47038415395356
 10
-730.7246711648193
 20
65.54687561095638
 10
-730.6828622819248
 20
65.65407162356912
 10
-730.6410533990319
 20
65.79194595202219
 10
-730.5992445161402
 20
65.96033521637354
 10
-730.5574356332498
 20
66.15905275273059
 10
-730.5156267503606
 20
66.38791189720078
 10
-730.473817867473
 20
66.64672598589156
 10
-730.4320089845867
 20
66.93530835491035
 10
-730.3902001017016
 20
67.25347234036457
 10
-730.3483912188182
 20
67.60103127836167
 10
-730.3065823359361
 20
67.97779850500912
 10
-730.2647734530557
 20
68.38358726403962
 10
-730.2229645701766
 20
68.81816220890263
 10
-730.1811556872989
 20
69.2811598047565
 10
-730.1393468044229
 20
69.77219562425256
 10
-730.0975379215483
 20
70.29088524004217
 10
-730.0557290386753
 20
70.8368442247767
 10
-730.0139201558037
 20
71.40968815110745
 10
-729.9721112729338
 20
72.00903259168578
 10
-729.9303023900657
 20
72.63449311916305
 10
-729.8884935071989
 20
73.28568530619063
 10
-729.8466846243336
 20
73.96222462064681
 10
-729.8048757414703
 20
74.66368301102018
 10
-729.7630668586086
 20
75.38952188394066
 10
-729.721257975748
 20
76.139185355564
 10
-729.6794490928895
 20
76.91211754204605
 10
-729.6376402100325
 20
77.70776255954259
 10
-729.595831327177
 20
78.52556452420943
 10
-729.5540224443232
 20
79.36496755220236
 10
-729.512213561471
 20
80.22541575967718
 10
-729.4704046786204
 20
81.10635326278968
 10
-729.4285957957716
 20
82.00722407336877
 10
-729.3867869129243
 20
82.9274372430099
 10
-729.3449780300786
 20
83.86631630510406
 10
-729.3031691472345
 20
84.82317195930634
 10
-729.2613602643919
 20
85.79731490527183
 10
-729.2195513815511
 20
86.78805584265561
 10
-729.1777424987116
 20
87.79470547111269
 10
-729.135933615874
 20
88.81657449029824
 10
-729.0941247330377
 20
89.85297359986727
 10
-729.052315850203
 20
90.90321349947487
 10
-729.0105069673699
 20
91.96660480407631
 10
-728.9686980845382
 20
93.04243481257183
 10
-728.926889201708
 20
94.12993588567184
 10
-728.8850803188794
 20
95.22833247642386
 10
-728.8432714360522
 20
96.33684903787548
 10
-728.8014625532265
 20
97.4547100230742
 10
-728.7596536704023
 20
98.58113988506757
 10
-728.7178447875792
 20
99.71536307690315
 10
-728.6760359047578
 20
100.8566040516284
 10
-728.6342270219375
 20
102.004087262291
 10
-728.5924181391188
 20
103.1570371216747
 10
-728.550609256301
 20
104.3146687959362
 10
-728.5088003734849
 20
105.4761764603237
 10
-728.4669914906699
 20
106.6407513931597
 10
-728.4251826078562
 20
107.8075848727666
 10
-728.3833737250434
 20
108.975868177467
 10
-728.3415648422322
 20
110.1447925855833
 10
-728.2997559594219
 20
111.3135493754381
 10
-728.2579470766127
 20
112.4813298253538
 10
-728.2161381938047
 20
113.647325213653
 10
-728.1743293109977
 20
114.8107268514464
 10
-728.1325204281917
 20
115.9707324158981
 10
-728.0907115453866
 20
117.1265535105659
 10
-728.0489026625825
 20
118.2774035811277
 10
-728.0070937797794
 20
119.4224960732615
 10
-727.9652848969771
 20
120.5610444326451
 10
-727.9234760141757
 20
121.6922621049565
 10
-727.8816671313749
 20
122.8153625358735
 10
-727.839858248575
 20
123.9295591710741
 10
-727.7980493657758
 20
125.0340654562361
 10
-727.7562404829774
 20
126.1280949723573
 10
-727.7144316001795
 20
127.2108837717143
 10
-727.6726227173825
 20
128.2817152878325
 10
-727.6308138345856
 20
129.3398789588793
 10
-727.5890049517895
 20
130.3846642230218
 10
-727.5471960689943
 20
131.4153605184273
 10
-727.505387186199
 20
132.4312572832629
 10
-727.4635783034041
 20
133.4316439556958
 10
-727.4217694206097
 20
134.4158099738932
 10
-727.3799605378156
 20
135.3830447760224
 10
-727.338151655022
 20
136.3326380645275
 10
-727.2963427722284
 20
137.2639174611196
 10
-727.254533889435
 20
138.1762876665316
 10
-727.2127250066418
 20
139.0691627362697
 10
-727.1709161238488
 20
139.9419567258402
 10
-727.1291072410557
 20
140.7940836907494
 10
-727.0872983582627
 20
141.6249576865037
 10
-727.0454894754698
 20
142.4339927686094
 10
-727.0036805926767
 20
143.2206029925728
 10
-726.9618717098837
 20
143.9842024139003
 10
-726.9200628270903
 20
144.7242055001238
 10
-726.878253944297
 20
145.4400782611534
 10
-726.8364450615031
 20
146.1313877304464
 10
-726.7946361787092
 20
146.7977126779402
 10
-726.7528272959148
 20
147.4386318735718
 10
-726.7110184131203
 20
148.0537240872785
 10
-726.6692095303254
 20
148.6425680889974
 10
-726.6274006475298
 20
149.2047426486658
 10
-726.585591764734
 20
149.7398265362209
 10
-726.5437828819375
 20
150.2473985215998
 10
-726.5019739991404
 20
150.7270379408914
 10
-726.460165116343
 20
151.1783863724057
 10
-726.4183562335447
 20
151.6012030483595
 10
-726.3765473507457
 20
151.9952602785482
 10
-726.334738467946
 20
152.3603303727675
 10
-726.2929295851458
 20
152.6961856408129
 10
-726.2511207023446
 20
153.0025983924797
 10
-726.2093118195426
 20
153.2793409375636
 10
-726.1675029367407
 20
153.526185585855
210
0.0
220
0.0
230
-1.0
  0
LWPOLYLINE
  5
15F
330
1F
100
AcDbEntity
  8
0
  6
CONTINUOUS
 62
     7
100
AcDbPolyline
 90
      113
 70
     0
 43
0.0
 10
-740.8499386032138
 20
65.4093624174292
 10
-740.8081411613966
 20
65.42459943527629
 10
-740.766343719581
 20
65.47050189311376
 10
-740.7245462777665
 20
65.54710424082246
 10
-740.682748835953
 20
65.65443215028307
 10
-740.6409513941411
 20
65.79239437483066
 10
-740.5991539523305
 20
65.96081651468809
 10
-740.5573565105209
 20
66.1595223919906
 10
-740.5155590687127
 20
66.38833582887351
 10
-740.4737616269061
 20
66.64708064747207
 10
-740.4319641851008
 20
66.93558066992158
 10
-740.390166743297
 20
67.25365971835733
 10
-740.3483693014944
 20
67.60114161491458
 10
-740.3065718596931
 20
67.97785018172863
 10
-740.2647744178937
 20
68.38360054563394
 10
-740.2229769760954
 20
68.818096504811
 10
-740.181179534299
 20
69.28096484768679
 10
-740.1393820925039
 20
69.77183082477588
 10
-740.0975846507102
 20
70.29031968659285
 10
-740.0557872089183
 20
70.83605668365232
 10
-740.0139897671279
 20
71.40866706646881
 10
-739.9721923253388
 20
72.00777608555694
 10
-739.9303948835516
 20
72.6330089914313
 10
-739.8885974417659
 20
73.28399103460647
 10
-739.8467999999817
 20
73.96033951556542
 10
-739.8050025581994
 20
74.66157384121357
 10
-739.7632051164184
 20
75.38714756072949
 10
-739.7214076746388
 20
76.13651299769641
 10
-739.6796102328614
 20
76.90912247569757
 10
-739.6378127910851
 20
77.70442831831616
 10
-739.5960153493108
 20
78.5218828491354
 10
-739.5542179075379
 20
79.36093839173847
 10
-739.5124204657667
 20
80.22104726970862
 10
-739.4706230239972
 20
81.10166180662902
 10
-739.4288255822293
 20
82.00222779354442
 10
-739.3870281404628
 20
82.92211362022994
 10
-739.3452306986981
 20
83.86063703778746
 10
-739.303433256935
 20
84.81711492121661
 10
-739.2616358151733
 20
85.79086414551708
 10
-739.2198383734135
 20
86.78120158568852
 10
-739.178040931655
 20
87.7874441167306
 10
-739.1362434898982
 20
88.80890861364293
 10
-739.094446048143
 20
89.84491195142522
 10
-739.0526486063893
 20
90.89477100507709
 10
-739.0108511646372
 20
91.95779816512136
 10
-738.9690537228865
 20
93.03325466966041
 10
-738.9272562811374
 20
94.12036921452021
 10
-738.8854588393895
 20
95.21836997342157
 10
-738.8436613976435
 20
96.32648512008547
 10
-738.8018639558985
 20
97.44394282823271
 10
-738.7600665141551
 20
98.56997127158415
 10
-738.7182690724132
 20
99.70379862386069
 10
-738.6764716306725
 20
100.8446530587832
 10
-738.6346741889333
 20
101.9917627500725
 10
-738.5928767471955
 20
103.1443539710694
 10
-738.5510793054591
 20
104.301632117499
 10
-738.5092818637237
 20
105.4627896706971
 10
-738.4674844219896
 20
106.627018920377
 10
-738.4256869802568
 20
107.7935121562519
 10
-738.3838895385253
 20
108.9614616680347
 10
-738.3420920967947
 20
110.1300597454387
 10
-738.3002946550656
 20
111.298498678177
 10
-738.2584972133371
 20
112.4659707559626
 10
-738.2166997716101
 20
113.6316682685087
 10
-738.1749023298839
 20
114.7947845803647
 10
-738.1331048881591
 20
115.9545244338503
 10
-738.0913074464349
 20
117.1100994139136
 10
-738.0495100047116
 20
118.2607211991295
 10
-738.0077125629896
 20
119.4056014680727
 10
-737.9659151212682
 20
120.543951899318
 10
-737.9241176795476
 20
121.6749841714401
 10
-737.8823202378279
 20
122.7979099630139
 10
-737.840522796109
 20
123.9119409526142
 10
-737.7987253543907
 20
125.0162888188158
 10
-737.7569279126733
 20
126.1101694927826
 10
-737.7151304709565
 20
127.1928422989119
 10
-737.6733330292401
 20
128.2635919315888
 10
-737.6315355875245
 20
129.3217034043092
 10
-737.5897381458095
 20
130.3664617305691
 10
-737.5479407040948
 20
131.3971519238645
 10
-737.5061432623805
 20
132.4130589976912
 10
-737.4643458206665
 20
133.4134679655453
 10
-737.4225483789533
 20
134.3976638409228
 10
-737.3807509372401
 20
135.3649316373196
 10
-737.3389534955273
 20
136.3145637796202
 10
-737.2971560538148
 20
137.2459256204227
 10
-737.2553586121022
 20
138.1584239581617
 10
-737.2135611703902
 20
139.0514660688913
 10
-737.1717637286779
 20
139.9244592286657
 10
-737.1299662869659
 20
140.7768107135388
 10
-737.0881688452539
 20
141.6079277995648
 10
-737.0463714035418
 20
142.4172177627977
 10
-737.0045739618298
 20
143.2040878792916
 10
-736.9627765201175
 20
143.9679454251007
 10
-736.9209790784055
 20
144.7082079874081
 10
-736.8791816366928
 20
145.4243910316174
 10
-736.8373841949801
 20
146.1160640886176
 10
-736.7955867532671
 20
146.7827972580411
 10
-736.7537893115538
 20
147.4241606395203
 10
-736.7119918698402
 20
148.0397243326877
 10
-736.6701944281261
 20
148.6290584371754
 10
-736.6283969864118
 20
149.1917330526161
 10
-736.5865995446968
 20
149.727318278642
 10
-736.5448021029813
 20
150.2353842148857
 10
-736.5030046612653
 20
150.7155136710559
 10
-736.4612072195486
 20
151.1674058880145
 10
-736.4194097778313
 20
151.5908226098938
 10
-736.3776123361133
 20
151.9855261786545
 10
-736.3358148943947
 20
152.3512789362572
 10
-736.2940174526756
 20
152.6878432246624
 10
-736.2522200109554
 20
152.9949813858307
 10
-736.2104225692343
 20
153.2724557617227
 10
-736.1686251275124
 20
153.5200286942987
210
0.0
220
0.0
230
-1.0
  0
LWPOLYLINE
  5
160
330
1F
100
AcDbEntity
  8
0
  6
CONTINUOUS
 62
     7
100
AcDbPolyline
 90
      113
 70
     0
 43
0.0
 10
-750.8498288940359
 20
65.40929030335666
 10
-750.8080306506342
 20
65.42459465944663
 10
-750.7662324072338
 20
65.47059630751724
 10
-750.7244341638345
 20
65.54734020919744
 10
-750.6826359204365
 20
65.65482064928881
 10
-750.6408376770397
 20
65.79289477429309
 10
-750.5990394336443
 20
65.96139675994583
 10
-750.5572411902502
 20
66.16016078198251
 10
-750.5154429468572
 20
66.38902101613866
 10
-750.4736447034659
 20
66.64781163814982
 10
-750.4318464600759
 20
66.9363668237515
 10
-750.3900482166872
 20
67.25452074867921
 10
-750.3482499732999
 20
67.60210758866849
 10
-750.3064517299142
 20
67.97896142256492
 10
-750.2646534865298
 20
68.38486708302379
 10
-750.222855243147
 20
68.8194801692841
 10
-750.1810569997656
 20
69.28243533767325
 10
-750.1392587563859
 20
69.77336724451865
 10
-750.0974605130075
 20
70.2919105461477
 10
-750.0556622696308
 20
70.83769989888783
 10
-750.0138640262555
 20
71.41036995906643
 10
-749.972065782882
 20
72.0095553830109
 10
-749.9302675395099
 20
72.63489082704864
 10
-749.8884692961394
 20
73.28601084231462
 10
-749.8466710527704
 20
73.96250575922875
 10
-749.8048728094032
 20
74.66385335890395
 10
-749.7630745660375
 20
75.38951377929442
 10
-749.7212763226735
 20
76.13894715835441
 10
-749.6794780793113
 20
76.91161363403822
 10
-749.6376798359503
 20
77.70697334429995
 10
-749.5958815925912
 20
78.52448642709396
 10
-749.5540833492337
 20
79.36361302037444
 10
-749.5122851058778
 20
80.22381326209563
 10
-749.4704868625233
 20
81.10454718876841
 10
-749.4286886191707
 20
82.00523906585802
 10
-749.3868903758196
 20
82.92522484561123
 10
-749.3450921324701
 20
83.86382709120741
 10
-749.3032938891222
 20
84.82036836582589
 10
-749.2614956457761
 20
85.79417123264604
 10
-749.2196974024315
 20
86.78455825484717
 10
-749.1778991590883
 20
87.79085199560863
 10
-749.1361009157467
 20
88.81237501810976
 10
-749.0943026724067
 20
89.84844988552993
 10
-749.0525044290682
 20
90.8983990798052
 10
-749.0107061857312
 20
91.9615207559271
 10
-748.968907942396
 20
93.03705480216676
 10
-748.9271096990622
 20
94.12423256498252
 10
-748.8853114557297
 20
95.22228539083254
 10
-748.8435132123988
 20
96.33044462617507
 10
-748.8017149690692
 20
97.4479416174684
 10
-748.7599167257409
 20
98.57400771117071
 10
-748.7181184824143
 20
99.7078742537403
 10
-748.676320239089
 20
100.8487725916354
 10
-748.6345219957651
 20
101.9959340302319
 10
-748.5927237524426
 20
103.1485793159673
 10
-748.5509255091212
 20
104.3059046564619
 10
-748.509127265801
 20
105.4671027816085
 10
-748.4673290224824
 20
106.6313664213
 10
-748.4255307791648
 20
107.7978883054291
 10
-748.3837325358484
 20
108.9658611638887
 10
-748.3419342925333
 20
110.1344777265718
 10
-748.3001360492193
 20
111.3029307233709
 10
-748.2583378059064
 20
112.4704128841791
 10
-748.2165395625946
 20
113.6361169598074
 10
-748.1747413192836
 20
114.7992403600078
 10
-748.1329430759741
 20
115.9589910016018
 10
-748.0911448326651
 20
117.114578240664
 10
-748.0493465893574
 20
118.2652114332691
 10
-748.0075483460504
 20
119.4100999354917
 10
-747.9657501027444
 20
120.5484531034066
 10
-747.9239518594391
 20
121.6794802930884
 10
-747.8821536161346
 20
122.8023908606117
 10
-747.8403553728308
 20
123.9163941620512
 10
-747.7985571295284
 20
125.0206996577942
 10
-747.756758886226
 20
126.1145371116681
 10
-747.7149606429243
 20
127.1971807285986
 10
-747.6731623996233
 20
128.2679105958339
 10
-747.6313641563229
 20
129.3260068006225
 10
-747.5895659130231
 20
130.3707494302124
 10
-747.5477676697236
 20
131.4014185718521
 10
-747.5059694264246
 20
132.4172943127898
 10
-747.4641711831262
 20
133.4176567402738
 10
-747.422372939828
 20
134.4017859415524
 10
-747.38057469653
 20
135.3689622096596
 10
-747.3387764532326
 20
136.31850110775
 10
-747.2969782099351
 20
137.2497931368637
 10
-747.255179966638
 20
138.1622383801703
 10
-747.2133817233411
 20
139.0552369208394
 10
-747.1715834800441
 20
139.9281888420407
 10
-747.1297852367476
 20
140.7804942269439
 10
-747.0879869934505
 20
141.6115531587185
 10
-747.0461887501539
 20
142.4207657205343
 10
-747.004390506857
 20
143.2075319955607
 10
-746.9625922635603
 20
143.9712523858218
 10
-746.9207940202631
 20
144.7113757440258
 10
-746.878995776966
 20
145.4274508609624
 10
-746.8371975336685
 20
146.119038868963
 10
-746.7953992903708
 20
146.7857009003592
 10
-746.7536010470727
 20
147.4269980874822
 10
-746.7118028037745
 20
148.0424915626637
 10
-746.6700045604757
 20
148.6317424582349
 10
-746.6282063171764
 20
149.1943119065274
 10
-746.5864080738766
 20
149.7297610398726
 10
-746.5446098305765
 20
150.2376514244985
 10
-746.5028115872757
 20
150.7176034408435
 10
-746.4610133439744
 20
151.1693552586232
 10
-746.4192151006722
 20
151.5926590917268
 10
-746.3774168573698
 20
151.987267154044
 10
-746.3356186140662
 20
152.352931659464
 10
-746.2938203707622
 20
152.6894048218765
 10
-746.2520221274572
 20
152.9964388551707
 10
-746.2102238841514
 20
153.2737859732362
 10
-746.1684256408452
 20
153.5211983899609
210
0.0
220
0.0
230
-1.0
  0
LWPOLYLINE
  5
161
330
1F
100
AcDbEntity
  8
0
  6
CONTINUOUS
 62
     7
100
AcDbPolyline
 90
       57
 70
     0
 43
0.0
 10
758.0999999992363
 20
116.8701441395742
 10
758.0655019826406
 20
117.8211233798934
 10
758.0310039660457
 20
118.7683973477405
 10
757.9965059494514
 20
119.7115203214625
 10
757.9620079328575
 20
120.6500465794063
 10
757.9275099162644
 20
121.5835303999188
 10
757.8930118996718
 20
122.511526061347
 10
757.8585138830796
 20
123.4335878420378
 10
757.8240158664881
 20
124.3492700307682
 10
757.789517849897
 20
125.2581357881983
 10
757.7550198333064
 20
126.1597733040318
 10
757.7205218167161
 20
127.053775150179
 10
757.6860238001263
 20
127.9397338985503
 10
757.6515257835371
 20
128.8172421210562
 10
757.6170277669479
 20
129.685892389607
 10
757.5825297503593
 20
130.5452772761131
 10
757.5480317337709
 20
131.3949893524849
 10
757.5135337171829
 20
132.2346211906329
 10
757.4790357005951
 20
133.0637653624673
 10
757.4445376840075
 20
133.8820144398987
 10
757.4100396674203
 20
134.6889609948716
 10
757.3755416508334
 20
135.4842091179044
 10
757.3410436342465
 20
136.2674070018761
 10
757.3065456176598
 20
137.0382133931977
 10
757.272047601073
 20
137.7962870382798
 10
757.2375495844867
 20
138.5412866835334
 10
757.2030515679003
 20
139.2728710753692
 10
757.1685535513142
 20
139.990698960198
 10
757.1340555347278
 20
140.6944290844306
 10
757.0995575181416
 20
141.3837201944778
 10
757.0650595015554
 20
142.0582310367505
 10
757.0305614849693
 20
142.7176203576593
 10
756.9960634683831
 20
143.3615469036152
 10
756.9615654517967
 20
143.989680716432
 10
756.9270674352102
 20
144.6017508506571
 10
756.8925694186238
 20
145.19750556933
 10
756.858071402037
 20
145.7766931458752
 10
756.8235733854501
 20
146.3390618537169
 10
756.7890753688631
 20
146.8843599662795
 10
756.7545773522759
 20
147.4123357569874
 10
756.7200793356883
 20
147.9227374992648
 10
756.6855813191006
 20
148.4153134665361
 10
756.6510833025125
 20
148.8898119322257
 10
756.6165852859242
 20
149.3459811697579
 10
756.5820872693355
 20
149.7835694525569
 10
756.5475892527464
 20
150.2023344458138
 10
756.513091236157
 20
150.6021014320527
 10
756.4785932195671
 20
150.9827253121673
 10
756.4440952029768
 20
151.3440611126362
 10
756.4095971863861
 20
151.6859638599377
 10
756.375099169795
 20
152.0082885805502
 10
756.3406011532034
 20
152.3108903009521
 10
756.3061031366112
 20
152.5936240476219
 10
756.2716051200186
 20
152.8563448470379
 10
756.2371071034254
 20
153.0989077256787
 10
756.2026090868317
 20
153.3211677100224
 10
756.168111070237
 20
153.5229798265486
  0
LWPOLYLINE
  5
162
330
1F
100
AcDbEntity
  8
0
  6
CONTINUOUS
 62
     7
100
AcDbPolyline
 90
       89
 70
     0
 43
0.0
 10
-790.8503083126191
 20
65.4089745796486
 10
-790.8148990455427
 20
65.41973836686985
 10
-790.7794897784671
 20
65.45262877882372
 10
-790.7440805113924
 20
65.50759449220762
 10
-790.7086712443185
 20
65.58456005915203
 10
-790.6732619772456
 20
65.68345003036616
 10
-790.6378527101738
 20
65.8041889565592
 10
-790.6024434431027
 20
65.94670138844033
 10
-790.5670341760325
 20
66.11091187671876
 10
-790.5316249089633
 20
66.29674497210365
 10
-790.496215641895
 20
66.5041252253042
 10
-790.4608063748278
 20
66.73297718702962
 10
-790.4253971077617
 20
66.9832254079891
 10
-790.3899878406964
 20
67.25479434176994
 10
-790.3545785736322
 20
67.54757608581409
 10
-790.3191693065692
 20
67.86138367409126
 10
-790.2837600395069
 20
68.19601828955528
 10
-790.2483507724461
 20
68.55128111516014
 10
-790.2129415053861
 20
68.92697333385962
 10
-790.1775322383272
 20
69.32289612860762
 10
-790.1421229712694
 20
69.73885068235803
 10
-790.1067137042128
 20
70.17463817806477
 10
-790.071304437157
 20
70.63005979868167
 10
-790.0358951701025
 20
71.1049167271626
 10
-790.0004859030491
 20
71.5990101464615
 10
-789.965076635997
 20
72.11214026665532
 10
-789.929667368946
 20
72.64406352317552
 10
-789.8942581018958
 20
73.1944757802354
 10
-789.8588488348471
 20
73.76306845839277
 10
-789.8234395677995
 20
74.34953297820546
 10
-789.788030300753
 20
74.95356076023133
 10
-789.7526210337077
 20
75.57484322502816
 10
-789.7172117666634
 20
76.21307179315382
 10
-789.6818024996204
 20
76.86793788516613
 10
-789.6463932325786
 20
77.5391329216229
 10
-789.6109839655379
 20
78.22634832308196
 10
-789.5755746984984
 20
78.92927551010116
 10
-789.54016543146
 20
79.64760295562682
 10
-789.5047561644227
 20
80.3809721687331
 10
-789.4693468973866
 20
81.12898698528335
 10
-789.4339376303518
 20
81.89125018000988
 10
-789.3985283633182
 20
82.66736452764489
 10
-789.3631190962856
 20
83.45693280292069
 10
-789.3277098292541
 20
84.25955778056952
 10
-789.2923005622239
 20
85.07484223532376
 10
-789.2568912951947
 20
85.90238894191555
 10
-789.2214820281666
 20
86.74180067507723
 10
-789.1860727611397
 20
87.59268020954109
 10
-789.1506634941142
 20
88.45463032003936
 10
-789.1152542270895
 20
89.32724868076507
 10
-789.079844960066
 20
90.21009436029836
 10
-789.0444356930436
 20
91.10270876168346
 10
-789.0090264260225
 20
92.0046331965691
 10
-788.9736171590023
 20
92.91540897660398
 10
-788.9382078919831
 20
93.83457741343682
 10
-788.9027986249649
 20
94.76167981871637
 10
-788.8673893579479
 20
95.69625750409139
 10
-788.8319800909321
 20
96.6378517812106
 10
-788.796570823917
 20
97.5860039617227
 10
-788.761161556903
 20
98.54025535727642
 10
-788.7257522898901
 20
99.50014727952056
 10
-788.6903430228782
 20
100.4652160147142
 10
-788.6549337558673
 20
101.4349777995875
 10
-788.6195244888572
 20
102.4089438714618
 10
-788.5841152218483
 20
103.3866254676587
 10
-788.5487059548402
 20
104.3675338254996
 10
-788.5132966878328
 20
105.351180182306
 10
-788.4778874208266
 20
106.3370757753995
 10
-788.4424781538213
 20
107.3247318421014
 10
-788.4070688868167
 20
108.3136596197332
 10
-788.371659619813
 20
109.3033703456166
 10
-788.3362503528103
 20
110.2933752570728
 10
-788.3008410858082
 20
111.2831855965646
 10
-788.2654318188069
 20
112.2723135796056
 10
-788.2300225518065
 20
113.2602735379403
 10
-788.1946132848068
 20
114.2465800813521
 10
-788.159204017808
 20
115.2307478196244
 10
-788.1237947508097
 20
116.2122913625408
 10
-788.0883854838121
 20
117.1907253198846
 10
-788.0529762168154
 20
118.1655643014393
 10
-788.0175669498193
 20
119.1363229169883
 10
-787.9821576828238
 20
120.1025157763151
 10
-787.9467484158286
 20
121.063657489203
 10
-787.9113391488343
 20
122.0192626654355
 10
-787.8759298818405
 20
122.9688463582611
 10
-787.8405206148472
 20
123.9119392119931
 10
-787.8051113478543
 20
124.8480912190202
 10
-787.7697020808625
 20
125.7768535775944
 10
-787.7342928138706
 20
126.6977774859685
210
0.0
220
0.0
230
-1.0
  0
LWPOLYLINE
  5
163
330
1F
100
AcDbEntity
  8
0
  6
CONTINUOUS
 62
     7
100
AcDbPolyline
 90
       57
 70
     0
 43
0.0
 10
794.0999999999792
 20
130.1113869434566
 10
794.0687462571514
 20
130.8861081427407
 10
794.0374925143236
 20
131.6527301999189
 10
794.0062387714961
 20
132.410942725111
 10
793.9749850286689
 20
133.1604370416921
 10
793.9437312858419
 20
133.9009291190955
 10
793.912477543015
 20
134.632153405748
 10
793.8812238001884
 20
135.3538447977647
 10
793.849970057362
 20
136.0657381912603
 10
793.8187163145357
 20
136.7675684823496
 10
793.7874625717095
 20
137.4590705671478
 10
793.7562088288834
 20
138.1399793417695
 10
793.7249550860572
 20
138.8100297023296
 10
793.6937013432313
 20
139.4689565449431
 10
793.6624476004056
 20
140.1164947657247
 10
793.6311938575797
 20
140.7523792607894
 10
793.5999401147537
 20
141.3763449262519
 10
793.5686863719278
 20
141.9881268242773
 10
793.5374326291019
 20
142.5874800216206
 10
793.5061788862761
 20
143.17419838997
 10
793.4749251434502
 20
143.748080252906
 10
793.4436714006241
 20
144.3089239340093
 10
793.4124176577981
 20
144.8565277568607
 10
793.3811639149718
 20
145.3906900450406
 10
793.3499101721454
 20
145.9112091221299
 10
793.3186564293189
 20
146.4178833117093
 10
793.2874026864923
 20
146.9105109373593
 10
793.2561489436655
 20
147.3888903226607
 10
793.2248952008384
 20
147.8528197911942
 10
793.1936414580111
 20
148.3020976665403
 10
793.1623877151837
 20
148.7365222722798
 10
793.131133972356
 20
149.1559010326206
 10
793.099880229528
 20
149.5600919879
 10
793.0686264866997
 20
149.9489706734671
 10
793.037372743871
 20
150.322412641399
 10
793.0061190010424
 20
150.6802934437728
 10
792.9748652582131
 20
151.0224886326655
 10
792.9436115153836
 20
151.3488737601543
 10
792.9123577725537
 20
151.6593243783162
 10
792.8811040297235
 20
151.9537160392284
 10
792.8498502868927
 20
152.2319242949679
 10
792.8185965440616
 20
152.4938246976117
 10
792.78734280123
 20
152.739292799237
 10
792.7560890583981
 20
152.9682041519209
 10
792.7248353155658
 20
153.1804364510312
 10
792.6935815727327
 20
153.3759101331066
 10
792.6623278298991
 20
153.5545850234738
 10
792.6310740870655
 20
153.7164224188711
 10
792.5998203442309
 20
153.8613836160365
 10
792.568566601396
 20
153.9894299117082
 10
792.5373128585604
 20
154.1005226026244
 10
792.5060591157244
 20
154.1946229855232
 10
792.4748053728879
 20
154.2716923571427
 10
792.4435516300507
 20
154.3316920142211
 10
792.4122978872128
 20
154.3745832534966
 10
792.3810441443743
 20
154.4003273717072
 10
792.3497904015352
 20
154.4088856655912
  0
LINE
  5
164
330
1F
100
AcDbEntity
  8
0
  6
CONTINUOUS
 62
     7
100
AcDbLine
 10
647.0999999988021
 20
65.95699792069757
 30
0.0
 11
647.1000000007075
 21
141.3749845172587
 31
0.0
  0
LINE
  5
165
330
1F
100
AcDbEntity
  8
0
  6
CONTINUOUS
 62
     7
100
AcDbLine
 10
814.399999999042
 20
110.9852797756909
 30
0.0
 11
814.3999999990552
 21
111.3343706847946
 31
0.0
  0
LWPOLYLINE
  5
166
330
1F
100
AcDbEntity
  8
0
  6
CONTINUOUS
 62
     7
100
AcDbPolyline
 90
      113
 70
     0
 43
0.0
 10
657.0318167341823
 20
66.29525335289773
 10
656.9900141039626
 20
66.54247726765422
 10
656.9482114737444
 20
66.81967955662086
 10
656.9064088435277
 20
67.12660228072681
 10
656.8646062133124
 20
67.46298750090133
 10
656.8228035830984
 20
67.82857727807364
 10
656.781000952886
 20
68.2231136731729
 10
656.739198322675
 20
68.6463387471284
 10
656.6973956924654
 20
69.09799456086931
 10
656.6555930622573
 20
69.57782317532487
 10
656.6137904320507
 20
70.0855661145905
 10
656.5719878018458
 20
70.62090418956053
 10
656.5301851716424
 20
71.18340251329819
 10
656.4883825414405
 20
71.77261321009274
 10
656.4465799112404
 20
72.38808840423353
 10
656.4047772810416
 20
73.0293802200098
 10
656.3629746508445
 20
73.69604078171089
 10
656.3211720206491
 20
74.38762221362609
 10
656.279369390455
 20
75.10367664004467
 10
656.2375667602628
 20
75.84375618525596
 10
656.1957641300721
 20
76.60741245889696
 10
656.1539614998832
 20
77.39414492409928
 10
656.1121588696958
 20
78.20335680304098
 10
656.07035623951
 20
79.03444093220196
 10
656.0285536093259
 20
79.88679014806205
 10
655.9867509791434
 20
80.75979728710121
 10
655.9449483489624
 20
81.65285518579925
 10
655.9031457187832
 20
82.56535668063606
 10
655.8613430886055
 20
83.49669460809153
 10
655.8195404584292
 20
84.4462618046455
 10
655.7777378282548
 20
85.41345067439342
 10
655.7359351980818
 20
86.39761416454246
 10
655.6941325679106
 20
87.39803468651287
 10
655.6523299377409
 20
88.41398733811778
 10
655.6105273075726
 20
89.44474721717033
 10
655.5687246774061
 20
90.4895894214837
 10
655.5269220472409
 20
91.54778904887102
 10
655.4851194170773
 20
92.61862119714547
 10
655.4433167869151
 20
93.70136096412018
 10
655.4015141567546
 20
94.7952834476083
 10
655.3597115265954
 20
95.8996634625136
 10
655.3179088964379
 20
97.01375246150876
 10
655.2761062662817
 20
98.13676143876914
 10
655.2343036361266
 20
99.26789735962365
 10
655.1925010059732
 20
100.4063671894013
 10
655.1506983758211
 20
101.551377893431
 10
655.1088957456705
 20
102.7021364370417
 10
655.0670931155211
 20
103.8578497855623
 10
655.0252904853728
 20
105.0177249043219
 10
654.9834878552261
 20
106.1809687586493
 10
654.9416852250804
 20
107.3467882490962
 10
654.899882594936
 20
108.514385414388
 10
654.8580799647928
 20
109.6829541357373
 10
654.8162773346506
 20
110.8516875145831
 10
654.7744747045097
 20
112.0197786523645
 10
654.7326720743699
 20
113.1864206505203
 10
654.6908694442311
 20
114.3508066104897
 10
654.6490668140933
 20
115.5121296337115
 10
654.6072641839565
 20
116.6695828216248
 10
654.5654615538207
 20
117.8223592756685
 10
654.5236589236857
 20
118.9696523137292
 10
654.4818562935517
 20
120.1106700782143
 10
654.4400536634187
 20
121.244644813532
 10
654.3982510332863
 20
122.3708109745529
 10
654.3564484031549
 20
123.4884030161479
 10
654.3146457730239
 20
124.5966553931878
 10
654.2728431428941
 20
125.6948025605433
 10
654.2310405127644
 20
126.7820789730851
 10
654.1892378826356
 20
127.8577190856841
 10
654.1474352525074
 20
128.9209573532111
 10
654.1056326223797
 20
129.9710287779015
 10
654.0638299922525
 20
131.0072026984773
 10
654.0220273621259
 20
132.0288025528755
 10
653.9802247319996
 20
133.0351565368408
 10
653.9384221018737
 20
134.025592846118
 10
653.8966194717481
 20
134.9994396764517
 10
653.854816841623
 20
135.9560252235869
 10
653.8130142114978
 20
136.8946776832682
 10
653.7712115813731
 20
137.8147252512403
 10
653.7294089512485
 20
138.7154961232482
 10
653.6876063211241
 20
139.5963194016478
 10
653.6458036909997
 20
140.4565764559025
 10
653.6040010608754
 20
141.2957284681484
 10
653.562198430751
 20
142.1132433476127
 10
653.5203958006267
 20
142.9085890035229
 10
653.4785931705021
 20
143.6812333451061
 10
653.4367905403776
 20
144.4306442815898
 10
653.3949879102527
 20
145.1562897222013
 10
653.353185280128
 20
145.8576375761676
 10
653.3113826500028
 20
146.5341557527165
 10
653.2695800198773
 20
147.1853134266322
 10
653.2277773897514
 20
147.8106470367727
 10
653.1859747596251
 20
148.4097925803028
 10
653.1441721294985
 20
148.9823940917304
 10
653.1023694993713
 20
149.5280956055633
 10
653.0605668692439
 20
150.0465411563096
 10
653.0187642391157
 20
150.537374778477
 10
652.976961608987
 20
151.0002405065736
 10
652.9351589788578
 20
151.4347823751071
 10
652.8933563487276
 20
151.8406444185856
 10
652.8515537185971
 20
152.217472261391
 10
652.8097510884656
 20
152.5649896590484
 10
652.7679484583333
 20
152.8830324679968
 10
652.7261458282004
 20
153.1714452072964
 10
652.6843431980665
 20
153.4300723960069
 10
652.6425405679319
 20
153.6587585531883
 10
652.6007379377962
 20
153.8573481979006
 10
652.5589353076596
 20
154.0256858492037
 10
652.517132677522
 20
154.1636160261577
 10
652.4753300473833
 20
154.2709832478224
 10
652.4335274172437
 20
154.3476338752136
 10
652.3917247871028
 20
154.3934981914335
 10
652.3499221569613
 20
154.4086232112164
  0
LWPOLYLINE
  5
167
330
1F
100
AcDbEntity
  8
0
  6
CONTINUOUS
 62
     7
100
AcDbPolyline
 90
      113
 70
     0
 43
0.0
 10
667.0315055121725
 20
66.29701667141116
 10
666.989708325975
 20
66.54447196006483
 10
666.9479111397787
 20
66.82186003396039
 10
666.9061139535839
 20
67.12893312578838
 10
666.8643167673906
 20
67.46544346823941
 10
666.8225195811987
 20
67.83114329400397
 10
666.7807223950082
 20
68.22578483577264
 10
666.7389252088192
 20
68.649120326236
 10
666.6971280226317
 20
69.10090199808458
 10
666.6553308364456
 20
69.58088208400892
 10
666.613533650261
 20
70.08879869521016
 10
666.5717364640782
 20
70.62427205689563
 10
666.5299392778967
 20
71.18686376090245
 10
666.4881420917168
 20
71.77613497286181
 10
666.4463449055385
 20
72.3916468584048
 10
666.4045477193621
 20
73.03296058316268
 10
666.3627505331868
 20
73.69963731276651
 10
666.3209533470133
 20
74.39123821284751
 10
666.2791561608415
 20
75.10732444903682
 10
666.2373589746711
 20
75.84745718696561
 10
666.1955617885026
 20
76.61118519589463
 10
666.1537646023355
 20
77.39795724401979
 10
666.1119674161702
 20
78.2071737740189
 10
666.0701702300064
 20
79.0382349145811
 10
666.0283730438442
 20
79.89054079439559
 10
665.9865758576836
 20
80.76349154215156
 10
665.9447786715249
 20
81.65648728653825
 10
665.9029814853676
 20
82.56892815624478
 10
665.8611842992118
 20
83.5002142799604
 10
665.8193871130578
 20
84.4497457863743
 10
665.7775899269051
 20
85.41691318937359
 10
665.7357927407543
 20
86.40103203104282
 10
665.693995554605
 20
87.40138265645805
 10
665.6521983684572
 20
88.41724520749202
 10
665.6104011823111
 20
89.44789982601742
 10
665.5686039961665
 20
90.492626653907
 10
665.5268068100233
 20
91.55070583303345
 10
665.4850096238818
 20
92.6214175052695
 10
665.4432124377415
 20
93.70404181248783
 10
665.4014152516031
 20
94.7978588965612
 10
665.3596180654658
 20
95.90214300289078
 10
665.3178208793302
 20
97.01612392296903
 10
665.276023693196
 20
98.13901117617807
 10
665.2342265070632
 20
99.27001417858384
 10
665.1924293209316
 20
100.4083423462522
 10
665.1506321348016
 20
101.5532050952492
 10
665.1088349486729
 20
102.7038118416407
 10
665.0670377625454
 20
103.8593720014926
 10
665.0252405764193
 20
105.0190949908708
 10
664.9834433902945
 20
106.1821902258413
 10
664.9416462041708
 20
107.3478656811613
 10
664.8998490180484
 20
108.5153188230764
 10
664.8580518319271
 20
109.6837424635205
 10
664.816254645807
 20
110.8523293936391
 10
664.7744574596879
 20
112.020272404578
 10
664.7326602735702
 20
113.1867642874827
 10
664.6908630874533
 20
114.3509978334989
 10
664.6490659013376
 20
115.5121658337723
 10
664.6072687152229
 20
116.6694610794484
 10
664.565471529109
 20
117.8220763616728
 10
664.5236743429962
 20
118.9692079509789
 10
664.481877156884
 20
120.1100766567063
 10
664.4400799707729
 20
121.2439138426567
 10
664.3982827846625
 20
122.3699509136109
 10
664.356485598553
 20
123.4874192743499
 10
664.3146884124442
 20
124.5955503296547
 10
664.272891226336
 20
125.6935754843062
 10
664.2310940402286
 20
126.7807261430855
 10
664.1892968541217
 20
127.8562337107734
 10
664.1474996680155
 20
128.9193295921509
 10
664.1057024819099
 20
129.9692537299819
 10
664.0639052958046
 20
131.0053043264888
 10
664.0221081097001
 20
132.0268039148724
 10
663.9803109235955
 20
133.0330751097136
 10
663.9385137374917
 20
134.0234405255934
 10
663.8967165513882
 20
134.9972227770924
 10
663.8549193652849
 20
135.9537444787916
 10
663.813122179182
 20
136.8923282452719
 10
663.771324993079
 20
137.8122966911141
 10
663.7295278069764
 20
138.7129724308991
 10
663.6877306208739
 20
139.5936914502007
 10
663.6459334347716
 20
140.4538780270315
 10
663.6041362486693
 20
141.2929922382133
 10
663.5623390625667
 20
142.1104942626629
 10
663.5205418764643
 20
142.9058442792976
 10
663.478744690362
 20
143.6785024670344
 10
663.4369475042594
 20
144.4279290047904
 10
663.3951503181565
 20
145.1535840714826
 10
663.3533531320536
 20
145.8549278460282
 10
663.3115559459504
 20
146.5314205073442
 10
663.2697587598469
 20
147.182539838193
 10
663.227961573743
 20
147.8078761332415
 10
663.1861643876389
 20
148.4070639700992
 10
663.1443672015342
 20
148.9797380328145
 10
663.102570015429
 20
149.525533005436
 10
663.0607728293236
 20
150.0440835720118
 10
663.0189756432175
 20
150.5350244165905
 10
662.9771784571107
 20
150.9979902232205
 10
662.9353812710032
 20
151.43261567595
 10
662.8935840848953
 20
151.8385354588277
 10
662.8517868987866
 20
152.2154051342215
 10
662.8099897126771
 20
152.5630094442085
 10
662.768192526567
 20
152.8811824784623
 10
662.726395340456
 20
153.1697584253005
 10
662.684598154344
 20
153.4285714730409
 10
662.6428009682313
 20
153.6574558100012
 10
662.6010037821177
 20
153.856245624499
 10
662.5592065960029
 20
154.024775104852
 10
662.5174094098875
 20
154.1628784393781
 10
662.4756122237707
 20
154.2703898163947
 10
662.433815037653
 20
154.3471663049721
 10
662.3920178515342
 20
154.3932020459764
 10
662.3502206654144
 20
154.4085419955581
  0
LWPOLYLINE
  5
168
330
1F
100
AcDbEntity
  8
0
  6
CONTINUOUS
 62
     7
100
AcDbPolyline
 90
      113
 70
     0
 43
0.0
 10
677.031539887791
 20
66.29688575651224
 10
676.9897399470121
 20
66.54435585952224
 10
676.9479400062345
 20
66.82173190559554
 10
676.9061400654584
 20
67.12877619406311
 10
676.8643401246836
 20
67.46525102425589
 10
676.8225401839103
 20
67.83091869550485
 10
676.7807402431384
 20
68.22554150714089
 10
676.738940302368
 20
68.64888175849502
 10
676.6971403615988
 20
69.10070174889815
 10
676.6553404208315
 20
69.58076320261524
 10
676.6135404800657
 20
70.08876576371193
 10
676.5717405393013
 20
70.62429234569096
 10
676.5299405985385
 20
71.18691297107192
 10
676.4881406577774
 20
71.77619766237437
 10
676.4463407170177
 20
72.39171644211784
 10
676.4045407762596
 20
73.03303933282191
 10
676.3627408355031
 20
73.6997363570061
 10
676.3209408947481
 20
74.39137753718997
 10
676.279140953995
 20
75.10753289589312
 10
676.2373410132434
 20
75.84777190411671
 10
676.1955410724934
 20
76.61161026233542
 10
676.1537411317449
 20
77.39846557454963
 10
676.1119411909982
 20
78.20774501049434
 10
676.0701412502531
 20
79.03885573990443
 10
676.0283413095095
 20
79.8912049325149
 10
675.9865413687677
 20
80.76419975806067
 10
675.9447414280273
 20
81.65724738627675
 10
675.9029414872886
 20
82.56975498689808
 10
675.8611415465515
 20
83.5011297296596
 10
675.8193416058161
 20
84.45077831767688
 10
675.7775416650824
 20
85.41806618172639
 10
675.7357417243499
 20
86.40228568949708
 10
675.6939417836194
 20
87.40272172623511
 10
675.6521418428902
 20
88.41865917718664
 10
675.6103419021625
 20
89.44938292759781
 10
675.5685419614365
 20
90.49417786271476
 10
675.526742020712
 20
91.55232886778367
 10
675.4849420799891
 20
92.62312082805065
 10
675.4431421392677
 20
93.70583862876188
 10
675.4013421985476
 20
94.79976684123993
 10
675.359542257829
 20
95.90416474191058
 10
675.317742317112
 20
97.01824815100741
 10
675.2759423763965
 20
98.14122860570106
 10
675.2341424356822
 20
99.27231764316213
 10
675.1923424949694
 20
100.4107268005613
 10
675.150542554258
 20
101.5556676150691
 10
675.1087426135479
 20
102.7063516238563
 10
675.0669426728389
 20
103.8619903640933
 10
675.0251427321314
 20
105.021795372951
 10
674.9833427914252
 20
106.1849780949013
 10
674.9415428507202
 20
107.3507431439415
 10
674.8997429100164
 20
108.5182837447643
 10
674.8579429693137
 20
109.6867920422008
 10
674.8161430286124
 20
110.855460181082
 10
674.774343087912
 20
112.0234803062393
 10
674.7325431472128
 20
113.1900445625035
 10
674.6907432065145
 20
114.3543450947058
 10
674.6489432658175
 20
115.5155740476774
 10
674.6071433251212
 20
116.6729235662494
 10
674.5653433844261
 20
117.8255859861157
 10
674.5235434437319
 20
118.9727665491671
 10
674.4817435030384
 20
120.1136913862836
 10
674.4399435623459
 20
121.2475885327408
 10
674.3981436216543
 20
122.3736860238142
 10
674.3563436809632
 20
123.4912118947792
 10
674.3145437402729
 20
124.5993941809114
 10
674.2727437995835
 20
125.6974609174864
 10
674.2309438588948
 20
126.7846401397795
 10
674.1891439182066
 20
127.8601598830663
 10
674.1473439775189
 20
128.9232487055748
 10
674.1055440368318
 20
129.973167722977
 10
674.0637440961453
 20
131.0092292056154
 10
674.0219441554592
 20
132.0307499059548
 10
673.9801442147736
 20
133.0370465764604
 10
673.9383442740883
 20
134.0274359695971
 10
673.8965443334033
 20
135.0012348378299
 10
673.8547443927187
 20
135.9577599336237
 10
673.8129444520343
 20
136.8963280094435
 10
673.7711445113503
 20
137.8162558177544
 10
673.729344570666
 20
138.7168609931557
 10
673.6875446299822
 20
139.5975118861849
 10
673.6457446892985
 20
140.4576542108238
 10
673.6039447486147
 20
141.2967401924171
 10
673.562144807931
 20
142.1142220563091
 10
673.5203448672472
 20
142.9095520278443
 10
673.4785449265634
 20
143.6821823323671
 10
673.4367449858794
 20
144.431565195222
 10
673.3949450451952
 20
145.1571528417535
 10
673.3531451045106
 20
145.858397497306
 10
673.3113451638262
 20
146.534752627341
 10
673.2695452231412
 20
147.1857377226808
 10
673.2277452824561
 20
147.8109700646106
 10
673.1859453417704
 20
148.4100748364248
 10
673.1441454010844
 20
148.9826772214178
 10
673.102345460398
 20
149.528402402884
 10
673.0605455197111
 20
150.0468755641178
 10
673.0187455790235
 20
150.5377218884135
 10
672.9769456383353
 20
151.0005665590655
 10
672.9351456976467
 20
151.4350347593682
 10
672.8933457569574
 20
151.8407532359616
 10
672.851545816267
 20
152.2174260167353
 10
672.8097458755763
 20
152.5648682745321
 10
672.7679459348847
 20
152.8829037998856
 10
672.7261459941923
 20
153.1713563833293
 10
672.6843460534991
 20
153.4300498153969
 10
672.642546112805
 20
153.658807886622
 10
672.6007461721098
 20
153.8574543875382
 10
672.5589462314138
 20
154.0258131086792
 10
672.5171462907167
 20
154.1637078405784
 10
672.4753463500189
 20
154.2709641891511
 10
672.4335464093197
 20
154.3474912848386
 10
672.3917464686197
 20
154.3933149101639
 10
672.3499465279176
 20
154.4084695211874
  0
LWPOLYLINE
  5
169
330
1F
100
AcDbEntity
  8
0
  6
CONTINUOUS
 62
     7
100
AcDbPolyline
 90
      113
 70
     0
 43
0.0
 10
687.0320370674643
 20
66.29419908927115
 10
686.9902269546283
 20
66.5413816362582
 10
686.9484168417937
 20
66.8184613271746
 10
686.9066067289604
 20
67.1252104517205
 10
686.8647966161286
 20
67.46140129959598
 10
686.8229865032982
 20
67.82680616050114
 10
686.7811763904691
 20
68.22119732413606
 10
686.7393662776417
 20
68.64434708020084
 10
686.6975561648155
 20
69.0960277183956
 10
686.6557460519912
 20
69.57599784444932
 10
686.6139359391682
 20
70.08389750408868
 10
686.5721258263468
 20
70.61930592591115
 10
686.5303157135271
 20
71.18180184267715
 10
686.4885056007088
 20
71.77096398714707
 10
686.446695487892
 20
72.3863710920814
 10
686.4048853750769
 20
73.02760189024053
 10
686.3630752622634
 20
73.6942351143849
 10
686.3212651494514
 20
74.38584949727493
 10
686.2794550366411
 20
75.10202377167104
 10
686.2376449238325
 20
75.84232438516202
 10
686.1958348110254
 20
76.6062160025728
 10
686.15402469822
 20
77.39311298459369
 10
686.112214585416
 20
78.2024293350168
 10
686.070404472614
 20
79.03357905763454
 10
686.0285943598133
 20
79.88597615623907
 10
685.9867842470145
 20
80.75903463462267
 10
685.9449741342171
 20
81.65216849657754
 10
685.9031640214213
 20
82.56479174589599
 10
685.8613539086274
 20
83.49631838637025
 10
685.8195437958348
 20
84.44615262622209
 10
685.7777336830438
 20
85.41362103129926
 10
685.7359235702546
 20
86.39801320317201
 10
685.6941134574669
 20
87.398618517295
 10
685.6523033446806
 20
88.41472634912299
 10
685.610493231896
 20
89.44562607411066
 10
685.5686831191132
 20
90.49060706771272
 10
685.5268730063317
 20
91.54895870538385
 10
685.4850628935516
 20
92.61997036257877
 10
685.443252780773
 20
93.70293141475217
 10
685.401442667996
 20
94.79712494763733
 10
685.3596325552205
 20
95.90178633018598
 10
685.3178224424464
 20
97.01612905284354
 10
685.2760123296738
 20
98.13936649186849
 10
685.2342022169025
 20
99.27071202351931
 10
685.1923921041326
 20
100.4093790240545
 10
685.1505819913642
 20
101.5545808697325
 10
685.1087718785969
 20
102.7055309368119
 10
685.0669617658313
 20
103.8614426015511
 10
685.0251516530666
 20
105.0215292402087
 10
684.9833415403033
 20
106.1850022988304
 10
684.9415314275413
 20
107.351059201907
 10
684.8997213147805
 20
108.518891183622
 10
684.8579112020208
 20
109.6876894509221
 10
684.8161010892624
 20
110.856645210754
 10
684.774290976505
 20
112.0249496700643
 10
684.7324808637488
 20
113.1917940357996
 10
684.6906707509935
 20
114.3563695149065
 10
684.6488606382394
 20
115.5178673143319
 10
684.6070505254862
 20
116.6754786410223
 10
684.565240412734
 20
117.8283977383512
 10
684.5234302999827
 20
118.9758399783662
 10
684.4816201872322
 20
120.1170297128148
 10
684.4398100744827
 20
121.2511913262968
 10
684.3979999617341
 20
122.3775492034119
 10
684.3561898489861
 20
123.4953277287595
 10
684.314379736239
 20
124.6037512869394
 10
684.2725696234922
 20
125.7020442625512
 10
684.2307595107463
 20
126.7894310401945
 10
684.1889493980013
 20
127.8651360044689
 10
684.1471392852568
 20
128.9283918309835
 10
684.1053291725127
 20
129.9784864780463
 10
684.063519059769
 20
131.014730516784
 10
684.0217089470259
 20
132.0364345860157
 10
683.9798988342832
 20
133.0429093245605
 10
683.9380887215408
 20
134.0334653712375
 10
683.8962786087989
 20
135.0074133648657
 10
683.854468496057
 20
135.9640639442643
 10
683.8126583833157
 20
136.9027277482523
 10
683.7708482705746
 20
137.8227154156488
 10
683.7290381578335
 20
138.7233510451739
 10
683.6872280450926
 20
139.6040447630885
 10
683.645417932352
 20
140.4642405550977
 10
683.603607819611
 20
141.3033824882964
 10
683.5617977068705
 20
142.1209146297793
 10
683.5199875941296
 20
142.9162810466415
 10
683.4781774813887
 20
143.6889258059776
 10
683.4363673686477
 20
144.4382929748825
 10
683.3945572559065
 20
145.1638266204511
 10
683.3527471431651
 20
145.8649708097781
 10
683.3109370304235
 20
146.5411877492831
 10
683.2691269176815
 20
147.1920508082186
 10
683.2273168049394
 20
147.8171754458685
 10
683.1855066921968
 20
148.4161772009553
 10
683.1436965794536
 20
148.9886716122019
 10
683.1018864667102
 20
149.534274218331
 10
683.0600763539661
 20
150.0526005580653
 10
683.0182662412215
 20
150.5432661701275
 10
682.9764561284763
 20
151.0058865932403
 10
682.9346460157306
 20
151.4400773661266
 10
682.8928359029842
 20
151.8454759518397
 10
682.8510257902371
 20
152.2218486753759
 10
682.8092156774893
 20
152.5690087886865
 10
682.7674055647407
 20
152.8867696114043
 10
682.7255954519912
 20
153.1749444631623
 10
682.6837853392409
 20
153.4333466635935
 10
682.6419752264896
 20
153.6617895323307
 10
682.6001651137377
 20
153.8600863890071
 10
682.5583550009845
 20
154.0280505532553
 10
682.5165448882307
 20
154.1654953447086
 10
682.4747347754758
 20
154.272258523514
 10
682.4329246627195
 20
154.3483156575919
 10
682.3911145499621
 20
154.3936905708718
 10
682.349304437203
 20
154.4084071387245
  0
LWPOLYLINE
  5
16A
330
1F
100
AcDbEntity
  8
0
  6
CONTINUOUS
 62
     7
100
AcDbPolyline
 90
      113
 70
     0
 43
0.0
 10
697.0316202866497
 20
66.296597839507
 10
696.989822478928
 20
66.54399340796378
 10
696.9480246712076
 20
66.8212453330654
 10
696.9062268634887
 20
67.12813629962426
 10
696.8644290557709
 20
67.46444899245274
 10
696.822631248055
 20
67.8299660963633
 10
696.7808334403403
 20
68.22447029616828
 10
696.7390356326271
 20
68.64774427668011
 10
696.6972378249153
 20
69.0995701635587
 10
696.6554400172051
 20
69.57966772603386
 10
696.6136422094967
 20
70.08763837923594
 10
696.5718444017893
 20
70.62307031644265
 10
696.5300465940838
 20
71.18555173093175
 10
696.4882487863797
 20
71.77467081598095
 10
696.4464509786774
 20
72.39001576486807
 10
696.4046531709764
 20
73.03117477087079
 10
696.3628553632774
 20
73.69773602726688
 10
696.3210575555796
 20
74.38928772733409
 10
696.2792597478835
 20
75.10541752514003
 10
696.2374619401893
 20
75.84565859493728
 10
696.1956641324964
 20
76.6094436488443
 10
696.1538663248052
 20
77.39619456917778
 10
696.1120685171157
 20
78.20533323825441
 10
696.0702707094277
 20
79.03628153839087
 10
696.0284729017413
 20
79.88846135190383
 10
695.9866750940565
 20
80.76129456111
 10
695.9448772863736
 20
81.6542030483261
 10
695.9030794786921
 20
82.56660869586875
 10
695.8612816710123
 20
83.49793292475906
 10
695.8194838633341
 20
84.44755475007851
 10
695.7776860556572
 20
85.4147772056677
 10
695.7358882479823
 20
86.39889542437331
 10
695.6940904403089
 20
87.3992045390419
 10
695.652292632637
 20
88.41499968252006
 10
695.6104948249664
 20
89.4455759876544
 10
695.5686970172978
 20
90.4902285872915
 10
695.5268992096305
 20
91.54825261427798
 10
695.4851014019647
 20
92.61894320146043
 10
695.4433035943005
 20
93.7015951622996
 10
695.4015057866377
 20
94.79547649211733
 10
695.3597079789764
 20
95.89980849153973
 10
695.3179101713166
 20
97.01380777909739
 10
695.2761123636581
 20
98.13669097332087
 10
695.2343145560011
 20
99.26767469274073
 10
695.1925167483455
 20
100.4059755558876
 10
695.1507189406914
 20
101.550810181292
 10
695.1089211330384
 20
102.7013951874845
 10
695.0671233253868
 20
103.8569471929957
 10
695.0253255177364
 20
105.0166827035636
 10
694.9835277100874
 20
106.1798095428481
 10
694.9417299024398
 20
107.345520843008
 10
694.899932094793
 20
108.5130083162687
 10
694.8581342871478
 20
109.6814636748552
 10
694.8163364795035
 20
110.8500786309927
 10
694.7745386718603
 20
112.0180448969065
 10
694.7327408642184
 20
113.1845541848219
 10
694.6909430565772
 20
114.3487982069639
 10
694.6491452489374
 20
115.5099686755579
 10
694.6073474412985
 20
116.6672574555598
 10
694.5655496336605
 20
117.8198672249371
 10
694.5237518260234
 20
118.9670184458873
 10
694.4819540183872
 20
120.1079332367181
 10
694.440156210752
 20
121.2418337157371
 10
694.3983584031174
 20
122.3679420012519
 10
694.3565605954836
 20
123.4854802115702
 10
694.3147627878508
 20
124.5936704649997
 10
694.2729649802185
 20
125.691734879848
 10
694.2311671725868
 20
126.7788955744227
 10
694.1893693649557
 20
127.8543751313983
 10
694.1475715573254
 20
128.9174264653332
 10
694.1057737496956
 20
129.9673509832178
 10
694.0639759420663
 20
131.0034544410946
 10
694.0221781344372
 20
132.0250425950062
 10
693.9803803268088
 20
133.0314212009949
 10
693.9385825191808
 20
134.0218960151032
 10
693.896784711553
 20
134.9957727933736
 10
693.8549869039258
 20
135.9523572918487
 10
693.8131890962985
 20
136.8909552665707
 10
693.7713912886715
 20
137.8108732758167
 10
693.7295934810447
 20
138.7114663624634
 10
693.687795673418
 20
139.5921649227721
 10
693.6459978657916
 20
140.4524058587124
 10
693.604200058165
 20
141.2916260722538
 10
693.5624022505385
 20
142.1092624653659
 10
693.520604442912
 20
142.9047519400183
 10
693.4788066352852
 20
143.6775313981805
 10
693.4370088276586
 20
144.4270377418221
 10
693.3952110200316
 20
145.1527078729127
 10
693.3534132124045
 20
145.8539798335312
 10
693.3116154047772
 20
146.530355591138
 10
693.2698175971493
 20
147.181433703307
 10
693.2280197895215
 20
147.8068207516079
 10
693.1862219818929
 20
148.4061233176101
 10
693.1444241742643
 20
148.978947982883
 10
693.1026263666349
 20
149.524901328996
 10
693.0608285590052
 20
150.0435899375186
 10
693.0190307513749
 20
150.5346203900204
 10
692.977232943744
 20
150.9975992680706
 10
692.9354351361125
 20
151.4321346001362
 10
692.8936373284803
 20
151.8379098666499
 10
692.8518395208475
 20
152.2147193951074
 10
692.8100417132139
 20
152.5623663689123
 10
692.7682439055795
 20
152.880653971468
 10
692.7264460979442
 20
153.1693853861782
 10
692.6846482903084
 20
153.4283637964465
 10
692.6428504826714
 20
153.6573923856764
 10
692.6010526750337
 20
153.8562743372715
 10
692.5592548673948
 20
154.0248128346354
 10
692.517457059755
 20
154.1628127499936
 10
692.4756592521144
 20
154.2701610537161
 10
692.4338614444724
 20
154.3468619931979
 10
692.3920636368294
 20
154.3929288221421
 10
692.3502658291845
 20
154.4083747942517
  0
LWPOLYLINE
  5
16B
330
1F
100
AcDbEntity
  8
0
  6
CONTINUOUS
 62
     7
100
AcDbPolyline
 90
      113
 70
     0
 43
0.0
 10
707.0316233665227
 20
66.29666275817536
 10
706.9898231928657
 20
66.54405018785172
 10
706.9480230192096
 20
66.82128143066312
 10
706.9062228455556
 20
67.12814936776556
 10
706.8644226719027
 20
67.46444688031495
 10
706.822622498251
 20
67.82996684946725
 10
706.7808223246011
 20
68.22450215637843
 10
706.7390221509526
 20
68.64784568220446
 10
706.6972219773055
 20
69.09977609978776
 10
706.6554218036601
 20
69.57995173840581
 10
706.6136216300162
 20
70.08797034342605
 10
706.5718214563736
 20
70.62342919928149
 10
706.5300212827327
 20
71.1859255904051
 10
706.4882211090933
 20
71.77505680122987
 10
706.4464209354555
 20
72.39042011618875
 10
706.4046207618193
 20
73.03161281971474
 10
706.3628205881847
 20
73.69823219624082
 10
706.3210204145518
 20
74.38987553019996
 10
706.2792202409204
 20
75.10612735413045
 10
706.2374200672906
 20
75.84646808569136
 10
706.1956198936624
 20
76.61032731483807
 10
706.153819720036
 20
77.39713428773233
 10
706.1120195464111
 20
78.20631825053584
 10
706.0702193727878
 20
79.03730844941033
 10
706.0284191991663
 20
79.88953413051756
 10
705.9866190255461
 20
80.76242454001923
 10
705.9448188519277
 20
81.6554089240771
 10
705.9030186783108
 20
82.56791652885286
 10
705.8612185046956
 20
83.49936638160916
 10
705.8194183310819
 20
84.44909705727221
 10
705.7776181574701
 20
85.41640904880872
 10
705.7358179838596
 20
86.40060262168082
 10
705.6940178102508
 20
87.40097804135054
 10
705.6522176366435
 20
88.41683557328007
 10
705.6104174630378
 20
89.44747548293142
 10
705.5686172894336
 20
90.49219803576673
 10
705.5268171158311
 20
91.55030349724811
 10
705.4850169422299
 20
92.62109213283763
 10
705.4432167686302
 20
93.7038575040455
 10
705.4014165950324
 20
94.7978422636135
 10
705.3596164214356
 20
95.9022657026004
 10
705.3178162478404
 20
97.01634698968986
 10
705.2760160742467
 20
98.13930529356554
 10
705.2342159006546
 20
99.2703597829112
 10
705.1924157270632
 20
100.4087296264104
 10
705.1506155534737
 20
101.5536339927469
 10
705.1088153798856
 20
102.7042920506044
 10
705.0670152062986
 20
103.8599229686666
 10
705.0252150327129
 20
105.0197435309855
 10
704.9834148591286
 20
106.1829530500002
 10
704.9416146855455
 20
107.3487430665232
 10
704.8998145119637
 20
108.5163050859594
 10
704.8580143383829
 20
109.684830613714
 10
704.8162141648031
 20
110.8535111551917
 10
704.7744139912248
 20
112.0215382157977
 10
704.7326138176473
 20
113.188103300937
 10
704.6908136440711
 20
114.3523979160144
 10
704.6490134704959
 20
115.513613566435
 10
704.6072132969216
 20
116.6709442428011
 10
704.5654131233481
 20
117.8236015083925
 10
704.523612949776
 20
118.9708045021292
 10
704.4818127762044
 20
120.1117723926781
 10
704.4400126026337
 20
121.2457243487064
 10
704.3982124290637
 20
122.3718795388813
 10
704.3564122554948
 20
123.4894571318699
 10
704.3146120819265
 20
124.5976762963393
 10
704.2728119083589
 20
125.6957562009567
 10
704.2310117347918
 20
126.782916014389
 10
704.1892115612256
 20
127.8583824938258
 10
704.1474113876598
 20
128.9214341938017
 10
704.1056112140946
 20
129.9713713072642
 10
704.0638110405299
 20
131.0074940996435
 10
704.0220108669656
 20
132.0291028363695
 10
703.9802106934019
 20
133.0354977828725
 10
703.9384105198384
 20
134.0259792045825
 10
703.8966103462753
 20
134.9998473669297
 10
703.8548101727125
 20
135.9564025353442
 10
703.8130099991502
 20
136.8949449752562
 10
703.7712098255879
 20
137.8147875163706
 10
703.7294096520257
 20
138.7153257943703
 10
703.6876094784636
 20
139.5959889607123
 10
703.6458093049017
 20
140.4562062615132
 10
703.6040091313398
 20
141.2954069428895
 10
703.562208957778
 20
142.1130202509577
 10
703.5204087842161
 20
142.9084754318343
 10
703.4786086106541
 20
143.6812017316358
 10
703.4368084370922
 20
144.4306283964789
 10
703.3950082635297
 20
145.15618467248
 10
703.3532080899673
 20
145.857316837107
 10
703.3114079164046
 20
146.5335795707627
 10
703.2696077428415
 20
147.1845700579545
 10
703.2278075692781
 20
147.8098855830598
 10
703.1860073957145
 20
148.4091234304564
 10
703.1442072221505
 20
148.9818808845219
 10
703.1024070485856
 20
149.5277552296338
 10
703.0606068750205
 20
150.04634375017
 10
703.0188067014549
 20
150.5372437305079
 10
702.9770065278886
 20
151.0000524550252
 10
702.9352063543217
 20
151.4343878241679
 10
702.8934061807543
 20
151.8399944896332
 10
702.851606007186
 20
152.2166652398654
 10
702.809805833617
 20
152.5641929559588
 10
702.7680056600474
 20
152.8823705190075
 10
702.7262054864768
 20
153.1709908101058
 10
702.6844053129056
 20
153.429846710348
 10
702.6426051393332
 20
153.6587311008284
 10
702.6008049657601
 20
153.8574368626412
 10
702.559004792186
 20
154.0257568768806
 10
702.5172046186107
 20
154.163507005822
 10
702.4754044450347
 20
154.2706396182405
 10
702.4336042714575
 20
154.3471572876803
 10
702.3918040978791
 20
154.3930626654205
 10
702.3500039242997
 20
154.4083584027406
  0
LWPOLYLINE
  5
16C
330
1F
100
AcDbEntity
  8
0
  6
CONTINUOUS
 62
     7
100
AcDbPolyline
 90
      113
 70
     0
 43
0.0
 10
717.0316461974704
 20
66.29661027298764
 10
716.9898452686824
 20
66.54395592566907
 10
716.9480443398959
 20
66.82113575073019
 10
716.9062434111107
 20
67.12795288754401
 10
716.8644424823268
 20
67.46421047548345
 10
716.8226415535445
 20
67.82971165392149
 10
716.7808406247636
 20
68.22425956223105
 10
716.7390396959842
 20
68.64765678210247
 10
716.6972387672062
 20
69.09964299986082
 10
716.6554378384299
 20
69.5798381408255
 10
716.6136369096549
 20
70.0878486984848
 10
716.5718359808816
 20
70.62328116632699
 10
716.5300350521098
 20
71.18574203784038
 10
716.4882341233397
 20
71.77483780651325
 10
716.446433194571
 20
72.39017496583389
 10
716.4046322658039
 20
73.0313600092906
 10
716.3628313370384
 20
73.69799943037162
 10
716.3210304082745
 20
74.38969917492648
 10
716.2792294795122
 20
75.10600964089424
 10
716.2374285507516
 20
75.84637867515012
 10
716.1956276219926
 20
76.61024305355947
 10
716.1538266932353
 20
77.3970395519877
 10
716.1120257644793
 20
78.20620494630015
 10
716.0702248357252
 20
79.03717601236227
 10
716.0284239069726
 20
79.88938952603935
 10
715.9866229782216
 20
80.76228226319684
 10
715.9448220494724
 20
81.65529099970009
 10
715.9030211207247
 20
82.5678520323753
 10
715.8612201919788
 20
83.49935774366483
 10
715.8194192632342
 20
84.44912190014158
 10
715.7776183344914
 20
85.41645010235032
 10
715.7358174057499
 20
86.40064795083586
 10
715.6940164770103
 20
87.40102104614293
 10
715.6522155482722
 20
88.41687498881636
 10
715.6104146195357
 20
89.44751537940087
 10
715.5686136908006
 20
90.49224781844126
 10
715.526812762067
 20
91.55037790648228
 10
715.4850118333352
 20
92.62121090000394
 10
715.4432109046048
 20
93.70402342179533
 10
715.4014099758756
 20
94.79804238224231
 10
715.3596090471481
 20
95.90248972540235
 10
715.3178081184221
 20
97.01658739533283
 10
715.2760071896975
 20
98.13955733609112
 10
715.2342062609742
 20
99.27062149173462
 10
715.1924053322524
 20
100.4090018063207
 10
715.1506044035319
 20
101.5539202239068
 10
715.1088034748128
 20
102.7045986885503
 10
715.0670025460948
 20
103.8602590040748
 10
715.0252016173786
 20
105.0201123360527
 10
714.9834006886634
 20
106.1833519360695
 10
714.9415997599493
 20
107.3491693352716
 10
714.8997988312365
 20
108.5167560648058
 10
714.8579979025247
 20
109.6853036558185
 10
714.8161969738145
 20
110.8540036394565
 10
714.7743960451049
 20
112.0220475468661
 10
714.7325951163969
 20
113.1886269091942
 10
714.6907941876896
 20
114.3529332575871
 10
714.6489932589836
 20
115.5141582514341
 10
714.6071923302783
 20
116.6715024517001
 10
714.5653914015742
 20
117.8241809595919
 10
714.5235904728709
 20
118.9714102181248
 10
714.4817895441686
 20
120.1124066703139
 10
714.439988615467
 20
121.2463867591743
 10
714.3981876867663
 20
122.3725669277209
 10
714.3563867580663
 20
123.490163618969
 10
714.314585829367
 20
124.5983932759337
 10
714.2727849006686
 20
125.6964723416301
 10
714.2309839719705
 20
126.7836177086549
 10
714.1891830432735
 20
127.8590749226698
 10
714.1473821145769
 20
128.9221349343842
 10
714.1055811858809
 20
129.9720927187032
 10
714.0637802571852
 20
131.0082432505318
 10
714.0219793284903
 20
132.0298815047752
 10
713.9801783997955
 20
133.0363024563383
 10
713.9383774711013
 20
134.0268010801262
 10
713.8965765424073
 20
135.0006723510441
 10
713.8547756137136
 20
135.9572112439968
 10
713.8129746850203
 20
136.8957135380913
 10
713.771173756327
 20
137.8155222243074
 10
713.7293728276342
 20
138.7160528800821
 10
713.6875718989412
 20
139.5967272581728
 10
713.6457709702485
 20
140.4569671113367
 10
713.6039700415557
 20
141.2961941923311
 10
713.5621691128629
 20
142.1138302539131
 10
713.5203681841701
 20
142.9092970488403
 10
713.4785672554773
 20
143.6820163298697
 10
713.4367663267842
 20
144.4314098497586
 10
713.3949653980912
 20
145.1569005265303
 10
713.3531644693978
 20
145.8579744800008
 10
713.3113635407042
 20
146.5342121156015
 10
713.2695626120103
 20
147.1852015342988
 10
713.2277616833161
 20
147.810530837059
 10
713.1859607546215
 20
148.4097881248486
 10
713.1441598259266
 20
148.9825614986339
 10
713.1023588972309
 20
149.5284390593814
 10
713.0605579685351
 20
150.0470089080575
 10
713.0187570398385
 20
150.5378591456285
 10
712.9769561111415
 20
151.0005793731286
 10
712.9351551824437
 20
151.4348345680104
 10
712.8933542537454
 20
151.8403988268573
 10
712.8515533250462
 20
152.2170547857354
 10
712.8097523963464
 20
152.5645850807109
 10
712.7679514676458
 20
152.8827723478498
 10
712.7261505389444
 20
153.1713992232183
 10
712.6843496102422
 20
153.4302483428825
 10
712.642548681539
 20
153.6591023429087
 10
712.6007477528349
 20
153.8577438593628
 10
712.5589468241301
 20
154.0259573005484
 10
712.517145895424
 20
154.1636097899978
 10
712.4753449667169
 20
154.2706846590274
 10
712.4335440380088
 20
154.3471739533547
 10
712.3917431092997
 20
154.3930697186971
 10
712.3499421805898
 20
154.4083640007721
  0
LWPOLYLINE
  5
16D
330
1F
100
AcDbEntity
  8
0
  6
CONTINUOUS
 62
     7
100
AcDbPolyline
 90
      113
 70
     0
 43
0.0
 10
727.0315865067698
 20
66.2970034996412
 10
726.9897864891939
 20
66.54434915836647
 10
726.9479864716193
 20
66.82152173973161
 10
726.9061864540461
 20
67.1283346986237
 10
726.8643864364743
 20
67.46460148992989
 10
726.822586418904
 20
67.83013556853726
 10
726.7807864013349
 20
68.22475038933294
 10
726.7389863837676
 20
68.64824506508091
 10
726.6971863662018
 20
69.10029712916584
 10
726.6553863486373
 20
69.58052286600537
 10
726.6135863310744
 20
70.08853809280143
 10
726.5717863135131
 20
70.62395862675595
 10
726.5299862959534
 20
71.18640028507083
 10
726.4881862783952
 20
71.775478884948
 10
726.4463862608386
 20
72.3908102435894
 10
726.4045862432833
 20
73.03201017819691
 10
726.3627862257299
 20
73.6986945059725
 10
726.3209862081783
 20
74.39046605588561
 10
726.2791861906279
 20
75.10682151076647
 10
726.2373861730792
 20
75.847205692253
 10
726.1955861555323
 20
76.61106307008748
 10
726.1537861379869
 20
77.39783811401222
 10
726.1119861204431
 20
78.20697529376946
 10
726.0701861029008
 20
79.03791907910156
 10
726.0283860853602
 20
79.89011393975075
 10
725.9865860678215
 20
80.76300434545935
 10
725.9447860502839
 20
81.65603476596965
 10
725.9029860327485
 20
82.56863912076061
 10
725.8611860152145
 20
83.5001681791419
 10
725.8193859976819
 20
84.4499333154325
 10
725.777585980151
 20
85.41724566771346
 10
725.7357859626218
 20
86.4014163740658
 10
725.693985945094
 20
87.40175657257049
 10
725.652185927568
 20
88.41757740130862
 10
725.6103859100433
 20
89.44818999836112
 10
725.5685858925203
 20
90.49290550180905
 10
725.5267858749991
 20
91.55103504973344
 10
725.484985857479
 20
92.62188266496757
 10
725.4431858399604
 20
93.70469827429041
 10
725.4013858224436
 20
94.79870695476308
 10
725.359585804928
 20
95.90313365269638
 10
725.317785787414
 20
97.01720331440099
 10
725.2759857699014
 20
98.14014088618771
 10
725.23418575239
 20
99.27117131436728
 10
725.1923857348802
 20
100.4095195452505
 10
725.1505857173719
 20
101.554410525148
 10
725.1087856998648
 20
102.7050692003707
 10
725.0669856823589
 20
103.8607176636259
 10
725.0251856648543
 20
105.0205570728984
 10
724.9833856473513
 20
106.1837792635526
 10
724.9415856298491
 20
107.3495760282564
 10
724.8997856123483
 20
108.5171391596783
 10
724.8579855948487
 20
109.6856604504864
 10
724.8161855773502
 20
110.8543316933488
 10
724.7743855598529
 20
112.022344680934
 10
724.7325855423567
 20
113.18889120591
 10
724.6907855248617
 20
114.3531630609451
 10
724.6489855073673
 20
115.5143540256655
 10
724.6071854898744
 20
116.6716719490833
 10
724.5653854723822
 20
117.8243307531153
 10
724.5235854548907
 20
118.9715443836701
 10
724.4817854374003
 20
120.1125267866564
 10
724.439985419911
 20
121.2464919079829
 10
724.3981854024222
 20
122.3726536935582
 10
724.3563853849341
 20
123.490226089291
 10
724.314585367447
 20
124.5984230410899
 10
724.2727853499604
 20
125.6964584948636
 10
724.2309853324748
 20
126.7835534905424
 10
724.1891853149895
 20
127.8589775633126
 10
724.1473852975049
 20
128.9220205347903
 10
724.1055852800209
 20
129.971972295027
 10
724.0637852625373
 20
131.0081227340741
 10
724.0219852450542
 20
132.0297617419829
 10
723.9801852275716
 20
133.0361792088051
 10
723.9383852100893
 20
134.0266650245918
 10
723.8965851926073
 20
135.0005090793947
 10
723.8547851751257
 20
135.957001263265
 10
723.8129851576442
 20
136.8954435753388
 10
723.7711851401633
 20
137.8152179500736
 10
723.7293851226822
 20
138.7157387233258
 10
723.6875851052012
 20
139.5964203232165
 10
723.6457850877205
 20
140.4566771778666
 10
723.6039850702397
 20
141.2959237153968
 10
723.562185052759
 20
142.113574363928
 10
723.5203850352782
 20
142.9090435515812
 10
723.4785850177975
 20
143.6817457064771
 10
723.4367850003165
 20
144.4310952567367
 10
723.3949849828352
 20
145.1565232816931
 10
723.3531849653541
 20
145.8575670271385
 10
723.3113849478724
 20
146.5338054319578
 10
723.2695849303905
 20
147.1848175339346
 10
723.2277849129083
 20
147.8101823708522
 10
723.1859848954257
 20
148.4094789804943
 10
723.1441848779427
 20
148.9822864006442
 10
723.1023848604592
 20
149.5281836690855
 10
723.0605848429752
 20
150.0467498236016
 10
723.0187848254907
 20
150.537563901976
 10
722.9769848080055
 20
151.0002252862743
 10
722.9351847905198
 20
151.434458668199
 10
722.8933847730335
 20
151.8400364095272
 10
722.8515847555464
 20
152.2167309648031
 10
722.8097847380586
 20
152.5643147885714
 10
722.76798472057
 20
152.8825603353761
 10
722.7261847030805
 20
153.1712400597619
 10
722.6843846855903
 20
153.430126416273
 10
722.6425846680993
 20
153.6589918594538
 10
722.6007846506072
 20
153.8576088438489
 10
722.558984633114
 20
154.0257726699703
 10
722.5171846156203
 20
154.1634146049179
 10
722.475384598125
 20
154.2705160127185
 10
722.4335845806291
 20
154.3470583359666
 10
722.3917845631319
 20
154.393023017256
 10
722.3499845456336
 20
154.4083914991812
  0
LWPOLYLINE
  5
16E
330
1F
100
AcDbEntity
  8
0
  6
CONTINUOUS
 62
     7
100
AcDbPolyline
 90
      113
 70
     0
 43
0.0
 10
737.031533709706
 20
66.29734120270608
 10
736.9897346437102
 20
66.54467739239513
 10
736.9479355777162
 20
66.8218384311392
 10
736.9061365117233
 20
67.12864812059703
 10
736.864337445732
 20
67.46493026242737
 10
736.8225383797419
 20
67.83050865828892
 10
736.7807393137533
 20
68.22520653801975
 10
736.7389402477664
 20
68.64878344229788
 10
736.6971411817809
 20
69.10087807162797
 10
736.655342115797
 20
69.58111563289279
 10
736.6135430498144
 20
70.08912133297514
 10
736.5717439838336
 20
70.62452037875778
 10
736.5299449178541
 20
71.18693797712349
 10
736.4881458518763
 20
71.77599933495506
 10
736.4463467859001
 20
72.39132965913524
 10
736.4045477199254
 20
73.03255415654684
 10
736.3627486539523
 20
73.6992974706397
 10
736.3209495879807
 20
74.39112754183374
 10
736.2791505220109
 20
75.1075078718844
 10
736.2373514560429
 20
75.84789072057363
 10
736.195552390076
 20
76.61172834768338
 10
736.1537533241109
 20
77.39847301299558
 10
736.1119542581476
 20
78.2075769762922
 10
736.0701551921858
 20
79.0384924973551
 10
736.0283561262257
 20
79.89067183596626
 10
735.9865570602672
 20
80.76356725190762
 10
735.9447579943102
 20
81.65663050806012
 10
735.9029589283549
 20
82.5692679799022
 10
735.8611598624011
 20
83.50080488133106
 10
735.8193607964491
 20
84.45055800774173
 10
735.7775617304986
 20
85.41784415452909
 10
735.7357626645498
 20
86.40198011708807
 10
735.6939635986027
 20
87.40228269081366
 10
735.6521645326568
 20
88.41806867110073
 10
735.6103654667127
 20
89.44865485334424
 10
735.5685664007701
 20
90.49335803293911
 10
735.5267673348288
 20
91.551494640542
 10
735.4849682688894
 20
92.62235074469798
 10
735.4431692029513
 20
93.70515969629466
 10
735.4013701370147
 20
94.79914957909216
 10
735.3595710710796
 20
95.90354847685066
 10
735.3177720051459
 20
97.01758447333039
 10
735.2759729392137
 20
98.14048565229142
 10
735.2341738732828
 20
99.27148009749399
 10
735.1923748073533
 20
100.4097958926983
 10
735.1505757414254
 20
101.5546611216645
 10
735.1087766754986
 20
102.705303703453
 10
735.0669776095731
 20
103.860939015021
 10
735.0251785436491
 20
105.0207612862558
 10
734.9833794777263
 20
106.1839627127103
 10
734.9415804118047
 20
107.349735489937
 10
734.8997813458841
 20
108.5172718134885
 10
734.857982279965
 20
109.6857638789173
 10
734.816183214047
 20
110.8544038817761
 10
734.7743841481299
 20
112.0223840176175
 10
734.7325850822141
 20
113.188896481994
 10
734.6907860162993
 20
114.3531335694038
 10
734.6489869503856
 20
115.5142944913244
 10
734.6071878844729
 20
116.6715897857529
 10
734.565388818561
 20
117.8242310393473
 10
734.5235897526501
 20
118.9714298387656
 10
734.4817906867399
 20
120.1123977706657
 10
734.4399916208309
 20
121.2463464217057
 10
734.3981925549225
 20
122.3724873785435
 10
734.3563934890151
 20
123.4900322278373
 10
734.3145944231082
 20
124.5981925562449
 10
734.272795357202
 20
125.6961803650294
 10
734.2309962912965
 20
126.7832343486587
 10
734.1891972253918
 20
127.8586356560428
 10
734.1473981594876
 20
128.9216692172946
 10
734.1055990935839
 20
129.9716199625271
 10
734.0638000276809
 20
131.0077728218533
 10
734.0220009617781
 20
132.0294127253858
 10
733.9802018958758
 20
133.0358246032378
 10
733.9384028299739
 20
134.026293385522
 10
733.8966037640723
 20
135.0001040023513
 10
733.854804698171
 20
135.9565421470222
 10
733.81300563227
 20
136.8949389008227
 10
733.7712065663693
 20
137.8146954656713
 10
733.7294075004689
 20
138.7152190484789
 10
733.6876084345681
 20
139.5959168561562
 10
733.6458093686679
 20
140.456196095614
 10
733.6040103027674
 20
141.2954639737632
 10
733.5622112368671
 20
142.1131276975144
 10
733.5204121709669
 20
142.9085944737785
 10
733.4786131050664
 20
143.6812715094664
 10
733.4368140391656
 20
144.4305671301267
 10
733.395014973265
 20
145.1559512862468
 10
733.353215907364
 20
145.856986415463
 10
733.3114168414627
 20
146.5332425672358
 10
733.2696177755611
 20
147.1842897910256
 10
733.2278187096595
 20
147.809698136293
 10
733.1860196437572
 20
148.4090376524983
 10
733.1442205778545
 20
148.9818783891021
 10
733.1024215119515
 20
149.5277903955649
 10
733.060622446048
 20
150.0463437213471
 10
733.0188233801437
 20
150.5371098652437
 10
732.977024314239
 20
150.999734476881
 10
732.9352252483337
 20
151.4339713234473
 10
732.8934261824277
 20
151.8395827191362
 10
732.8516271165211
 20
152.2163309781408
 10
732.8098280506138
 20
152.5639784146546
 10
732.7680289847053
 20
152.8822873428708
 10
732.7262299187964
 20
153.1710200769828
 10
732.6844308528866
 20
153.429938931184
 10
732.6426317869759
 20
153.6588062196677
 10
732.6008327210643
 20
153.8573859768028
 10
732.5590336551516
 20
154.0255241684072
 10
732.5172345892379
 20
154.163182830054
 10
732.4754355233233
 20
154.2703328058784
 10
732.4336364574075
 20
154.3469449400154
 10
732.3918373914908
 20
154.3929900766003
 10
732.3500383255733
 20
154.4084390597682
  0
LWPOLYLINE
  5
16F
330
1F
100
AcDbEntity
  8
0
  6
CONTINUOUS
 62
     7
100
AcDbPolyline
 90
      113
 70
     0
 43
0.0
 10
747.0314455512698
 20
66.29785541570274
 10
746.989647231219
 20
66.54520706457293
 10
746.9478489111694
 20
66.82238687308562
 10
746.9060505911212
 20
67.12922901612644
 10
746.8642522710746
 20
67.46556766858102
 10
746.8224539510295
 20
67.83123700533497
 10
746.7806556309857
 20
68.22605660470865
 10
746.7388573109433
 20
68.64972314585333
 10
746.6970589909027
 20
69.10187174292696
 10
746.6552606708634
 20
69.58213705030371
 10
746.6134623508257
 20
70.09015372235787
 10
746.5716640307893
 20
70.62555641346354
 10
746.5298657107547
 20
71.187979777995
 10
746.4880673907218
 20
71.77705847032641
 10
746.4462690706902
 20
72.39242714483198
 10
746.4044707506603
 20
73.03372045588593
 10
746.362672430632
 20
73.70055974415374
 10
746.3208741106051
 20
74.39245812994606
 10
746.27907579058
 20
75.10887609910306
 10
746.2372774705565
 20
75.84927378665601
 10
746.1954791505345
 20
76.6131113276364
 10
746.1536808305142
 20
77.39984885707554
 10
746.1118825104955
 20
78.2089465100049
 10
746.0700841904784
 20
79.03986442145579
 10
746.0282858704629
 20
79.89206272645966
 10
745.9864875504493
 20
80.76500156004789
 10
745.944689230437
 20
81.65813011923588
 10
745.9028909104265
 20
82.57081174179244
 10
745.8610925904177
 20
83.50236922686494
 10
745.8192942704102
 20
84.45212513394029
 10
745.7774959504045
 20
85.41940202250531
 10
745.7356976304004
 20
86.4035224520469
 10
745.6938993103978
 20
87.40380898205193
 10
745.6521009903968
 20
88.41958417200725
 10
745.6103026703975
 20
89.45017058139973
 10
745.5685043503995
 20
90.49489076971626
 10
745.5267060304028
 20
91.55305974252443
 10
745.484907710408
 20
92.62393522850992
 10
745.4431093904147
 20
93.7067487066456
 10
745.4013110704228
 20
94.80073151918019
 10
745.3595127504326
 20
95.90511500836263
 10
745.3177144304435
 20
97.0191305164416
 10
745.275916110456
 20
98.14200938566607
 10
745.2341177904698
 20
99.27298295828474
 10
745.1923194704852
 20
100.4112825765465
 10
745.150521150502
 20
101.5561395827002
 10
745.1087228305197
 20
102.7067819898507
 10
745.0669245105393
 20
103.8624134211432
 10
745.0251261905598
 20
105.0222266514417
 10
744.9833278705817
 20
106.1854144062007
 10
744.9415295506047
 20
107.3511694108749
 10
744.8997312306293
 20
108.5186843909186
 10
744.8579329106548
 20
109.6871520717865
 10
744.8161345906813
 20
110.855765178933
 10
744.774336270709
 20
112.0237164378127
 10
744.7325379507379
 20
113.1901985738801
 10
744.690739630768
 20
114.354405803944
 10
744.6489413107989
 20
115.515542904162
 10
744.6071429908309
 20
116.6728192082455
 10
744.5653446708639
 20
117.8254440679056
 10
744.5235463508976
 20
118.9726268348536
 10
744.4817480309323
 20
120.1135768608006
 10
744.4399497109679
 20
121.2475034974578
 10
744.3981513910044
 20
122.3736160965364
 10
744.3563530710416
 20
123.4911240097475
 10
744.3145547510793
 20
124.5992365888024
 10
744.2727564311181
 20
125.6971697832952
 10
744.2309581111573
 20
126.7841847012118
 10
744.1891597911972
 20
127.8595613616533
 10
744.1473614712378
 20
128.9225798478777
 10
744.1055631512787
 20
129.9725202431434
 10
744.0637648313202
 20
131.0086626307087
 10
744.0219665113623
 20
132.0302870938316
 10
743.9801681914048
 20
133.0366737157706
 10
743.9383698714477
 20
134.0271025797838
 10
743.8965715514906
 20
135.0008537691294
 10
743.8547732315343
 20
135.9572190015276
 10
743.812974911578
 20
136.8955669876665
 10
743.771176591622
 20
137.8152977171855
 10
743.7293782716661
 20
138.7158112699108
 10
743.6875799517103
 20
139.5965077256684
 10
743.6457816317546
 20
140.4567871642843
 10
743.603983311799
 20
141.2960496655847
 10
743.5621849918433
 20
142.1136953093956
 10
743.5203866718875
 20
142.909124175543
 10
743.478588351932
 20
143.6817363438531
 10
743.4367900319761
 20
144.4309481163914
 10
743.3949917120201
 20
145.1562796134518
 10
743.353193392064
 20
145.8572918658572
 10
743.3113950721072
 20
146.5335460034709
 10
743.2695967521506
 20
147.1846031561559
 10
743.2277984321935
 20
147.8100244537754
 10
743.1860001122361
 20
148.4093710261926
 10
743.1442017922781
 20
148.9822040032706
 10
743.1024034723196
 20
149.5280845148725
 10
743.0606051523607
 20
150.0465736908616
 10
743.0188068324014
 20
150.5372526475424
 10
742.9770085124413
 20
150.9998262204923
 10
742.9352101924808
 20
151.4340465273992
 10
742.8934118725194
 20
151.8396657807286
 10
742.8516135525575
 20
152.2164361929457
 10
742.8098152325948
 20
152.5641099765159
 10
742.7680169126314
 20
152.8824393439046
 10
742.726218592667
 20
153.1711765075771
 10
742.684420272702
 20
153.4300736799986
 10
742.6426219527359
 20
153.6588830736347
 10
742.6008236327688
 20
153.8573794859781
 10
742.5590253128009
 20
154.0254729643243
 10
742.517226992832
 20
154.1631236783707
 10
742.4754286728622
 20
154.2702918796709
 10
742.4336303528913
 20
154.3469378197781
 10
742.3918320329192
 20
154.3930217502456
 10
742.3500337129464
 20
154.4085039226269
  0
LWPOLYLINE
  5
170
330
1F
100
AcDbEntity
  8
0
  6
CONTINUOUS
 62
     7
100
AcDbPolyline
 90
      113
 70
     0
 43
0.0
 10
757.0328157764634
 20
66.2902575381846
 10
756.9910053707733
 20
66.53666198043308
 10
756.9491949650845
 20
66.81292687132355
 10
756.9073845593973
 20
67.11889664320209
 10
756.8655741537112
 20
67.45441572841483
 10
756.8237637480269
 20
67.8193281627997
 10
756.7819533423437
 20
68.2134176500348
 10
756.7401429366622
 20
68.63634340552474
 10
756.6983325309823
 20
69.08774926516442
 10
756.6565221253035
 20
69.56727906484882
 10
756.6147117196266
 20
70.07457664047283
 10
756.5729013139511
 20
70.60928582793139
 10
756.5310909082773
 20
71.17105046311944
 10
756.489280502605
 20
71.75951438193188
 10
756.4474700969341
 20
72.37432142026367
 10
756.405659691265
 20
73.01511499970309
 10
756.3638492855973
 20
73.68148398034879
 10
756.3220388799313
 20
74.37290878512512
 10
756.2802284742668
 20
75.08885702633872
 10
756.2384180686041
 20
75.82879631629619
 10
756.1966076629429
 20
76.59219426730418
 10
756.1547972572835
 20
77.37851849166933
 10
756.1129868516256
 20
78.18723660169823
 10
756.0711764459692
 20
79.01781620969754
 10
756.0293660403146
 20
79.86972492797389
 10
755.9875556346615
 20
80.74242998162156
 10
755.9457452290102
 20
81.63535406975889
 10
755.9039348233601
 20
82.54783463944685
 10
755.8621244177122
 20
83.47919951152055
 10
755.8203140120655
 20
84.42877650681498
 10
755.7785036064204
 20
85.39589344616523
 10
755.7366932007772
 20
86.37987815040638
 10
755.6948827951352
 20
87.38005844037347
 10
755.653072389495
 20
88.39576213690157
 10
755.6112619838564
 20
89.42631706082574
 10
755.5694515782194
 20
90.47105072948055
 10
755.5276411725837
 20
91.52925994646289
 10
755.4858307669496
 20
92.60018485139977
 10
755.4440203613171
 20
93.683059471919
 10
755.4022099556859
 20
94.77711783564826
 10
755.3603995500561
 20
95.88159397021529
 10
755.318589144428
 20
96.99572190324787
 10
755.2767787388015
 20
98.11873566237374
 10
755.234968333176
 20
99.24986927522059
 10
755.1931579275522
 20
100.3883567694162
 10
755.1513475219294
 20
101.5334320173731
 10
755.1095371163083
 20
102.6843149706549
 10
755.0677267106884
 20
103.840200829265
 10
755.0259163050698
 20
105.0002822443031
 10
754.9841058994524
 20
106.1637518668685
 10
754.9422954938362
 20
107.3298023480608
 10
754.9004850882213
 20
108.4976263389795
 10
754.8586746826078
 20
109.6664164907242
 10
754.8168642769951
 20
110.8353654543943
 10
754.7750538713838
 20
112.0036658810894
 10
754.7332434657734
 20
113.1705104818169
 10
754.6914330601643
 20
114.3350967595625
 10
754.649622654556
 20
115.4966304300848
 10
754.6078122489488
 20
116.6543180160942
 10
754.5660018433423
 20
117.8073660403012
 10
754.5241914377369
 20
118.9549810254163
 10
754.4823810321325
 20
120.09636949415
 10
754.4405706265289
 20
121.2307379692127
 10
754.3987602209261
 20
122.357292973315
 10
754.356949815324
 20
123.4752410291673
 10
754.3151394097227
 20
124.5837889962916
 10
754.2733290041223
 20
125.6821678994166
 10
754.2315185985224
 20
126.7696486910353
 10
754.1897081929231
 20
127.8455060643525
 10
754.1478977873243
 20
128.9090147125729
 10
754.1060873817262
 20
129.9594493289013
 10
754.0642769761286
 20
130.9960846065424
 10
754.0224665705313
 20
132.0181952387011
 10
753.9806561649347
 20
133.025055918582
 10
753.9388457593383
 20
134.0159413393898
 10
753.8970353537422
 20
134.9901268563576
 10
753.8552249481465
 20
135.9469306495269
 10
753.813414542551
 20
136.8857391259717
 10
753.7716041369557
 20
137.8059447832614
 10
753.7297937313606
 20
138.7069401189655
 10
753.6879833257657
 20
139.5881176306536
 10
753.6461729201709
 20
140.4488698158953
 10
753.6043625145761
 20
141.28858917226
 10
753.5625521089813
 20
142.1066681973172
 10
753.5207417033864
 20
142.9024993886366
 10
753.4789312977917
 20
143.6754762571446
 10
753.4371208921964
 20
144.4250516932837
 10
753.3953104866013
 20
145.1507698173267
 10
753.3535000810059
 20
145.8521825035427
 10
753.3116896754101
 20
146.528841626201
 10
753.269879269814
 20
147.1802990595706
 10
753.2280688642178
 20
147.8061066779207
 10
753.1862584586212
 20
148.4058163555205
 10
753.1444480530242
 20
148.9789799666391
 10
753.1026376474265
 20
149.5251493855456
 10
753.0608272418284
 20
150.0438778469867
 10
753.0190168362299
 20
150.5347911098057
 10
752.9772064306308
 20
150.9976224009927
 10
752.9353960250309
 20
151.4321136374564
 10
752.8935856194304
 20
151.838006736105
 10
752.8517752138292
 20
152.2150436138474
 10
752.8099648082274
 20
152.562966187592
 10
752.7681544026248
 20
152.8815163742473
 10
752.7263439970214
 20
153.170436090722
 10
752.684533591417
 20
153.4294672539245
 10
752.6427231858116
 20
153.6583534473515
 10
752.6009127802055
 20
153.8569193955059
 10
752.5591023745984
 20
154.0251058043176
 10
752.5172919689903
 20
154.1628622943614
 10
752.4754815633812
 20
154.2701384862118
 10
752.4336711577711
 20
154.3468840004438
 10
752.3918607521598
 20
154.3930484576321
 10
752.3500503465478
 20
154.4085814783512
  0
LINE
  5
171
330
1F
100
AcDbEntity
  8
0
  6
CONTINUOUS
 62
     7
100
AcDbLine
 10
793.970769186683
 20
121.3326091297937
 30
0.0
 11
794.0999999994685
 21
118.0186208765728
 31
0.0
  0
LINE
  5
172
330
1F
100
AcDbEntity
  8
0
  6
CONTINUOUS
 62
     7
100
AcDbLine
 10
793.5532326527762
 20
131.4236525860862
 30
0.0
 11
793.970769186683
 21
121.3326091297939
 31
0.0
  0
ARC
  5
173
330
1F
100
AcDbEntity
  8
0
  6
CONTINUOUS
 62
     7
100
AcDbCircle
 10
293.5882793217539
 20
111.5222921171506
 30
0.0
 40
500.3608884673201
100
AcDbArc
 50
2.279484360690219
 51
4.019902370005411
  0
LINE
  5
174
330
1F
100
AcDbEntity
  8
0
  6
CONTINUOUS
 62
     7
100
AcDbLine
 10
792.3006230511218
 20
150.6449938194466
 30
0.0
 11
792.7181595850343
 21
146.5990841051487
 31
0.0
  0
LINE
  5
175
330
1F
100
AcDbEntity
  8
0
  6
CONTINUOUS
 62
     7
100
AcDbLine
 10
783.5323558260814
 20
131.894941949303
 30
0.0
 11
783.5999999995789
 21
130.3545787568506
 31
0.0
  0
LINE
  5
176
330
1F
100
AcDbEntity
  8
0
  6
CONTINUOUS
 62
     7
100
AcDbLine
 10
756.3924810855669
 20
70.10293510052276
 30
0.0
 11
756.5735087452261
 21
68.83960222179819
 31
0.0
  0
LINE
  5
177
330
1F
100
AcDbEntity
  8
0
  6
CONTINUOUS
 62
     7
100
AcDbLine
 10
755.9749445509337
 20
74.93943984632004
 30
0.0
 11
756.3924810855669
 21
70.10293510052276
 31
0.0
  0
LINE
  5
178
330
1F
100
AcDbEntity
  8
0
  6
CONTINUOUS
 62
     7
100
AcDbLine
 10
755.5574080164479
 20
82.16896016756822
 30
0.0
 11
755.9749445509337
 21
74.93943984632004
 31
0.0
  0
LINE
  5
179
330
1F
100
AcDbEntity
  8
0
  6
CONTINUOUS
 62
     7
100
AcDbLine
 10
755.1398714821138
 20
91.29676876019221
 30
0.0
 11
755.5574080164479
 21
82.16896016756822
 31
0.0
  0
LINE
  5
17A
330
1F
100
AcDbEntity
  8
0
  6
CONTINUOUS
 62
     7
100
AcDbLine
 10
754.7223349479244
 20
101.6982355053944
 30
0.0
 11
755.1398714821138
 21
91.29676876019221
 31
0.0
  0
LINE
  5
17B
330
1F
100
AcDbEntity
  8
0
  6
CONTINUOUS
 62
     7
100
AcDbLine
 10
754.3047984138606
 20
112.6615718788769
 30
0.0
 11
754.7223349479244
 21
101.6982355053944
 31
0.0
  0
LINE
  5
17C
330
1F
100
AcDbEntity
  8
0
  6
CONTINUOUS
 62
     7
100
AcDbLine
 10
753.8872618798966
 20
123.4365397449563
 30
0.0
 11
754.3047984138605
 21
112.6615718788769
 31
0.0
  0
LINE
  5
17D
330
1F
100
AcDbEntity
  8
0
  6
CONTINUOUS
 62
     7
100
AcDbLine
 10
753.4697253460009
 20
133.2857913174704
 30
0.0
 11
753.8872618798968
 21
123.4365397449563
 31
0.0
  0
ARC
  5
17E
330
1F
100
AcDbEntity
  8
0
  6
CONTINUOUS
 62
     7
100
AcDbCircle
 10
353.495736178133
 20
117.1771071468099
 30
0.0
 40
400.2982409611212
100
AcDbArc
 50
2.306302675711777
 51
4.361674326304467
  0
LINE
  5
17F
330
1F
100
AcDbEntity
  8
0
  6
CONTINUOUS
 62
     7
100
AcDbLine
 10
752.2171157443304
 20
151.1252392245066
 30
0.0
 11
752.6346522782574
 21
147.6206182942713
 31
0.0
  0
LINE
  5
180
330
1F
100
AcDbEntity
  8
0
  6
CONTINUOUS
 62
     7
100
AcDbLine
 10
746.3716042588329
 20
70.2820891069367
 30
0.0
 11
746.5724420249331
 21
68.84550466217107
 31
0.0
  0
ARC
  5
181
330
1F
100
AcDbEntity
  8
0
  6
CONTINUOUS
 62
     7
100
AcDbCircle
 10
1142.290241752208
 20
104.1293356025508
 30
0.0
 40
397.3628110555205
100
AcDbArc
 50
181.7791737858842
 51
184.8863586091013
  0
LINE
  5
182
330
1F
100
AcDbEntity
  8
0
  6
CONTINUOUS
 62
     7
100
AcDbLine
 10
744.2839215871606
 20
113.2110612772742
 30
0.0
 11
745.1189946554007
 21
91.79223345041765
 31
0.0
  0
LINE
  5
183
330
1F
100
AcDbEntity
  8
0
  6
CONTINUOUS
 62
     7
100
AcDbLine
 10
743.8663850532013
 20
123.9569287823354
 30
0.0
 11
744.2839215871605
 21
113.2110612772742
 31
0.0
  0
LINE
  5
184
330
1F
100
AcDbEntity
  8
0
  6
CONTINUOUS
 62
     7
100
AcDbLine
 10
743.0313119854407
 20
141.8951105403052
 30
0.0
 11
743.8663850532013
 21
123.9569287823354
 31
0.0
  0
ARC
  5
185
330
1F
100
AcDbEntity
  8
0
  6
CONTINUOUS
 62
     7
100
AcDbCircle
 10
655.4212335501738
 20
138.7593753265452
 30
0.0
 40
87.66617750743107
100
AcDbArc
 50
2.049852426218479
 51
8.17656673059048
  0
ARC
  5
186
330
1F
100
AcDbEntity
  8
0
  6
CONTINUOUS
 62
     7
100
AcDbCircle
 10
810.2382953545062
 20
79.24579398333034
 30
0.0
 40
74.39637920511849
100
AcDbArc
 50
182.8384514087886
 51
188.0363872425833
  0
LINE
  5
187
330
1F
100
AcDbEntity
  8
0
  6
CONTINUOUS
 62
     7
100
AcDbLine
 10
735.5156543630078
 20
83.00573478029793
 30
0.0
 11
735.9331908974776
 21
75.56168073020602
 31
0.0
  0
LINE
  5
188
330
1F
100
AcDbEntity
  8
0
  6
CONTINUOUS
 62
     7
100
AcDbLine
 10
734.6805812945124
 20
102.7815298535677
 30
0.0
 11
735.5156543630078
 21
83.00573478029793
 31
0.0
  0
LINE
  5
189
330
1F
100
AcDbEntity
  8
0
  6
CONTINUOUS
 62
     7
100
AcDbLine
 10
734.2630447604602
 20
113.759982505242
 30
0.0
 11
734.6805812945124
 21
102.7815298535677
 31
0.0
  0
LINE
  5
18A
330
1F
100
AcDbEntity
  8
0
  6
CONTINUOUS
 62
     7
100
AcDbLine
 10
733.8455082265052
 20
124.4749007044114
 30
0.0
 11
734.2630447604602
 21
113.759982505242
 31
0.0
  0
ARC
  5
18B
330
1F
100
AcDbEntity
  8
0
  6
CONTINUOUS
 62
     7
100
AcDbCircle
 10
149.8254859176511
 20
105.3424022662605
 30
0.0
 40
584.3333286353947
100
AcDbArc
 50
1.876338934660509
 51
4.195546668221937
  0
LINE
  5
18C
330
1F
100
AcDbEntity
  8
0
  6
CONTINUOUS
 62
     7
100
AcDbLine
 10
732.1753620909332
 20
151.3228911971352
 30
0.0
 11
732.5928986248673
 21
148.092626133011
 31
0.0
  0
LINE
  5
18D
330
1F
100
AcDbEntity
  8
0
  6
CONTINUOUS
 62
     7
100
AcDbLine
 10
726.3298506053642
 20
70.66081981755039
 30
0.0
 11
726.5725039172977
 21
68.84516169229579
 31
0.0
  0
LINE
  5
18E
330
1F
100
AcDbEntity
  8
0
  6
CONTINUOUS
 62
     7
100
AcDbLine
 10
725.9123140707508
 20
75.88169292485361
 30
0.0
 11
726.3298506053642
 21
70.66081981755038
 31
0.0
  0
LINE
  5
18F
330
1F
100
AcDbEntity
  8
0
  6
CONTINUOUS
 62
     7
100
AcDbLine
 10
725.4947775362875
 20
83.43110176605566
 30
0.0
 11
725.9123140707508
 21
75.88169292485361
 31
0.0
  0
LINE
  5
190
330
1F
100
AcDbEntity
  8
0
  6
CONTINUOUS
 62
     7
100
AcDbLine
 10
724.6597044678063
 20
103.3250632006042
 30
0.0
 11
725.4947775362874
 21
83.43110176605566
 31
0.0
  0
LINE
  5
191
330
1F
100
AcDbEntity
  8
0
  6
CONTINUOUS
 62
     7
100
AcDbLine
 10
723.4070948659204
 20
134.6404445979564
 30
0.0
 11
724.6597044678064
 21
103.3250632006042
 31
0.0
  0
LINE
  5
192
330
1F
100
AcDbEntity
  8
0
  6
CONTINUOUS
 62
     7
100
AcDbLine
 10
722.9895583320542
 20
142.5981059037267
 30
0.0
 11
723.4070948659204
 21
134.6404445979564
 31
0.0
  0
LINE
  5
193
330
1F
100
AcDbEntity
  8
0
  6
CONTINUOUS
 62
     7
100
AcDbLine
 10
722.5720217981727
 20
148.3187951831297
 30
0.0
 11
722.9895583320541
 21
142.5981059037267
 31
0.0
  0
LINE
  5
194
330
1F
100
AcDbEntity
  8
0
  6
CONTINUOUS
 62
     7
100
AcDbLine
 10
716.3089737786294
 20
70.86033135696186
 30
0.0
 11
716.5726336125024
 21
68.84444320049465
 31
0.0
  0
ARC
  5
195
330
1F
100
AcDbEntity
  8
0
  6
CONTINUOUS
 62
     7
100
AcDbCircle
 10
993.3328038939031
 20
95.18155950774434
 30
0.0
 40
278.0894183360786
100
AcDbArc
 50
182.3330558813098
 51
185.0174017805225
  0
LINE
  5
196
330
1F
100
AcDbEntity
  8
0
  6
CONTINUOUS
 62
     7
100
AcDbLine
 10
715.056364175265
 20
93.29698690242336
 30
0.0
 11
715.4739007095685
 21
83.86102455143387
 31
0.0
  0
LINE
  5
197
330
1F
100
AcDbEntity
  8
0
  6
CONTINUOUS
 62
     7
100
AcDbLine
 10
714.2212911070613
 20
114.8557427720392
 30
0.0
 11
715.056364175265
 21
93.29698690242336
 31
0.0
  0
LINE
  5
198
330
1F
100
AcDbEntity
  8
0
  6
CONTINUOUS
 62
     7
100
AcDbLine
 10
713.3862180392262
 20
135.0835879071097
 30
0.0
 11
714.2212911070613
 21
114.8557427720392
 31
0.0
  0
LINE
  5
199
330
1F
100
AcDbEntity
  8
0
  6
CONTINUOUS
 62
     7
100
AcDbLine
 10
712.9686815053618
 20
142.9411967827877
 30
0.0
 11
713.3862180392263
 21
135.0835879071097
 31
0.0
  0
ARC
  5
19A
330
1F
100
AcDbEntity
  8
0
  6
CONTINUOUS
 62
     7
100
AcDbCircle
 10
647.8372623345583
 20
140.8966796998382
 30
0.0
 40
65.16350062193852
100
AcDbArc
 50
1.797960922502284
 51
9.357642763308661
  0
ARC
  5
19B
330
1F
100
AcDbEntity
  8
0
  6
CONTINUOUS
 62
     7
100
AcDbCircle
 10
790.0750586120926
 20
80.3427183275722
 30
0.0
 40
84.29035575774591
100
AcDbArc
 50
182.5862758011716
 51
187.8404361894576
  0
LINE
  5
19C
330
1F
100
AcDbEntity
  8
0
  6
CONTINUOUS
 62
     7
100
AcDbLine
 10
705.0354873485534
 20
93.80440350145803
 30
0.0
 11
705.8705604172975
 21
76.53922552093856
 31
0.0
  0
LINE
  5
19D
330
1F
100
AcDbEntity
  8
0
  6
CONTINUOUS
 62
     7
100
AcDbLine
 10
704.20041428036
 20
115.4023932733268
 30
0.0
 11
705.0354873485534
 21
93.80440350145801
 31
0.0
  0
LINE
  5
19E
330
1F
100
AcDbEntity
  8
0
  6
CONTINUOUS
 62
     7
100
AcDbLine
 10
703.7828777464193
 20
126.0134247222804
 30
0.0
 11
704.2004142803598
 21
115.4023932733268
 31
0.0
  0
LINE
  5
19F
330
1F
100
AcDbEntity
  8
0
  6
CONTINUOUS
 62
     7
100
AcDbLine
 10
702.947804678668
 20
143.2786040941102
 30
0.0
 11
703.7828777464194
 21
126.0134247222804
 31
0.0
  0
ARC
  5
1A0
330
1F
100
AcDbEntity
  8
0
  6
CONTINUOUS
 62
     7
100
AcDbCircle
 10
644.3691542267919
 20
141.5616109965577
 30
0.0
 40
58.60380835799086
100
AcDbArc
 50
1.67891030279219
 51
9.82912653056502
  0
ARC
  5
1A1
330
1F
100
AcDbEntity
  8
0
  6
CONTINUOUS
 62
     7
100
AcDbCircle
 10
785.0934677290962
 20
80.8604781627041
 30
0.0
 40
89.33265937687027
100
AcDbArc
 50
182.5559885293971
 51
187.7301507346678
  0
LINE
  5
1A2
330
1F
100
AcDbEntity
  8
0
  6
CONTINUOUS
 62
     7
100
AcDbLine
 10
695.4321470561312
 20
84.73424085816927
 30
0.0
 11
695.8496835905719
 21
76.87663278664084
 31
0.0
  0
LINE
  5
1A3
330
1F
100
AcDbEntity
  8
0
  6
CONTINUOUS
 62
     7
100
AcDbLine
 10
694.597073987692
 20
104.9620851461551
 30
0.0
 11
695.432147056131
 21
84.73424085816927
 31
0.0
  0
LINE
  5
1A4
330
1F
100
AcDbEntity
  8
0
  6
CONTINUOUS
 62
     7
100
AcDbLine
 10
693.7620009197234
 20
126.5208413437976
 30
0.0
 11
694.597073987692
 21
104.9620851461551
 31
0.0
  0
LINE
  5
1A5
330
1F
100
AcDbEntity
  8
0
  6
CONTINUOUS
 62
     7
100
AcDbLine
 10
693.3444643858393
 20
135.9568042842044
 30
0.0
 11
693.7620009197233
 21
126.5208413437976
 31
0.0
  0
ARC
  5
1A6
330
1F
100
AcDbEntity
  8
0
  6
CONTINUOUS
 62
     7
100
AcDbCircle
 10
415.4854181301316
 20
124.6362635904851
 30
0.0
 40
278.0895615224162
100
AcDbArc
 50
2.333055862450919
 51
5.017400755736389
  0
ARC
  5
1A7
330
1F
100
AcDbEntity
  8
0
  6
CONTINUOUS
 62
     7
100
AcDbCircle
 10
676.6467151654587
 20
147.8517105600273
 30
0.0
 40
15.90117176440477
100
AcDbArc
 50
3.987643583403781
 51
13.75511508698401
  0
ARC
  5
1A8
330
1F
100
AcDbEntity
  8
0
  6
CONTINUOUS
 62
     7
100
AcDbCircle
 10
774.3135711961182
 20
80.85773841560035
 30
0.0
 40
88.55952059650892
100
AcDbArc
 50
182.3543664561427
 51
187.7965664255703
  0
LINE
  5
1A9
330
1F
100
AcDbEntity
  8
0
  6
CONTINUOUS
 62
     7
100
AcDbLine
 10
685.4112702294137
 20
85.17738413301873
 30
0.0
 11
685.8288067638457
 21
77.21972362058655
 31
0.0
  0
LINE
  5
1AA
330
1F
100
AcDbEntity
  8
0
  6
CONTINUOUS
 62
     7
100
AcDbLine
 10
684.9937336951322
 20
94.8274617925316
 30
0.0
 11
685.4112702294137
 21
85.17738413301875
 31
0.0
  0
LINE
  5
1AB
330
1F
100
AcDbEntity
  8
0
  6
CONTINUOUS
 62
     7
100
AcDbLine
 10
684.1586606269645
 20
116.4927647413448
 30
0.0
 11
684.9937336951322
 21
94.82746179253158
 31
0.0
  0
LINE
  5
1AC
330
1F
100
AcDbEntity
  8
0
  6
CONTINUOUS
 62
     7
100
AcDbLine
 10
683.7411240930278
 20
127.0253997005813
 30
0.0
 11
684.1586606269645
 21
116.4927647413448
 31
0.0
  0
LINE
  5
1AD
330
1F
100
AcDbEntity
  8
0
  6
CONTINUOUS
 62
     7
100
AcDbLine
 10
682.9060510252798
 20
143.9361367827994
 30
0.0
 11
683.7411240930279
 21
127.0253997005813
 31
0.0
  0
LINE
  5
1AE
330
1F
100
AcDbEntity
  8
0
  6
CONTINUOUS
 62
     7
100
AcDbLine
 10
682.4885144913909
 20
149.1570109024571
 30
0.0
 11
682.9060510252797
 21
143.9361367827994
 31
0.0
  0
LINE
  5
1AF
330
1F
100
AcDbEntity
  8
0
  6
CONTINUOUS
 62
     7
100
AcDbLine
 10
676.225466471697
 20
71.72520432099368
 30
0.0
 11
676.5727087719242
 21
68.84402695475956
 31
0.0
  0
LINE
  5
1B0
330
1F
100
AcDbEntity
  8
0
  6
CONTINUOUS
 62
     7
100
AcDbLine
 10
675.807929937121
 20
77.56843899018861
 30
0.0
 11
676.225466471697
 21
71.72520432099368
 31
0.0
  0
LINE
  5
1B1
330
1F
100
AcDbEntity
  8
0
  6
CONTINUOUS
 62
     7
100
AcDbLine
 10
674.972856868422
 20
95.3429274561348
 30
0.0
 11
675.807929937121
 21
77.56843899018861
 31
0.0
  0
LINE
  5
1B2
330
1F
100
AcDbEntity
  8
0
  6
CONTINUOUS
 62
     7
100
AcDbLine
 10
674.5553203342854
 20
106.0578454008498
 30
0.0
 11
674.972856868422
 21
95.34292745613479
 31
0.0
  0
LINE
  5
1B3
330
1F
100
AcDbEntity
  8
0
  6
CONTINUOUS
 62
     7
100
AcDbLine
 10
673.3027107324529
 20
136.8120941280649
 30
0.0
 11
674.5553203342853
 21
106.0578454008498
 31
0.0
  0
LINE
  5
1B4
330
1F
100
AcDbEntity
  8
0
  6
CONTINUOUS
 62
     7
100
AcDbLine
 10
672.8851741985873
 20
144.2561490243932
 30
0.0
 11
673.3027107324529
 21
136.8120941280649
 31
0.0
  0
LINE
  5
1B5
330
1F
100
AcDbEntity
  8
0
  6
CONTINUOUS
 62
     7
100
AcDbLine
 10
672.4676376646945
 20
149.3497694285905
 30
0.0
 11
672.8851741985874
 21
144.2561490243932
 31
0.0
  0
LINE
  5
1B6
330
1F
100
AcDbEntity
  8
0
  6
CONTINUOUS
 62
     7
100
AcDbLine
 10
666.2045896449646
 20
71.95794324675542
 30
0.0
 11
666.5725294316858
 21
68.84502032707543
 31
0.0
  0
LINE
  5
1B7
330
1F
100
AcDbEntity
  8
0
  6
CONTINUOUS
 62
     7
100
AcDbLine
 10
665.7870531103965
 20
77.92271889514574
 30
0.0
 11
666.2045896449646
 21
71.95794324675543
 31
0.0
  0
LINE
  5
1B8
330
1F
100
AcDbEntity
  8
0
  6
CONTINUOUS
 62
     7
100
AcDbLine
 10
664.9519800417127
 20
95.86089935853748
 30
0.0
 11
665.7870531103965
 21
77.92271889514572
 31
0.0
  0
LINE
  5
1B9
330
1F
100
AcDbEntity
  8
0
  6
CONTINUOUS
 62
     7
100
AcDbLine
 10
664.5344435075817
 20
106.606766623899
 30
0.0
 11
664.9519800417127
 21
95.86089935853748
 31
0.0
  0
LINE
  5
1BA
330
1F
100
AcDbEntity
  8
0
  6
CONTINUOUS
 62
     7
100
AcDbLine
 10
663.6993704396385
 20
128.0255948673766
 30
0.0
 11
664.5344435075817
 21
106.606766623899
 31
0.0
  0
LINE
  5
1BB
330
1F
100
AcDbEntity
  8
0
  6
CONTINUOUS
 62
     7
100
AcDbLine
 10
662.8642973718944
 20
144.5702514462149
 30
0.0
 11
663.6993704396385
 21
128.0255948673766
 31
0.0
  0
LINE
  5
1BC
330
1F
100
AcDbEntity
  8
0
  6
CONTINUOUS
 62
     7
100
AcDbLine
 10
662.446760837999
 20
149.5357417214305
 30
0.0
 11
662.8642973718943
 21
144.5702514462149
 31
0.0
  0
LINE
  5
1BD
330
1F
100
AcDbEntity
  8
0
  6
CONTINUOUS
 62
     7
100
AcDbLine
 10
662.0292243040386
 20
151.7895067762914
 30
0.0
 11
662.0988137263714
 21
151.6111433320717
 31
0.0
  0
ARC
  5
1BE
330
1F
100
AcDbEntity
  8
0
  6
CONTINUOUS
 62
     7
100
AcDbCircle
 10
650.7105881604174
 20
148.6350062415254
 30
0.0
 40
11.77068704548617
100
AcDbArc
 50
4.388770427149666
 51
14.64581664944291
  0
LINE
  5
1BF
330
1F
100
AcDbEntity
  8
0
  6
CONTINUOUS
 62
     7
100
AcDbLine
 10
656.1837128182351
 20
72.1972120554407
 30
0.0
 11
656.5727529665099
 21
68.84378224020757
 31
0.0
  0
ARC
  5
1C0
330
1F
100
AcDbEntity
  8
0
  6
CONTINUOUS
 62
     7
100
AcDbCircle
 10
1055.322444076022
 20
102.6407143996927
 30
0.0
 40
400.2980559846132
100
AcDbArc
 50
182.3063027270597
 51
184.3616750820355
  0
LINE
  5
1C1
330
1F
100
AcDbEntity
  8
0
  6
CONTINUOUS
 62
     7
100
AcDbLine
 10
654.9311032150028
 20
96.38128837699513
 30
0.0
 11
655.348639749263
 21
86.53203731434952
 31
0.0
  0
LINE
  5
1C2
330
1F
100
AcDbEntity
  8
0
  6
CONTINUOUS
 62
     7
100
AcDbLine
 10
654.513566680879
 20
107.1562560181316
 30
0.0
 11
654.9311032150028
 21
96.38128837699513
 31
0.0
  0
LINE
  5
1C3
330
1F
100
AcDbEntity
  8
0
  6
CONTINUOUS
 62
     7
100
AcDbLine
 10
654.096030146869
 20
118.1195924670225
 30
0.0
 11
654.5135666808791
 21
107.1562560181316
 31
0.0
  0
LINE
  5
1C4
330
1F
100
AcDbEntity
  8
0
  6
CONTINUOUS
 62
     7
100
AcDbLine
 10
653.6784936129444
 20
128.521059582806
 30
0.0
 11
654.096030146869
 21
118.1195924670225
 31
0.0
  0
LINE
  5
1C5
330
1F
100
AcDbEntity
  8
0
  6
CONTINUOUS
 62
     7
100
AcDbLine
 10
653.2609570790688
 20
137.6488688158135
 30
0.0
 11
653.6784936129444
 21
128.521059582806
 31
0.0
  0
LINE
  5
1C6
330
1F
100
AcDbEntity
  8
0
  6
CONTINUOUS
 62
     7
100
AcDbLine
 10
652.8434205452003
 20
144.8783900034902
 30
0.0
 11
653.2609570790688
 21
137.6488688158135
 31
0.0
  0
LINE
  5
1C7
330
1F
100
AcDbEntity
  8
0
  6
CONTINUOUS
 62
     7
100
AcDbLine
 10
652.4258840113037
 20
149.7148957824046
 30
0.0
 11
652.8434205452003
 21
144.8783900034902
 31
0.0
  0
LINE
  5
1C8
330
1F
100
AcDbEntity
  8
0
  6
CONTINUOUS
 62
     7
100
AcDbLine
 10
652.0083474773384
 20
151.8274165503646
 30
0.0
 11
652.0779368996721
 21
151.6730408340864
 31
0.0
  0
ARC
  5
1C9
330
1F
100
AcDbEntity
  8
0
  6
CONTINUOUS
 62
     7
100
AcDbCircle
 10
642.6717466486298
 20
148.9916478786688
 30
0.0
 40
9.780914232328525
100
AcDbArc
 50
4.240596361282712
 51
15.91109395860349
  0
LINE
  5
1CA
330
1F
100
AcDbEntity
  8
0
  6
CONTINUOUS
 62
     7
100
AcDbLine
 10
656.6275509746991
 20
150.9723664232971
 30
0.0
 11
656.8075189148436
 21
149.7148971855125
 31
0.0
  0
LINE
  5
1CB
330
1F
100
AcDbEntity
  8
0
  6
CONTINUOUS
 62
     7
100
AcDbLine
 10
666.6275184023483
 20
150.9725469235375
 30
0.0
 11
666.8283957415395
 21
149.5357431791045
 31
0.0
  0
ARC
  5
1CC
330
1F
100
AcDbEntity
  8
0
  6
CONTINUOUS
 62
     7
100
AcDbCircle
 10
602.961188196233
 20
140.5719985040759
 30
0.0
 40
74.3968969912114
100
AcDbArc
 50
2.838462325829312
 51
8.036345027058758
  0
LINE
  5
1CD
330
1F
100
AcDbEntity
  8
0
  6
CONTINUOUS
 62
     7
100
AcDbLine
 10
686.6274309433079
 20
150.9730314944722
 30
0.0
 11
686.8701493949308
 21
149.1570124685132
 31
0.0
  0
LINE
  5
1CE
330
1F
100
AcDbEntity
  8
0
  6
CONTINUOUS
 62
     7
100
AcDbLine
 10
696.6273181460823
 20
150.9736562703123
 30
0.0
 11
696.8910262216265
 21
148.9575009291205
 31
0.0
  0
ARC
  5
1CF
330
1F
100
AcDbEntity
  8
0
  6
CONTINUOUS
 62
     7
100
AcDbCircle
 10
623.1141231326609
 20
139.4743193634095
 30
0.0
 40
84.30119884873513
100
AcDbArc
 50
2.586483521752825
 51
7.839682586917037
  0
ARC
  5
1D0
330
1F
100
AcDbEntity
  8
0
  6
CONTINUOUS
 62
     7
100
AcDbCircle
 10
637.2378899119265
 20
139.7791284959288
 30
0.0
 40
80.1748063437999
100
AcDbArc
 50
2.260315092823532
 51
8.026141640513572
  0
LINE
  5
1D1
330
1F
100
AcDbEntity
  8
0
  6
CONTINUOUS
 62
     7
100
AcDbLine
 10
726.6268047489076
 20
150.9764973354986
 30
0.0
 11
726.9536567017122
 21
148.3187969626365
 31
0.0
  0
LINE
  5
1D2
330
1F
100
AcDbEntity
  8
0
  6
CONTINUOUS
 62
     7
100
AcDbLine
 10
736.6273877696038
 20
150.9732706531954
 30
0.0
 11
736.974533528407
 21
148.0926279651338
 31
0.0
  0
ARC
  5
1D3
330
1F
100
AcDbEntity
  8
0
  6
CONTINUOUS
 62
     7
100
AcDbCircle
 10
652.0821875593763
 20
138.2189261428142
 30
0.0
 40
95.40161438384614
100
AcDbArc
 50
2.208371169200404
 51
7.682949201027725
  0
LINE
  5
1D4
330
1F
100
AcDbEntity
  8
0
  6
CONTINUOUS
 62
     7
100
AcDbLine
 10
756.627093600571
 20
150.9748993964763
 30
0.0
 11
757.0162871817972
 21
147.6206202306772
 31
0.0
  0
LWPOLYLINE
  5
1D5
330
1F
100
AcDbEntity
  8
0
  6
CONTINUOUS
 62
     7
100
AcDbPolyline
 90
       33
 70
     0
 43
0.0
 10
-651.1686267613507
 20
66.29825292562948
 10
-651.1586621869766
 20
66.24370962014694
 10
-651.1486976126026
 20
66.19087305670173
 10
-651.1387330382288
 20
66.13974527067748
 10
-651.1287684638548
 20
66.09032829745786
 10
-651.118803889481
 20
66.0426241724265
 10
-651.1088393151073
 20
65.99663493096709
 10
-651.0988747407335
 20
65.95236260846323
 10
-651.0889101663599
 20
65.90980924029867
 10
-651.0789455919862
 20
65.86897686185694
 10
-651.0689810176127
 20
65.82986750852177
 10
-651.0590164432392
 20
65.79248321567681
 10
-651.0490518688657
 20
65.75682601870568
 10
-651.0390872944923
 20
65.72289795299208
 10
-651.029122720119
 20
65.69070105391962
 10
-651.0191581457458
 20
65.66023735687199
 10
-651.0091935713725
 20
65.6315088972328
 10
-650.9992289969994
 20
65.60451771038575
 10
-650.9892644226263
 20
65.57926583171447
 10
-650.9792998482533
 20
65.55575529660263
 10
-650.9693352738805
 20
65.53398814043386
 10
-650.9593706995074
 20
65.5139663985918
 10
-650.9494061251346
 20
65.49569210646015
 10
-650.9394415507618
 20
65.47916729942256
 10
-650.9294769763891
 20
65.46439363152955
 10
-650.9195124020165
 20
65.45137086390122
 10
-650.9095478276438
 20
65.44009817139877
 10
-650.8995832532713
 20
65.4305747287073
 10
-650.8896186788987
 20
65.42279971051188
 10
-650.8796541045265
 20
65.4167722914976
 10
-650.869689530154
 20
65.41249164634952
 10
-650.8597249557818
 20
65.40995694975273
 10
-650.84976038141
 20
65.40916737639232
210
0.0
220
0.0
230
-1.0
  0
LWPOLYLINE
  5
1D6
330
1F
100
AcDbEntity
  8
0
  6
CONTINUOUS
 62
     7
100
AcDbPolyline
 90
       33
 70
     0
 43
0.0
 10
656.1686024137082
 20
153.5197077431666
 10
656.1586436556856
 20
153.5742207135847
 10
656.148684897663
 20
153.627028959549
 10
656.1387261396405
 20
153.6781303788224
 10
656.1287673816176
 20
153.7275228691679
 10
656.1188086235949
 20
153.7752043283483
 10
656.1088498655723
 20
153.8211726541265
 10
656.0988911075493
 20
153.8654257442653
 10
656.0889323495265
 20
153.9079614965277
 10
656.0789735915035
 20
153.9487778086765
 10
656.0690148334804
 20
153.9878725784746
 10
656.0590560754574
 20
154.0252437036849
 10
656.0490973174343
 20
154.0608890820703
 10
656.0391385594111
 20
154.0948066113936
 10
656.0291798013878
 20
154.1269941894178
 10
656.0192210433646
 20
154.1574497139056
 10
656.0092622853413
 20
154.1861710826201
 10
655.9993035273178
 20
154.2131561933241
 10
655.9893447692945
 20
154.2384029437804
 10
655.9793860112708
 20
154.2619092317519
 10
655.9694272532473
 20
154.2836729550015
 10
655.9594684952237
 20
154.3036920112922
 10
655.9495097371998
 20
154.3219642983867
 10
655.939550979176
 20
154.3384881420855
 10
655.9295922211523
 20
154.3532637678832
 10
655.9196334631283
 20
154.3662919281083
 10
655.9096747051044
 20
154.3775733751093
 10
655.8997159470803
 20
154.3871088612346
 10
655.8897571890564
 20
154.3948991388324
 10
655.8797984310322
 20
154.4009449602512
 10
655.869839673008
 20
154.4052470778394
 10
655.8598809149836
 20
154.4078062439452
 10
655.8499221569595
 20
154.4086232109171
  0
LWPOLYLINE
  5
1D7
330
1F
100
AcDbEntity
  8
0
  6
CONTINUOUS
 62
     7
100
AcDbPolyline
 90
       33
 70
     0
 43
0.0
 10
-661.1684826634032
 20
66.29746040088646
 10
-661.1585091998572
 20
66.24288351032669
 10
-661.1485357363113
 20
66.19001645671169
 10
-661.1385622727654
 20
66.13886142224221
 10
-661.1285888092197
 20
66.089420589119
 10
-661.1186153456739
 20
66.04169613954278
 10
-661.1086418821279
 20
65.99569025571428
 10
-661.0986684185823
 20
65.95140511983423
 10
-661.0886949550369
 20
65.9088429141034
 10
-661.0787214914911
 20
65.86800582072247
 10
-661.0687480279456
 20
65.8288960218922
 10
-661.0587745644002
 20
65.79151569981333
 10
-661.0488011008549
 20
65.7558670366866
 10
-661.0388276373095
 20
65.7219522147127
 10
-661.0288541737641
 20
65.6897734160924
 10
-661.0188807102188
 20
65.65933282302643
 10
-661.0089072466739
 20
65.63063261771552
 10
-660.9989337831287
 20
65.6036749823604
 10
-660.9889603195836
 20
65.57846209916181
 10
-660.9789868560387
 20
65.55499615032048
 10
-660.9690133924936
 20
65.53327931803712
 10
-660.959039928949
 20
65.51331378442642
 10
-660.949066465404
 20
65.49510116866708
 10
-660.9390930018591
 20
65.47864118814915
 10
-660.9291195383146
 20
65.46393315905848
 10
-660.9191460747699
 20
65.45097639758093
 10
-660.9091726112254
 20
65.43977021990234
 10
-660.8991991476809
 20
65.4303139422086
 10
-660.8892256841365
 20
65.42260688068554
 10
-660.8792522205922
 20
65.41664835151903
 10
-660.8692787570478
 20
65.41243767089493
 10
-660.8593052935037
 20
65.4099741549991
 10
-660.8493318299595
 20
65.40925712001739
210
0.0
220
0.0
230
-1.0
  0
LWPOLYLINE
  5
1D8
330
1F
100
AcDbEntity
  8
0
  6
CONTINUOUS
 62
     7
100
AcDbPolyline
 90
       33
 70
     0
 43
0.0
 10
666.1684661987074
 20
153.5204674431307
 10
666.1585210257929
 20
153.5748942539308
 10
666.148575852878
 20
153.6276207975777
 10
666.1386306799635
 20
153.6786448404434
 10
666.1286855070487
 20
153.7279641488998
 10
666.1187403341339
 20
153.7755764893191
 10
666.1087951612192
 20
153.8214796280733
 10
666.0988499883041
 20
153.8656713315342
 10
666.0889048153892
 20
153.908149366074
 10
666.0789596424742
 20
153.9489114980647
 10
666.0690144695591
 20
153.9879554938782
 10
666.0590692966439
 20
154.0252791198866
 10
666.0491241237288
 20
154.060880142462
 10
666.0391789508136
 20
154.0947563279763
 10
666.0292337778981
 20
154.1269054428015
 10
666.0192886049828
 20
154.1573252533096
 10
666.0093434320675
 20
154.1860135258728
 10
665.9993982591519
 20
154.2129680268628
 10
665.9894530862364
 20
154.2381865226519
 10
665.9795079133207
 20
154.2616667796119
 10
665.9695627404052
 20
154.283406564168
 10
665.9596175674895
 20
154.3034041876757
 10
665.9496723945737
 20
154.321659848626
 10
665.9397272216579
 20
154.3381741537389
 10
665.9297820487419
 20
154.3529477097347
 10
665.919836875826
 20
154.3659811233337
 10
665.90989170291
 20
154.3772750012562
 10
665.8999465299938
 20
154.3868299502224
 10
665.8900013570777
 20
154.3946465769525
 10
665.8800561841615
 20
154.4007254881669
 10
665.8701110112453
 20
154.4050672905857
 10
665.8601658383288
 20
154.4076725909293
 10
665.8502206654126
 20
154.4085419959178
  0
LWPOLYLINE
  5
1D9
330
1F
100
AcDbEntity
  8
0
  6
CONTINUOUS
 62
     7
100
AcDbPolyline
 90
       33
 70
     0
 43
0.0
 10
-671.1685416840903
 20
66.29777505529547
 10
-671.1585954719275
 20
66.24332475187191
 10
-671.148649259765
 20
66.19057524657003
 10
-671.1387030476022
 20
66.13952884358856
 10
-671.1287568354398
 20
66.09018784712627
 10
-671.1188106232773
 20
66.04255456138183
 10
-671.1088644111148
 20
65.996631290554
 10
-671.0989181989523
 20
65.9524203388415
 10
-671.08897198679
 20
65.90992401044308
 10
-671.0790257746279
 20
65.86914460955742
 10
-671.0690795624655
 20
65.83008444038329
 10
-671.0591333503035
 20
65.7927458071194
 10
-671.0491871381414
 20
65.75713101396451
 10
-671.0392409259791
 20
65.72324236511729
 10
-671.0292947138172
 20
65.69108216477652
 10
-671.0193485016554
 20
65.66065271714092
 10
-671.0094022894936
 20
65.6319563264092
 10
-670.9994560773316
 20
65.60499529678007
 10
-670.9895098651698
 20
65.57977193245232
 10
-670.9795636530081
 20
65.5562885372543
 10
-670.9696174408465
 20
65.53454679993615
 10
-670.9596712286849
 20
65.51454653906993
 10
-670.9497250165232
 20
65.49628721908489
 10
-670.9397788043618
 20
65.4797683044104
 10
-670.9298325922002
 20
65.46498925947562
 10
-670.9198863800392
 20
65.45194954870989
 10
-670.9099401678777
 20
65.44064863654243
 10
-670.8999939557165
 20
65.43108598740254
 10
-670.8900477435553
 20
65.42326106571947
 10
-670.8801015313943
 20
65.4171733359225
 10
-670.8701553192334
 20
65.41282226244087
 10
-670.8602091070723
 20
65.41020730970386
 10
-670.8502628949116
 20
65.40932794214076
210
0.0
220
0.0
230
-1.0
  0
ARC
  5
1DA
330
1F
100
AcDbEntity
  8
0
  6
CONTINUOUS
 62
     7
100
AcDbCircle
 10
675.0600288484459
 20
153.6239325139507
 30
0.0
 40
1.11331408671452
100
AcDbArc
 50
354.6573039512039
 51
44.80419339694686
  0
ARC
  5
1DB
330
1F
100
AcDbEntity
  8
0
  6
CONTINUOUS
 62
     7
100
AcDbCircle
 10
679.982629052525
 20
66.22165885283991
 30
0.0
 40
1.188250364279464
100
AcDbArc
 50
316.8758855338575
 51
3.651162796058031
  0
ARC
  5
1DC
330
1F
100
AcDbEntity
  8
0
  6
CONTINUOUS
 62
     7
100
AcDbCircle
 10
684.907405153802
 20
153.5685485462162
 30
0.0
 40
1.261957492422901
100
AcDbArc
 50
357.8231771652801
 51
41.72226970878074
  0
ARC
  5
1DD
330
1F
100
AcDbEntity
  8
0
  6
CONTINUOUS
 62
     7
100
AcDbCircle
 10
689.8245516833892
 20
66.2759650364054
 30
0.0
 40
1.342596799227382
100
AcDbArc
 50
319.8036380244422
 51
0.5807674529056043
  0
ARC
  5
1DE
330
1F
100
AcDbEntity
  8
0
  6
CONTINUOUS
 62
     7
100
AcDbCircle
 10
694.7301501829112
 20
153.5062103210546
 30
0.0
 40
1.43824886530342
100
AcDbArc
 50
0.6058186662173306
 51
38.84869266514416
  0
ARC
  5
1DF
330
1F
100
AcDbEntity
  8
0
  6
CONTINUOUS
 62
     7
100
AcDbCircle
 10
699.6427446338154
 20
66.34353953343083
 30
0.0
 40
1.526443139649343
100
AcDbArc
 50
322.2710564191866
 51
358.2648537072976
  0
ARC
  5
1E0
330
1F
100
AcDbEntity
  8
0
  6
CONTINUOUS
 62
     7
100
AcDbCircle
 10
704.5516830691298
 20
153.4415916462119
 30
0.0
 40
1.618726352493517
100
AcDbArc
 50
2.79737294046574
 51
36.67242141842326
  0
ARC
  5
1E1
330
1F
100
AcDbEntity
  8
0
  6
CONTINUOUS
 62
     7
100
AcDbCircle
 10
709.4643670434689
 20
66.40831696619917
 30
0.0
 40
1.707668372856001
100
AcDbArc
 50
324.2030265392457
 51
356.2503326307946
  0
ARC
  5
1E2
330
1F
100
AcDbEntity
  8
0
  6
CONTINUOUS
 62
     7
100
AcDbCircle
 10
714.3627230984719
 20
153.3738679378845
 30
0.0
 40
1.811629846796438
100
AcDbArc
 50
4.675709699787977
 51
34.82212332777299
  0
ARC
  5
1E3
330
1F
100
AcDbEntity
  8
0
  6
CONTINUOUS
 62
     7
100
AcDbCircle
 10
719.2597329832574
 20
66.48070543788836
 30
0.0
 40
1.917552298191952
100
AcDbArc
 50
326.0372522533061
 51
354.5045839931776
  0
ARC
  5
1E4
330
1F
100
AcDbEntity
  8
0
  6
CONTINUOUS
 62
     7
100
AcDbCircle
 10
724.1676117742124
 20
153.3046390960269
 30
0.0
 40
2.012125122628801
100
AcDbArc
 50
6.321410025824106
 51
33.26763341705202
  0
ARC
  5
1E5
330
1F
100
AcDbEntity
  8
0
  6
CONTINUOUS
 62
     7
100
AcDbCircle
 10
729.0538567457473
 20
66.55457548556429
 30
0.0
 40
2.130226255443564
100
AcDbArc
 50
327.4813061391238
 51
353.0454212311878
  0
ARC
  5
1E6
330
1F
100
AcDbEntity
  8
0
  6
CONTINUOUS
 62
     7
100
AcDbCircle
 10
733.9450929951006
 20
153.2239912577308
 30
0.0
 40
2.2431525377731
100
AcDbArc
 50
7.583667449574095
 51
31.87232495907469
  0
ARC
  5
1E7
330
1F
100
AcDbEntity
  8
0
  6
CONTINUOUS
 62
     7
100
AcDbCircle
 10
738.8385810596686
 20
66.63209824099988
 30
0.0
 40
2.353856848285158
100
AcDbArc
 50
328.703925348276
 51
351.7995654017504
  0
ARC
  5
1E8
330
1F
100
AcDbEntity
  8
0
  6
CONTINUOUS
 62
     7
100
AcDbCircle
 10
743.7237946924049
 20
153.1447683053592
 30
0.0
 40
2.473442961271957
100
AcDbArc
 50
8.753786661758859
 51
30.72524147426462
  0
ARC
  5
1E9
330
1F
100
AcDbEntity
  8
0
  6
CONTINUOUS
 62
     7
100
AcDbCircle
 10
748.6086868423041
 20
66.71490027144208
 30
0.0
 40
2.593710678700473
100
AcDbArc
 50
329.7764375998354
 51
350.7477059140108
  0
ARC
  5
1EA
330
1F
100
AcDbEntity
  8
0
  6
CONTINUOUS
 62
     7
100
AcDbCircle
 10
753.4929857876626
 20
153.0621339665663
 30
0.0
 40
2.714530195840763
100
AcDbArc
 50
9.774448114607166
 51
29.73669842404656
  0
ARC
  5
1EB
330
1F
100
AcDbEntity
  8
0
  6
CONTINUOUS
 62
     7
100
AcDbCircle
 10
789.9091716195077
 20
66.24725488259323
 30
0.0
 40
1.260338105995945
100
AcDbArc
 50
318.3082108511846
 51
2.273667366178756
  0
LINE
  5
1EC
330
1F
100
AcDbEntity
  8
0
  6
CONTINUOUS
 62
     7
100
AcDbLine
 10
647.2041786220478
 20
145.1805140657129
 30
0.0
 11
647.1000000013141
 21
146.595757171039
 31
0.0
  0
LINE
  5
1ED
330
1F
100
AcDbEntity
  8
0
  6
CONTINUOUS
 62
     7
100
AcDbLine
 10
647.2041786220478
 20
145.1805140657128
 30
0.0
 11
647.6217151559136
 21
138.0601357695416
 31
0.0
  0
LINE
  5
1EE
330
1F
100
AcDbEntity
  8
0
  6
CONTINUOUS
 62
     7
100
AcDbLine
 10
647.6217151559136
 20
138.0601357695416
 30
0.0
 11
648.4567882237125
 21
118.6591713896071
 31
0.0
  0
LINE
  5
1EF
330
1F
100
AcDbEntity
  8
0
  6
CONTINUOUS
 62
     7
100
AcDbLine
 10
648.4567882237125
 20
118.6591713896071
 30
0.0
 11
648.8743247577166
 21
107.7062234308896
 31
0.0
  0
LINE
  5
1F0
330
1F
100
AcDbEntity
  8
0
  6
CONTINUOUS
 62
     7
100
AcDbLine
 10
648.8743247577166
 20
107.7062234308896
 30
0.0
 11
649.2918612918332
 21
96.90400915571557
 31
0.0
  0
LINE
  5
1F1
330
1F
100
AcDbEntity
  8
0
  6
CONTINUOUS
 62
     7
100
AcDbLine
 10
649.2918612918331
 20
96.90400915571557
 30
0.0
 11
649.7093978260868
 21
86.99174086425374
 31
0.0
  0
LINE
  5
1F2
330
1F
100
AcDbEntity
  8
0
  6
CONTINUOUS
 62
     7
100
AcDbLine
 10
649.7093978260868
 20
86.99174086425374
 30
0.0
 11
650.1269343604903
 21
78.64773047088431
 31
0.0
  0
ARC
  5
1F3
330
1F
100
AcDbEntity
  8
0
  6
CONTINUOUS
 62
     7
100
AcDbCircle
 10
719.9645287232205
 20
80.04731696425449
 30
0.0
 40
69.85161722340911
100
AcDbArc
 50
181.1480874585783
 51
189.8599903013943
  0
LWPOLYLINE
  5
1F4
330
1F
100
AcDbEntity
  8
0
  6
CONTINUOUS
 62
     7
100
AcDbPolyline
 90
        3
 70
     0
 43
0.0
 10
651.1446796637127
 20
68.08584530930226
 10
651.2229677639932
 20
67.9470762901085
 10
651.2908188720401
 20
67.90891614496464
  0
LINE
  5
1F5
330
1F
100
AcDbEntity
  8
0
  6
CONTINUOUS
 62
     7
100
AcDbLine
 10
656.8075189148436
 20
149.7148971855125
 30
0.0
 11
657.2250554487395
 21
144.8783924399264
 31
0.0
  0
LINE
  5
1F6
330
1F
100
AcDbEntity
  8
0
  6
CONTINUOUS
 62
     7
100
AcDbLine
 10
657.2250554487395
 20
144.8783924399264
 30
0.0
 11
657.6425919826077
 21
137.6488721188372
 31
0.0
  0
LINE
  5
1F7
330
1F
100
AcDbEntity
  8
0
  6
CONTINUOUS
 62
     7
100
AcDbLine
 10
657.6425919826077
 20
137.6488721188372
 30
0.0
 11
658.0601285164845
 21
128.5210635263388
 31
0.0
  0
LINE
  5
1F8
330
1F
100
AcDbEntity
  8
0
  6
CONTINUOUS
 62
     7
100
AcDbLine
 10
658.0601285164845
 20
128.5210635263388
 30
0.0
 11
658.8952015844185
 21
107.1562604077699
 31
0.0
  0
LINE
  5
1F9
330
1F
100
AcDbEntity
  8
0
  6
CONTINUOUS
 62
     7
100
AcDbLine
 10
658.8952015844185
 20
107.1562604077699
 30
0.0
 11
659.3127381185433
 21
96.38129254163358
 31
0.0
  0
LINE
  5
1FA
330
1F
100
AcDbEntity
  8
0
  6
CONTINUOUS
 62
     7
100
AcDbLine
 10
659.3127381185434
 20
96.38129254163358
 30
0.0
 11
659.7302746528034
 21
86.53204096901486
 31
0.0
  0
ARC
  5
1FB
330
1F
100
AcDbEntity
  8
0
  6
CONTINUOUS
 62
     7
100
AcDbCircle
 10
1059.704262827041
 20
102.6407251152061
 30
0.0
 40
400.2982399673115
100
AcDbArc
 50
182.3063026779354
 51
184.3616743336922
  0
LINE
  5
1FC
330
1F
100
AcDbEntity
  8
0
  6
CONTINUOUS
 62
     7
100
AcDbLine
 10
660.5653477217736
 20
72.19721399186018
 30
0.0
 11
660.9828842564795
 21
68.6925930614079
 31
0.0
  0
LWPOLYLINE
  5
1FD
330
1F
100
AcDbEntity
  8
0
  6
CONTINUOUS
 62
     7
100
AcDbPolyline
 90
        6
 70
     0
 43
0.0
 10
660.9828842564796
 20
68.6925930614079
 10
661.0524736789431
 20
68.37899979357964
 10
661.1220631014102
 20
68.14479145549411
 10
661.1916525238805
 20
67.99041573917901
 10
661.2612419463542
 20
67.91616773565482
 10
661.290817127856
 20
67.90891614457706
  0
ARC
  5
1FE
330
1F
100
AcDbEntity
  8
0
  6
CONTINUOUS
 62
     7
100
AcDbCircle
 10
270.9097572646507
 20
115.6884966590262
 30
0.0
 40
397.3628120375437
100
AcDbArc
 50
1.779173785090222
 51
4.886358600536653
  0
LINE
  5
1FF
330
1F
100
AcDbEntity
  8
0
  6
CONTINUOUS
 62
     7
100
AcDbLine
 10
668.0810053431787
 20
128.0255988361441
 30
0.0
 11
668.0867716870569
 21
127.8881975263227
 31
0.0
  0
LINE
  5
200
330
1F
100
AcDbEntity
  8
0
  6
CONTINUOUS
 62
     7
100
AcDbLine
 10
668.0867714131033
 20
127.8881981829745
 30
0.0
 11
668.9160784111224
 21
106.6067710093468
 31
0.0
  0
LINE
  5
201
330
1F
100
AcDbEntity
  8
0
  6
CONTINUOUS
 62
     7
100
AcDbLine
 10
668.9160784111224
 20
106.6067710093468
 30
0.0
 11
669.3336149452521
 21
95.86090350425404
 31
0.0
  0
LINE
  5
202
330
1F
100
AcDbEntity
  8
0
  6
CONTINUOUS
 62
     7
100
AcDbLine
 10
669.3336149452521
 20
95.86090350425403
 30
0.0
 11
670.1686880139367
 21
77.92272174602286
 31
0.0
  0
ARC
  5
203
330
1F
100
AcDbEntity
  8
0
  6
CONTINUOUS
 62
     7
100
AcDbCircle
 10
757.7787662775701
 20
81.05845695755141
 30
0.0
 40
87.6661773358277
100
AcDbArc
 50
182.0498524287734
 51
188.1765667455111
  0
LWPOLYLINE
  5
204
330
1F
100
AcDbEntity
  8
0
  6
CONTINUOUS
 62
     7
100
AcDbPolyline
 90
        6
 70
     0
 43
0.0
 10
671.0037610832175
 20
68.59021240601776
 10
671.073350505682
 20
68.30037856102203
 10
671.14293992815
 20
68.09007993119059
 10
671.2125293506214
 20
67.9597185048591
 10
671.2821187730957
 20
67.90954346944662
 10
671.2908166247634
 20
67.9089161442084
  0
LINE
  5
205
330
1F
100
AcDbEntity
  8
0
  6
CONTINUOUS
 62
     7
100
AcDbLine
 10
677.266809102127
 20
144.2561515560661
 30
0.0
 11
677.6843456359926
 21
136.8120975061537
 31
0.0
  0
LINE
  5
206
330
1F
100
AcDbEntity
  8
0
  6
CONTINUOUS
 62
     7
100
AcDbLine
 10
677.6843456359926
 20
136.8120975061537
 30
0.0
 11
678.5194187038057
 21
117.0363024330615
 31
0.0
  0
LINE
  5
207
330
1F
100
AcDbEntity
  8
0
  6
CONTINUOUS
 62
     7
100
AcDbLine
 10
678.5194187038056
 20
117.0363024330615
 30
0.0
 11
678.936955237824
 21
106.0578497814346
 31
0.0
  0
LINE
  5
208
330
1F
100
AcDbEntity
  8
0
  6
CONTINUOUS
 62
     7
100
AcDbLine
 10
678.936955237824
 20
106.0578497814346
 30
0.0
 11
679.3544917719614
 21
95.34293158219545
 31
0.0
  0
ARC
  5
209
330
1F
100
AcDbEntity
  8
0
  6
CONTINUOUS
 62
     7
100
AcDbCircle
 10
1263.374512487267
 20
114.4754299753676
 30
0.0
 40
584.3333270412278
100
AcDbArc
 50
181.8763389353687
 51
184.1955466753136
  0
LINE
  5
20A
330
1F
100
AcDbEntity
  8
0
  6
CONTINUOUS
 62
     7
100
AcDbLine
 10
680.6071013752367
 20
71.72520615311664
 30
0.0
 11
681.0246379099561
 21
68.49494108876473
 31
0.0
  0
LWPOLYLINE
  5
20B
330
1F
100
AcDbEntity
  8
0
  6
CONTINUOUS
 62
     7
100
AcDbPolyline
 90
        5
 70
     0
 43
0.0
 10
681.0246379099561
 20
68.49494108876472
 10
681.0942273324218
 20
68.22891653570721
 10
681.163816754891
 20
68.04256379832604
 10
681.2334061773632
 20
67.93623909209822
 10
681.2908185747519
 20
67.9089161438364
  0
ARC
  5
20C
330
1F
100
AcDbEntity
  8
0
  6
CONTINUOUS
 62
     7
100
AcDbCircle
 10
427.2921424741134
 20
125.7702675394463
 30
0.0
 40
260.6293949564422
100
AcDbArc
 50
2.334528930502302
 51
5.148177975642056
  0
LINE
  5
20D
330
1F
100
AcDbEntity
  8
0
  6
CONTINUOUS
 62
     7
100
AcDbLine
 10
687.7052224626867
 20
136.3867305204038
 30
0.0
 11
688.1227589965675
 21
127.0254037177689
 31
0.0
  0
LINE
  5
20E
330
1F
100
AcDbEntity
  8
0
  6
CONTINUOUS
 62
     7
100
AcDbLine
 10
688.1227589965675
 20
127.0254037177689
 30
0.0
 11
688.5402955305037
 21
116.4927690860596
 31
0.0
  0
LINE
  5
20F
330
1F
100
AcDbEntity
  8
0
  6
CONTINUOUS
 62
     7
100
AcDbLine
 10
688.5402955305037
 20
116.4927690860596
 30
0.0
 11
689.7929051329536
 21
85.17738768852907
 31
0.0
  0
ARC
  5
210
330
1F
100
AcDbEntity
  8
0
  6
CONTINUOUS
 62
     7
100
AcDbCircle
 10
1024.823213677785
 20
98.76656102645725
 30
0.0
 40
335.3057906980632
100
AcDbArc
 50
182.322702441518
 51
184.664521758589
  0
ARC
  5
211
330
1F
100
AcDbEntity
  8
0
  6
CONTINUOUS
 62
     7
100
AcDbCircle
 10
704.7749858527302
 20
71.95864060066187
 30
0.0
 40
14.15447140820751
100
AcDbArc
 50
181.8607526534845
 51
196.2312701988411
  0
LWPOLYLINE
  5
212
330
1F
100
AcDbEntity
  8
0
  6
CONTINUOUS
 62
     7
100
AcDbPolyline
 90
        3
 70
     0
 43
0.0
 10
691.1846935816324
 20
68.00225123257606
 10
691.2542830041057
 20
67.9199815407893
 10
691.290817672528
 20
67.90891614345344
  0
ARC
  5
213
330
1F
100
AcDbEntity
  8
0
  6
CONTINUOUS
 62
     7
100
AcDbCircle
 10
419.8671954648065
 20
124.6362727647372
 30
0.0
 40
278.0894189763558
100
AcDbArc
 50
2.333055878823131
 51
5.017401771753555
  0
LINE
  5
214
330
1F
100
AcDbEntity
  8
0
  6
CONTINUOUS
 62
     7
100
AcDbLine
 10
697.726099289379
 20
135.9568077350528
 30
0.0
 11
698.1436358232636
 21
126.5208453841486
 31
0.0
  0
LINE
  5
215
330
1F
100
AcDbEntity
  8
0
  6
CONTINUOUS
 62
     7
100
AcDbLine
 10
698.1436358232636
 20
126.5208453841486
 30
0.0
 11
698.9787088912332
 21
104.9620895145931
 31
0.0
  0
LINE
  5
216
330
1F
100
AcDbEntity
  8
0
  6
CONTINUOUS
 62
     7
100
AcDbLine
 10
698.978708891233
 20
104.9620895145931
 30
0.0
 11
699.8137819596722
 21
84.73424437936971
 31
0.0
  0
LINE
  5
217
330
1F
100
AcDbEntity
  8
0
  6
CONTINUOUS
 62
     7
100
AcDbLine
 10
699.8137819596722
 20
84.73424437936971
 30
0.0
 11
700.2313184941127
 21
76.87663550349033
 31
0.0
  0
ARC
  5
218
330
1F
100
AcDbEntity
  8
0
  6
CONTINUOUS
 62
     7
100
AcDbCircle
 10
765.3627375417248
 20
78.92115258516131
 30
0.0
 40
65.16350049876765
100
AcDbArc
 50
181.7979609247772
 51
189.3576427803742
  0
LINE
  5
219
330
1F
100
AcDbEntity
  8
0
  6
CONTINUOUS
 62
     7
100
AcDbLine
 10
701.0663915634341
 20
68.32579081253519
 30
0.0
 11
701.2908188720398
 21
67.90891614309399
 31
0.0
  0
LINE
  5
21A
330
1F
100
AcDbEntity
  8
0
  6
CONTINUOUS
 62
     7
100
AcDbLine
 10
707.3294395822082
 20
143.2786067653512
 30
0.0
 11
708.1645126499604
 21
126.0134287850809
 31
0.0
  0
LINE
  5
21B
330
1F
100
AcDbEntity
  8
0
  6
CONTINUOUS
 62
     7
100
AcDbLine
 10
708.1645126499606
 20
126.0134287850809
 30
0.0
 11
708.5820491839007
 21
115.4023976345946
 31
0.0
  0
LINE
  5
21C
330
1F
100
AcDbEntity
  8
0
  6
CONTINUOUS
 62
     7
100
AcDbLine
 10
708.5820491839007
 20
115.4023976345946
 30
0.0
 11
709.417122252094
 21
93.80440756427002
 31
0.0
  0
LINE
  5
21D
330
1F
100
AcDbEntity
  8
0
  6
CONTINUOUS
 62
     7
100
AcDbLine
 10
709.417122252094
 20
93.80440756427002
 30
0.0
 11
710.2521953208372
 21
76.53922819218978
 31
0.0
  0
ARC
  5
21E
330
1F
100
AcDbEntity
  8
0
  6
CONTINUOUS
 62
     7
100
AcDbCircle
 10
768.8308456635787
 20
78.25622128871446
 30
0.0
 40
58.60380824887292
100
AcDbArc
 50
181.6789103049138
 51
189.8291265484605
  0
LINE
  5
21F
330
1F
100
AcDbEntity
  8
0
  6
CONTINUOUS
 62
     7
100
AcDbLine
 10
711.0872683901744
 20
68.25194095772353
 30
0.0
 11
711.2908181880695
 21
67.90891614270856
 31
0.0
  0
LINE
  5
220
330
1F
100
AcDbEntity
  8
0
  6
CONTINUOUS
 62
     7
100
AcDbLine
 10
717.3503164089008
 20
142.9411994996695
 30
0.0
 11
717.7678529427658
 21
135.0835914283417
 31
0.0
  0
LINE
  5
221
330
1F
100
AcDbEntity
  8
0
  6
CONTINUOUS
 62
     7
100
AcDbLine
 10
717.7678529427658
 20
135.0835914283417
 30
0.0
 11
718.6029260106005
 21
114.8557471405274
 31
0.0
  0
LINE
  5
222
330
1F
100
AcDbEntity
  8
0
  6
CONTINUOUS
 62
     7
100
AcDbLine
 10
718.6029260106005
 20
114.8557471405274
 30
0.0
 11
719.4379990788052
 21
93.29699094277103
 31
0.0
  0
LINE
  5
223
330
1F
100
AcDbEntity
  8
0
  6
CONTINUOUS
 62
     7
100
AcDbLine
 10
719.4379990788052
 20
93.29699094277102
 30
0.0
 11
719.855535613109
 21
83.86102800226277
 31
0.0
  0
ARC
  5
224
330
1F
100
AcDbEntity
  8
0
  6
CONTINUOUS
 62
     7
100
AcDbCircle
 10
997.7145812281411
 20
95.18156868196617
 30
0.0
 40
278.089560881701
100
AcDbArc
 50
182.3330558649391
 51
185.0174007645063
  0
ARC
  5
225
330
1F
100
AcDbEntity
  8
0
  6
CONTINUOUS
 62
     7
100
AcDbCircle
 10
736.5532848093363
 20
71.96612172635398
 30
0.0
 40
15.90117173902658
100
AcDbArc
 50
183.9876435908522
 51
193.7551151113118
  0
LINE
  5
226
330
1F
100
AcDbEntity
  8
0
  6
CONTINUOUS
 62
     7
100
AcDbLine
 10
721.1081452169144
 20
68.18525864438176
 30
0.0
 11
721.2908181839351
 21
67.90891614233438
 31
0.0
  0
LINE
  5
227
330
1F
100
AcDbEntity
  8
0
  6
CONTINUOUS
 62
     7
100
AcDbLine
 10
726.9536567017122
 20
148.3187969626365
 30
0.0
 11
727.3711932355936
 21
142.598108665751
 31
0.0
  0
LINE
  5
228
330
1F
100
AcDbEntity
  8
0
  6
CONTINUOUS
 62
     7
100
AcDbLine
 10
727.3711932355936
 20
142.598108665751
 30
0.0
 11
727.78872976946
 21
134.6404481534689
 31
0.0
  0
LINE
  5
229
330
1F
100
AcDbEntity
  8
0
  6
CONTINUOUS
 62
     7
100
AcDbLine
 10
727.78872976946
 20
134.6404481534689
 30
0.0
 11
729.0413393713466
 21
103.3250675452902
 31
0.0
  0
LINE
  5
22A
330
1F
100
AcDbEntity
  8
0
  6
CONTINUOUS
 62
     7
100
AcDbLine
 10
729.0413393713467
 20
103.3250675452902
 30
0.0
 11
729.8764124398276
 21
83.43110518081113
 31
0.0
  0
LINE
  5
22B
330
1F
100
AcDbEntity
  8
0
  6
CONTINUOUS
 62
     7
100
AcDbLine
 10
729.8764124398275
 20
83.43110518081114
 30
0.0
 11
730.2939489742906
 21
75.88169550349546
 31
0.0
  0
LINE
  5
22C
330
1F
100
AcDbEntity
  8
0
  6
CONTINUOUS
 62
     7
100
AcDbLine
 10
730.2939489742906
 20
75.88169550349546
 30
0.0
 11
730.7114855089036
 21
70.6608213836101
 31
0.0
  0
ARC
  5
22D
330
1F
100
AcDbEntity
  8
0
  6
CONTINUOUS
 62
     7
100
AcDbCircle
 10
741.1743620097101
 20
71.1460150765167
 30
0.0
 40
10.47412037312751
100
AcDbArc
 50
182.6550680776749
 51
197.4307083003081
  0
LWPOLYLINE
  5
22E
330
1F
100
AcDbEntity
  8
0
  6
CONTINUOUS
 62
     7
100
AcDbPolyline
 90
        3
 70
     0
 43
0.0
 10
731.1812141105078
 20
68.00846943454877
 10
731.2595022107902
 20
67.91704592253006
 10
731.2908167765122
 20
67.90891614196153
  0
ARC
  5
22F
330
1F
100
AcDbEntity
  8
0
  6
CONTINUOUS
 62
     7
100
AcDbCircle
 10
154.2073650284082
 20
105.3424151920757
 30
0.0
 40
584.33308427099
100
AcDbArc
 50
1.87633885630737
 51
4.195547335219999
  0
LINE
  5
230
330
1F
100
AcDbEntity
  8
0
  6
CONTINUOUS
 62
     7
100
AcDbLine
 10
738.2271431300442
 20
124.47490483048
 30
0.0
 11
738.6446796640001
 21
113.7599868857924
 31
0.0
  0
LINE
  5
231
330
1F
100
AcDbEntity
  8
0
  6
CONTINUOUS
 62
     7
100
AcDbLine
 10
738.6446796640003
 20
113.7599868857924
 30
0.0
 11
739.062216198052
 21
102.781534188853
 31
0.0
  0
LINE
  5
232
330
1F
100
AcDbEntity
  8
0
  6
CONTINUOUS
 62
     7
100
AcDbLine
 10
739.0622161980519
 20
102.7815341888531
 30
0.0
 11
739.8972892665477
 21
83.005738158384
 31
0.0
  0
LINE
  5
233
330
1F
100
AcDbEntity
  8
0
  6
CONTINUOUS
 62
     7
100
AcDbLine
 10
739.8972892665478
 20
83.00573815838399
 30
0.0
 11
740.314825801018
 21
75.56168326187125
 31
0.0
  0
ARC
  5
234
330
1F
100
AcDbEntity
  8
0
  6
CONTINUOUS
 62
     7
100
AcDbCircle
 10
781.5156891180521
 20
76.44427294499462
 30
0.0
 40
41.21031548796599
100
AcDbArc
 50
181.2271813465717
 51
191.7982301266951
  0
LWPOLYLINE
  5
235
330
1F
100
AcDbEntity
  8
0
  6
CONTINUOUS
 62
     7
100
AcDbPolyline
 90
        3
 70
     0
 43
0.0
 10
741.1759949038226
 20
68.01817222638509
 10
741.2542830041049
 20
67.91998153891898
 10
741.2908172723372
 20
67.9089161415832
  0
LINE
  5
236
330
1F
100
AcDbEntity
  8
0
  6
CONTINUOUS
 62
     7
100
AcDbLine
 10
747.4129468889812
 20
141.8951133911795
 30
0.0
 11
748.2480199567414
 21
123.9569329280387
 31
0.0
  0
LINE
  5
237
330
1F
100
AcDbEntity
  8
0
  6
CONTINUOUS
 62
     7
100
AcDbLine
 10
748.2480199567414
 20
123.9569329280387
 30
0.0
 11
748.6655564907014
 21
113.2110656627178
 31
0.0
  0
LINE
  5
238
330
1F
100
AcDbEntity
  8
0
  6
CONTINUOUS
 62
     7
100
AcDbLine
 10
748.6655564907014
 20
113.2110656627178
 30
0.0
 11
749.5006295589412
 21
91.79223741917356
 31
0.0
  0
ARC
  5
239
330
1F
100
AcDbEntity
  8
0
  6
CONTINUOUS
 62
     7
100
AcDbCircle
 10
1146.67206111822
 20
104.129346361875
 30
0.0
 40
397.3629956398951
100
AcDbArc
 50
181.7791739387553
 51
184.8863576798518
  0
ARC
  5
23A
330
1F
100
AcDbEntity
  8
0
  6
CONTINUOUS
 62
     7
100
AcDbCircle
 10
760.0469138980471
 20
70.83829401662243
 30
0.0
 40
9.310303559634002
100
AcDbArc
 50
183.4249255751294
 51
197.5665148741205
  0
LINE
  5
23B
330
1F
100
AcDbEntity
  8
0
  6
CONTINUOUS
 62
     7
100
AcDbLine
 10
751.1707756971371
 20
68.0283255095251
 30
0.0
 11
751.2908185290257
 21
67.90891614121671
 31
0.0
  0
ARC
  5
23C
330
1F
100
AcDbEntity
  8
0
  6
CONTINUOUS
 62
     7
100
AcDbCircle
 10
357.8775549279806
 20
117.1771178622564
 30
0.0
 40
400.2980569795962
100
AcDbArc
 50
2.306302724835915
 51
4.361675074642392
  0
LINE
  5
23D
330
1F
100
AcDbEntity
  8
0
  6
CONTINUOUS
 62
     7
100
AcDbLine
 10
757.851360249542
 20
133.2857949721157
 30
0.0
 11
758.0999999997454
 21
127.5720927008392
 31
0.0
  0
LINE
  5
23E
330
1F
100
AcDbEntity
  8
0
  6
CONTINUOUS
 62
     7
100
AcDbLine
 10
787.7342928140666
 20
135.7868472244441
 30
0.0
 11
787.9139907296214
 21
131.8949456974727
 31
0.0
  0
LINE
  5
23F
330
1F
100
AcDbEntity
  8
0
  6
CONTINUOUS
 62
     7
100
AcDbLine
 10
787.9139907296213
 20
131.8949456974727
 30
0.0
 11
788.3315272635264
 21
121.8617715315843
 31
0.0
  0
LINE
  5
240
330
1F
100
AcDbEntity
  8
0
  6
CONTINUOUS
 62
     7
100
AcDbLine
 10
788.3315272635265
 20
121.8617715315843
 30
0.0
 11
788.7490637975034
 21
111.0106449067565
 31
0.0
  0
LINE
  5
241
330
1F
100
AcDbEntity
  8
0
  6
CONTINUOUS
 62
     7
100
AcDbLine
 10
788.7490637975034
 20
111.0106449067565
 30
0.0
 11
790.001673400151
 21
80.94977351296747
 31
0.0
  0
ARC
  5
242
330
1F
100
AcDbEntity
  8
0
  6
CONTINUOUS
 62
     7
100
AcDbCircle
 10
961.1139096604578
 20
87.84469791438143
 30
0.0
 40
171.2510945381205
100
AcDbArc
 50
182.3074706699202
 51
186.1135175647576
  0
ARC
  5
243
330
1F
100
AcDbEntity
  8
0
  6
CONTINUOUS
 62
     7
100
AcDbCircle
 10
797.5080651473804
 20
70.21352086870394
 30
0.0
 40
6.698861200139422
100
AcDbArc
 50
185.1974211207288
 51
199.2746237239579
  0
LINE
  5
244
330
1F
100
AcDbEntity
  8
0
  6
CONTINUOUS
 62
     7
100
AcDbLine
 10
791.1846935816305
 20
68.0022512288368
 30
0.0
 11
791.2542830041036
 21
67.91998153704893
 31
0.0
  0
LINE
  5
245
330
1F
100
AcDbEntity
  8
0
  6
CONTINUOUS
 62
     7
100
AcDbLine
 10
791.2542830041036
 20
67.91998153704891
 30
0.0
 11
791.2908176725273
 21
67.90891613971215
 31
0.0
  0
LINE
  5
246
330
1F
100
AcDbEntity
  8
0
  6
CONTINUOUS
 62
     7
100
AcDbLine
 10
647.1000000007075
 20
141.3749845172587
 30
0.0
 11
647.1000000013149
 21
146.5957571710354
 31
0.0
  0
LINE
  5
247
330
1F
100
AcDbEntity
  8
0
  6
CONTINUOUS
 62
     7
100
AcDbLine
 10
797.1000000023705
 20
154.4089161394879
 30
0.0
 11
797.0999999990406
 21
65.40891613948921
 31
0.0
  0
LINE
  5
248
330
1F
100
AcDbEntity
  8
0
  6
CONTINUOUS
 62
     7
100
AcDbLine
 10
794.1000000015584
 20
132.7042922441674
 30
0.0
 11
794.1000000014616
 21
130.1167455466123
 31
0.0
  0
LINE
  5
249
330
1F
100
AcDbEntity
  8
0
  6
CONTINUOUS
 62
     7
100
AcDbLine
 10
794.1000000014616
 20
130.1167455466123
 30
0.0
 11
794.0999999990406
 21
65.4089161396017
 31
0.0
  0
LINE
  5
24A
330
1F
100
AcDbEntity
  8
0
  6
CONTINUOUS
 62
     7
100
AcDbLine
 10
810.0999999981766
 20
79.05511087444499
 30
0.0
 11
814.0999999981766
 21
79.05511087429532
 31
0.0
  0
LINE
  5
24B
330
1F
100
AcDbEntity
  8
0
  6
CONTINUOUS
 62
     7
100
AcDbLine
 10
814.0999999995511
 20
79.05511087429113
 30
0.0
 11
814.0999999997882
 21
85.39248051121791
 31
0.0
  0
LINE
  5
24C
330
1F
100
AcDbEntity
  8
0
  6
CONTINUOUS
 62
     7
100
AcDbLine
 10
814.0999999997882
 20
85.392480511218
 30
0.0
 11
814.0999999998901
 21
88.1173721518107
 31
0.0
  0
LINE
  5
24D
330
1F
100
AcDbEntity
  8
0
  6
CONTINUOUS
 62
     7
100
AcDbLine
 10
810.1000000004854
 20
140.7627214043438
 30
0.0
 11
814.1000000004852
 21
140.7627214041942
 31
0.0
  0
LINE
  5
24E
330
1F
100
AcDbEntity
  8
0
  6
CONTINUOUS
 62
     7
100
AcDbLine
 10
814.1000000016267
 20
134.531408772404
 30
0.0
 11
814.1000000018597
 21
140.7627214041983
 31
0.0
  0
LWPOLYLINE
  5
24F
330
1F
100
AcDbEntity
  8
0
  6
CONTINUOUS
 62
     7
100
AcDbPolyline
 90
        9
 70
     0
 43
0.0
 10
813.0999999978077
 20
67.77647176772933
 10
813.2950903198318
 20
67.79119109689618
 10
813.4826834301901
 20
67.8347834288461
 10
813.6555702308542
 20
67.90557353470898
 10
813.8071067790302
 20
68.00084099041587
 10
813.9314696101538
 20
68.11692472107026
 10
814.023879530368
 20
68.24936369400334
 10
814.0807852782632
 20
68.39306835375749
 10
814.0999999978603
 20
68.54251621084848
  0
LWPOLYLINE
  5
250
330
1F
100
AcDbEntity
  8
0
  6
CONTINUOUS
 62
     7
100
AcDbPolyline
 90
        9
 70
     0
 43
0.0
 10
813.0999999978079
 20
74.55559760658481
 10
813.2950903198249
 20
74.56794859025776
 10
813.482683430177
 20
74.60452689991516
 10
813.6555702308364
 20
74.66392685163024
 10
813.8071067790098
 20
74.74386573857043
 10
813.9314696101338
 20
74.8412715541409
 10
814.0238795303517
 20
74.95240104747509
 10
814.0807852782534
 20
75.07298357446629
 10
814.0999999978606
 20
75.19838521622567
  0
LINE
  5
251
330
1F
100
AcDbEntity
  8
0
  6
CONTINUOUS
 62
     7
100
AcDbLine
 10
814.0999999994067
 20
75.19838521622101
 30
0.0
 11
814.0999999991577
 21
68.54251621079845
 31
0.0
  0
LINE
  5
252
330
1F
100
AcDbEntity
  8
0
  6
CONTINUOUS
 62
     7
100
AcDbLine
 10
814.0999999978606
 20
75.19838521622569
 30
0.0
 11
814.0999999981766
 21
79.05511087429532
 31
0.0
  0
LWPOLYLINE
  5
253
330
1F
100
AcDbEntity
  8
0
  6
CONTINUOUS
 62
     7
100
AcDbPolyline
 90
        9
 70
     0
 43
0.0
 10
814.1000000004577
 20
144.6194470623306
 10
814.0807852808684
 20
144.744848704099
 10
814.0238795329813
 20
144.8654312311027
 10
813.9314696127747
 20
144.9765607244521
 10
813.8071067816583
 20
145.0739665400395
 10
813.6555702334887
 20
145.1539054269977
 10
813.4826834328298
 20
145.2133053787307
 10
813.2950903224753
 20
145.2498836884053
 10
813.1000000004532
 20
145.2622346720939
  0
LINE
  5
254
330
1F
100
AcDbEntity
  8
0
  6
CONTINUOUS
 62
     7
100
AcDbLine
 10
814.1000000004852
 20
140.7627214041942
 30
0.0
 11
814.1000000004576
 21
144.6194470623619
 31
0.0
  0
LWPOLYLINE
  5
255
330
1F
100
AcDbEntity
  8
0
  6
CONTINUOUS
 62
     7
100
AcDbPolyline
 90
        9
 70
     0
 43
0.0
 10
814.1000000009556
 20
151.2753160676417
 10
814.0807852813597
 20
151.4247639247305
 10
814.0238795334686
 20
151.5684685844841
 10
813.9314696132607
 20
151.7009075574187
 10
813.8071067821454
 20
151.8169912880771
 10
813.655570233979
 20
151.9122587437906
 10
813.4826834333248
 20
151.9830488496626
 10
813.2950903229763
 20
152.0266411816242
 10
813.1000000009601
 20
152.0413605108048
  0
LINE
  5
256
330
1F
100
AcDbEntity
  8
0
  6
CONTINUOUS
 62
     7
100
AcDbLine
 10
814.1000000022531
 20
151.2753160676472
 30
0.0
 11
814.1000000020041
 21
144.6194470623666
 31
0.0
  0
LINE
  5
257
330
1F
100
AcDbEntity
  8
0
  6
CONTINUOUS
 62
     7
100
AcDbLine
 10
651.9091828735909
 20
151.9089161449132
 30
0.0
 11
652.0083474773384
 21
151.8274165503646
 31
0.0
  0
LINE
  5
258
330
1F
100
AcDbEntity
  8
0
  6
CONTINUOUS
 62
     7
100
AcDbLine
 10
661.9091814724206
 20
151.9089161445322
 30
0.0
 11
662.0292243040386
 21
151.7895067762914
 31
0.0
  0
LINE
  5
259
330
1F
100
AcDbEntity
  8
0
  6
CONTINUOUS
 62
     7
100
AcDbLine
 10
671.9091827239221
 20
151.9089161441657
 30
0.0
 11
672.0501011307376
 21
151.7443909852512
 31
0.0
  0
ARC
  5
25A
330
1F
100
AcDbEntity
  8
0
  6
CONTINUOUS
 62
     7
100
AcDbCircle
 10
661.2400244478438
 20
148.6257869170563
 30
0.0
 40
11.25093103810564
100
AcDbArc
 50
3.689456710127672
 51
16.09234648409733
  0
LWPOLYLINE
  5
25B
330
1F
100
AcDbEntity
  8
0
  6
CONTINUOUS
 62
     7
100
AcDbPolyline
 90
        3
 70
     0
 43
0.0
 10
-681.9091833184751
 20
151.9089161437861
 10
-682.0013885351041
 20
151.8384506402362
 10
-682.0709779574381
 20
151.6920769399073
210
0.0
220
0.0
230
-1.0
  0
ARC
  5
25C
330
1F
100
AcDbEntity
  8
0
  6
CONTINUOUS
 62
     7
100
AcDbCircle
 10
669.0762490584488
 20
148.2498698254025
 30
0.0
 40
13.44290775752689
100
AcDbArc
 50
3.869317837814891
 51
14.83647542857318
  0
LINE
  5
25D
330
1F
100
AcDbEntity
  8
0
  6
CONTINUOUS
 62
     7
100
AcDbLine
 10
691.9091818175111
 20
151.9089161434145
 30
0.0
 11
692.0918547841362
 21
151.6325736414757
 31
0.0
  0
LINE
  5
25E
330
1F
100
AcDbEntity
  8
0
  6
CONTINUOUS
 62
     7
100
AcDbLine
 10
701.9091818133767
 20
151.9089161430404
 30
0.0
 11
702.1127316108372
 21
151.5658913281408
 31
0.0
  0
LINE
  5
25F
330
1F
100
AcDbEntity
  8
0
  6
CONTINUOUS
 62
     7
100
AcDbLine
 10
711.9091835305211
 20
151.9089161426604
 30
0.0
 11
712.1336084375367
 21
151.4920414733407
 31
0.0
  0
LWPOLYLINE
  5
260
330
1F
100
AcDbEntity
  8
0
  6
CONTINUOUS
 62
     7
100
AcDbPolyline
 90
        3
 70
     0
 43
0.0
 10
-721.9091823289183
 20
151.9089161422955
 10
-722.0153064195717
 20
151.8155810532306
 10
-722.0848958419051
 20
151.6532062723795
210
0.0
220
0.0
230
-1.0
  0
ARC
  5
261
330
1F
100
AcDbEntity
  8
0
  6
CONTINUOUS
 62
     7
100
AcDbCircle
 10
705.088397272172
 20
147.4673906215525
 30
0.0
 40
17.5043427838251
100
AcDbArc
 50
2.787944908647887
 51
13.83520524307056
  0
LWPOLYLINE
  5
262
330
1F
100
AcDbEntity
  8
0
  6
CONTINUOUS
 62
     7
100
AcDbPolyline
 90
        4
 70
     0
 43
0.0
 10
-731.9091814266943
 20
151.9089161419125
 10
-732.0361832462709
 20
151.7752684874949
 10
-732.1057726686033
 20
151.5889157501532
 10
-732.1753620909332
 20
151.3228911971352
210
0.0
220
0.0
230
-1.0
  0
LWPOLYLINE
  5
263
330
1F
100
AcDbEntity
  8
0
  6
CONTINUOUS
 62
     7
100
AcDbPolyline
 90
        4
 70
     0
 43
0.0
 10
-741.9091833766829
 20
151.9089161415405
 10
-742.0570600729714
 20
151.7277523546404
 10
-742.1266494953032
 20
151.5174537248466
 10
-742.1962389176325
 20
151.2276198798876
210
0.0
220
0.0
230
-1.0
  0
LWPOLYLINE
  5
264
330
1F
100
AcDbEntity
  8
0
  6
CONTINUOUS
 62
     7
100
AcDbPolyline
 90
        6
 70
     0
 43
0.0
 10
-751.9091828735902
 20
151.9089161411719
 10
-751.938758055001
 20
151.9016645501102
 10
-752.0083474773375
 20
151.8274165466237
 10
-752.077936899671
 20
151.6730408303462
 10
-752.147526322002
 20
151.4388324922979
 10
-752.2171157443304
 20
151.1252392245066
210
0.0
220
0.0
230
-1.0
  0
LWPOLYLINE
  5
265
330
1F
100
AcDbEntity
  8
0
  6
CONTINUOUS
 62
     7
100
AcDbPolyline
 90
        7
 70
     0
 43
0.0
 10
-791.9091818175104
 20
151.9089161396732
 10
-791.9526759394688
 20
151.8932341860162
 10
-792.0222653618047
 20
151.802944378849
 10
-792.0918547841378
 20
151.632573637728
 10
-792.1614442064681
 20
151.3824476283541
 10
-792.2310336287961
 20
151.0530444695732
 10
-792.3006230511218
 20
150.6449938194466
210
0.0
220
0.0
230
-1.0
  0
LINE
  5
266
330
1F
100
AcDbEntity
  8
0
  6
CONTINUOUS
 62
     7
100
AcDbLine
 10
810.0999999982907
 20
67.14060297819915
 30
0.0
 11
814.0999999982907
 21
67.1406029780495
 31
0.0
  0
LINE
  5
267
330
1F
100
AcDbEntity
  8
0
  6
CONTINUOUS
 62
     7
100
AcDbLine
 10
814.0999999991053
 20
67.14060297804392
 30
0.0
 11
814.0999999991568
 21
68.51571142145569
 31
0.0
  0
LINE
  5
268
330
1F
100
AcDbEntity
  8
0
  6
CONTINUOUS
 62
     7
100
AcDbLine
 10
814.0999999991567
 20
68.5157114214557
 30
0.0
 11
814.0999999993297
 21
73.13878286947109
 31
0.0
  0
LINE
  5
269
330
1F
100
AcDbEntity
  8
0
  6
CONTINUOUS
 62
     7
100
AcDbLine
 10
810.1000000014909
 20
152.6772293002701
 30
0.0
 11
814.1000000014909
 21
152.6772293001204
 31
0.0
  0
LINE
  5
26A
330
1F
100
AcDbEntity
  8
0
  6
CONTINUOUS
 62
     7
100
AcDbLine
 10
814.1000000022447
 20
151.052946572817
 30
0.0
 11
814.1000000022533
 21
151.2837303506914
 31
0.0
  0
LINE
  5
26B
330
1F
100
AcDbEntity
  8
0
  6
CONTINUOUS
 62
     7
100
AcDbLine
 10
814.1000000022533
 20
151.2837303506914
 30
0.0
 11
814.1000000023054
 21
152.6772293001261
 31
0.0
  0
LWPOLYLINE
  5
26C
330
1F
100
AcDbEntity
  8
0
  6
CONTINUOUS
 62
     7
100
AcDbPolyline
 90
        9
 70
     0
 43
0.0
 10
813.0999999979387
 20
60.90355730880314
 10
813.2950903199556
 20
60.92067774931692
 10
813.4826834303075
 20
60.97138114194516
 10
813.6555702309666
 20
61.05371898374395
 10
813.8071067791399
 20
61.16452707762855
 10
813.9314696102635
 20
61.29954713069288
 10
814.0238795304809
 20
61.45359039801778
 10
814.0807852783823
 20
61.62073708322843
 10
814.0999999979889
 20
61.79456383294912
  0
LINE
  5
26D
330
1F
100
AcDbEntity
  8
0
  6
CONTINUOUS
 62
     7
100
AcDbLine
 10
814.0999999989053
 20
61.79456383294279
 30
0.0
 11
814.0999999986851
 21
55.90891613885339
 31
0.0
  0
LINE
  5
26E
330
1F
100
AcDbEntity
  8
0
  6
CONTINUOUS
 62
     7
100
AcDbLine
 10
814.099999997989
 20
61.79456383294912
 30
0.0
 11
814.0999999982907
 21
67.14060297804951
 31
0.0
  0
LWPOLYLINE
  5
26F
330
1F
100
AcDbEntity
  8
0
  6
CONTINUOUS
 62
     7
100
AcDbPolyline
 90
        9
 70
     0
 43
0.0
 10
814.1000000015891
 20
158.0232684452056
 10
814.0807852820096
 20
158.19709519494
 10
814.0238795341303
 20
158.3642418801689
 10
813.9314696139294
 20
158.5182851475151
 10
813.8071067828164
 20
158.6533052006023
 10
813.655570234648
 20
158.7641132945102
 10
813.4826834339883
 20
158.846451136331
 10
813.2950903236315
 20
158.8971545289791
 10
813.1000000016055
 20
158.9142749695094
  0
LINE
  5
270
330
1F
100
AcDbEntity
  8
0
  6
CONTINUOUS
 62
     7
100
AcDbLine
 10
814.1000000014909
 20
152.6772293001204
 30
0.0
 11
814.1000000015893
 21
158.0232684452789
 31
0.0
  0
LINE
  5
271
330
1F
100
AcDbEntity
  8
0
  6
CONTINUOUS
 62
     7
100
AcDbLine
 10
814.1000000027258
 20
163.9089161388518
 30
0.0
 11
814.1000000025055
 21
158.0232684452853
 31
0.0
  0
LINE
  5
272
330
1F
100
AcDbEntity
  8
0
  6
CONTINUOUS
 62
     7
100
AcDbLine
 10
814.0999999985168
 20
58.90141592916241
 30
0.0
 11
814.3999999985167
 21
58.90141592915119
 31
0.0
  0
LINE
  5
273
330
1F
100
AcDbEntity
  8
0
  6
CONTINUOUS
 62
     7
100
AcDbLine
 10
814.0999999985221
 20
56.79674580639924
 30
0.0
 11
814.399999998522
 21
56.79674580638802
 31
0.0
  0
LINE
  5
274
330
1F
100
AcDbEntity
  8
0
  6
CONTINUOUS
 62
     7
100
AcDbLine
 10
814.3999999985167
 20
58.90141592915119
 30
0.0
 11
814.399999998522
 21
56.79674580638802
 31
0.0
  0
LINE
  5
275
330
1F
100
AcDbEntity
  8
0
  6
CONTINUOUS
 62
     7
100
AcDbLine
 10
814.0999999985372
 20
59.44913377902981
 30
0.0
 11
814.3999999985372
 21
59.4491337790186
 31
0.0
  0
LINE
  5
276
330
1F
100
AcDbEntity
  8
0
  6
CONTINUOUS
 62
     7
100
AcDbLine
 10
814.3999999985372
 20
59.4491337790186
 30
0.0
 11
814.3999999985167
 21
58.90141592915119
 31
0.0
  0
LINE
  5
277
330
1F
100
AcDbEntity
  8
0
  6
CONTINUOUS
 62
     7
100
AcDbLine
 10
814.0999999985783
 20
60.54656906866715
 30
0.0
 11
814.3999999985782
 21
60.54656906865593
 31
0.0
  0
LINE
  5
278
330
1F
100
AcDbEntity
  8
0
  6
CONTINUOUS
 62
     7
100
AcDbLine
 10
814.3999999985782
 20
60.54656906865593
 30
0.0
 11
814.3999999985788
 21
59.4491337790186
 31
0.0
  0
LINE
  5
279
330
1F
100
AcDbEntity
  8
0
  6
CONTINUOUS
 62
     7
100
AcDbLine
 10
814.099999998606
 20
61.29085046256206
 30
0.0
 11
814.399999998606
 21
61.29085046255084
 31
0.0
  0
LINE
  5
27A
330
1F
100
AcDbEntity
  8
0
  6
CONTINUOUS
 62
     7
100
AcDbLine
 10
814.3999999986061
 20
61.29085046255084
 30
0.0
 11
814.399999998635
 21
60.99685353250339
 31
0.0
  0
LINE
  5
27B
330
1F
100
AcDbEntity
  8
0
  6
CONTINUOUS
 62
     7
100
AcDbLine
 10
814.0999999985952
 20
60.99685353251461
 30
0.0
 11
814.3999999985951
 21
60.99685353250339
 31
0.0
  0
LINE
  5
27C
330
1F
100
AcDbEntity
  8
0
  6
CONTINUOUS
 62
     7
100
AcDbLine
 10
814.3999999985951
 20
60.99685353250339
 30
0.0
 11
814.3999999985782
 21
60.54656906865593
 31
0.0
  0
LINE
  5
27D
330
1F
100
AcDbEntity
  8
0
  6
CONTINUOUS
 62
     7
100
AcDbLine
 10
814.0999999986211
 20
61.69209266601201
 30
0.0
 11
814.3999999986211
 21
61.69209266600079
 31
0.0
  0
LINE
  5
27E
330
1F
100
AcDbEntity
  8
0
  6
CONTINUOUS
 62
     7
100
AcDbLine
 10
814.3999999986211
 20
61.69209266600079
 30
0.0
 11
814.3999999986061
 21
61.29085046255084
 31
0.0
  0
LINE
  5
27F
330
1F
100
AcDbEntity
  8
0
  6
CONTINUOUS
 62
     7
100
AcDbLine
 10
814.0999999986333
 20
62.01604044239446
 30
0.0
 11
814.3999999986333
 21
62.01604044238324
 31
0.0
  0
LINE
  5
280
330
1F
100
AcDbEntity
  8
0
  6
CONTINUOUS
 62
     7
100
AcDbLine
 10
814.3999999986333
 20
62.01604044238324
 30
0.0
 11
814.3999999987436
 21
61.69209266600079
 31
0.0
  0
LINE
  5
281
330
1F
100
AcDbEntity
  8
0
  6
CONTINUOUS
 62
     7
100
AcDbLine
 10
814.3999999986605
 20
62.74508930035315
 30
0.0
 11
814.3999999986333
 21
62.01604044238325
 31
0.0
  0
LINE
  5
282
330
1F
100
AcDbEntity
  8
0
  6
CONTINUOUS
 62
     7
100
AcDbLine
 10
814.3999999987299
 20
63.67174954281324
 30
0.0
 11
814.3999999986953
 21
62.74508930035315
 31
0.0
  0
LINE
  5
283
330
1F
100
AcDbEntity
  8
0
  6
CONTINUOUS
 62
     7
100
AcDbLine
 10
814.3999999987028
 20
63.87670249238046
 30
0.0
 11
814.3999999987219
 21
64.38857976930541
 31
0.0
  0
LINE
  5
284
330
1F
100
AcDbEntity
  8
0
  6
CONTINUOUS
 62
     7
100
AcDbLine
 10
814.099999998722
 20
64.38857976931664
 30
0.0
 11
814.3999999987219
 21
64.3885797693054
 31
0.0
  0
LINE
  5
285
330
1F
100
AcDbEntity
  8
0
  6
CONTINUOUS
 62
     7
100
AcDbLine
 10
814.0999999987029
 20
63.87670249239169
 30
0.0
 11
814.3999999987028
 21
63.87670249238046
 31
0.0
  0
LINE
  5
286
330
1F
100
AcDbEntity
  8
0
  6
CONTINUOUS
 62
     7
100
AcDbLine
 10
814.399999998722
 20
64.3885797693054
 30
0.0
 11
814.3999999987979
 21
65.33454540424277
 31
0.0
  0
LINE
  5
287
330
1F
100
AcDbEntity
  8
0
  6
CONTINUOUS
 62
     7
100
AcDbLine
 10
814.0999999987793
 20
65.9164163487089
 30
0.0
 11
814.3999999987792
 21
65.91641634869768
 31
0.0
  0
LINE
  5
288
330
1F
100
AcDbEntity
  8
0
  6
CONTINUOUS
 62
     7
100
AcDbLine
 10
814.0999999987574
 20
65.334545404254
 30
0.0
 11
814.3999999987574
 21
65.33454540424277
 31
0.0
  0
LINE
  5
289
330
1F
100
AcDbEntity
  8
0
  6
CONTINUOUS
 62
     7
100
AcDbLine
 10
814.3999999987792
 20
65.91641634869768
 30
0.0
 11
814.3999999987574
 21
65.33454540424277
 31
0.0
  0
LINE
  5
28A
330
1F
100
AcDbEntity
  8
0
  6
CONTINUOUS
 62
     7
100
AcDbLine
 10
814.0999999989419
 20
68.02108647142563
 30
0.0
 11
814.399999998942
 21
68.02108647141439
 31
0.0
  0
LINE
  5
28B
330
1F
100
AcDbEntity
  8
0
  6
CONTINUOUS
 62
     7
100
AcDbLine
 10
814.399999998942
 20
68.0210864714144
 30
0.0
 11
814.3999999987792
 21
65.91641634869768
 31
0.0
  0
LINE
  5
28C
330
1F
100
AcDbEntity
  8
0
  6
CONTINUOUS
 62
     7
100
AcDbLine
 10
814.399999998833
 20
63.87670249238046
 30
0.0
 11
814.3999999987719
 21
63.67174954281375
 31
0.0
  0
LINE
  5
28D
330
1F
100
AcDbEntity
  8
0
  6
CONTINUOUS
 62
     7
100
AcDbLine
 10
465.6000000007137
 20
84.77583668126677
 30
0.0
 11
465.6000000007137
 21
107.4089161480749
 31
0.0
  0
LINE
  5
28E
330
1F
100
AcDbEntity
  8
0
  6
CONTINUOUS
 62
     7
100
AcDbLine
 10
465.6000000007137
 20
107.4089161480749
 30
0.0
 11
465.6000000007137
 21
112.4089161480745
 31
0.0
  0
LINE
  5
28F
330
1F
100
AcDbEntity
  8
0
  6
CONTINUOUS
 62
     7
100
AcDbLine
 10
567.6000000007137
 20
107.4176430158631
 30
0.0
 11
567.6000000007137
 21
84.79328908770405
 31
0.0
  0
LINE
  5
290
330
1F
100
AcDbEntity
  8
0
  6
CONTINUOUS
 62
     7
100
AcDbLine
 10
567.6000000007137
 20
112.4001892802839
 30
0.0
 11
567.6000000007137
 21
107.4176430158631
 31
0.0
  0
LINE
  5
291
330
1F
100
AcDbEntity
  8
0
  6
CONTINUOUS
 62
     7
100
AcDbLine
 10
567.6000000007137
 20
135.0245432084457
 30
0.0
 11
567.6000000007137
 21
112.4001892802839
 31
0.0
  0
LINE
  5
292
330
1F
100
AcDbEntity
  8
0
  6
CONTINUOUS
 62
     7
100
AcDbLine
 10
465.6000000007137
 20
112.4089161480745
 30
0.0
 11
465.6000000007137
 21
135.0419956148831
 31
0.0
  0
ARC
  5
293
330
1F
100
AcDbEntity
  8
0
  6
CONTINUOUS
 62
     7
100
AcDbCircle
 10
492.6000000007138
 20
73.23129083712021
 30
0.0
 40
2.999999999999917
100
AcDbArc
 50
359.9999999999987
 51
75.00000000000091
  0
LINE
  5
294
330
1F
100
AcDbEntity
  8
0
  6
CONTINUOUS
 62
     7
100
AcDbLine
 10
489.2294095232649
 20
77.24026637479884
 30
0.0
 11
493.3764571360212
 21
76.12906831598738
 31
0.0
  0
LWPOLYLINE
  5
295
330
1F
100
AcDbEntity
  8
0
  6
CONTINUOUS
 62
     7
100
AcDbPolyline
 90
       39
 70
     0
 43
0.0
 10
-488.6000000007137
 20
76.75730346165427
 10
-488.6006239930855
 20
76.78203926322838
 10
-488.6024883059782
 20
76.8067953757308
 10
-488.6055814430572
 20
76.83148734149498
 10
-488.6098919079884
 20
76.85603070285437
 10
-488.6154082044372
 20
76.88034100214243
 10
-488.6221188360695
 20
76.90433378169264
 10
-488.6300123065507
 20
76.92792458383846
 10
-488.6391165566004
 20
76.95114133374811
 10
-488.649427329697
 20
76.97397653538604
 10
-488.660904795269
 20
76.99634758495522
 10
-488.673509122745
 20
77.01817187865862
 10
-488.6872004815532
 20
77.0393668126993
 10
-488.7019390411222
 20
77.0598497832802
 10
-488.7176849708805
 20
77.07953818660437
 10
-488.7340686894517
 20
77.09800869276417
 10
-488.7514444720592
 20
77.11572990502493
 10
-488.7697451073163
 20
77.13263640512916
 10
-488.7889033838362
 20
77.14866277481931
 10
-488.8088520902323
 20
77.16374359583791
 10
-488.829524015118
 20
77.17781344992747
 10
-488.8508519471065
 20
77.19080691883049
 10
-488.8719933281385
 20
77.2022744700409
 10
-488.8937686727611
 20
77.21274870435074
 10
-488.9160953160186
 20
77.22219479169978
 10
-488.9388905929555
 20
77.23057790202783
 10
-488.9620718386161
 20
77.23786320527473
 10
-488.9855563880449
 20
77.24401587138027
 10
-489.0092615762862
 20
77.24900107028424
 10
-489.0324255487861
 20
77.25270333957052
 10
-489.0558195651229
 20
77.25531235909222
 10
-489.0793599495123
 20
77.25682644176862
 10
-489.1029630261697
 20
77.25724390051904
 10
-489.1265451193105
 20
77.2565630482628
 10
-489.1500225531505
 20
77.25478219791921
 10
-489.173311651905
 20
77.25189966240758
 10
-489.1921627530365
 20
77.24873546998973
 10
-489.2108765755042
 20
77.24485425552501
 10
-489.229409523265
 20
77.24026637479881
210
0.0
220
0.0
230
-1.0
  0
LINE
  5
296
330
1F
100
AcDbEntity
  8
0
  6
CONTINUOUS
 62
     7
100
AcDbLine
 10
488.6000000007137
 20
56.54123725103984
 30
0.0
 11
488.6000000007137
 21
76.75730346165427
 31
0.0
  0
ARC
  5
297
330
1F
100
AcDbEntity
  8
0
  6
CONTINUOUS
 62
     7
100
AcDbCircle
 10
489.1014931748339
 20
57.97376231719606
 30
0.0
 40
1.576786142866195
100
AcDbArc
 50
257.9858387307146
 51
274.6532181084445
  0
LWPOLYLINE
  5
298
330
1F
100
AcDbEntity
  8
0
  6
CONTINUOUS
 62
     7
100
AcDbPolyline
 90
        3
 70
     0
 43
0.0
 10
-488.7732797084545
 20
56.43151380906839
 10
-488.669028582926
 20
56.4671514937411
 10
-488.6000000007137
 20
56.54123725103984
210
0.0
220
0.0
230
-1.0
  0
LINE
  5
299
330
1F
100
AcDbEntity
  8
0
  6
CONTINUOUS
 62
     7
100
AcDbLine
 10
489.2294095232649
 20
56.40217332889826
 30
0.0
 11
493.3764571360212
 21
56.7353605961212
 31
0.0
  0
LWPOLYLINE
  5
29A
330
1F
100
AcDbEntity
  8
0
  6
CONTINUOUS
 62
     7
100
AcDbPolyline
 90
        6
 70
     0
 43
0.0
 10
-495.6000000007137
 20
57.83378441327689
 10
-495.584771240641
 20
57.70397686344796
 10
-495.5391623446063
 20
57.57808443771086
 10
-495.4632893888842
 20
57.45767472023693
 10
-495.3569092259552
 20
57.34395204487677
 10
-495.2193438653175
 20
57.23695397605158
210
0.0
220
0.0
230
-1.0
  0
ARC
  5
29B
330
1F
100
AcDbEntity
  8
0
  6
CONTINUOUS
 62
     7
100
AcDbCircle
 10
493.2348314182765
 20
60.89194229572676
 30
0.0
 40
4.158993780882892
100
AcDbArc
 50
271.9514636027768
 51
298.5001901601511
  0
LINE
  5
29C
330
1F
100
AcDbEntity
  8
0
  6
CONTINUOUS
 62
     7
100
AcDbLine
 10
495.6000000007137
 20
57.83378441327686
 30
0.0
 11
495.6000000007137
 21
73.23129083712013
 31
0.0
  0
LINE
  5
29D
330
1F
100
AcDbEntity
  8
0
  6
CONTINUOUS
 62
     7
100
AcDbLine
 10
465.6000000007137
 20
55.30397801969356
 30
0.0
 11
465.6000000007137
 21
84.77583668126677
 31
0.0
  0
LINE
  5
29E
330
1F
100
AcDbEntity
  8
0
  6
CONTINUOUS
 62
     7
100
AcDbLine
 10
567.6000000007137
 20
84.79328908770405
 30
0.0
 11
567.6000000007137
 21
56.30382571484991
 31
0.0
  0
LINE
  5
29F
330
1F
100
AcDbEntity
  8
0
  6
CONTINUOUS
 62
     7
100
AcDbLine
 10
567.6000000007137
 20
163.5140065812998
 30
0.0
 11
567.6000000007137
 21
135.0245432084457
 31
0.0
  0
ARC
  5
2A0
330
1F
100
AcDbEntity
  8
0
  6
CONTINUOUS
 62
     7
100
AcDbCircle
 10
493.2049140372958
 20
158.8744568509325
 30
0.0
 40
4.211509943587123
100
AcDbArc
 50
60.62532691892613
 51
87.66558419386489
  0
LWPOLYLINE
  5
2A1
330
1F
100
AcDbEntity
  8
0
  6
CONTINUOUS
 62
     7
100
AcDbPolyline
 90
        6
 70
     0
 43
0.0
 10
-495.270737981644
 20
162.5444960109267
 10
-495.3850304127823
 20
162.4474205323114
 10
-495.4772370896069
 20
162.3417151577209
 10
-495.5453926088946
 20
162.2268769755986
 10
-495.5863366282604
 20
162.1072076732059
 10
-495.6000000007137
 20
161.9840478828729
210
0.0
220
0.0
230
-1.0
  0
LINE
  5
2A2
330
1F
100
AcDbEntity
  8
0
  6
CONTINUOUS
 62
     7
100
AcDbLine
 10
493.3764571360212
 20
163.0824717000286
 30
0.0
 11
489.229409523265
 21
163.4156589672515
 31
0.0
  0
LWPOLYLINE
  5
2A3
330
1F
100
AcDbEntity
  8
0
  6
CONTINUOUS
 62
     7
100
AcDbPolyline
 90
        3
 70
     0
 43
0.0
 10
-488.6000000007137
 20
163.27659504511
 10
-488.673509122745
 20
163.3527958894871
 10
-488.7697451073163
 20
163.3854254429182
210
0.0
220
0.0
230
-1.0
  0
ARC
  5
2A4
330
1F
100
AcDbEntity
  8
0
  6
CONTINUOUS
 62
     7
100
AcDbCircle
 10
489.1008161589618
 20
161.8613272120097
 30
0.0
 40
1.559642093140625
100
AcDbArc
 50
85.27056199612996
 51
102.2556322679913
  0
LINE
  5
2A5
330
1F
100
AcDbEntity
  8
0
  6
CONTINUOUS
 62
     7
100
AcDbLine
 10
488.6000000007137
 20
143.0605288344955
 30
0.0
 11
488.6000000007137
 21
163.2765950451099
 31
0.0
  0
LWPOLYLINE
  5
2A6
330
1F
100
AcDbEntity
  8
0
  6
CONTINUOUS
 62
     7
100
AcDbPolyline
 90
       40
 70
     0
 43
0.0
 10
-489.229409523265
 20
142.577565921351
 10
-489.206911199995
 20
142.5721048652319
 10
-489.184098977977
 20
142.5676861561686
 10
-489.1610528995574
 20
142.5643188711039
 10
-489.1378530070826
 20
142.562012086981
 10
-489.1145793428989
 20
142.560774880743
 10
-489.091311949353
 20
142.5606163293328
 10
-489.0681308687912
 20
142.5615455096934
 10
-489.0450263889184
 20
142.5635719823375
 10
-489.021985927135
 20
142.5666857770131
 10
-488.9990866029428
 20
142.5708665862118
 10
-488.9764055358439
 20
142.5760941024252
 10
-488.95401984534
 20
142.582348018145
 10
-488.9320066509334
 20
142.5896080258627
 10
-488.9104430721258
 20
142.59785381807
 10
-488.8892525638758
 20
142.6071253860977
 10
-488.8684904397461
 20
142.6173887554318
 10
-488.8482188176667
 20
142.6285998491742
 10
-488.8284998155678
 20
142.6407145904268
 10
-488.8093955513793
 20
142.6536889022914
 10
-488.7909681430316
 20
142.66747870787
 10
-488.7732797084545
 20
142.6820399302644
 10
-488.7559222102479
 20
142.697761492902
 10
-488.7393137384333
 20
142.7142968205825
 10
-488.7234977732303
 20
142.7315843751367
 10
-488.7085177948586
 20
142.7495626183957
 10
-488.6944172835376
 20
142.7681700121904
 10
-488.6812397194868
 20
142.7873450183519
 10
-488.669028582926
 20
142.8070260987112
 10
-488.6573889346876
 20
142.8279668483597
 10
-488.6467636872754
 20
142.8494650231425
 10
-488.6371758014367
 20
142.8714468153684
 10
-488.6286482379189
 20
142.8938384173462
 10
-488.6212039574692
 20
142.9165660213848
 10
-488.6148659208347
 20
142.939555819793
 10
-488.6096570887629
 20
142.9627340048795
 10
-488.6054408479384
 20
142.9869866141918
 10
-488.6024220373455
 20
143.0114247606147
 10
-488.600606480449
 20
143.035966236574
 10
-488.6000000007137
 20
143.0605288344955
210
0.0
220
0.0
230
-1.0
  0
LINE
  5
2A7
330
1F
100
AcDbEntity
  8
0
  6
CONTINUOUS
 62
     7
100
AcDbLine
 10
493.3764571360212
 20
143.6887639801624
 30
0.0
 11
489.229409523265
 21
142.577565921351
 31
0.0
  0
ARC
  5
2A8
330
1F
100
AcDbEntity
  8
0
  6
CONTINUOUS
 62
     7
100
AcDbCircle
 10
492.599634602058
 20
146.5868218392795
 30
0.0
 40
3.000365411756309
100
AcDbArc
 50
285.0053542161697
 51
359.9946457838307
  0
LINE
  5
2A9
330
1F
100
AcDbEntity
  8
0
  6
CONTINUOUS
 62
     7
100
AcDbLine
 10
495.6000000007137
 20
146.5865414590296
 30
0.0
 11
495.6000000007137
 21
161.9840478828729
 31
0.0
  0
LINE
  5
2AA
330
1F
100
AcDbEntity
  8
0
  6
CONTINUOUS
 62
     7
100
AcDbLine
 10
465.6000000007137
 20
135.041995614883
 30
0.0
 11
465.6000000007137
 21
164.5138542764562
 31
0.0
  0
LWPOLYLINE
  5
2AB
330
1F
100
AcDbEntity
  8
0
  6
CONTINUOUS
 62
     7
100
AcDbPolyline
 90
        3
 70
     0
 43
0.0
 10
488.6000000007137
 20
60.60450429321638
 10
488.6746428410711
 20
60.51836020784437
 10
488.7724176259591
 20
60.48198977290613
  0
ARC
  5
2AC
330
1F
100
AcDbEntity
  8
0
  6
CONTINUOUS
 62
     7
100
AcDbCircle
 10
489.0937079085623
 20
61.84035783383787
 30
0.0
 40
1.39584785512415
100
AcDbArc
 50
256.6925827686101
 51
275.5789961144616
  0
ARC
  5
2AD
330
1F
100
AcDbEntity
  8
0
  6
CONTINUOUS
 62
     7
100
AcDbCircle
 10
493.1894960380479
 20
64.63383538265364
 30
0.0
 40
3.788704229322546
100
AcDbArc
 50
272.8285222362937
 51
302.5490846814993
  0
LWPOLYLINE
  5
2AE
330
1F
100
AcDbEntity
  8
0
  6
CONTINUOUS
 62
     7
100
AcDbPolyline
 90
        6
 70
     0
 43
0.0
 10
495.2279020206323
 20
61.4402197533941
 10
495.3664976439486
 20
61.56790574857168
 10
495.4704628172175
 20
61.700571245791
 10
495.5425052989971
 20
61.83754668832128
 10
495.5856456702438
 20
61.98039892729099
 10
495.6000000007137
 20
62.12749680912786
  0
LINE
  5
2AF
330
1F
100
AcDbEntity
  8
0
  6
CONTINUOUS
 62
     7
100
AcDbLine
 10
489.229409523265
 20
60.45112196242445
 30
0.0
 11
493.3764571360213
 21
60.84974694749106
 31
0.0
  0
ARC
  5
2B0
330
1F
100
AcDbEntity
  8
0
  6
CONTINUOUS
 62
     7
100
AcDbCircle
 10
489.0941720740514
 20
157.9623899926032
 30
0.0
 40
1.410817064030313
100
AcDbArc
 50
84.49932166362983
 51
102.9926908547563
  0
LWPOLYLINE
  5
2B1
330
1F
100
AcDbEntity
  8
0
  6
CONTINUOUS
 62
     7
100
AcDbPolyline
 90
        4
 70
     0
 43
0.0
 10
488.7769826538477
 20
159.3370883812943
 10
488.6723262151328
 20
159.2982945728929
 10
488.6006984696788
 20
159.2221466249525
 10
488.6000000007137
 20
159.2133280029334
  0
LINE
  5
2B2
330
1F
100
AcDbEntity
  8
0
  6
CONTINUOUS
 62
     7
100
AcDbLine
 10
493.3764571360214
 20
158.9680853486587
 30
0.0
 11
489.229409523265
 21
159.3667103337253
 31
0.0
  0
LWPOLYLINE
  5
2B3
330
1F
100
AcDbEntity
  8
0
  6
CONTINUOUS
 62
     7
100
AcDbPolyline
 90
        7
 70
     0
 43
0.0
 10
495.6000000007137
 20
157.6903354870219
 10
495.5843510900399
 20
157.8437117541638
 10
495.5373352458748
 20
157.9924373258613
 10
495.4588488000022
 20
158.1346629385974
 10
495.3562240399239
 20
158.2608532916707
 10
495.2341252514559
 20
158.3724417050379
 10
495.0877136322781
 20
158.477003400249
  0
ARC
  5
2B4
330
1F
100
AcDbEntity
  8
0
  6
CONTINUOUS
 62
     7
100
AcDbCircle
 10
493.0866810600227
 20
154.7311930392024
 30
0.0
 40
4.246790154475623
100
AcDbArc
 50
61.88862113379435
 51
86.08743163044718
  0
LINE
  5
2B5
330
1F
100
AcDbEntity
  8
0
  6
CONTINUOUS
 62
     7
100
AcDbLine
 10
639.1000000007137
 20
157.9089161480749
 30
0.0
 11
639.1000000007137
 21
61.90891614807489
 31
0.0
  0
LINE
  5
2B6
330
1F
100
AcDbEntity
  8
0
  6
CONTINUOUS
 62
     7
100
AcDbLine
 10
465.6000000007137
 20
54.90891614807492
 30
0.0
 11
566.6000000007136
 21
54.90891614807492
 31
0.0
  0
LINE
  5
2B7
330
1F
100
AcDbEntity
  8
0
  6
CONTINUOUS
 62
     7
100
AcDbLine
 10
465.6000000007137
 20
54.90891614807492
 30
0.0
 11
465.6000000007137
 21
55.30397801969357
 31
0.0
  0
LWPOLYLINE
  5
2B8
330
1F
100
AcDbEntity
  8
0
  6
CONTINUOUS
 62
     7
100
AcDbPolyline
 90
       33
 70
     0
 43
0.0
 10
566.6000000007136
 20
54.90891614807491
 10
566.6490676750411
 20
54.91012069186974
 10
566.6980171410432
 20
54.91373142140271
 10
566.746730475169
 20
54.91973963811013
 10
566.7950903227297
 20
54.92813086767168
 10
566.8429801806169
 20
54.93888489488037
 10
566.8902846779682
 20
54.9519758123427
 10
566.936889854106
 20
54.96737208289188
 10
566.9826834330788
 20
54.98503661556362
 10
567.027555094144
 20
55.00492685495146
 10
567.0713967375397
 20
55.02699488372655
 10
567.1141027449069
 20
55.05118753807464
 10
567.1555702337333
 20
55.07744653577236
 10
567.1956993052061
 20
55.10570861659426
 10
567.2343932848773
 20
55.13590569471216
 10
567.2715589555606
 20
55.16796502271994
 10
567.3071067819002
 20
55.20180936688836
 10
567.3409511260686
 20
55.23735719322789
 10
567.3730104540764
 20
55.27452286391126
 10
567.4032075321943
 20
55.31321684358247
 10
567.4314696130162
 20
55.35334591505531
 10
567.457728610714
 20
55.39481340388168
 10
567.481921265062
 20
55.43751941124891
 10
567.5039892938372
 20
55.48136105464463
 10
567.523879533225
 20
55.52623271570982
 10
567.5415440658967
 20
55.57202629468269
 10
567.5569403364459
 20
55.61863147082045
 10
567.5700312539083
 20
55.66593596817165
 10
567.580785281117
 20
55.71382582605879
 10
567.5891765106785
 20
55.76218567361956
 10
567.5951847273859
 20
55.81089900774536
 10
567.5987954569188
 20
55.8598484737475
 10
567.6000000007137
 20
55.90891614807492
  0
LINE
  5
2B9
330
1F
100
AcDbEntity
  8
0
  6
CONTINUOUS
 62
     7
100
AcDbLine
 10
567.6000000007137
 20
56.30382571484996
 30
0.0
 11
567.6000000007137
 21
55.90891614807492
 31
0.0
  0
LINE
  5
2BA
330
1F
100
AcDbEntity
  8
0
  6
CONTINUOUS
 62
     7
100
AcDbLine
 10
521.6000000007137
 20
164.9089161480749
 30
0.0
 11
566.6000000007136
 21
164.9089161480749
 31
0.0
  0
LINE
  5
2BB
330
1F
100
AcDbEntity
  8
0
  6
CONTINUOUS
 62
     7
100
AcDbLine
 10
465.6000000007137
 20
164.9089161480749
 30
0.0
 11
487.5989613116537
 21
164.908916148075
 31
0.0
  0
LINE
  5
2BC
330
1F
100
AcDbEntity
  8
0
  6
CONTINUOUS
 62
     7
100
AcDbLine
 10
513.0644660947713
 20
164.9089161480748
 30
0.0
 11
516.809800542963
 21
164.9089161480749
 31
0.0
  0
LINE
  5
2BD
330
1F
100
AcDbEntity
  8
0
  6
CONTINUOUS
 62
     7
100
AcDbLine
 10
465.6000000007137
 20
164.5138542764563
 30
0.0
 11
465.6000000007137
 21
164.9089161480749
 31
0.0
  0
LWPOLYLINE
  5
2BE
330
1F
100
AcDbEntity
  8
0
  6
CONTINUOUS
 62
     7
100
AcDbPolyline
 90
       33
 70
     0
 43
0.0
 10
567.6000000007137
 20
163.9089161480748
 10
567.5987954569189
 20
163.9579838224023
 10
567.5951847273859
 20
164.0069332884044
 10
567.5891765106785
 20
164.0556466225302
 10
567.580785281117
 20
164.104006470091
 10
567.5700312539083
 20
164.1518963279781
 10
567.5569403364459
 20
164.1992008253293
 10
567.5415440658967
 20
164.2458060014671
 10
567.523879533225
 20
164.29159958044
 10
567.5039892938372
 20
164.3364712415051
 10
567.481921265062
 20
164.3803128849008
 10
567.457728610714
 20
164.4230188922681
 10
567.4314696130162
 20
164.4644863810944
 10
567.4032075321943
 20
164.5046154525673
 10
567.3730104540764
 20
164.5433094322385
 10
567.3409511260686
 20
164.5804751029219
 10
567.3071067819002
 20
164.6160229292614
 10
567.2715589555606
 20
164.6498672734298
 10
567.2343932848773
 20
164.6819266014376
 10
567.1956993052061
 20
164.7121236795555
 10
567.1555702337333
 20
164.7403857603774
 10
567.1141027449069
 20
164.7666447580751
 10
567.0713967375397
 20
164.7908374124232
 10
567.027555094144
 20
164.8129054411983
 10
566.9826834330788
 20
164.8327956805861
 10
566.936889854106
 20
164.8504602132579
 10
566.8902846779682
 20
164.8658564838071
 10
566.8429801806169
 20
164.8789474012694
 10
566.7950903227297
 20
164.8897014284781
 10
566.746730475169
 20
164.8980926580396
 10
566.6980171410432
 20
164.9041008747471
 10
566.6490676750411
 20
164.90771160428
 10
566.6000000007136
 20
164.9089161480748
  0
LINE
  5
2BF
330
1F
100
AcDbEntity
  8
0
  6
CONTINUOUS
 62
     7
100
AcDbLine
 10
567.6000000007137
 20
163.9089161480749
 30
0.0
 11
567.6000000007137
 21
163.5140065812998
 31
0.0
  0
LINE
  5
2C0
330
1F
100
AcDbEntity
  8
0
  6
CONTINUOUS
 62
     7
100
AcDbLine
 10
506.6000000007137
 20
164.9089161480749
 30
0.0
 11
507.6000000007137
 21
164.9089161480749
 31
0.0
  0
LINE
  5
2C1
330
1F
100
AcDbEntity
  8
0
  6
CONTINUOUS
 62
     7
100
AcDbLine
 10
509.6003644796346
 20
164.9089161480749
 30
0.0
 11
513.0644660947713
 21
164.9089161480748
 31
0.0
  0
LINE
  5
2C2
330
1F
100
AcDbEntity
  8
0
  6
CONTINUOUS
 62
     7
100
AcDbLine
 10
516.809800542963
 20
164.9089161480749
 30
0.0
 11
521.6000000007137
 21
164.9089161480749
 31
0.0
  0
LINE
  5
2C3
330
1F
100
AcDbEntity
  8
0
  6
CONTINUOUS
 62
     7
100
AcDbLine
 10
507.6000000007137
 20
164.9089161480749
 30
0.0
 11
509.6003644796346
 21
164.9089161480749
 31
0.0
  0
LWPOLYLINE
  5
2C4
330
1F
100
AcDbEntity
  8
0
  6
CONTINUOUS
 62
     7
100
AcDbPolyline
 90
        8
 70
     0
 43
0.0
 10
758.1003370163029
 20
107.6846054633706
 10
758.1124493614093
 20
107.5766026023195
 10
758.1443068153274
 20
107.4803113503101
 10
758.1985600772622
 20
107.3868188644116
 10
758.2699515713715
 20
107.307858777559
 10
758.352888125618
 20
107.2467216027589
 10
758.4589036584923
 20
107.1983376830065
 10
758.5792673586478
 20
107.1671646397261
  0
ARC
  5
2C5
330
1F
100
AcDbEntity
  8
0
  6
CONTINUOUS
 62
     7
100
AcDbCircle
 10
760.7991600977823
 20
130.3268639407561
 30
0.0
 40
23.2658461158711
100
AcDbArc
 50
264.5248383862142
 51
270.7408858850565
  0
ARC
  5
2C6
330
1F
100
AcDbEntity
  8
0
  6
CONTINUOUS
 62
     7
100
AcDbCircle
 10
760.77933145439
 20
90.70150327942713
 30
0.0
 40
22.0556973113492
100
AcDbArc
 50
89.16694533349225
 51
95.79946970454192
  0
LWPOLYLINE
  5
2C7
330
1F
100
AcDbEntity
  8
0
  6
CONTINUOUS
 62
     7
100
AcDbPolyline
 90
        8
 70
     0
 43
0.0
 10
758.5506674417292
 20
112.6443116823761
 10
758.4483698671714
 20
112.6144916537495
 10
758.3452662053306
 20
112.5629424840478
 10
758.2533854165534
 20
112.4904382319609
 10
758.1791838773577
 20
112.3989180078896
 10
758.1327283456013
 20
112.306232404887
 10
758.1035975481906
 20
112.1863075037102
 10
758.1003370164692
 20
112.1332268158926
  0
LINE
  5
2C8
330
1F
100
AcDbEntity
  8
0
  6
CONTINUOUS
 62
     7
100
AcDbLine
 10
787.7342928133431
 20
164.9089161379628
 30
0.0
 11
761.1000000027705
 21
164.9089161389593
 31
0.0
  0
LINE
  5
2C9
330
1F
100
AcDbEntity
  8
0
  6
CONTINUOUS
 62
     7
100
AcDbLine
 10
761.099999998655
 20
54.90891613897035
 30
0.0
 11
787.7342928092277
 21
54.90891613797388
 31
0.0
  0
LINE
  5
2CA
330
1F
100
AcDbEntity
  8
0
  6
CONTINUOUS
 62
     7
100
AcDbLine
 10
761.0999999985706
 20
107.0560413308056
 30
0.0
 11
783.5999999985789
 21
107.0560413299638
 31
0.0
  0
LINE
  5
2CB
330
1F
100
AcDbEntity
  8
0
  6
CONTINUOUS
 62
     7
100
AcDbLine
 10
783.5999999987923
 20
112.7617909474437
 30
0.0
 11
761.099999998784
 21
112.7617909482856
 31
0.0
  0
ARC
  5
2CC
330
1F
100
AcDbEntity
  8
0
  6
CONTINUOUS
 62
     7
100
AcDbCircle
 10
760.8812901657964
 20
72.09570032384094
 30
0.0
 40
2.860281373252113
100
AcDbArc
 50
194.9911939023204
 51
274.3853705735787
  0
ARC
  5
2CD
330
1F
100
AcDbEntity
  8
0
  6
CONTINUOUS
 62
     7
100
AcDbCircle
 10
760.876944568297
 20
147.7282668055879
 30
0.0
 40
2.854500806487184
100
AcDbArc
 50
85.51824371751515
 51
165.105191798804
  0
LINE
  5
2CE
330
1F
100
AcDbEntity
  8
0
  6
CONTINUOUS
 62
     7
100
AcDbLine
 10
761.0999999978143
 20
69.24379295050068
 30
0.0
 11
783.5999999978226
 21
69.24379294965888
 31
0.0
  0
LINE
  5
2CF
330
1F
100
AcDbEntity
  8
0
  6
CONTINUOUS
 62
     7
100
AcDbLine
 10
783.6000000008654
 20
150.574039327373
 30
0.0
 11
761.1000000008571
 21
150.5740393282148
 31
0.0
  0
LINE
  5
2D0
330
1F
100
AcDbEntity
  8
0
  6
CONTINUOUS
 62
     7
100
AcDbLine
 10
758.1000240836713
 20
77.3181480180452
 30
0.0
 11
758.1029679103121
 21
77.29300389247305
 31
0.0
  0
LINE
  5
2D1
330
1F
100
AcDbEntity
  8
0
  6
CONTINUOUS
 62
     7
100
AcDbLine
 10
758.1029679127525
 20
142.5248283864382
 30
0.0
 11
758.1000240861099
 21
142.4996842608661
 31
0.0
  0
ARC
  5
2D2
330
1F
100
AcDbEntity
  8
0
  6
CONTINUOUS
 62
     7
100
AcDbCircle
 10
761.099999998777
 20
57.90891613896516
 30
0.0
 40
2.999999999999697
100
AcDbArc
 50
179.9999999976339
 51
269.9999999978563
  0
ARC
  5
2D3
330
1F
100
AcDbEntity
  8
0
  6
CONTINUOUS
 62
     7
100
AcDbCircle
 10
761.1000000026679
 20
161.9089161389644
 30
0.0
 40
2.999999999999697
100
AcDbArc
 50
89.9999999978563
 51
179.9999999980789
  0
LINE
  5
2D4
330
1F
100
AcDbEntity
  8
0
  6
CONTINUOUS
 62
     7
100
AcDbLine
 10
813.1000000027632
 20
164.908916138882
 30
0.0
 11
808.1000000027632
 21
164.9089161390691
 31
0.0
  0
LINE
  5
2D5
330
1F
100
AcDbEntity
  8
0
  6
CONTINUOUS
 62
     7
100
AcDbLine
 10
808.0999999986477
 20
54.90891613908497
 30
0.0
 11
813.0999999986478
 21
54.90891613889791
 31
0.0
  0
LINE
  5
2D6
330
1F
100
AcDbEntity
  8
0
  6
CONTINUOUS
 62
     7
100
AcDbLine
 10
814.3999999992479
 20
116.9198252302402
 30
0.0
 11
814.099999999248
 21
116.9198252302514
 31
0.0
  0
LINE
  5
2D7
330
1F
100
AcDbEntity
  8
0
  6
CONTINUOUS
 62
     7
100
AcDbLine
 10
655.8499221681358
 20
154.4086232109776
 30
0.0
 11
652.349922042938
 21
154.4086232105996
 31
0.0
  0
LINE
  5
2D8
330
1F
100
AcDbEntity
  8
0
  6
CONTINUOUS
 62
     7
100
AcDbLine
 10
665.8502206765887
 20
154.408541995916
 30
0.0
 11
662.3502205506836
 21
154.4085419955774
 31
0.0
  0
LINE
  5
2D9
330
1F
100
AcDbEntity
  8
0
  6
CONTINUOUS
 62
     7
100
AcDbLine
 10
675.8499465390914
 20
154.4084695209864
 30
0.0
 11
672.3499464133015
 21
154.4084695207255
 31
0.0
  0
LINE
  5
2DA
330
1F
100
AcDbEntity
  8
0
  6
CONTINUOUS
 62
     7
100
AcDbLine
 10
685.8493044483769
 20
154.4084071372216
 30
0.0
 11
682.3493043231559
 21
154.408407137075
 31
0.0
  0
LINE
  5
2DB
330
1F
100
AcDbEntity
  8
0
  6
CONTINUOUS
 62
     7
100
AcDbLine
 10
695.8502658403582
 20
154.4083747946716
 30
0.0
 11
692.3502657158892
 21
154.408374794631
 31
0.0
  0
LINE
  5
2DC
330
1F
100
AcDbEntity
  8
0
  6
CONTINUOUS
 62
     7
100
AcDbLine
 10
705.8500039354734
 20
154.4083584026208
 30
0.0
 11
702.3500038098064
 21
154.408358402718
 31
0.0
  0
LINE
  5
2DD
330
1F
100
AcDbEntity
  8
0
  6
CONTINUOUS
 62
     7
100
AcDbLine
 10
715.849942191764
 20
154.4083640005151
 30
0.0
 11
712.3499420658753
 21
154.408364000747
 31
0.0
  0
LINE
  5
2DE
330
1F
100
AcDbEntity
  8
0
  6
CONTINUOUS
 62
     7
100
AcDbLine
 10
725.8499845344562
 20
154.4083914990315
 30
0.0
 11
722.3499844087498
 21
154.4083914993913
 31
0.0
  0
LINE
  5
2DF
330
1F
100
AcDbEntity
  8
0
  6
CONTINUOUS
 62
     7
100
AcDbLine
 10
735.8500383143958
 20
154.4084390597569
 30
0.0
 11
732.350038188641
 21
154.4084390602305
 31
0.0
  0
LINE
  5
2E0
330
1F
100
AcDbEntity
  8
0
  6
CONTINUOUS
 62
     7
100
AcDbLine
 10
745.8500337017686
 20
154.4085039226121
 30
0.0
 11
742.3500335776014
 21
154.4085039231709
 31
0.0
  0
LINE
  5
2E1
330
1F
100
AcDbEntity
  8
0
  6
CONTINUOUS
 62
     7
100
AcDbLine
 10
755.8500503353699
 20
154.4085814783814
 30
0.0
 11
752.3500502098995
 21
154.4085814790064
 31
0.0
  0
LINE
  5
2E2
330
1F
100
AcDbEntity
  8
0
  6
CONTINUOUS
 62
     7
100
AcDbLine
 10
794.1000000023737
 20
154.4088856652935
 30
0.0
 11
792.3497902767981
 21
154.4088856654014
 31
0.0
  0
LINE
  5
2E3
330
1F
100
AcDbEntity
  8
0
  6
CONTINUOUS
 62
     7
100
AcDbLine
 10
787.7342928108286
 20
65.40897458036946
 30
0.0
 11
790.8503084382721
 21
65.40897458068244
 31
0.0
  0
LINE
  5
2E4
330
1F
100
AcDbEntity
  8
0
  6
CONTINUOUS
 62
     7
100
AcDbLine
 10
757.3502037234596
 20
65.40920989501494
 30
0.0
 11
758.0999999984639
 21
65.40920989489129
 31
0.0
  0
LINE
  5
2E5
330
1F
100
AcDbEntity
  8
0
  6
CONTINUOUS
 62
     7
100
AcDbLine
 10
747.3498288940377
 20
65.40929030310637
 30
0.0
 11
750.849829019746
 21
65.40929030344486
 31
0.0
  0
LINE
  5
2E6
330
1F
100
AcDbEntity
  8
0
  6
CONTINUOUS
 62
     7
100
AcDbLine
 10
737.3499386032155
 20
65.4093624174216
 30
0.0
 11
740.8499387291857
 21
65.40936241768317
 31
0.0
  0
LINE
  5
2E7
330
1F
100
AcDbEntity
  8
0
  6
CONTINUOUS
 62
     7
100
AcDbLine
 10
727.350097802335
 20
65.40941963364763
 30
0.0
 11
730.8500979279305
 21
65.40941963380375
 31
0.0
  0
LINE
  5
2E8
330
1F
100
AcDbEntity
  8
0
  6
CONTINUOUS
 62
     7
100
AcDbLine
 10
717.3501527254787
 20
65.40945762501477
 30
0.0
 11
720.8501528497268
 21
65.40945762504309
 31
0.0
  0
LINE
  5
2E9
330
1F
100
AcDbEntity
  8
0
  6
CONTINUOUS
 62
     7
100
AcDbLine
 10
707.349447828113
 20
65.40947640701364
 30
0.0
 11
710.8494479535836
 21
65.40947640692188
 31
0.0
  0
LINE
  5
2EA
330
1F
100
AcDbEntity
  8
0
  6
CONTINUOUS
 62
     7
100
AcDbLine
 10
697.3500306543682
 20
65.40946828571926
 30
0.0
 11
700.850030780166
 21
65.40946828548752
 31
0.0
  0
LINE
  5
2EB
330
1F
100
AcDbEntity
  8
0
  6
CONTINUOUS
 62
     7
100
AcDbLine
 10
687.3500768091643
 20
65.40944072562158
 30
0.0
 11
690.8500769350269
 21
65.40944072526138
 31
0.0
  0
LINE
  5
2EC
330
1F
100
AcDbEntity
  8
0
  6
CONTINUOUS
 62
     7
100
AcDbLine
 10
677.3499028568409
 20
65.40939345489888
 30
0.0
 11
680.8499029821464
 21
65.40939345442747
 31
0.0
  0
LINE
  5
2ED
330
1F
100
AcDbEntity
  8
0
  6
CONTINUOUS
 62
     7
100
AcDbLine
 10
667.3502628949134
 20
65.40932794285543
 30
0.0
 11
670.8502630197083
 21
65.40932794228837
 31
0.0
  0
LINE
  5
2EE
330
1F
100
AcDbEntity
  8
0
  6
CONTINUOUS
 62
     7
100
AcDbLine
 10
657.3493318299612
 20
65.40925711867662
 30
0.0
 11
660.8493319550232
 21
65.40925711806162
 31
0.0
  0
LINE
  5
2EF
330
1F
100
AcDbEntity
  8
0
  6
CONTINUOUS
 62
     7
100
AcDbLine
 10
647.3497603814118
 20
65.40916737599775
 30
0.0
 11
650.8497605069546
 21
65.40916737535035
 31
0.0
  0
LINE
  5
2F0
330
1F
100
AcDbEntity
  8
0
  6
CONTINUOUS
 62
     7
100
AcDbLine
 10
652.0313895433261
 20
153.520208830224
 30
0.0
 11
651.7412517959262
 21
151.9087620679436
 31
0.0
  0
LINE
  5
2F1
330
1F
100
AcDbEntity
  8
0
  6
CONTINUOUS
 62
     7
100
AcDbLine
 10
662.0333188188335
 20
153.5308895342463
 30
0.0
 11
661.7412596685083
 21
151.9087602944755
 31
0.0
  0
LINE
  5
2F2
330
1F
100
AcDbEntity
  8
0
  6
CONTINUOUS
 62
     7
100
AcDbLine
 10
672.0316995549055
 20
153.5218667956057
 30
0.0
 11
671.741268203346
 21
151.9087613707703
 31
0.0
  0
LINE
  5
2F3
330
1F
100
AcDbEntity
  8
0
  6
CONTINUOUS
 62
     7
100
AcDbLine
 10
682.0315722973008
 20
153.5210900575856
 30
0.0
 11
681.7412816194106
 21
151.9087612927782
 31
0.0
  0
LINE
  5
2F4
330
1F
100
AcDbEntity
  8
0
  6
CONTINUOUS
 62
     7
100
AcDbLine
 10
692.0318968593724
 20
153.5228133470989
 30
0.0
 11
691.7412957548928
 21
151.9087609076045
 31
0.0
  0
LINE
  5
2F5
330
1F
100
AcDbEntity
  8
0
  6
CONTINUOUS
 62
     7
100
AcDbLine
 10
702.0317202673073
 20
153.5217486361948
 30
0.0
 11
701.7413100458039
 21
151.9087609724165
 31
0.0
  0
LINE
  5
2F6
330
1F
100
AcDbEntity
  8
0
  6
CONTINUOUS
 62
     7
100
AcDbLine
 10
712.0315414821467
 20
153.5206756786804
 30
0.0
 11
711.7413230210898
 21
151.9087610935023
 31
0.0
  0
LINE
  5
2F7
330
1F
100
AcDbEntity
  8
0
  6
CONTINUOUS
 62
     7
100
AcDbLine
 10
722.0325478215547
 20
153.5261940119751
 30
0.0
 11
721.7413334596752
 21
151.908760120259
 31
0.0
  0
LINE
  5
2F8
330
1F
100
AcDbEntity
  8
0
  6
CONTINUOUS
 62
     7
100
AcDbLine
 10
732.0316170290149
 20
153.5209739513298
 30
0.0
 11
731.7413409791789
 21
151.9087609887988
 31
0.0
  0
LINE
  5
2F9
330
1F
100
AcDbEntity
  8
0
  6
CONTINUOUS
 62
     7
100
AcDbLine
 10
742.0315248699071
 20
153.5204272142122
 30
0.0
 11
741.741371269827
 21
151.9089069976023
 31
0.0
  0
LINE
  5
2FA
330
1F
100
AcDbEntity
  8
0
  6
CONTINUOUS
 62
     7
100
AcDbLine
 10
752.0315602707701
 20
153.5206104793124
 30
0.0
 11
751.7413453034746
 21
151.9087611011845
 31
0.0
  0
LINE
  5
2FB
330
1F
100
AcDbEntity
  8
0
  6
CONTINUOUS
 62
     7
100
AcDbLine
 10
792.0313360279724
 20
153.5195179875413
 30
0.0
 11
791.741311883053
 21
151.908761685967
 31
0.0
  0
LINE
  5
2FC
330
1F
100
AcDbEntity
  8
0
  6
CONTINUOUS
 62
     7
100
AcDbLine
 10
756.5732762718005
 20
68.84138746931342
 30
0.0
 11
757.0328555041476
 21
66.29003765732399
 31
0.0
  0
LINE
  5
2FD
330
1F
100
AcDbEntity
  8
0
  6
CONTINUOUS
 62
     7
100
AcDbLine
 10
746.5721754777418
 20
68.847497175437
 30
0.0
 11
747.031476353022
 21
66.29768417816558
 31
0.0
  0
LINE
  5
2FE
330
1F
100
AcDbEntity
  8
0
  6
CONTINUOUS
 62
     7
100
AcDbLine
 10
736.5723127274366
 20
68.84673112766676
 30
0.0
 11
737.0315834123302
 21
66.29706492224142
 31
0.0
  0
LINE
  5
2FF
330
1F
100
AcDbEntity
  8
0
  6
CONTINUOUS
 62
     7
100
AcDbLine
 10
726.5723324531367
 20
68.84659652277224
 30
0.0
 11
727.0316033878526
 21
66.29690965864867
 31
0.0
  0
LINE
  5
300
330
1F
100
AcDbEntity
  8
0
  6
CONTINUOUS
 62
     7
100
AcDbLine
 10
716.5723815308912
 20
68.84628054055253
 30
0.0
 11
717.0316820957778
 21
66.29641073259893
 31
0.0
  0
LINE
  5
301
330
1F
100
AcDbEntity
  8
0
  6
CONTINUOUS
 62
     7
100
AcDbLine
 10
706.5724384605727
 20
68.84590525550504
 30
0.0
 11
707.0316581414244
 21
66.29646943050513
 31
0.0
  0
LINE
  5
302
330
1F
100
AcDbEntity
  8
0
  6
CONTINUOUS
 62
     7
100
AcDbLine
 10
696.5723947298001
 20
68.84607649526552
 30
0.0
 11
697.0316502160786
 21
66.29643144020761
 31
0.0
  0
LINE
  5
303
330
1F
100
AcDbEntity
  8
0
  6
CONTINUOUS
 62
     7
100
AcDbLine
 10
686.5724804792267
 20
68.84552324925359
 30
0.0
 11
687.0320894901146
 21
66.29390802688087
 31
0.0
  0
LINE
  5
304
330
1F
100
AcDbEntity
  8
0
  6
CONTINUOUS
 62
     7
100
AcDbLine
 10
676.5724240666568
 20
68.8457583420437
 30
0.0
 11
677.031557091355
 21
66.29679009481023
 31
0.0
  0
LINE
  5
305
330
1F
100
AcDbEntity
  8
0
  6
CONTINUOUS
 62
     7
100
AcDbLine
 10
666.572312259911
 20
68.84630820645401
 30
0.0
 11
667.0315409480643
 21
66.29681964687155
 31
0.0
  0
LINE
  5
306
330
1F
100
AcDbEntity
  8
0
  6
CONTINUOUS
 62
     7
100
AcDbLine
 10
656.5725248179422
 20
68.84507554186781
 30
0.0
 11
657.0318526576341
 21
66.29505386502827
 31
0.0
  0
LINE
  5
307
330
1F
100
AcDbEntity
  8
0
  6
CONTINUOUS
 62
     7
100
AcDbLine
 10
656.6277783732767
 20
150.9706066579386
 30
0.0
 11
656.1685183842775
 21
153.520174835036
 31
0.0
  0
LINE
  5
308
330
1F
100
AcDbEntity
  8
0
  6
CONTINUOUS
 62
     7
100
AcDbLine
 10
666.6277856582728
 20
150.9705506382688
 30
0.0
 11
666.1684383255914
 21
153.5206223578436
 31
0.0
  0
LINE
  5
309
330
1F
100
AcDbEntity
  8
0
  6
CONTINUOUS
 62
     7
100
AcDbLine
 10
676.6276910607712
 20
150.9710801580015
 30
0.0
 11
676.1684309050095
 21
153.5206877868609
 31
0.0
  0
LINE
  5
30A
330
1F
100
AcDbEntity
  8
0
  6
CONTINUOUS
 62
     7
100
AcDbLine
 10
686.6276508690039
 20
150.971328248419
 30
0.0
 11
686.1683709522516
 21
153.5210652640123
 31
0.0
  0
LINE
  5
30B
330
1F
100
AcDbEntity
  8
0
  6
CONTINUOUS
 62
     7
100
AcDbLine
 10
696.6275705155404
 20
150.9718176484907
 30
0.0
 11
696.1682549742594
 21
153.5217712996476
 31
0.0
  0
LINE
  5
30C
330
1F
100
AcDbEntity
  8
0
  6
CONTINUOUS
 62
     7
100
AcDbLine
 10
706.6275936377486
 20
150.9717490391405
 30
0.0
 11
706.1683972367605
 21
153.5210549801862
 31
0.0
  0
LINE
  5
30D
330
1F
100
AcDbEntity
  8
0
  6
CONTINUOUS
 62
     7
100
AcDbLine
 10
716.6275606459586
 20
150.9720032745035
 30
0.0
 11
716.1682967380123
 21
153.5216957325223
 31
0.0
  0
LINE
  5
30E
330
1F
100
AcDbEntity
  8
0
  6
CONTINUOUS
 62
     7
100
AcDbLine
 10
726.62704850022
 20
150.9749190530153
 30
0.0
 11
726.1674284009705
 21
153.5265988201934
 31
0.0
  0
LINE
  5
30F
330
1F
100
AcDbEntity
  8
0
  6
CONTINUOUS
 62
     7
100
AcDbLine
 10
736.627672118939
 20
150.9715404507569
 30
0.0
 11
736.1685440439522
 21
153.5204797516479
 31
0.0
  0
LINE
  5
310
330
1F
100
AcDbEntity
  8
0
  6
CONTINUOUS
 62
     7
100
AcDbLine
 10
746.6276017233728
 20
150.9720011611171
 30
0.0
 11
746.1683616211022
 21
153.5215542495549
 31
0.0
  0
LINE
  5
311
330
1F
100
AcDbEntity
  8
0
  6
CONTINUOUS
 62
     7
100
AcDbLine
 10
756.6273215285157
 20
150.9736081952303
 30
0.0
 11
756.1680271788782
 21
153.523445547191
 31
0.0
  0
LINE
  5
312
330
1F
100
AcDbEntity
  8
0
  6
CONTINUOUS
 62
     7
100
AcDbLine
 10
791.168489246612
 20
66.29709877998133
 30
0.0
 11
791.4587306691343
 21
67.90907045706722
 31
0.0
  0
LINE
  5
313
330
1F
100
AcDbEntity
  8
0
  6
CONTINUOUS
 62
     7
100
AcDbLine
 10
751.1685774504631
 20
66.29745697017091
 30
0.0
 11
751.4587421185735
 21
67.90907046138366
 31
0.0
  0
LINE
  5
314
330
1F
100
AcDbEntity
  8
0
  6
CONTINUOUS
 62
     7
100
AcDbLine
 10
741.1683427621501
 20
66.2962006724644
 30
0.0
 11
741.4587317779032
 21
67.90907085665113
 31
0.0
  0
LINE
  5
315
330
1F
100
AcDbEntity
  8
0
  6
CONTINUOUS
 62
     7
100
AcDbLine
 10
731.1683257776274
 20
66.29617555374304
 30
0.0
 11
731.4587184796424
 21
67.90907109576125
 31
0.0
  0
LINE
  5
316
330
1F
100
AcDbEntity
  8
0
  6
CONTINUOUS
 62
     7
100
AcDbLine
 10
721.1684091770643
 20
66.29671982800957
 30
0.0
 11
721.4586771253189
 21
67.90892113892198
 31
0.0
  0
LINE
  5
317
330
1F
100
AcDbEntity
  8
0
  6
CONTINUOUS
 62
     7
100
AcDbLine
 10
711.1682991214652
 20
66.2961914074815
 30
0.0
 11
711.458689947231
 21
67.90907128477131
 31
0.0
  0
LINE
  5
318
330
1F
100
AcDbEntity
  8
0
  6
CONTINUOUS
 62
     7
100
AcDbLine
 10
701.1684124476924
 20
66.29690042268432
 30
0.0
 11
701.4586769928055
 21
67.90907127626319
 31
0.0
  0
LINE
  5
319
330
1F
100
AcDbEntity
  8
0
  6
CONTINUOUS
 62
     7
100
AcDbLine
 10
691.1670573864938
 20
66.28945128424988
 30
0.0
 11
691.4586658116248
 21
67.90907243563107
 31
0.0
  0
LINE
  5
31A
330
1F
100
AcDbEntity
  8
0
  6
CONTINUOUS
 62
     7
100
AcDbLine
 10
681.168383763285
 20
66.29686272641878
 30
0.0
 11
681.4586590238558
 21
67.90907129353805
 31
0.0
  0
LINE
  5
31B
330
1F
100
AcDbEntity
  8
0
  6
CONTINUOUS
 62
     7
100
AcDbLine
 10
671.1684775292606
 20
66.29741839625851
 30
0.0
 11
671.4586549364859
 21
67.90907117917486
 31
0.0
  0
LINE
  5
31C
330
1F
100
AcDbEntity
  8
0
  6
CONTINUOUS
 62
     7
100
AcDbLine
 10
661.1684014369786
 20
66.29700901268829
 30
0.0
 11
661.4586547282473
 21
67.90907120649867
 31
0.0
  0
LINE
  5
31D
330
1F
100
AcDbEntity
  8
0
  6
CONTINUOUS
 62
     7
100
AcDbLine
 10
651.1685510281396
 20
66.2978319516829
 30
0.0
 11
651.4586581489713
 21
67.90907100579143
 31
0.0
  0
LINE
  5
31E
330
1F
100
AcDbEntity
  8
0
  6
CONTINUOUS
 62
     7
100
AcDbLine
 10
797.1000000023705
 20
154.4089161394822
 30
0.0
 11
794.0958354881265
 21
154.4089161395945
 31
0.0
  0
LINE
  5
31F
330
1F
100
AcDbEntity
  8
0
  6
CONTINUOUS
 62
     7
100
AcDbLine
 10
794.0999999990406
 20
65.40891613960723
 30
0.0
 11
797.0999999990406
 21
65.40891613949499
 31
0.0
  0
ARC
  5
320
330
1F
100
AcDbEntity
  8
0
  6
CONTINUOUS
 62
     7
100
AcDbCircle
 10
797.5999999991154
 20
67.40891613948244
 30
0.0
 40
0.5000000000000004
100
AcDbArc
 50
89.99999999785632
 51
179.9999999985941
  0
ARC
  5
321
330
1F
100
AcDbEntity
  8
0
  6
CONTINUOUS
 62
     7
100
AcDbCircle
 10
797.6000000022956
 20
152.4089161394573
 30
0.0
 40
0.5000000000000004
100
AcDbArc
 50
179.9999999971185
 51
269.9999999978563
  0
LINE
  5
322
330
1F
100
AcDbEntity
  8
0
  6
CONTINUOUS
 62
     7
100
AcDbLine
 10
651.9091828735909
 20
151.9089161449145
 30
0.0
 11
639.1000000007162
 21
151.9089161453938
 31
0.0
  0
LINE
  5
323
330
1F
100
AcDbEntity
  8
0
  6
CONTINUOUS
 62
     7
100
AcDbLine
 10
661.9091814724206
 20
151.9089161445404
 30
0.0
 11
656.4586559529548
 21
151.9089161447443
 31
0.0
  0
LINE
  5
324
330
1F
100
AcDbEntity
  8
0
  6
CONTINUOUS
 62
     7
100
AcDbLine
 10
671.9091827239221
 20
151.9089161441663
 30
0.0
 11
666.4586543411494
 21
151.9089161443702
 31
0.0
  0
LINE
  5
325
330
1F
100
AcDbEntity
  8
0
  6
CONTINUOUS
 62
     7
100
AcDbLine
 10
681.909183318475
 20
151.9089161437921
 30
0.0
 11
676.458656527314
 21
151.9089161439961
 31
0.0
  0
LINE
  5
326
330
1F
100
AcDbEntity
  8
0
  6
CONTINUOUS
 62
     7
100
AcDbLine
 10
691.9091818175111
 20
151.908916143418
 30
0.0
 11
686.4586623764424
 21
151.908916143622
 31
0.0
  0
LINE
  5
327
330
1F
100
AcDbEntity
  8
0
  6
CONTINUOUS
 62
     7
100
AcDbLine
 10
701.9091818133767
 20
151.9089161430439
 30
0.0
 11
696.4586715487252
 21
151.9089161432478
 31
0.0
  0
LINE
  5
328
330
1F
100
AcDbEntity
  8
0
  6
CONTINUOUS
 62
     7
100
AcDbLine
 10
711.9091835305211
 20
151.9089161426698
 30
0.0
 11
706.4586963723706
 21
151.9089161428737
 31
0.0
  0
LINE
  5
329
330
1F
100
AcDbEntity
  8
0
  6
CONTINUOUS
 62
     7
100
AcDbLine
 10
721.9091823289183
 20
151.9089161422956
 30
0.0
 11
716.4586969247881
 21
151.9089161424995
 31
0.0
  0
LINE
  5
32A
330
1F
100
AcDbEntity
  8
0
  6
CONTINUOUS
 62
     7
100
AcDbLine
 10
731.9091814266943
 20
151.9089161419215
 30
0.0
 11
726.4587114312615
 21
151.9089161421254
 31
0.0
  0
LINE
  5
32B
330
1F
100
AcDbEntity
  8
0
  6
CONTINUOUS
 62
     7
100
AcDbLine
 10
741.9091833766829
 20
151.9089161415474
 30
0.0
 11
736.4587251740988
 21
151.9089161417513
 31
0.0
  0
LINE
  5
32C
330
1F
100
AcDbEntity
  8
0
  6
CONTINUOUS
 62
     7
100
AcDbLine
 10
751.9091828735902
 20
151.9089161411733
 30
0.0
 11
746.458737472299
 21
151.9089161413771
 31
0.0
  0
LINE
  5
32D
330
1F
100
AcDbEntity
  8
0
  6
CONTINUOUS
 62
     7
100
AcDbLine
 10
758.1000000014856
 20
151.9089161409416
 30
0.0
 11
756.458746162088
 21
151.908916141003
 31
0.0
  0
LINE
  5
32E
330
1F
100
AcDbEntity
  8
0
  6
CONTINUOUS
 62
     7
100
AcDbLine
 10
791.9091818175104
 20
151.9089161396767
 30
0.0
 11
787.7342928141844
 21
151.9089161398329
 31
0.0
  0
LINE
  5
32F
330
1F
100
AcDbEntity
  8
0
  6
CONTINUOUS
 62
     7
100
AcDbLine
 10
791.2908176725273
 20
67.90891613971198
 30
0.0
 11
794.0999999991343
 21
67.90891613960686
 31
0.0
  0
LINE
  5
330
330
1F
100
AcDbEntity
  8
0
  6
CONTINUOUS
 62
     7
100
AcDbLine
 10
751.2908185290256
 20
67.90891614120851
 30
0.0
 11
756.7413451037568
 21
67.90891614100458
 31
0.0
  0
LINE
  5
331
330
1F
100
AcDbEntity
  8
0
  6
CONTINUOUS
 62
     7
100
AcDbLine
 10
741.2908172723372
 20
67.90891614158264
 30
0.0
 11
746.7413457239228
 21
67.9089161413787
 31
0.0
  0
LINE
  5
332
330
1F
100
AcDbEntity
  8
0
  6
CONTINUOUS
 62
     7
100
AcDbLine
 10
731.2908167765122
 20
67.90891614195677
 30
0.0
 11
736.741343464639
 21
67.90891614175284
 31
0.0
  0
LINE
  5
333
330
1F
100
AcDbEntity
  8
0
  6
CONTINUOUS
 62
     7
100
AcDbLine
 10
721.2908181839351
 20
67.90891614233088
 30
0.0
 11
726.7413506025716
 21
67.90891614212696
 31
0.0
  0
LINE
  5
334
330
1F
100
AcDbEntity
  8
0
  6
CONTINUOUS
 62
     7
100
AcDbLine
 10
711.2908181880695
 20
67.90891614270502
 30
0.0
 11
716.7413285000737
 21
67.90891614250111
 31
0.0
  0
LINE
  5
335
330
1F
100
AcDbEntity
  8
0
  6
CONTINUOUS
 62
     7
100
AcDbLine
 10
701.2908188720397
 20
67.90891614307914
 30
0.0
 11
706.7413167257954
 21
67.90891614287523
 31
0.0
  0
LINE
  5
336
330
1F
100
AcDbEntity
  8
0
  6
CONTINUOUS
 62
     7
100
AcDbLine
 10
691.290817672528
 20
67.90891614345328
 30
0.0
 11
696.7413031268543
 21
67.90891614324937
 31
0.0
  0
LINE
  5
337
330
1F
100
AcDbEntity
  8
0
  6
CONTINUOUS
 62
     7
100
AcDbLine
 10
681.2908185747519
 20
67.90891614382741
 30
0.0
 11
686.7412884519472
 21
67.90891614362349
 31
0.0
  0
LINE
  5
338
330
1F
100
AcDbEntity
  8
0
  6
CONTINUOUS
 62
     7
100
AcDbLine
 10
671.2908166247634
 20
67.90891614420156
 30
0.0
 11
676.7412747023544
 21
67.90891614399763
 31
0.0
  0
LINE
  5
339
330
1F
100
AcDbEntity
  8
0
  6
CONTINUOUS
 62
     7
100
AcDbLine
 10
661.290817127856
 20
67.90891614457567
 30
0.0
 11
666.7412626282627
 21
67.90891614437176
 31
0.0
  0
LINE
  5
33A
330
1F
100
AcDbEntity
  8
0
  6
CONTINUOUS
 62
     7
100
AcDbLine
 10
651.2908188720402
 20
67.90891614494981
 30
0.0
 11
656.7412538399253
 21
67.90891614474589
 31
0.0
  0
LINE
  5
33B
330
1F
100
AcDbEntity
  8
0
  6
CONTINUOUS
 62
     7
100
AcDbLine
 10
639.1000000007162
 20
67.90891614540591
 30
0.0
 11
647.0999999991352
 21
67.9089161451066
 31
0.0
  0
LINE
  5
33C
330
1F
100
AcDbEntity
  8
0
  6
CONTINUOUS
 62
     7
100
AcDbLine
 10
808.1000000022768
 20
151.908916139071
 30
0.0
 11
797.6000000022769
 21
151.9089161394638
 31
0.0
  0
LINE
  5
33D
330
1F
100
AcDbEntity
  8
0
  6
CONTINUOUS
 62
     7
100
AcDbLine
 10
797.5999999991342
 20
67.90891613947593
 30
0.0
 11
808.0999999991341
 21
67.90891613908309
 31
0.0
  0
ARC
  5
33E
330
1F
100
AcDbEntity
  8
0
  6
CONTINUOUS
 62
     7
100
AcDbCircle
 10
813.0999999986852
 20
55.90891613890594
 30
0.0
 40
1.000000000000001
100
AcDbArc
 50
269.9999999978563
 51
359.999999997388
  0
ARC
  5
33F
330
1F
100
AcDbEntity
  8
0
  6
CONTINUOUS
 62
     7
100
AcDbCircle
 10
813.1000000027258
 20
163.908916138874
 30
0.0
 40
1.000000000000001
100
AcDbArc
 50
359.9999999983248
 51
89.99999999785632
  0
LINE
  5
340
330
1F
100
AcDbEntity
  8
0
  6
CONTINUOUS
 62
     7
100
AcDbLine
 10
814.3999999987299
 20
63.67174954281311
 30
0.0
 11
814.0999999987299
 21
63.67174954282435
 31
0.0
  0
ARC
  5
341
330
1F
100
AcDbEntity
  8
0
  6
CONTINUOUS
 62
     7
100
AcDbCircle
 10
568.6000000007137
 20
60.90891614807489
 30
0.0
 40
1.000000000000001
100
AcDbArc
 50
90.00000000000006
 51
180.0
  0
ARC
  5
342
330
1F
100
AcDbEntity
  8
0
  6
CONTINUOUS
 62
     7
100
AcDbCircle
 10
568.6000000007137
 20
158.9089161480749
 30
0.0
 40
1.000000000000001
100
AcDbArc
 50
180.0
 51
270.0
  0
LINE
  5
343
330
1F
100
AcDbEntity
  8
0
  6
CONTINUOUS
 62
     7
100
AcDbLine
 10
639.1000000007137
 20
157.9089161480749
 30
0.0
 11
568.6000000007137
 21
157.9089161480749
 31
0.0
  0
LINE
  5
344
330
1F
100
AcDbEntity
  8
0
  6
CONTINUOUS
 62
     7
100
AcDbLine
 10
568.6000000007137
 20
61.90891614807489
 30
0.0
 11
639.1000000007137
 21
61.90891614807489
 31
0.0
  0
LINE
  5
345
330
1F
100
AcDbEntity
  8
0
  6
CONTINUOUS
 62
     7
100
AcDbLine
 10
332.2499999908978
 20
134.9089161480749
 30
0.0
 11
332.2499999908978
 21
84.90891614807488
 31
0.0
  0
LINE
  5
346
330
1F
100
AcDbEntity
  8
0
  6
CONTINUOUS
 62
     7
100
AcDbLine
 10
409.9999999908978
 20
162.6589161480749
 30
0.0
 11
359.9999999908978
 21
162.6589161480749
 31
0.0
  0
ARC
  5
347
330
1F
100
AcDbEntity
  8
0
  6
CONTINUOUS
 62
     7
100
AcDbCircle
 10
409.9999999908978
 20
84.90891614807488
 30
0.0
 40
27.75000000000001
100
AcDbArc
 50
269.9999999999999
 51
0.0
  0
ARC
  5
348
330
1F
100
AcDbEntity
  8
0
  6
CONTINUOUS
 62
     7
100
AcDbCircle
 10
409.9999999908978
 20
134.9089161480749
 30
0.0
 40
27.75
100
AcDbArc
 50
359.9999999999998
 51
90.0
  0
ARC
  5
349
330
1F
100
AcDbEntity
  8
0
  6
CONTINUOUS
 62
     7
100
AcDbCircle
 10
359.9999999908978
 20
134.9089161480749
 30
0.0
 40
27.75
100
AcDbArc
 50
89.99999999999999
 51
180.0
  0
LINE
  5
34A
330
1F
100
AcDbEntity
  8
0
  6
CONTINUOUS
 62
     7
100
AcDbLine
 10
359.9999999908978
 20
57.15891614807486
 30
0.0
 11
409.9999999908977
 21
57.15891614807488
 31
0.0
  0
LINE
  5
34B
330
1F
100
AcDbEntity
  8
0
  6
CONTINUOUS
 62
     7
100
AcDbLine
 10
437.7499999908978
 20
84.90891614807488
 30
0.0
 11
437.7499999908978
 21
134.9089161480749
 31
0.0
  0
ARC
  5
34C
330
1F
100
AcDbEntity
  8
0
  6
CONTINUOUS
 62
     7
100
AcDbCircle
 10
359.9999999908978
 20
84.90891614807485
 30
0.0
 40
27.75000000000002
100
AcDbArc
 50
180.0
 51
270.0
  0
ARC
  5
34D
330
1F
100
AcDbEntity
  8
0
  6
CONTINUOUS
 62
     7
100
AcDbCircle
 10
409.6095072645874
 20
85.29940887438528
 30
0.0
 40
29.99999999999999
100
AcDbArc
 50
271.0
 51
358.9999999999999
  0
LINE
  5
34E
330
1F
100
AcDbEntity
  8
0
  6
CONTINUOUS
 62
     7
100
AcDbLine
 10
387.4999999908974
 20
54.90891614807491
 30
0.0
 11
410.133079457706
 21
55.30397801969356
 31
0.0
  0
LINE
  5
34F
330
1F
100
AcDbEntity
  8
0
  6
CONTINUOUS
 62
     7
100
AcDbLine
 10
382.4999999908978
 20
54.90891614807487
 30
0.0
 11
387.4999999908974
 21
54.90891614807491
 31
0.0
  0
LINE
  5
350
330
1F
100
AcDbEntity
  8
0
  6
CONTINUOUS
 62
     7
100
AcDbLine
 10
359.8669205240897
 20
55.30397801969352
 30
0.0
 11
382.4999999908979
 21
54.90891614807487
 31
0.0
  0
ARC
  5
351
330
1F
100
AcDbEntity
  8
0
  6
CONTINUOUS
 62
     7
100
AcDbCircle
 10
360.3904927172082
 20
85.29940887438524
 30
0.0
 40
29.99999999999999
100
AcDbArc
 50
181.0
 51
269.0
  0
LINE
  5
352
330
1F
100
AcDbEntity
  8
0
  6
CONTINUOUS
 62
     7
100
AcDbLine
 10
329.9999999908978
 20
107.4089161480753
 30
0.0
 11
330.3950618625165
 21
84.77583668126672
 31
0.0
  0
LINE
  5
353
330
1F
100
AcDbEntity
  8
0
  6
CONTINUOUS
 62
     7
100
AcDbLine
 10
329.9999999908978
 20
112.4089161480749
 30
0.0
 11
329.9999999908978
 21
107.4089161480753
 31
0.0
  0
LINE
  5
354
330
1F
100
AcDbEntity
  8
0
  6
CONTINUOUS
 62
     7
100
AcDbLine
 10
330.3950618625165
 20
135.041995614883
 30
0.0
 11
329.9999999908978
 21
112.4089161480749
 31
0.0
  0
ARC
  5
355
330
1F
100
AcDbEntity
  8
0
  6
CONTINUOUS
 62
     7
100
AcDbCircle
 10
360.3904927172082
 20
134.5184234217645
 30
0.0
 40
29.99999999999999
100
AcDbArc
 50
91.00000000000004
 51
179.0000000000001
  0
LINE
  5
356
330
1F
100
AcDbEntity
  8
0
  6
CONTINUOUS
 62
     7
100
AcDbLine
 10
382.4999999908982
 20
164.9089161480748
 30
0.0
 11
359.8669205240897
 21
164.5138542764562
 31
0.0
  0
LINE
  5
357
330
1F
100
AcDbEntity
  8
0
  6
CONTINUOUS
 62
     7
100
AcDbLine
 10
387.4999999908978
 20
164.9089161480749
 30
0.0
 11
382.4999999908982
 21
164.9089161480748
 31
0.0
  0
LINE
  5
358
330
1F
100
AcDbEntity
  8
0
  6
CONTINUOUS
 62
     7
100
AcDbLine
 10
410.1330794577059
 20
164.5138542764562
 30
0.0
 11
387.4999999908978
 21
164.9089161480749
 31
0.0
  0
ARC
  5
359
330
1F
100
AcDbEntity
  8
0
  6
CONTINUOUS
 62
     7
100
AcDbCircle
 10
409.6095072645874
 20
134.5184234217645
 30
0.0
 40
29.99999999999996
100
AcDbArc
 50
1.000000000000018
 51
89.00000000000001
  0
LINE
  5
35A
330
1F
100
AcDbEntity
  8
0
  6
CONTINUOUS
 62
     7
100
AcDbLine
 10
439.9999999908978
 20
112.4089161480745
 30
0.0
 11
439.6049381192792
 21
135.041995614883
 31
0.0
  0
LINE
  5
35B
330
1F
100
AcDbEntity
  8
0
  6
CONTINUOUS
 62
     7
100
AcDbLine
 10
439.9999999908978
 20
107.4089161480749
 30
0.0
 11
439.9999999908978
 21
112.4089161480745
 31
0.0
  0
LINE
  5
35C
330
1F
100
AcDbEntity
  8
0
  6
CONTINUOUS
 62
     7
100
AcDbLine
 10
439.6049381192792
 20
84.77583668126677
 30
0.0
 11
439.9999999908978
 21
107.4089161480749
 31
0.0
  0
ARC
  5
35D
330
1F
100
AcDbEntity
  8
0
  6
CONTINUOUS
 62
     7
100
AcDbCircle
 10
359.9999999908978
 20
134.9089161480749
 30
0.0
 40
25.29999999999999
100
AcDbArc
 50
90.0
 51
180.0
  0
LINE
  5
35E
330
1F
100
AcDbEntity
  8
0
  6
CONTINUOUS
 62
     7
100
AcDbLine
 10
334.6999999908978
 20
134.9089161480749
 30
0.0
 11
334.6999999908978
 21
84.90891614807487
 31
0.0
  0
LINE
  5
35F
330
1F
100
AcDbEntity
  8
0
  6
CONTINUOUS
 62
     7
100
AcDbLine
 10
435.2999999908978
 20
84.90891614807488
 30
0.0
 11
435.2999999908978
 21
134.9089161480749
 31
0.0
  0
ARC
  5
360
330
1F
100
AcDbEntity
  8
0
  6
CONTINUOUS
 62
     7
100
AcDbCircle
 10
409.9999999908978
 20
134.9089161480749
 30
0.0
 40
25.29999999999999
100
AcDbArc
 50
0.0
 51
90.0
  0
ARC
  5
361
330
1F
100
AcDbEntity
  8
0
  6
CONTINUOUS
 62
     7
100
AcDbCircle
 10
359.9999999908978
 20
84.90891614807487
 30
0.0
 40
25.30000000000001
100
AcDbArc
 50
180.0
 51
270.0
  0
LINE
  5
362
330
1F
100
AcDbEntity
  8
0
  6
CONTINUOUS
 62
     7
100
AcDbLine
 10
409.9999999908978
 20
160.2089161480748
 30
0.0
 11
359.9999999908978
 21
160.2089161480748
 31
0.0
  0
LINE
  5
363
330
1F
100
AcDbEntity
  8
0
  6
CONTINUOUS
 62
     7
100
AcDbLine
 10
359.9999999908978
 20
59.60891614807488
 30
0.0
 11
409.9999999908978
 21
59.60891614807488
 31
0.0
  0
ARC
  5
364
330
1F
100
AcDbEntity
  8
0
  6
CONTINUOUS
 62
     7
100
AcDbCircle
 10
409.9999999908978
 20
84.90891614807487
 30
0.0
 40
25.29999999999999
100
AcDbArc
 50
270.0
 51
0.0
  0
ARC
  5
365
330
1F
100
AcDbEntity
  8
0
  6
CONTINUOUS
 62
     7
100
AcDbCircle
 10
409.9999999908978
 20
84.90891614807487
 30
0.0
 40
23.99999999999999
100
AcDbArc
 50
270.0
 51
0.0
  0
ARC
  5
366
330
1F
100
AcDbEntity
  8
0
  6
CONTINUOUS
 62
     7
100
AcDbCircle
 10
409.9999999908978
 20
134.9089161480749
 30
0.0
 40
23.99999999999996
100
AcDbArc
 50
0.0
 51
90.0
  0
LINE
  5
367
330
1F
100
AcDbEntity
  8
0
  6
CONTINUOUS
 62
     7
100
AcDbLine
 10
433.9999999908978
 20
84.90891614807488
 30
0.0
 11
433.9999999908978
 21
134.9089161480749
 31
0.0
  0
LINE
  5
368
330
1F
100
AcDbEntity
  8
0
  6
CONTINUOUS
 62
     7
100
AcDbLine
 10
409.9999999908978
 20
158.9089161480749
 30
0.0
 11
359.9999999908978
 21
158.9089161480749
 31
0.0
  0
LINE
  5
369
330
1F
100
AcDbEntity
  8
0
  6
CONTINUOUS
 62
     7
100
AcDbLine
 10
359.9999999908978
 20
60.90891614807488
 30
0.0
 11
409.9999999908978
 21
60.90891614807488
 31
0.0
  0
ARC
  5
36A
330
1F
100
AcDbEntity
  8
0
  6
CONTINUOUS
 62
     7
100
AcDbCircle
 10
359.9999999908978
 20
84.90891614807487
 30
0.0
 40
23.99999999999999
100
AcDbArc
 50
180.0
 51
270.0
  0
ARC
  5
36B
330
1F
100
AcDbEntity
  8
0
  6
CONTINUOUS
 62
     7
100
AcDbCircle
 10
359.9999999908978
 20
134.9089161480749
 30
0.0
 40
24.00000000000002
100
AcDbArc
 50
90.0
 51
180.0
  0
LINE
  5
36C
330
1F
100
AcDbEntity
  8
0
  6
CONTINUOUS
 62
     7
100
AcDbLine
 10
335.9999999908978
 20
134.9089161480749
 30
0.0
 11
335.9999999908978
 21
84.90891614807487
 31
0.0
  0
ARC
  5
36D
330
1F
100
AcDbEntity
  8
0
  6
CONTINUOUS
 62
     7
100
AcDbCircle
 10
384.9999999908978
 20
109.9089161480749
 30
0.0
 40
37.49999999999998
100
AcDbArc
 50
359.9999999999998
 51
90.0
  0
ARC
  5
36E
330
1F
100
AcDbEntity
  8
0
  6
CONTINUOUS
 62
     7
100
AcDbCircle
 10
384.9999999908978
 20
109.9089161480749
 30
0.0
 40
37.50000000000005
100
AcDbArc
 50
270.0000000000001
 51
359.9999999999998
  0
ARC
  5
36F
330
1F
100
AcDbEntity
  8
0
  6
CONTINUOUS
 62
     7
100
AcDbCircle
 10
384.9999999908978
 20
109.9089161480748
 30
0.0
 40
37.49999999999992
100
AcDbArc
 50
179.9999999999999
 51
270.0000000000001
  0
ARC
  5
370
330
1F
100
AcDbEntity
  8
0
  6
CONTINUOUS
 62
     7
100
AcDbCircle
 10
384.9999999908978
 20
109.9089161480749
 30
0.0
 40
37.49999999999996
100
AcDbArc
 50
90.0
 51
180.0000000000001
  0
ENDSEC
  0
SECTION
  2
OBJECTS
  0
DICTIONARY
  5
C
330
0
100
AcDbDictionary
  3
ACAD_GROUP
350
D
  3
ACAD_LAYOUT
350
1A
  3
ACAD_MATERIAL
350
43
  3
ACAD_MLEADERSTYLE
350
6B
  3
ACAD_MLINESTYLE
350
17
  3
ACAD_PLOTSETTINGS
350
19
  3
ACAD_SCALELIST
350
47
  3
ACAD_VISUALSTYLE
350
2A
  3
ACDBHEADERROUNDTRIPXREC
350
371
  3
ACDBVARIABLEDICTIONARY
350
392
  0
DICTIONARY
  5
399
330
8
100
AcDbDictionary
280
     1
  3
ACAD_XREC_ROUNDTRIP
360
39A
  0
DICTIONARY
  5
D
102
{ACAD_REACTORS
330
C
102
}
330
C
100
AcDbDictionary
  0
DICTIONARY
  5
1A
102
{ACAD_REACTORS
330
C
102
}
330
C
100
AcDbDictionary
  0
DICTIONARY
  5
43
102
{ACAD_REACTORS
330
C
102
}
330
C
100
AcDbDictionary
  3
BYBLOCK
350
45
  3
BYLAYER
350
44
  3
GLOBAL
350
46
  0
DICTIONARY
  5
6B
102
{ACAD_REACTORS
330
C
102
}
330
C
100
AcDbDictionary
  3
STANDARD
350
6C
  0
DICTIONARY
  5
17
102
{ACAD_REACTORS
330
C
102
}
330
C
100
AcDbDictionary
  3
STANDARD
350
18
  0
DICTIONARY
  5
19
102
{ACAD_REACTORS
330
C
102
}
330
C
100
AcDbDictionary
  0
DICTIONARY
  5
47
102
{ACAD_REACTORS
330
C
102
}
330
C
100
AcDbDictionary
  3
A0
350
48
  3
A1
350
49
  3
A2
350
4A
  3
A3
350
4B
  3
A4
350
4C
  3
A5
350
4D
  3
A6
350
4E
  3
A7
350
4F
  3
A8
350
50
  3
A9
350
51
  3
B0
350
52
  3
B1
350
53
  3
B2
350
54
  3
B3
350
55
  3
B4
350
56
  3
B5
350
57
  3
B6
350
58
  3
B7
350
59
  3
B8
350
5A
  3
B9
350
5B
  3
C0
350
5C
  3
C1
350
5D
  3
C2
350
5E
  3
C3
350
5F
  3
C4
350
60
  3
C5
350
61
  3
C6
350
62
  3
C7
350
63
  3
C8
350
64
  3
C9
350
65
  3
D0
350
66
  3
D1
350
67
  3
D2
350
68
  0
DICTIONARY
  5
2A
102
{ACAD_REACTORS
330
C
102
}
330
C
100
AcDbDictionary
  3
2DWIREFRAME
350
2F
  3
BASIC
350
32
  3
BRIGHTEN
350
36
  3
COLORCHANGE
350
3A
  3
CONCEPTUAL
350
34
  3
DIM
350
35
  3
EDGECOLOROFF
350
3D
  3
FACEPATTERN
350
39
  3
FLAT
350
2B
  3
FLATWITHEDGES
350
2C
  3
GOURAUD
350
2D
  3
GOURAUDWITHEDGES
350
2E
  3
HIDDEN
350
31
  3
JITTEROFF
350
3B
  3
LINEPATTERN
350
38
  3
OVERHANGOFF
350
3C
  3
REALISTIC
350
33
  3
SHADED
350
42
  3
SHADED_WITH_EDGES
350
41
  3
SHADES_OF_GRAY
350
3E
  3
SKETCHY
350
3F
  3
THICKEN
350
37
  3
WIREFRAME
350
30
  3
X-RAY
350
40
  0
DICTIONARY
  5
371
102
{ACAD_REACTORS
330
C
102
}
330
C
100
AcDbDictionary
  3
CEPSNID
350
37B
  3
CEPSNTYPE
350
37A
  3
DIMSTYLEDATA
350
391
  3
FINGERPRINTGUID
350
37C
  3
HYPERLINKBASE
350
374
  3
INSUNITS
350
379
  3
LAYOUTDICT
350
376
  3
LWETCUNION
350
378
  3
PLOTSETDICT
350
377
  3
PSVPSCALE
350
37E
  3
PUCSBASE
350
381
  3
PUCSORGBACK
350
387
  3
PUCSORGBOTTOM
350
383
  3
PUCSORGFRONT
350
386
  3
PUCSORGLEFT
350
384
  3
PUCSORGRIGHT
350
385
  3
PUCSORGTOP
350
382
  3
PUCSORTHOREF
350
37F
  3
PUCSORTHOVIEW
350
380
  3
STYLESHEET
350
375
  3
TSTACKALIGN
350
372
  3
TSTACKSIZE
350
373
  3
UCSBASE
350
38A
  3
UCSORGBACK
350
390
  3
UCSORGBOTTOM
350
38C
  3
UCSORGFRONT
350
38F
  3
UCSORGLEFT
350
38D
  3
UCSORGRIGHT
350
38E
  3
UCSORGTOP
350
38B
  3
UCSORTHOREF
350
388
  3
UCSORTHOVIEW
350
389
  3
VERSIONGUID
350
37D
  0
DICTIONARY
  5
392
102
{ACAD_REACTORS
330
C
102
}
330
C
100
AcDbDictionary
  3
CANNOSCALE
350
39B
  3
CMLEADERSTYLE
350
394
  3
CTABLESTYLE
350
393
  3
DIMASSOC
350
397
  3
HIDETEXT
350
398
  3
MSLTSCALE
350
39C
  0
XRECORD
  5
39A
102
{ACAD_REACTORS
330
399
102
}
330
399
100
AcDbXrecord
102
VTR_0.000_0.000_1.000_1.000_VISUALSTYLE
340
2F
102
VTR_0.000_0.000_1.000_1.000_GRIDDISPLAY
 70
     3
102
VTR_0.000_0.000_1.000_1.000_GRIDMAJOR
 70
     5
102
VTR_0.000_0.000_1.000_1.000_DEFAULTLIGHTING
280
     1
102
VTR_0.000_0.000_1.000_1.000_DEFAULTLIGHTINGTYPE
 70
     1
102
VTR_0.000_0.000_1.000_1.000_BRIGHTNESS
141
0.0
102
VTR_0.000_0.000_1.000_1.000_CONTRAST
142
0.0
  0
MATERIAL
  5
45
102
{ACAD_REACTORS
330
43
102
}
102
{ACAD_XDICTIONARY
360
39F
102
}
330
43
100
AcDbMaterial
  1
BYBLOCK
  0
MATERIAL
  5
44
102
{ACAD_REACTORS
330
43
102
}
102
{ACAD_XDICTIONARY
360
39D
102
}
330
43
100
AcDbMaterial
  1
BYLAYER
  0
MATERIAL
  5
46
102
{ACAD_REACTORS
330
43
102
}
102
{ACAD_XDICTIONARY
360
3A1
102
}
330
43
100
AcDbMaterial
  1
GLOBAL
  0
ACAD_PROXY_OBJECT
  5
6C
102
{ACAD_REACTORS
330
6B
102
}
330
6B
100
AcDbProxyObject
 90
      499
 91
      505
 93
      610
310
40901902A4063FBFFFFFE056BD1B81E855B9FC0AD7A3703D0AD73F4214DD185B99185C9900AD7A3703D0AC73F90141901A02B5E8DC0F42B1CFC02B5E8DC0F42B1CFE5764000000000000300FC0
340
14
340
0
340
11
340
0
 94
        0
1001
ACAD_MLEADERVER
1070
     2
  0
MLINESTYLE
  5
18
102
{ACAD_REACTORS
330
17
102
}
330
17
100
AcDbMlineStyle
  2
Standard
 70
     0
  3

 62
   256
 51
90.0
 52
90.0
 71
     2
 49
0.5
 62
   256
  6
BYLAYER
 49
-0.5
 62
   256
  6
BYLAYER
  0
ACAD_PROXY_OBJECT
  5
48
102
{ACAD_REACTORS
330
47
102
}
330
47
100
AcDbProxyObject
 90
      499
 91
      503
 93
       41
310
903313A31580
  0
ACAD_PROXY_OBJECT
  5
49
102
{ACAD_REACTORS
330
47
102
}
330
47
100
AcDbProxyObject
 90
      499
 91
      503
 93
      105
310
903313A324000000000000004000
  0
ACAD_PROXY_OBJECT
  5
4A
102
{ACAD_REACTORS
330
47
102
}
330
47
100
AcDbProxyObject
 90
      499
 91
      503
 93
      105
310
903313A344000000000000104000
  0
ACAD_PROXY_OBJECT
  5
4B
102
{ACAD_REACTORS
330
47
102
}
330
47
100
AcDbProxyObject
 90
      499
 91
      503
 93
      105
310
903313A354000000000000144000
  0
ACAD_PROXY_OBJECT
  5
4C
102
{ACAD_REACTORS
330
47
102
}
330
47
100
AcDbProxyObject
 90
      499
 91
      503
 93
      105
310
903313A384000000000000204000
  0
ACAD_PROXY_OBJECT
  5
4D
102
{ACAD_REACTORS
330
47
102
}
330
47
100
AcDbProxyObject
 90
      499
 91
      503
 93
      113
310
904313A31304000000000000244000
  0
ACAD_PROXY_OBJECT
  5
4E
102
{ACAD_REACTORS
330
47
102
}
330
47
100
AcDbProxyObject
 90
      499
 91
      503
 93
      113
310
904313A31364000000000000304000
  0
ACAD_PROXY_OBJECT
  5
4F
102
{ACAD_REACTORS
330
47
102
}
330
47
100
AcDbProxyObject
 90
      499
 91
      503
 93
      113
310
904313A32304000000000000344000
  0
ACAD_PROXY_OBJECT
  5
50
102
{ACAD_REACTORS
330
47
102
}
330
47
100
AcDbProxyObject
 90
      499
 91
      503
 93
      113
310
904313A333040000000000003E4000
  0
ACAD_PROXY_OBJECT
  5
51
102
{ACAD_REACTORS
330
47
102
}
330
47
100
AcDbProxyObject
 90
      499
 91
      503
 93
      113
310
904313A34304000000000000444000
  0
ACAD_PROXY_OBJECT
  5
52
102
{ACAD_REACTORS
330
47
102
}
330
47
100
AcDbProxyObject
 90
      499
 91
      503
 93
      113
310
904313A35304000000000000494000
  0
ACAD_PROXY_OBJECT
  5
53
102
{ACAD_REACTORS
330
47
102
}
330
47
100
AcDbProxyObject
 90
      499
 91
      503
 93
      121
310
905313A3130304000000000000594000
  0
ACAD_PROXY_OBJECT
  5
54
102
{ACAD_REACTORS
330
47
102
}
330
47
100
AcDbProxyObject
 90
      499
 91
      503
 93
      105
310
903323A310000000000000010100
  0
ACAD_PROXY_OBJECT
  5
55
102
{ACAD_REACTORS
330
47
102
}
330
47
100
AcDbProxyObject
 90
      499
 91
      503
 93
      105
310
903343A310000000000000410100
  0
ACAD_PROXY_OBJECT
  5
56
102
{ACAD_REACTORS
330
47
102
}
330
47
100
AcDbProxyObject
 90
      499
 91
      503
 93
      105
310
903383A310000000000000810100
  0
ACAD_PROXY_OBJECT
  5
57
102
{ACAD_REACTORS
330
47
102
}
330
47
100
AcDbProxyObject
 90
      499
 91
      503
 93
      113
310
90431303A310000000000000910100
  0
ACAD_PROXY_OBJECT
  5
58
102
{ACAD_REACTORS
330
47
102
}
330
47
100
AcDbProxyObject
 90
      499
 91
      503
 93
      121
310
9053130303A310000000000001650100
  0
ACAD_PROXY_OBJECT
  5
59
102
{ACAD_REACTORS
330
47
102
}
330
47
100
AcDbProxyObject
 90
      499
 91
      503
 93
      257
310
90E312F31323822203D2031272D3022000000000000200FC000000000000284000
  0
ACAD_PROXY_OBJECT
  5
5A
102
{ACAD_REACTORS
330
47
102
}
330
47
100
AcDbProxyObject
 90
      499
 91
      503
 93
      249
310
90D312F363422203D2031272D3022000000000000240FC000000000000284000
  0
ACAD_PROXY_OBJECT
  5
5B
102
{ACAD_REACTORS
330
47
102
}
330
47
100
AcDbProxyObject
 90
      499
 91
      503
 93
      249
310
90D312F333222203D2031272D3022000000000000280FC000000000000284000
  0
ACAD_PROXY_OBJECT
  5
5C
102
{ACAD_REACTORS
330
47
102
}
330
47
100
AcDbProxyObject
 90
      499
 91
      503
 93
      249
310
90D312F313622203D2031272D30220000000000002C0FC000000000000284000
  0
ACAD_PROXY_OBJECT
  5
5D
102
{ACAD_REACTORS
330
47
102
}
330
47
100
AcDbProxyObject
 90
      499
 91
      503
 93
      249
310
90D332F333222203D2031272D30220000000000002E0FC000000000000284000
  0
ACAD_PROXY_OBJECT
  5
5E
102
{ACAD_REACTORS
330
47
102
}
330
47
100
AcDbProxyObject
 90
      499
 91
      503
 93
      241
310
90C312F3822203D2031272D3022000000000000300FC000000000000284000
  0
ACAD_PROXY_OBJECT
  5
5F
102
{ACAD_REACTORS
330
47
102
}
330
47
100
AcDbProxyObject
 90
      499
 91
      503
 93
      249
310
90D332F313622203D2031272D3022000000000000320FC000000000000284000
  0
ACAD_PROXY_OBJECT
  5
60
102
{ACAD_REACTORS
330
47
102
}
330
47
100
AcDbProxyObject
 90
      499
 91
      503
 93
      241
310
90C312F3422203D2031272D3022000000000000340FC000000000000284000
  0
ACAD_PROXY_OBJECT
  5
61
102
{ACAD_REACTORS
330
47
102
}
330
47
100
AcDbProxyObject
 90
      499
 91
      503
 93
      241
310
90C332F3822203D2031272D3022000000000000360FC000000000000284000
  0
ACAD_PROXY_OBJECT
  5
62
102
{ACAD_REACTORS
330
47
102
}
330
47
100
AcDbProxyObject
 90
      499
 91
      503
 93
      241
310
90C312F3222203D2031272D3022000000000000380FC000000000000284000
  0
ACAD_PROXY_OBJECT
  5
63
102
{ACAD_REACTORS
330
47
102
}
330
47
100
AcDbProxyObject
 90
      499
 91
      503
 93
      241
310
90C332F3422203D2031272D30220000000000003A0FC000000000000284000
  0
ACAD_PROXY_OBJECT
  5
64
102
{ACAD_REACTORS
330
47
102
}
330
47
100
AcDbProxyObject
 90
      499
 91
      503
 93
      161
310
90A3122203D2031272D30224000000000000284000
  0
ACAD_PROXY_OBJECT
  5
65
102
{ACAD_REACTORS
330
47
102
}
330
47
100
AcDbProxyObject
 90
      499
 91
      503
 93
      257
310
90E312D312F3222203D2031272D30220000000000003E0FC000000000000284000
  0
ACAD_PROXY_OBJECT
  5
66
102
{ACAD_REACTORS
330
47
102
}
330
47
100
AcDbProxyObject
 90
      499
 91
      503
 93
      225
310
90A3322203D2031272D302200000000000002100000000000000284000
  0
ACAD_PROXY_OBJECT
  5
67
102
{ACAD_REACTORS
330
47
102
}
330
47
100
AcDbProxyObject
 90
      499
 91
      503
 93
      225
310
90A3622203D2031272D302200000000000006100000000000000284000
  0
ACAD_PROXY_OBJECT
  5
68
102
{ACAD_REACTORS
330
47
102
}
330
47
100
AcDbProxyObject
 90
      499
 91
      503
 93
      249
310
90D31272D3022203D2031272D30220000000000000A100000000000000284000
  0
ACAD_PROXY_OBJECT
  5
2F
102
{ACAD_REACTORS
330
2A
102
}
330
2A
100
AcDbProxyObject
 90
      499
 91
      501
 93
      436
310
42CC9915DA5C99599C985B595049028333333333333E33F0000000000000F90107901411070040501600405405064090741402480A0340
1001
ACAD
1000
AcDbSavedByObjectVersion
1070
     0
  0
ACAD_PROXY_OBJECT
  5
32
102
{ACAD_REACTORS
330
2A
102
}
330
2A
100
AcDbProxyObject
 90
      499
 91
      501
 93
      388
310
4150985CDA58D07406404333333333333E33F0000000000000F90107A41107004050150841D405064090741402480A0350
1001
ACAD
1000
AcDbSavedByObjectVersion
1070
     0
  0
ACAD_PROXY_OBJECT
  5
36
102
{ACAD_REACTORS
330
2A
102
}
330
2A
100
AcDbProxyObject
 90
      499
 91
      501
 93
      428
310
42109C9A59DA1D195B90C409028333333333333E33F0000000000000F9010790141107004050150841D405064090741402480A029950
1001
ACAD
1000
AcDbSavedByObjectVersion
1070
     0
  0
ACAD_PROXY_OBJECT
  5
3A
102
{ACAD_REACTORS
330
2A
102
}
330
2A
100
AcDbProxyObject
 90
      499
 91
      501
 93
      452
310
42D0DBDB1BDC90DA185B99D95104090240C333333333333E33F0000000000000F90108901411070040501508421405064090741402480A0350
1001
ACAD
1000
AcDbSavedByObjectVersion
1070
     0
  0
ACAD_PROXY_OBJECT
  5
34
102
{ACAD_REACTORS
330
2A
102
}
330
2A
100
AcDbProxyObject
 90
      499
 91
      501
 93
      500
310
4290DBDB98D95C1D1D585B10940D028333333333333E33F0000000000000F90107902409070040501000000000018199010841D405064090740C02480A0340
1001
ACAD
1000
AcDbSavedByObjectVersion
1070
     0
  0
ACAD_PROXY_OBJECT
  5
35
102
{ACAD_REACTORS
330
2A
102
}
330
2A
100
AcDbProxyObject
 90
      499
 91
      501
 93
      412
310
40D11A5B50B409028333333333333E33F0000000000000F9010790141107004050150841D405064090741402480A02677FFFFFD0
1001
ACAD
1000
AcDbSavedByObjectVersion
1070
     0
  0
ACAD_PROXY_OBJECT
  5
3D
102
{ACAD_REACTORS
330
2A
102
}
330
2A
100
AcDbProxyObject
 90
      499
 91
      501
 93
      452
310
43115919D950DBDB1BDC93D999916409028333333333333E33F0000000000000F9010790141107004050150841D405064090741402480A0350
1001
ACAD
1000
AcDbSavedByObjectVersion
1070
     0
  0
ACAD_PROXY_OBJECT
  5
39
102
{ACAD_REACTORS
330
2A
102
}
330
2A
100
AcDbProxyObject
 90
      499
 91
      501
 93
      444
310
42D19858D95C185D1D195C9B90F409028333333333333E33F0000000000000F9010790141107004050150841D405064090741402480A0350
1001
ACAD
1000
AcDbSavedByObjectVersion
1070
     0
  0
ACAD_PROXY_OBJECT
  5
2B
102
{ACAD_REACTORS
330
2A
102
}
330
2A
100
AcDbProxyObject
 90
      499
 91
      501
 93
      380
310
41119B185D240901404333333333333E33F0000000000000F9010740A907004050150841D405064090741402480A1B50
1001
ACAD
1000
AcDbSavedByObjectVersion
1070
     0
  0
ACAD_PROXY_OBJECT
  5
2C
102
{ACAD_REACTORS
330
2A
102
}
330
2A
100
AcDbProxyObject
 90
      499
 91
      501
 93
      468
310
43519B185D15DA5D1A115919D95CD0140901404333333333333E33F0000000000000F90107409019070040501600405405064090741402480A1B50
1001
ACAD
1000
AcDbSavedByObjectVersion
1070
     0
  0
ACAD_PROXY_OBJECT
  5
2D
102
{ACAD_REACTORS
330
2A
102
}
330
2A
100
AcDbProxyObject
 90
      499
 91
      501
 93
      404
310
41D1DBDD5C985D5910240902404333333333333E33F0000000000000F9010740A9070040501641D405064090741402480A1B50
1001
ACAD
1000
AcDbSavedByObjectVersion
1070
     0
  0
ACAD_PROXY_OBJECT
  5
2E
102
{ACAD_REACTORS
330
2A
102
}
330
2A
100
AcDbProxyObject
 90
      499
 91
      501
 93
      492
310
4411DBDD5C985D5915DA5D1A115919D95CD0340902404333333333333E33F0000000000000F90107409019070040501600405405064090741402480A1B50
1001
ACAD
1000
AcDbSavedByObjectVersion
1070
     0
  0
ACAD_PROXY_OBJECT
  5
31
102
{ACAD_REACTORS
330
2A
102
}
330
2A
100
AcDbProxyObject
 90
      499
 91
      501
 93
      476
310
41921A5919195B90640502408333333333333E33F0000000000000F901079024090700405020000000000001110200405405064090740C02480A0340
1001
ACAD
1000
AcDbSavedByObjectVersion
1070
     0
  0
ACAD_PROXY_OBJECT
  5
3B
102
{ACAD_REACTORS
330
2A
102
}
330
2A
100
AcDbProxyObject
 90
      499
 91
      501
 93
      428
310
42529A5D1D195C93D999914409028333333333333E33F0000000000000F9010790141107004050150A41D405064090741402480A0350
1001
ACAD
1000
AcDbSavedByObjectVersion
1070
     0
  0
ACAD_PROXY_OBJECT
  5
38
102
{ACAD_REACTORS
330
2A
102
}
330
2A
100
AcDbProxyObject
 90
      499
 91
      501
 93
      444
310
42D31A5B995C185D1D195C9B90E409028333333333333E33F0000000000000F9010790141107004050750841D405064090741402483A0350
1001
ACAD
1000
AcDbSavedByObjectVersion
1070
     0
  0
ACAD_PROXY_OBJECT
  5
3C
102
{ACAD_REACTORS
330
2A
102
}
330
2A
100
AcDbProxyObject
 90
      499
 91
      501
 93
      444
310
42D3DD995C9A185B99D3D999915409028333333333333E33F0000000000000F9010790141107004050150941D405064090741402480A0350
1001
ACAD
1000
AcDbSavedByObjectVersion
1070
     0
  0
ACAD_PROXY_OBJECT
  5
33
102
{ACAD_REACTORS
330
2A
102
}
330
2A
100
AcDbProxyObject
 90
      499
 91
      501
 93
      428
310
425499585B1A5CDD1A58D08409038333333333333E33F0000000000000F9010740A907004050150800405405064090740C02480A1B40
1001
ACAD
1000
AcDbSavedByObjectVersion
1070
     0
  0
ACAD_PROXY_OBJECT
  5
42
102
{ACAD_REACTORS
330
2A
102
}
330
2A
100
AcDbProxyObject
 90
      499
 91
      501
 93
      420
310
4194DA1859195911B40902404333333333333E33F0000000000000F9010740A41107004050150800405405064090840C02480A0B40
1001
ACAD
1000
AcDbSavedByObjectVersion
1070
     0
  0
ACAD_PROXY_OBJECT
  5
41
102
{ACAD_REACTORS
330
2A
102
}
330
2A
100
AcDbProxyObject
 90
      499
 91
      501
 93
      516
310
4454DA18591959081DDA5D1A08195919D95CD1A40902404333333333333E33F0000000000000F901074090142907004050250800405405064090740C02480A0B40
1001
ACAD
1000
AcDbSavedByObjectVersion
1070
     0
  0
ACAD_PROXY_OBJECT
  5
3E
102
{ACAD_REACTORS
330
2A
102
}
330
2A
100
AcDbProxyObject
 90
      499
 91
      501
 93
      532
310
4394DA1859195CC81BD98811DC985E5174090240C333333333333E33F0000000000000F901079024090741D01000000000000111010841D405064090740C02480A0340
1001
ACAD
1000
AcDbSavedByObjectVersion
1070
     0
  0
ACAD_PROXY_OBJECT
  5
3F
102
{ACAD_REACTORS
330
2A
102
}
330
2A
100
AcDbProxyObject
 90
      499
 91
      501
 93
      476
310
41D4DAD95D18DA1E51840502408333333333333E33F0000000000000F901079024090741D01000000000000111010B41D405064090741802480A0340
1001
ACAD
1000
AcDbSavedByObjectVersion
1070
     0
  0
ACAD_PROXY_OBJECT
  5
37
102
{ACAD_REACTORS
330
2A
102
}
330
2A
100
AcDbProxyObject
 90
      499
 91
      501
 93
      412
310
41D51A1A58DAD95B90D409028333333333333E33F0000000000000F9010790141107004050150C41D405064090741402480A0350
1001
ACAD
1000
AcDbSavedByObjectVersion
1070
     0
  0
ACAD_PROXY_OBJECT
  5
30
102
{ACAD_REACTORS
330
2A
102
}
330
2A
100
AcDbProxyObject
 90
      499
 91
      501
 93
      420
310
4255DA5C99599C985B595059028333333333333E33F0000000000000F90107901411070040501600405405064090740C02480A0340
1001
ACAD
1000
AcDbSavedByObjectVersion
1070
     0
  0
ACAD_PROXY_OBJECT
  5
40
102
{ACAD_REACTORS
330
2A
102
}
330
2A
100
AcDbProxyObject
 90
      499
 91
      501
 93
      404
310
41560B54985E51940902404000000000000E03F0000000000000F9010740501907004050150841D405064090740C02480A1B40
1001
ACAD
1000
AcDbSavedByObjectVersion
1070
     0
  0
XRECORD
  5
37B
102
{ACAD_REACTORS
330
371
102
}
330
371
100
AcDbXrecord
340
0
  0
XRECORD
  5
37A
102
{ACAD_REACTORS
330
371
102
}
330
371
100
AcDbXrecord
 90
        0
  0
XRECORD
  5
391
102
{ACAD_REACTORS
330
371
102
}
330
371
100
AcDbXrecord
1000
DSTYLE
1002
{
1070
   179
 70
     2
1070
   171
 70
     2
1070
   143
 40
25.4
1070
   274
 70
     2
1070
    41
 40
3.0
1070
   141
 40
0.09
1070
    43
 40
0.38
1070
   278
 70
    46
1070
    44
 40
1.5
1070
    42
 40
0.0625
1070
   147
 40
1.5
1070
   272
 70
     4
1070
    73
 70
     1
1070
   172
 70
     0
1070
    74
 70
     1
1070
   283
 70
     1
1070
   340
340
6E
1070
   140
 40
3.0
1070
   284
 70
     0
1070
    78
 70
     0
1002
}
  0
XRECORD
  5
37C
102
{ACAD_REACTORS
330
371
102
}
330
371
100
AcDbXrecord
  1
{72F0E9C4-2C22-4E58-B888-9592A77B5E83}
  0
XRECORD
  5
374
102
{ACAD_REACTORS
330
371
102
}
330
371
100
AcDbXrecord
  1

  0
XRECORD
  5
379
102
{ACAD_REACTORS
330
371
102
}
330
371
100
AcDbXrecord
 90
        4
  0
XRECORD
  5
376
102
{ACAD_REACTORS
330
371
102
}
330
371
100
AcDbXrecord
340
1A
  0
XRECORD
  5
378
102
{ACAD_REACTORS
330
371
102
}
330
371
100
AcDbXrecord
 90
    10269
  0
XRECORD
  5
377
102
{ACAD_REACTORS
330
371
102
}
330
371
100
AcDbXrecord
340
19
  0
XRECORD
  5
37E
102
{ACAD_REACTORS
330
371
102
}
330
371
100
AcDbXrecord
 40
0.0
  0
XRECORD
  5
381
102
{ACAD_REACTORS
330
371
102
}
330
371
100
AcDbXrecord
340
0
  0
XRECORD
  5
387
102
{ACAD_REACTORS
330
371
102
}
330
371
100
AcDbXrecord
 10
0.0
 20
0.0
 30
0.0
  0
XRECORD
  5
383
102
{ACAD_REACTORS
330
371
102
}
330
371
100
AcDbXrecord
 10
0.0
 20
0.0
 30
0.0
  0
XRECORD
  5
386
102
{ACAD_REACTORS
330
371
102
}
330
371
100
AcDbXrecord
 10
0.0
 20
0.0
 30
0.0
  0
XRECORD
  5
384
102
{ACAD_REACTORS
330
371
102
}
330
371
100
AcDbXrecord
 10
0.0
 20
0.0
 30
0.0
  0
XRECORD
  5
385
102
{ACAD_REACTORS
330
371
102
}
330
371
100
AcDbXrecord
 10
0.0
 20
0.0
 30
0.0
  0
XRECORD
  5
382
102
{ACAD_REACTORS
330
371
102
}
330
371
100
AcDbXrecord
 10
0.0
 20
0.0
 30
0.0
  0
XRECORD
  5
37F
102
{ACAD_REACTORS
330
371
102
}
330
371
100
AcDbXrecord
340
0
  0
XRECORD
  5
380
102
{ACAD_REACTORS
330
371
102
}
330
371
100
AcDbXrecord
 70
     0
  0
XRECORD
  5
375
102
{ACAD_REACTORS
330
371
102
}
330
371
100
AcDbXrecord
  1

  0
XRECORD
  5
372
102
{ACAD_REACTORS
330
371
102
}
330
371
100
AcDbXrecord
 90
        1
  0
XRECORD
  5
373
102
{ACAD_REACTORS
330
371
102
}
330
371
100
AcDbXrecord
 90
       70
  0
XRECORD
  5
38A
102
{ACAD_REACTORS
330
371
102
}
330
371
100
AcDbXrecord
340
0
  0
XRECORD
  5
390
102
{ACAD_REACTORS
330
371
102
}
330
371
100
AcDbXrecord
 10
0.0
 20
0.0
 30
0.0
  0
XRECORD
  5
38C
102
{ACAD_REACTORS
330
371
102
}
330
371
100
AcDbXrecord
 10
0.0
 20
0.0
 30
0.0
  0
XRECORD
  5
38F
102
{ACAD_REACTORS
330
371
102
}
330
371
100
AcDbXrecord
 10
0.0
 20
0.0
 30
0.0
  0
XRECORD
  5
38D
102
{ACAD_REACTORS
330
371
102
}
330
371
100
AcDbXrecord
 10
0.0
 20
0.0
 30
0.0
  0
XRECORD
  5
38E
102
{ACAD_REACTORS
330
371
102
}
330
371
100
AcDbXrecord
 10
0.0
 20
0.0
 30
0.0
  0
XRECORD
  5
38B
102
{ACAD_REACTORS
330
371
102
}
330
371
100
AcDbXrecord
 10
0.0
 20
0.0
 30
0.0
  0
XRECORD
  5
388
102
{ACAD_REACTORS
330
371
102
}
330
371
100
AcDbXrecord
340
0
  0
XRECORD
  5
389
102
{ACAD_REACTORS
330
371
102
}
330
371
100
AcDbXrecord
 70
     0
  0
XRECORD
  5
37D
102
{ACAD_REACTORS
330
371
102
}
330
371
100
AcDbXrecord
  1
{FAEB1C32-E019-11D5-929B-00C0DF256EC4}
  0
DICTIONARYVAR
  5
39B
102
{ACAD_REACTORS
330
392
102
}
330
392
100
DictionaryVariables
280
     0
  1
1:1
  0
DICTIONARYVAR
  5
394
102
{ACAD_REACTORS
330
392
102
}
330
392
100
DictionaryVariables
280
     0
  1
Standard
  0
DICTIONARYVAR
  5
393
102
{ACAD_REACTORS
330
392
102
}
330
392
100
DictionaryVariables
280
     0
  1
Standard
  0
DICTIONARYVAR
  5
397
102
{ACAD_REACTORS
330
392
102
}
330
392
100
DictionaryVariables
280
     0
  1
2
  0
DICTIONARYVAR
  5
398
102
{ACAD_REACTORS
330
392
102
}
330
392
100
DictionaryVariables
280
     0
  1
1
  0
DICTIONARYVAR
  5
39C
102
{ACAD_REACTORS
330
392
102
}
330
392
100
DictionaryVariables
280
     0
  1
1
  0
DICTIONARY
  5
39F
330
45
100
AcDbDictionary
280
     1
  3
ACAD_XREC_ROUNDTRIP
360
3A0
  0
DICTIONARY
  5
39D
330
44
100
AcDbDictionary
280
     1
  3
ACAD_XREC_ROUNDTRIP
360
39E
  0
DICTIONARY
  5
3A1
330
46
100
AcDbDictionary
280
     1
  3
ACAD_XREC_ROUNDTRIP
360
3A2
  0
XRECORD
  5
3A0
102
{ACAD_REACTORS
330
39F
102
}
330
39F
100
AcDbXrecord
102
MATERIAL
148
0.0
149
0.0
149
0.0
 93
        0
 94
      127
282
     0
 72
     1
 77
     1
171
     1
175
     1
179
     1
273
     0
  0
XRECORD
  5
39E
102
{ACAD_REACTORS
330
39D
102
}
330
39D
100
AcDbXrecord
102
MATERIAL
148
0.0
149
0.0
149
0.0
 93
        0
 94
      127
282
     0
 72
     1
 77
     1
171
     1
175
     1
179
     1
273
     0
  0
XRECORD
  5
3A2
102
{ACAD_REACTORS
330
3A1
102
}
330
3A1
100
AcDbXrecord
102
MATERIAL
148
0.0
149
0.0
149
0.0
 93
        0
 94
      127
282
     0
 72
     1
 77
     1
171
     1
175
     1
179
     1
273
     0
  0
ENDSEC
  0
EOF
