  0
SECTION
  2
HEADER
  9
$ACADVER
  1
AC1006
  9
$DWGCODEPAGE
  3
ansi_932
  9
$INSBASE
 10
0.0
 20
0.0
 30
0.0
  9
$EXTMIN
 10
492.4999999999999
 20
106.541703138677
  9
$EXTMAX
 10
1337.5
 20
267.5
  9
$LIMMIN
 10
0.0
 20
0.0
  9
$LIMMAX
 10
12.0
 20
9.0
  9
$ORTHOMODE
 70
     0
  9
$REGENMODE
 70
     1
  9
$FILLMODE
 70
     1
  9
$QTEXTMODE
 70
     0
  9
$MIRRTEXT
 70
     1
  9
$DRAGMODE
 70
     2
  9
$LTSCALE
 40
1.0
  9
$OSMODE
 70
    37
  9
$ATTMODE
 70
     1
  9
$TEXTSIZE
 40
0.2
  9
$TRACEWID
 40
0.05
  9
$TEXTSTYLE
  7
STANDARD
  9
$CLAYER
  8
0
  9
$CELTYPE
  6
BYLAYER
  9
$CECOLOR
 62
   256
  9
$DIMSCALE
 40
1.0
  9
$DIMASZ
 40
3.0
  9
$DIMEXO
 40
0.0625
  9
$DIMDLI
 40
0.38
  9
$DIMRND
 40
0.0
  9
$DIMDLE
 40
0.0
  9
$DIMEXE
 40
1.5
  9
$DIMTP
 40
0.0
  9
$DIMTM
 40
0.0
  9
$DIMTXT
 40
3.0
  9
$DIMCEN
 40
0.09
  9
$DIMTSZ
 40
0.0
  9
$DIMTOL
 70
     0
  9
$DIMLIM
 70
     0
  9
$DIMTIH
 70
     1
  9
$DIMTOH
 70
     1
  9
$DIMSE1
 70
     0
  9
$DIMSE2
 70
     0
  9
$DIMTAD
 70
     1
  9
$DIMZIN
 70
     0
  9
$DIMBLK
  1

  9
$DIMASO
 70
     1
  9
$DIMSHO
 70
     1
  9
$DIMPOST
  1

  9
$DIMAPOST
  1

  9
$DIMALT
 70
     0
  9
$DIMALTD
 70
     2
  9
$DIMALTF
 40
25.4
  9
$DIMLFAC
 40
1.0
  9
$DIMTOFL
 70
     0
  9
$DIMTVP
 40
0.0
  9
$DIMTIX
 70
     0
  9
$DIMSOXD
 70
     0
  9
$DIMSAH
 70
     0
  9
$DIMBLK1
  1

  9
$DIMBLK2
  1

  9
$LUNITS
 70
     2
  9
$LUPREC
 70
     4
  9
$SKETCHINC
 40
0.1
  9
$FILLETRAD
 40
0.5
  9
$AUNITS
 70
     0
  9
$AUPREC
 70
     0
  9
$MENU
  1
.
  9
$ELEVATION
 40
0.0
  9
$THICKNESS
 40
0.0
  9
$LIMCHECK
 70
     0
  9
$CHAMFERA
 40
0.0
  9
$CHAMFERB
 40
0.0
  9
$SKPOLY
 70
     0
  9
$TDCREATE
 40
2460389.71925831
  9
$TDUPDATE
 40
2460389.719258565
  9
$TDINDWG
 40
0.0000000116
  9
$TDUSRTIMER
 40
0.0000000116
  9
$USRTIMER
 70
     1
  9
$ANGBASE
 50
0.0
  9
$ANGDIR
 70
     0
  9
$PDMODE
 70
     0
  9
$PDSIZE
 40
0.0
  9
$PLINEWID
 40
0.0
  9
$COORDS
 70
     1
  9
$SPLFRAME
 70
     0
  9
$SPLINETYPE
 70
     6
  9
$SPLINESEGS
 70
     8
  9
$ATTDIA
 70
     0
  9
$ATTREQ
 70
     1
  9
$HANDLING
 70
     1
  9
$HANDSEED
  5
186
  9
$SURFTAB1
 70
     6
  9
$SURFTAB2
 70
     6
  9
$SURFTYPE
 70
     6
  9
$SURFU
 70
     6
  9
$SURFV
 70
     6
  9
$UCSNAME
  2

  9
$UCSORG
 10
0.0
 20
0.0
 30
0.0
  9
$UCSXDIR
 10
1.0
 20
0.0
 30
0.0
  9
$UCSYDIR
 10
0.0
 20
1.0
 30
0.0
  9
$USERI1
 70
     0
  9
$USERI2
 70
     0
  9
$USERI3
 70
     0
  9
$USERI4
 70
     0
  9
$USERI5
 70
     0
  9
$USERR1
 40
0.0
  9
$USERR2
 40
0.0
  9
$USERR3
 40
0.0
  9
$USERR4
 40
0.0
  9
$USERR5
 40
0.0
  9
$WORLDVIEW
 70
     1
  0
ENDSEC
  0
SECTION
  2
TABLES
  0
TABLE
  2
VPORT
 70
     1
  0
VPORT
  2
*ACTIVE
 70
     0
 10
0.0
 20
0.0
 11
1.0
 21
1.0
 12
915.0
 22
187.0208515693385
 13
0.0
 23
0.0
 14
0.5
 24
0.5
 15
0.5
 25
0.5
 16
0.0
 26
0.0
 36
1.0
 17
0.0
 27
0.0
 37
0.0
 40
160.958296861323
 41
1.6
 42
50.0
 43
0.0
 44
0.0
 50
0.0
 51
0.0
 71
     0
 72
   100
 73
     1
 74
     3
 75
     0
 76
     0
 77
     0
 78
     0
  0
ENDTAB
  0
TABLE
  2
LTYPE
 70
     2
  0
LTYPE
  2
CONTINUOUS
 70
     0
  3
Solid line
 72
    65
 73
     0
 40
0.0
  0
LTYPE
  2
CENTER
 70
     0
  3

 72
    65
 73
     0
 40
0.0
  0
ENDTAB
  0
TABLE
  2
LAYER
 70
     1
  0
LAYER
  2
0
 70
     0
 62
     7
  6
CONTINUOUS
  0
ENDTAB
  0
TABLE
  2
STYLE
 70
     2
  0
STYLE
  2
STANDARD
 70
     0
 40
0.0
 41
1.0
 50
0.0
 71
     0
 42
0.2
  3
txt
  4

  0
STYLE
  2
ＭＳ_ゴシック
 70
     0
 40
0.0
 41
1.0
 50
0.0
 71
     0
 42
0.2
  3
ＭＳ ゴシック.shx
  4

  0
ENDTAB
  0
TABLE
  2
VIEW
 70
     0
  0
ENDTAB
  0
TABLE
  2
UCS
 70
     0
  0
ENDTAB
  0
ENDSEC
  0
SECTION
  2
BLOCKS
  0
ENDSEC
  0
SECTION
  2
ENTITIES
  0
TEXT
  5
6F
  8
0
  6
CONTINUOUS
 62
     4
 10
915.1431786920094
 20
105.4015880955358
 30
0.0
 40
10.0
  1
KFEKH-75L
  0
LINE
  5
70
  8
0
  6
CENTER
 62
     1
 10
1272.349999999999
 20
137.5
 30
0.0
 11
1272.349999999999
 21
262.5
 31
0.0
  0
LINE
  5
72
  8
0
  6
CENTER
 62
     1
 10
562.6500000000004
 20
137.5
 30
0.0
 11
562.6500000000004
 21
267.5
 31
0.0
  0
LINE
  5
73
  8
0
  6
CENTER
 62
     1
 10
1207.5
 20
202.5
 30
0.0
 11
1337.5
 21
202.5
 31
0.0
  0
LINE
  5
74
  8
0
  6
CENTER
 62
     1
 10
492.4999999999999
 20
202.4999999999999
 30
0.0
 11
627.4999999999999
 21
202.4999999999999
 31
0.0
  0
LINE
  5
75
  8
0
  6
CENTER
 62
     1
 10
1140.0
 20
202.5
 30
0.0
 11
690.0
 21
202.5
 31
0.0
  0
LINE
  5
76
  8
0
  6
CONTINUOUS
 62
     7
 10
805.25
 20
204.9999999999988
 30
0.0
 11
806.2500000000001
 21
204.9912731322081
 31
0.0
  0
LINE
  5
77
  8
0
  6
CONTINUOUS
 62
     7
 10
806.25
 20
204.991273132209
 30
0.0
 11
806.25
 21
200.0087268677883
 31
0.0
  0
LINE
  5
78
  8
0
  6
CONTINUOUS
 62
     7
 10
805.25
 20
199.9999999999947
 30
0.0
 11
806.25
 21
200.0087268677854
 31
0.0
  0
LINE
  5
79
  8
0
  6
CONTINUOUS
 62
     7
 10
705.7500000000001
 20
204.9999999999996
 30
0.0
 11
805.25
 21
204.9999999999996
 31
0.0
  0
LINE
  5
7A
  8
0
  6
CONTINUOUS
 62
     7
 10
705.7500000000001
 20
200.0
 30
0.0
 11
805.25
 21
200.0
 31
0.0
  0
LINE
  5
7B
  8
0
  6
CONTINUOUS
 62
     7
 10
705.7500000000001
 20
200.0
 30
0.0
 11
705.7500000000001
 21
204.9999999999996
 31
0.0
  0
LINE
  5
7C
  8
0
  6
CONTINUOUS
 62
     7
 10
806.25
 20
200.0087268677883
 30
0.0
 11
806.25
 21
177.3843729396292
 31
0.0
  0
LINE
  5
7D
  8
0
  6
CONTINUOUS
 62
     7
 10
705.7500000000001
 20
177.3669205331919
 30
0.0
 11
705.7500000000001
 21
200.0
 31
0.0
  0
LINE
  5
7E
  8
0
  6
CONTINUOUS
 62
     7
 10
806.25
 20
227.6156270603709
 30
0.0
 11
806.25
 21
204.991273132209
 31
0.0
  0
LINE
  5
7F
  8
0
  6
CONTINUOUS
 62
     7
 10
705.7500000000001
 20
204.9999999999996
 30
0.0
 11
705.7500000000001
 21
227.6330794668082
 31
0.0
  0
ARC
  5
80
  8
0
  6
CONTINUOUS
 62
     7
 10
732.7499999999999
 20
165.8223746890452
 30
0.0
 40
3.000000000000074
 50
0.00000000000108
 51
74.99999999999898
  0
LINE
  5
81
  8
0
  6
CONTINUOUS
 62
     7
 10
729.3794095225512
 20
169.831350226724
 30
0.0
 11
733.5264571353075
 21
168.7201521679125
 31
0.0
  0
LINE
  5
82
  8
0
  6
CONTINUOUS
 62
     7
 10
728.75
 20
169.3483873135794
 30
0.0
 11
728.7506239923717
 21
169.3731231151535
 31
0.0
  0
LINE
  5
83
  8
0
  6
CONTINUOUS
 62
     7
 10
728.7506239923717
 20
169.3731231151535
 30
0.0
 11
728.7524883052645
 21
169.3978792276559
 31
0.0
  0
LINE
  5
84
  8
0
  6
CONTINUOUS
 62
     7
 10
728.7524883052645
 20
169.3978792276559
 30
0.0
 11
728.7555814423436
 21
169.4225711934201
 31
0.0
  0
LINE
  5
85
  8
0
  6
CONTINUOUS
 62
     7
 10
728.7555814423436
 20
169.4225711934201
 30
0.0
 11
728.7598919072747
 21
169.4471145547795
 31
0.0
  0
LINE
  5
86
  8
0
  6
CONTINUOUS
 62
     7
 10
728.7598919072747
 20
169.4471145547795
 30
0.0
 11
728.7654082037236
 21
169.4714248540676
 31
0.0
  0
LINE
  5
87
  8
0
  6
CONTINUOUS
 62
     7
 10
728.7654082037236
 20
169.4714248540676
 30
0.0
 11
728.7721188353557
 21
169.4954176336178
 31
0.0
  0
LINE
  5
88
  8
0
  6
CONTINUOUS
 62
     7
 10
728.7721188353557
 20
169.4954176336178
 30
0.0
 11
728.780012305837
 21
169.5190084357636
 31
0.0
  0
LINE
  5
89
  8
0
  6
CONTINUOUS
 62
     7
 10
728.780012305837
 20
169.5190084357636
 30
0.0
 11
728.7891165558866
 21
169.5422251856732
 31
0.0
  0
LINE
  5
8A
  8
0
  6
CONTINUOUS
 62
     7
 10
728.7891165558866
 20
169.5422251856732
 30
0.0
 11
728.7994273289833
 21
169.5650603873112
 31
0.0
  0
LINE
  5
8B
  8
0
  6
CONTINUOUS
 62
     7
 10
728.7994273289833
 20
169.5650603873112
 30
0.0
 11
728.8109047945553
 21
169.5874314368803
 31
0.0
  0
LINE
  5
8C
  8
0
  6
CONTINUOUS
 62
     7
 10
728.8109047945553
 20
169.5874314368803
 30
0.0
 11
728.8235091220312
 21
169.6092557305838
 31
0.0
  0
LINE
  5
8D
  8
0
  6
CONTINUOUS
 62
     7
 10
728.8235091220312
 20
169.6092557305838
 30
0.0
 11
728.8372004808394
 21
169.6304506646244
 31
0.0
  0
LINE
  5
8E
  8
0
  6
CONTINUOUS
 62
     7
 10
728.8372004808394
 20
169.6304506646244
 30
0.0
 11
728.8519390404085
 21
169.6509336352053
 31
0.0
  0
LINE
  5
8F
  8
0
  6
CONTINUOUS
 62
     7
 10
728.8519390404085
 20
169.6509336352053
 30
0.0
 11
728.8676849701668
 21
169.6706220385295
 31
0.0
  0
LINE
  5
90
  8
0
  6
CONTINUOUS
 62
     7
 10
728.8676849701668
 20
169.6706220385295
 30
0.0
 11
728.8840686887381
 21
169.6890925446893
 31
0.0
  0
LINE
  5
91
  8
0
  6
CONTINUOUS
 62
     7
 10
728.8840686887381
 20
169.6890925446893
 30
0.0
 11
728.9014444713455
 21
169.7068137569501
 31
0.0
  0
LINE
  5
92
  8
0
  6
CONTINUOUS
 62
     7
 10
728.9014444713455
 20
169.7068137569501
 30
0.0
 11
728.9197451066025
 21
169.7237202570543
 31
0.0
  0
LINE
  5
93
  8
0
  6
CONTINUOUS
 62
     7
 10
728.9197451066025
 20
169.7237202570543
 30
0.0
 11
728.9389033831225
 21
169.7397466267444
 31
0.0
  0
LINE
  5
94
  8
0
  6
CONTINUOUS
 62
     7
 10
728.9389033831225
 20
169.7397466267444
 30
0.0
 11
728.9588520895186
 21
169.754827447763
 31
0.0
  0
LINE
  5
95
  8
0
  6
CONTINUOUS
 62
     7
 10
728.9588520895186
 20
169.754827447763
 30
0.0
 11
728.9795240144043
 21
169.7688973018526
 31
0.0
  0
LINE
  5
96
  8
0
  6
CONTINUOUS
 62
     7
 10
728.9795240144043
 20
169.7688973018526
 30
0.0
 11
729.0008519463928
 21
169.7818907707556
 31
0.0
  0
LINE
  5
97
  8
0
  6
CONTINUOUS
 62
     7
 10
729.0008519463928
 20
169.7818907707556
 30
0.0
 11
729.0219933274249
 21
169.793358321966
 31
0.0
  0
LINE
  5
98
  8
0
  6
CONTINUOUS
 62
     7
 10
729.0219933274249
 20
169.793358321966
 30
0.0
 11
729.0437686720475
 21
169.8038325562759
 31
0.0
  0
LINE
  5
99
  8
0
  6
CONTINUOUS
 62
     7
 10
729.0437686720475
 20
169.8038325562759
 30
0.0
 11
729.066095315305
 21
169.8132786436249
 31
0.0
  0
LINE
  5
9A
  8
0
  6
CONTINUOUS
 62
     7
 10
729.066095315305
 20
169.8132786436249
 30
0.0
 11
729.0888905922419
 21
169.821661753953
 31
0.0
  0
LINE
  5
9B
  8
0
  6
CONTINUOUS
 62
     7
 10
729.0888905922419
 20
169.821661753953
 30
0.0
 11
729.1120718379025
 21
169.8289470571999
 31
0.0
  0
LINE
  5
9C
  8
0
  6
CONTINUOUS
 62
     7
 10
729.1120718379025
 20
169.8289470571999
 30
0.0
 11
729.1355563873311
 21
169.8350997233054
 31
0.0
  0
LINE
  5
9D
  8
0
  6
CONTINUOUS
 62
     7
 10
729.1355563873311
 20
169.8350997233054
 30
0.0
 11
729.1592615755726
 21
169.8400849222094
 31
0.0
  0
LINE
  5
9E
  8
0
  6
CONTINUOUS
 62
     7
 10
729.1592615755726
 20
169.8400849222094
 30
0.0
 11
729.1824255480723
 21
169.8437871914956
 31
0.0
  0
LINE
  5
9F
  8
0
  6
CONTINUOUS
 62
     7
 10
729.1824255480723
 20
169.8437871914956
 30
0.0
 11
729.2058195644092
 21
169.8463962110173
 31
0.0
  0
LINE
  5
A0
  8
0
  6
CONTINUOUS
 62
     7
 10
729.2058195644092
 20
169.8463962110173
 30
0.0
 11
729.2293599487987
 21
169.8479102936938
 31
0.0
  0
LINE
  5
A1
  8
0
  6
CONTINUOUS
 62
     7
 10
729.2293599487987
 20
169.8479102936938
 30
0.0
 11
729.2529630254561
 21
169.8483277524442
 31
0.0
  0
LINE
  5
A2
  8
0
  6
CONTINUOUS
 62
     7
 10
729.2529630254561
 20
169.8483277524442
 30
0.0
 11
729.2765451185969
 21
169.847646900188
 31
0.0
  0
LINE
  5
A3
  8
0
  6
CONTINUOUS
 62
     7
 10
729.2765451185969
 20
169.847646900188
 30
0.0
 11
729.3000225524369
 21
169.8458660498443
 31
0.0
  0
LINE
  5
A4
  8
0
  6
CONTINUOUS
 62
     7
 10
729.3000225524369
 20
169.8458660498443
 30
0.0
 11
729.3233116511914
 21
169.8429835143327
 31
0.0
  0
LINE
  5
A5
  8
0
  6
CONTINUOUS
 62
     7
 10
729.3233116511914
 20
169.8429835143327
 30
0.0
 11
729.3421627523229
 21
169.8398193219149
 31
0.0
  0
LINE
  5
A6
  8
0
  6
CONTINUOUS
 62
     7
 10
729.3421627523229
 20
169.8398193219149
 30
0.0
 11
729.3608765747905
 21
169.8359381074501
 31
0.0
  0
LINE
  5
A7
  8
0
  6
CONTINUOUS
 62
     7
 10
729.3608765747905
 20
169.8359381074501
 30
0.0
 11
729.3794095225512
 21
169.8313502267239
 31
0.0
  0
LINE
  5
A8
  8
0
  6
CONTINUOUS
 62
     7
 10
728.75
 20
149.132321102965
 30
0.0
 11
728.75
 21
169.3483873135794
 31
0.0
  0
ARC
  5
A9
  8
0
  6
CONTINUOUS
 62
     7
 10
729.2514931741201
 20
150.5648461691201
 30
0.0
 40
1.576786142865104
 50
257.9858387307083
 51
274.6532181084488
  0
LINE
  5
AA
  8
0
  6
CONTINUOUS
 62
     7
 10
728.9232797077407
 20
149.0225976609935
 30
0.0
 11
728.8190285822124
 21
149.0582353456662
 31
0.0
  0
LINE
  5
AB
  8
0
  6
CONTINUOUS
 62
     7
 10
728.8190285822124
 20
149.0582353456662
 30
0.0
 11
728.75
 21
149.132321102965
 31
0.0
  0
LINE
  5
AC
  8
0
  6
CONTINUOUS
 62
     7
 10
729.3794095225512
 20
148.9932571808234
 30
0.0
 11
733.5264571353075
 21
149.3264444480463
 31
0.0
  0
LINE
  5
AD
  8
0
  6
CONTINUOUS
 62
     7
 10
735.75
 20
150.424868265202
 30
0.0
 11
735.7347712399273
 21
150.2950607153731
 31
0.0
  0
LINE
  5
AE
  8
0
  6
CONTINUOUS
 62
     7
 10
735.7347712399273
 20
150.2950607153731
 30
0.0
 11
735.6891623438926
 21
150.169168289636
 31
0.0
  0
LINE
  5
AF
  8
0
  6
CONTINUOUS
 62
     7
 10
735.6891623438926
 20
150.169168289636
 30
0.0
 11
735.6132893881705
 21
150.048758572162
 31
0.0
  0
LINE
  5
B0
  8
0
  6
CONTINUOUS
 62
     7
 10
735.6132893881705
 20
150.048758572162
 30
0.0
 11
735.5069092252415
 21
149.9350358968019
 31
0.0
  0
LINE
  5
B1
  8
0
  6
CONTINUOUS
 62
     7
 10
735.5069092252415
 20
149.9350358968019
 30
0.0
 11
735.3693438646038
 21
149.8280378279767
 31
0.0
  0
ARC
  5
B2
  8
0
  6
CONTINUOUS
 62
     7
 10
733.3848314175626
 20
153.4830261476525
 30
0.0
 40
4.158993780883453
 50
271.9514636027781
 51
298.500190160149
  0
LINE
  5
B3
  8
0
  6
CONTINUOUS
 62
     7
 10
735.75
 20
150.424868265202
 30
0.0
 11
735.75
 21
165.8223746890453
 31
0.0
  0
LINE
  5
B4
  8
0
  6
CONTINUOUS
 62
     7
 10
705.7500000000001
 20
147.8950618716187
 30
0.0
 11
705.7500000000001
 21
177.3669205331919
 31
0.0
  0
LINE
  5
B5
  8
0
  6
CONTINUOUS
 62
     7
 10
806.25
 20
177.3843729396292
 30
0.0
 11
806.25
 21
148.8949095667751
 31
0.0
  0
ARC
  5
B6
  8
0
  6
CONTINUOUS
 62
     7
 10
733.3549140365822
 20
251.4655407028577
 30
0.0
 40
4.211509943587108
 50
60.62532691892636
 51
87.66558419386563
  0
LINE
  5
B7
  8
0
  6
CONTINUOUS
 62
     7
 10
735.4207379809303
 20
255.1355798628518
 30
0.0
 11
735.5350304120685
 21
255.0385043842365
 31
0.0
  0
LINE
  5
B8
  8
0
  6
CONTINUOUS
 62
     7
 10
735.5350304120685
 20
255.0385043842365
 30
0.0
 11
735.6272370888933
 21
254.932799009646
 31
0.0
  0
LINE
  5
B9
  8
0
  6
CONTINUOUS
 62
     7
 10
735.6272370888933
 20
254.932799009646
 30
0.0
 11
735.6953926081808
 21
254.8179608275237
 31
0.0
  0
LINE
  5
BA
  8
0
  6
CONTINUOUS
 62
     7
 10
735.6953926081808
 20
254.8179608275237
 30
0.0
 11
735.7363366275466
 21
254.6982915251311
 31
0.0
  0
LINE
  5
BB
  8
0
  6
CONTINUOUS
 62
     7
 10
735.7363366275466
 20
254.6982915251311
 30
0.0
 11
735.75
 21
254.575131734798
 31
0.0
  0
LINE
  5
BC
  8
0
  6
CONTINUOUS
 62
     7
 10
733.5264571353075
 20
255.6735555519537
 30
0.0
 11
729.3794095225512
 21
256.0067428191767
 31
0.0
  0
LINE
  5
BD
  8
0
  6
CONTINUOUS
 62
     7
 10
728.75
 20
255.8676788970351
 30
0.0
 11
728.8235091220312
 21
255.9438797414122
 31
0.0
  0
LINE
  5
BE
  8
0
  6
CONTINUOUS
 62
     7
 10
728.8235091220312
 20
255.9438797414122
 30
0.0
 11
728.9197451066025
 21
255.9765092948433
 31
0.0
  0
ARC
  5
BF
  8
0
  6
CONTINUOUS
 62
     7
 10
729.2508161582481
 20
254.4524110639346
 30
0.0
 40
1.559642093140807
 50
85.2705619961306
 51
102.2556322679899
  0
LINE
  5
C0
  8
0
  6
CONTINUOUS
 62
     7
 10
728.75
 20
235.6516126864206
 30
0.0
 11
728.75
 21
255.8676788970351
 31
0.0
  0
LINE
  5
C1
  8
0
  6
CONTINUOUS
 62
     7
 10
729.3794095225512
 20
235.1686497732761
 30
0.0
 11
729.3569111992814
 21
235.1631887171571
 31
0.0
  0
LINE
  5
C2
  8
0
  6
CONTINUOUS
 62
     7
 10
729.3569111992814
 20
235.1631887171571
 30
0.0
 11
729.3340989772634
 21
235.1587700080937
 31
0.0
  0
LINE
  5
C3
  8
0
  6
CONTINUOUS
 62
     7
 10
729.3340989772634
 20
235.1587700080937
 30
0.0
 11
729.3110528988437
 21
235.1554027230291
 31
0.0
  0
LINE
  5
C4
  8
0
  6
CONTINUOUS
 62
     7
 10
729.3110528988437
 20
235.1554027230291
 30
0.0
 11
729.2878530063689
 21
235.1530959389062
 31
0.0
  0
LINE
  5
C5
  8
0
  6
CONTINUOUS
 62
     7
 10
729.2878530063689
 20
235.1530959389062
 30
0.0
 11
729.2645793421852
 21
235.1518587326681
 31
0.0
  0
LINE
  5
C6
  8
0
  6
CONTINUOUS
 62
     7
 10
729.2645793421852
 20
235.1518587326681
 30
0.0
 11
729.2413119486393
 21
235.1517001812579
 31
0.0
  0
LINE
  5
C7
  8
0
  6
CONTINUOUS
 62
     7
 10
729.2413119486393
 20
235.1517001812579
 30
0.0
 11
729.2181308680775
 21
235.1526293616186
 31
0.0
  0
LINE
  5
C8
  8
0
  6
CONTINUOUS
 62
     7
 10
729.2181308680775
 20
235.1526293616186
 30
0.0
 11
729.1950263882047
 21
235.1546558342627
 31
0.0
  0
LINE
  5
C9
  8
0
  6
CONTINUOUS
 62
     7
 10
729.1950263882047
 20
235.1546558342627
 30
0.0
 11
729.1719859264213
 21
235.1577696289382
 31
0.0
  0
LINE
  5
CA
  8
0
  6
CONTINUOUS
 62
     7
 10
729.1719859264213
 20
235.1577696289382
 30
0.0
 11
729.1490866022291
 21
235.1619504381369
 31
0.0
  0
LINE
  5
CB
  8
0
  6
CONTINUOUS
 62
     7
 10
729.1490866022291
 20
235.1619504381369
 30
0.0
 11
729.1264055351301
 21
235.1671779543503
 31
0.0
  0
LINE
  5
CC
  8
0
  6
CONTINUOUS
 62
     7
 10
729.1264055351301
 20
235.1671779543503
 30
0.0
 11
729.1040198446264
 21
235.1734318700701
 31
0.0
  0
LINE
  5
CD
  8
0
  6
CONTINUOUS
 62
     7
 10
729.1040198446264
 20
235.1734318700701
 30
0.0
 11
729.0820066502197
 21
235.1806918777878
 31
0.0
  0
LINE
  5
CE
  8
0
  6
CONTINUOUS
 62
     7
 10
729.0820066502197
 20
235.1806918777878
 30
0.0
 11
729.060443071412
 21
235.1889376699951
 31
0.0
  0
LINE
  5
CF
  8
0
  6
CONTINUOUS
 62
     7
 10
729.060443071412
 20
235.1889376699951
 30
0.0
 11
729.0392525631621
 21
235.1982092380228
 31
0.0
  0
LINE
  5
D0
  8
0
  6
CONTINUOUS
 62
     7
 10
729.0392525631621
 20
235.1982092380228
 30
0.0
 11
729.0184904390325
 21
235.2084726073569
 31
0.0
  0
LINE
  5
D1
  8
0
  6
CONTINUOUS
 62
     7
 10
729.0184904390325
 20
235.2084726073569
 30
0.0
 11
728.998218816953
 21
235.2196837010993
 31
0.0
  0
LINE
  5
D2
  8
0
  6
CONTINUOUS
 62
     7
 10
728.998218816953
 20
235.2196837010993
 30
0.0
 11
728.9784998148541
 21
235.2317984423519
 31
0.0
  0
LINE
  5
D3
  8
0
  6
CONTINUOUS
 62
     7
 10
728.9784998148541
 20
235.2317984423519
 30
0.0
 11
728.9593955506657
 21
235.2447727542165
 31
0.0
  0
LINE
  5
D4
  8
0
  6
CONTINUOUS
 62
     7
 10
728.9593955506657
 20
235.2447727542165
 30
0.0
 11
728.9409681423177
 21
235.2585625597951
 31
0.0
  0
LINE
  5
D5
  8
0
  6
CONTINUOUS
 62
     7
 10
728.9409681423177
 20
235.2585625597951
 30
0.0
 11
728.9232797077407
 21
235.2731237821895
 31
0.0
  0
LINE
  5
D6
  8
0
  6
CONTINUOUS
 62
     7
 10
728.9232797077407
 20
235.2731237821895
 30
0.0
 11
728.9059222095342
 21
235.2888453448272
 31
0.0
  0
LINE
  5
D7
  8
0
  6
CONTINUOUS
 62
     7
 10
728.9059222095342
 20
235.2888453448272
 30
0.0
 11
728.8893137377197
 21
235.3053806725076
 31
0.0
  0
LINE
  5
D8
  8
0
  6
CONTINUOUS
 62
     7
 10
728.8893137377197
 20
235.3053806725076
 30
0.0
 11
728.8734977725167
 21
235.3226682270618
 31
0.0
  0
LINE
  5
D9
  8
0
  6
CONTINUOUS
 62
     7
 10
728.8734977725167
 20
235.3226682270618
 30
0.0
 11
728.8585177941449
 21
235.3406464703208
 31
0.0
  0
LINE
  5
DA
  8
0
  6
CONTINUOUS
 62
     7
 10
728.8585177941449
 20
235.3406464703208
 30
0.0
 11
728.8444172828239
 21
235.3592538641155
 31
0.0
  0
LINE
  5
DB
  8
0
  6
CONTINUOUS
 62
     7
 10
728.8444172828239
 20
235.3592538641155
 30
0.0
 11
728.8312397187732
 21
235.378428870277
 31
0.0
  0
LINE
  5
DC
  8
0
  6
CONTINUOUS
 62
     7
 10
728.8312397187732
 20
235.378428870277
 30
0.0
 11
728.8190285822124
 21
235.3981099506363
 31
0.0
  0
LINE
  5
DD
  8
0
  6
CONTINUOUS
 62
     7
 10
728.8190285822124
 20
235.3981099506363
 30
0.0
 11
728.8073889339739
 21
235.4190507002848
 31
0.0
  0
LINE
  5
DE
  8
0
  6
CONTINUOUS
 62
     7
 10
728.8073889339739
 20
235.4190507002848
 30
0.0
 11
728.7967636865618
 21
235.4405488750676
 31
0.0
  0
LINE
  5
DF
  8
0
  6
CONTINUOUS
 62
     7
 10
728.7967636865618
 20
235.4405488750676
 30
0.0
 11
728.787175800723
 21
235.4625306672935
 31
0.0
  0
LINE
  5
E0
  8
0
  6
CONTINUOUS
 62
     7
 10
728.787175800723
 20
235.4625306672935
 30
0.0
 11
728.7786482372052
 21
235.4849222692713
 31
0.0
  0
LINE
  5
E1
  8
0
  6
CONTINUOUS
 62
     7
 10
728.7786482372052
 20
235.4849222692713
 30
0.0
 11
728.7712039567555
 21
235.5076498733099
 31
0.0
  0
LINE
  5
E2
  8
0
  6
CONTINUOUS
 62
     7
 10
728.7712039567555
 20
235.5076498733099
 30
0.0
 11
728.7648659201211
 21
235.5306396717181
 31
0.0
  0
LINE
  5
E3
  8
0
  6
CONTINUOUS
 62
     7
 10
728.7648659201211
 20
235.5306396717181
 30
0.0
 11
728.7596570880493
 21
235.5538178568046
 31
0.0
  0
LINE
  5
E4
  8
0
  6
CONTINUOUS
 62
     7
 10
728.7596570880493
 20
235.5538178568046
 30
0.0
 11
728.7554408472248
 21
235.5780704661169
 31
0.0
  0
LINE
  5
E5
  8
0
  6
CONTINUOUS
 62
     7
 10
728.7554408472248
 20
235.5780704661169
 30
0.0
 11
728.7524220366317
 21
235.6025086125398
 31
0.0
  0
LINE
  5
E6
  8
0
  6
CONTINUOUS
 62
     7
 10
728.7524220366317
 20
235.6025086125398
 30
0.0
 11
728.7506064797352
 21
235.6270500884991
 31
0.0
  0
LINE
  5
E7
  8
0
  6
CONTINUOUS
 62
     7
 10
728.7506064797352
 20
235.6270500884991
 30
0.0
 11
728.75
 21
235.6516126864206
 31
0.0
  0
LINE
  5
E8
  8
0
  6
CONTINUOUS
 62
     7
 10
733.5264571353075
 20
236.2798478320875
 30
0.0
 11
729.3794095225512
 21
235.1686497732761
 31
0.0
  0
ARC
  5
E9
  8
0
  6
CONTINUOUS
 62
     7
 10
732.7496346013443
 20
239.1779056912047
 30
0.0
 40
3.000365411756365
 50
285.00535421617
 51
359.9946457838296
  0
LINE
  5
EA
  8
0
  6
CONTINUOUS
 62
     7
 10
735.75
 20
239.1776253109548
 30
0.0
 11
735.75
 21
254.575131734798
 31
0.0
  0
LINE
  5
EB
  8
0
  6
CONTINUOUS
 62
     7
 10
705.7500000000001
 20
227.6330794668082
 30
0.0
 11
705.7500000000001
 21
257.1049381283814
 31
0.0
  0
LINE
  5
EC
  8
0
  6
CONTINUOUS
 62
     7
 10
806.25
 20
256.105090433225
 30
0.0
 11
806.25
 21
227.6156270603709
 31
0.0
  0
LINE
  5
ED
  8
0
  6
CONTINUOUS
 62
     7
 10
728.75
 20
153.1955881451415
 30
0.0
 11
728.8246428403573
 21
153.1094440597695
 31
0.0
  0
LINE
  5
EE
  8
0
  6
CONTINUOUS
 62
     7
 10
728.8246428403573
 20
153.1094440597695
 30
0.0
 11
728.9224176252454
 21
153.0730736248312
 31
0.0
  0
ARC
  5
EF
  8
0
  6
CONTINUOUS
 62
     7
 10
729.2437079078485
 20
154.4314416857624
 30
0.0
 40
1.395847855123542
 50
256.6925827686066
 51
275.5789961144651
  0
ARC
  5
F0
  8
0
  6
CONTINUOUS
 62
     7
 10
733.3394960373344
 20
157.2249192345784
 30
0.0
 40
3.788704229322194
 50
272.8285222362923
 51
302.5490846815006
  0
LINE
  5
F1
  8
0
  6
CONTINUOUS
 62
     7
 10
735.3779020199186
 20
154.0313036053192
 30
0.0
 11
735.5164976432349
 21
154.1589896004968
 31
0.0
  0
LINE
  5
F2
  8
0
  6
CONTINUOUS
 62
     7
 10
735.5164976432349
 20
154.1589896004968
 30
0.0
 11
735.620462816504
 21
154.2916550977161
 31
0.0
  0
LINE
  5
F3
  8
0
  6
CONTINUOUS
 62
     7
 10
735.620462816504
 20
154.2916550977161
 30
0.0
 11
735.6925052982834
 21
154.4286305402464
 31
0.0
  0
LINE
  5
F4
  8
0
  6
CONTINUOUS
 62
     7
 10
735.6925052982834
 20
154.4286305402464
 30
0.0
 11
735.7356456695301
 21
154.5714827792161
 31
0.0
  0
LINE
  5
F5
  8
0
  6
CONTINUOUS
 62
     7
 10
735.7356456695301
 20
154.5714827792161
 30
0.0
 11
735.75
 21
154.718580661053
 31
0.0
  0
LINE
  5
F6
  8
0
  6
CONTINUOUS
 62
     7
 10
729.3794095225513
 20
153.0422058143496
 30
0.0
 11
733.5264571353076
 21
153.4408307994162
 31
0.0
  0
ARC
  5
F7
  8
0
  6
CONTINUOUS
 62
     7
 10
729.2441720733377
 20
250.5534738445284
 30
0.0
 40
1.410817064030213
 50
84.49932166363058
 51
102.9926908547572
  0
LINE
  5
F8
  8
0
  6
CONTINUOUS
 62
     7
 10
728.9269826531339
 20
251.9281722332194
 30
0.0
 11
728.8223262144191
 21
251.8893784248181
 31
0.0
  0
LINE
  5
F9
  8
0
  6
CONTINUOUS
 62
     7
 10
728.8223262144191
 20
251.8893784248181
 30
0.0
 11
728.7506984689651
 21
251.8132304768776
 31
0.0
  0
LINE
  5
FA
  8
0
  6
CONTINUOUS
 62
     7
 10
728.7506984689651
 20
251.8132304768776
 30
0.0
 11
728.75
 21
251.8044118548585
 31
0.0
  0
LINE
  5
FB
  8
0
  6
CONTINUOUS
 62
     7
 10
733.5264571353077
 20
251.5591692005838
 30
0.0
 11
729.3794095225514
 21
251.9577941856504
 31
0.0
  0
LINE
  5
FC
  8
0
  6
CONTINUOUS
 62
     7
 10
735.75
 20
250.281419338947
 30
0.0
 11
735.7343510893263
 21
250.4347956060889
 31
0.0
  0
LINE
  5
FD
  8
0
  6
CONTINUOUS
 62
     7
 10
735.7343510893263
 20
250.4347956060889
 30
0.0
 11
735.6873352451611
 21
250.5835211777864
 31
0.0
  0
LINE
  5
FE
  8
0
  6
CONTINUOUS
 62
     7
 10
735.6873352451611
 20
250.5835211777864
 30
0.0
 11
735.6088487992886
 21
250.7257467905225
 31
0.0
  0
LINE
  5
FF
  8
0
  6
CONTINUOUS
 62
     7
 10
735.6088487992886
 20
250.7257467905225
 30
0.0
 11
735.50622403921
 21
250.8519371435958
 31
0.0
  0
LINE
  5
100
  8
0
  6
CONTINUOUS
 62
     7
 10
735.50622403921
 20
250.8519371435958
 30
0.0
 11
735.3841252507423
 21
250.963525556963
 31
0.0
  0
LINE
  5
101
  8
0
  6
CONTINUOUS
 62
     7
 10
735.3841252507423
 20
250.963525556963
 30
0.0
 11
735.2377136315644
 21
251.0680872521741
 31
0.0
  0
ARC
  5
102
  8
0
  6
CONTINUOUS
 62
     7
 10
733.236681059309
 20
247.3222768911278
 30
0.0
 40
4.246790154475303
 50
61.88862113379331
 51
86.087431630448
  0
LINE
  5
103
  8
0
  6
CONTINUOUS
 62
     7
 10
879.25
 20
253.0
 30
0.0
 11
879.25
 21
202.5
 31
0.0
  0
LINE
  5
104
  8
0
  6
CONTINUOUS
 62
     7
 10
879.25
 20
202.5
 30
0.0
 11
879.25
 21
152.0
 31
0.0
  0
LINE
  5
105
  8
0
  6
CONTINUOUS
 62
     7
 10
705.7500000000001
 20
147.5000000000001
 30
0.0
 11
805.25
 21
147.5000000000001
 31
0.0
  0
LINE
  5
106
  8
0
  6
CONTINUOUS
 62
     7
 10
705.7500000000001
 20
147.5000000000001
 30
0.0
 11
705.7500000000001
 21
147.8950618716187
 31
0.0
  0
LINE
  5
107
  8
0
  6
CONTINUOUS
 62
     7
 10
805.25
 20
147.5
 30
0.0
 11
805.2990676743275
 21
147.5012045437949
 31
0.0
  0
LINE
  5
108
  8
0
  6
CONTINUOUS
 62
     7
 10
805.2990676743275
 20
147.5012045437949
 30
0.0
 11
805.3480171403295
 21
147.5048152733278
 31
0.0
  0
LINE
  5
109
  8
0
  6
CONTINUOUS
 62
     7
 10
805.3480171403295
 20
147.5048152733278
 30
0.0
 11
805.3967304744554
 21
147.5108234900352
 31
0.0
  0
LINE
  5
10A
  8
0
  6
CONTINUOUS
 62
     7
 10
805.3967304744554
 20
147.5108234900352
 30
0.0
 11
805.4450903220161
 21
147.5192147195968
 31
0.0
  0
LINE
  5
10B
  8
0
  6
CONTINUOUS
 62
     7
 10
805.4450903220161
 20
147.5192147195968
 30
0.0
 11
805.4929801799032
 21
147.5299687468055
 31
0.0
  0
LINE
  5
10C
  8
0
  6
CONTINUOUS
 62
     7
 10
805.4929801799032
 20
147.5299687468055
 30
0.0
 11
805.5402846772544
 21
147.5430596642678
 31
0.0
  0
LINE
  5
10D
  8
0
  6
CONTINUOUS
 62
     7
 10
805.5402846772544
 20
147.5430596642678
 30
0.0
 11
805.5868898533922
 21
147.558455934817
 31
0.0
  0
LINE
  5
10E
  8
0
  6
CONTINUOUS
 62
     7
 10
805.5868898533922
 20
147.558455934817
 30
0.0
 11
805.6326834323651
 21
147.5761204674887
 31
0.0
  0
LINE
  5
10F
  8
0
  6
CONTINUOUS
 62
     7
 10
805.6326834323651
 20
147.5761204674887
 30
0.0
 11
805.6775550934303
 21
147.5960107068766
 31
0.0
  0
LINE
  5
110
  8
0
  6
CONTINUOUS
 62
     7
 10
805.6775550934303
 20
147.5960107068766
 30
0.0
 11
805.7213967368259
 21
147.6180787356517
 31
0.0
  0
LINE
  5
111
  8
0
  6
CONTINUOUS
 62
     7
 10
805.7213967368259
 20
147.6180787356517
 30
0.0
 11
805.7641027441932
 21
147.6422713899997
 31
0.0
  0
LINE
  5
112
  8
0
  6
CONTINUOUS
 62
     7
 10
805.7641027441932
 20
147.6422713899997
 30
0.0
 11
805.8055702330196
 21
147.6685303876975
 31
0.0
  0
LINE
  5
113
  8
0
  6
CONTINUOUS
 62
     7
 10
805.8055702330196
 20
147.6685303876975
 30
0.0
 11
805.8456993044924
 21
147.6967924685194
 31
0.0
  0
LINE
  5
114
  8
0
  6
CONTINUOUS
 62
     7
 10
805.8456993044924
 20
147.6967924685194
 30
0.0
 11
805.8843932841637
 21
147.7269895466373
 31
0.0
  0
LINE
  5
115
  8
0
  6
CONTINUOUS
 62
     7
 10
805.8843932841637
 20
147.7269895466373
 30
0.0
 11
805.921558954847
 21
147.7590488746451
 31
0.0
  0
LINE
  5
116
  8
0
  6
CONTINUOUS
 62
     7
 10
805.921558954847
 20
147.7590488746451
 30
0.0
 11
805.9571067811866
 21
147.7928932188135
 31
0.0
  0
LINE
  5
117
  8
0
  6
CONTINUOUS
 62
     7
 10
805.9571067811866
 20
147.7928932188135
 30
0.0
 11
805.9909511253549
 21
147.828441045153
 31
0.0
  0
LINE
  5
118
  8
0
  6
CONTINUOUS
 62
     7
 10
805.9909511253549
 20
147.828441045153
 30
0.0
 11
806.0230104533628
 21
147.8656067158364
 31
0.0
  0
LINE
  5
119
  8
0
  6
CONTINUOUS
 62
     7
 10
806.0230104533628
 20
147.8656067158364
 30
0.0
 11
806.0532075314806
 21
147.9043006955076
 31
0.0
  0
LINE
  5
11A
  8
0
  6
CONTINUOUS
 62
     7
 10
806.0532075314806
 20
147.9043006955076
 30
0.0
 11
806.0814696123025
 21
147.9444297669804
 31
0.0
  0
LINE
  5
11B
  8
0
  6
CONTINUOUS
 62
     7
 10
806.0814696123025
 20
147.9444297669804
 30
0.0
 11
806.1077286100002
 21
147.9858972558068
 31
0.0
  0
LINE
  5
11C
  8
0
  6
CONTINUOUS
 62
     7
 10
806.1077286100002
 20
147.9858972558068
 30
0.0
 11
806.1319212643483
 21
148.028603263174
 31
0.0
  0
LINE
  5
11D
  8
0
  6
CONTINUOUS
 62
     7
 10
806.1319212643483
 20
148.028603263174
 30
0.0
 11
806.1539892931236
 21
148.0724449065697
 31
0.0
  0
LINE
  5
11E
  8
0
  6
CONTINUOUS
 62
     7
 10
806.1539892931236
 20
148.0724449065697
 30
0.0
 11
806.1738795325113
 21
148.1173165676349
 31
0.0
  0
LINE
  5
11F
  8
0
  6
CONTINUOUS
 62
     7
 10
806.1738795325113
 20
148.1173165676349
 30
0.0
 11
806.1915440651829
 21
148.1631101466078
 31
0.0
  0
LINE
  5
120
  8
0
  6
CONTINUOUS
 62
     7
 10
806.1915440651829
 20
148.1631101466078
 30
0.0
 11
806.2069403357322
 21
148.2097153227456
 31
0.0
  0
LINE
  5
121
  8
0
  6
CONTINUOUS
 62
     7
 10
806.2069403357322
 20
148.2097153227456
 30
0.0
 11
806.2200312531946
 21
148.2570198200968
 31
0.0
  0
LINE
  5
122
  8
0
  6
CONTINUOUS
 62
     7
 10
806.2200312531946
 20
148.2570198200968
 30
0.0
 11
806.2307852804032
 21
148.3049096779839
 31
0.0
  0
LINE
  5
123
  8
0
  6
CONTINUOUS
 62
     7
 10
806.2307852804032
 20
148.3049096779839
 30
0.0
 11
806.2391765099648
 21
148.3532695255447
 31
0.0
  0
LINE
  5
124
  8
0
  6
CONTINUOUS
 62
     7
 10
806.2391765099648
 20
148.3532695255447
 30
0.0
 11
806.2451847266723
 21
148.4019828596705
 31
0.0
  0
LINE
  5
125
  8
0
  6
CONTINUOUS
 62
     7
 10
806.2451847266723
 20
148.4019828596705
 30
0.0
 11
806.2487954562051
 21
148.4509323256726
 31
0.0
  0
LINE
  5
126
  8
0
  6
CONTINUOUS
 62
     7
 10
806.2487954562051
 20
148.4509323256726
 30
0.0
 11
806.25
 21
148.5000000000001
 31
0.0
  0
LINE
  5
127
  8
0
  6
CONTINUOUS
 62
     7
 10
806.25
 20
148.8949095667751
 30
0.0
 11
806.25
 21
148.5000000000001
 31
0.0
  0
LINE
  5
128
  8
0
  6
CONTINUOUS
 62
     7
 10
705.7500000000001
 20
257.5000000000001
 30
0.0
 11
805.25
 21
257.5000000000001
 31
0.0
  0
LINE
  5
129
  8
0
  6
CONTINUOUS
 62
     7
 10
705.7500000000001
 20
257.1049381283814
 30
0.0
 11
705.7500000000001
 21
257.5
 31
0.0
  0
ARC
  5
12A
  8
0
  6
CONTINUOUS
 62
     7
 10
805.25
 20
256.4999999999999
 30
0.0
 40
1.0
 50
0.0
 51
90.0
  0
LINE
  5
12B
  8
0
  6
CONTINUOUS
 62
     7
 10
806.25
 20
256.4999999999999
 30
0.0
 11
806.25
 21
256.1050904332249
 31
0.0
  0
LINE
  5
12C
  8
0
  6
CONTINUOUS
 62
     7
 10
1118.35
 20
149.0
 30
0.0
 11
1118.35
 21
256.0
 31
0.0
  0
LINE
  5
12D
  8
0
  6
CONTINUOUS
 62
     7
 10
1124.25
 20
149.0
 30
0.0
 11
1124.25
 21
256.0
 31
0.0
  0
ARC
  5
12E
  8
0
  6
CONTINUOUS
 62
     7
 10
807.25
 20
151.0
 30
0.0
 40
1.000000000000001
 50
90.0
 51
180.0000000000004
  0
ARC
  5
12F
  8
0
  6
CONTINUOUS
 62
     7
 10
807.25
 20
254.0
 30
0.0
 40
1.000000000000001
 50
179.9999999999995
 51
270.0
  0
LINE
  5
130
  8
0
  6
CONTINUOUS
 62
     7
 10
879.25
 20
253.0
 30
0.0
 11
807.25
 21
253.0
 31
0.0
  0
LINE
  5
131
  8
0
  6
CONTINUOUS
 62
     7
 10
807.25
 20
152.0
 30
0.0
 11
879.25
 21
152.0
 31
0.0
  0
LINE
  5
132
  8
0
  6
CONTINUOUS
 62
     7
 10
1118.35
 20
149.0
 30
0.0
 11
1124.25
 21
149.0
 31
0.0
  0
LINE
  5
133
  8
0
  6
CONTINUOUS
 62
     7
 10
1124.25
 20
256.0
 30
0.0
 11
1118.35
 21
256.0
 31
0.0
  0
ARC
  5
134
  8
0
  6
CONTINUOUS
 62
     7
 10
1115.35
 20
155.0
 30
0.0
 40
3.000000000000003
 50
0.0
 51
90.0
  0
ARC
  5
135
  8
0
  6
CONTINUOUS
 62
     7
 10
1115.35
 20
250.0
 30
0.0
 40
3.000000000000003
 50
270.0
 51
0.0
  0
LINE
  5
136
  8
0
  6
CONTINUOUS
 62
     7
 10
879.25
 20
158.0
 30
0.0
 11
1115.35
 21
158.0
 31
0.0
  0
LINE
  5
137
  8
0
  6
CONTINUOUS
 62
     7
 10
1115.35
 20
247.0
 30
0.0
 11
879.2499999999999
 21
247.0
 31
0.0
  0
ARC
  5
138
  8
0
  6
CONTINUOUS
 62
     7
 10
1272.349999999999
 20
202.5
 30
0.0
 40
37.49999999999998
 50
180.0
 51
270.0
  0
ARC
  5
139
  8
0
  6
CONTINUOUS
 62
     7
 10
1272.349999999999
 20
202.5
 30
0.0
 40
37.50000000000001
 50
270.0
 51
180.0
  0
LINE
  5
13A
  8
0
  6
CONTINUOUS
 62
     7
 10
1269.85
 20
147.5000000000001
 30
0.0
 11
1247.216920533191
 21
147.8950618716187
 31
0.0
  0
LINE
  5
13B
  8
0
  6
CONTINUOUS
 62
     7
 10
1269.850000000001
 20
147.5
 30
0.0
 11
1269.858726867791
 21
148.5
 31
0.0
  0
LINE
  5
13C
  8
0
  6
CONTINUOUS
 62
     7
 10
1297.483079466808
 20
147.8950618716187
 30
0.0
 11
1274.849999999999
 21
147.5
 31
0.0
  0
LINE
  5
13D
  8
0
  6
CONTINUOUS
 62
     7
 10
1274.841273132214
 20
148.5000000000001
 30
0.0
 11
1274.850000000005
 21
147.5000000000001
 31
0.0
  0
ARC
  5
13E
  8
0
  6
CONTINUOUS
 62
     7
 10
1296.959507273689
 20
177.8904927263104
 30
0.0
 40
29.99999999999996
 50
271.0
 51
358.9999999999999
  0
LINE
  5
13F
  8
0
  6
CONTINUOUS
 62
     7
 10
1217.745061871618
 20
177.3669205331919
 30
0.0
 11
1217.349999999999
 21
200.0
 31
0.0
  0
LINE
  5
140
  8
0
  6
CONTINUOUS
 62
     7
 10
1327.349999999999
 20
200.0000000000004
 30
0.0
 11
1326.954938128381
 21
177.3669205331919
 31
0.0
  0
LINE
  5
141
  8
0
  6
CONTINUOUS
 62
     7
 10
1274.849999999999
 20
147.5
 30
0.0
 11
1269.85
 21
147.5000000000001
 31
0.0
  0
ARC
  5
142
  8
0
  6
CONTINUOUS
 62
     7
 10
1247.74049272631
 20
177.8904927263104
 30
0.0
 40
29.99999999999999
 50
181.0
 51
269.0
  0
ARC
  5
143
  8
0
  6
CONTINUOUS
 62
     7
 10
1296.959507273689
 20
227.1095072736896
 30
0.0
 40
29.99999999999999
 50
1.0
 51
89.00000000000001
  0
LINE
  5
144
  8
0
  6
CONTINUOUS
 62
     7
 10
1326.954938128381
 20
227.6330794668081
 30
0.0
 11
1327.349999999999
 21
205.0
 31
0.0
  0
LINE
  5
145
  8
0
  6
CONTINUOUS
 62
     7
 10
1217.349999999999
 20
200.0
 30
0.0
 11
1217.349999999999
 21
204.9999999999996
 31
0.0
  0
LINE
  5
146
  8
0
  6
CONTINUOUS
 62
     7
 10
1269.849999999999
 20
257.5000000000001
 30
0.0
 11
1274.849999999999
 21
257.5
 31
0.0
  0
LINE
  5
147
  8
0
  6
CONTINUOUS
 62
     7
 10
1217.35
 20
204.9999999999996
 30
0.0
 11
1217.745061871618
 21
227.6330794668082
 31
0.0
  0
LINE
  5
148
  8
0
  6
CONTINUOUS
 62
     7
 10
1247.216920533191
 20
257.1049381283814
 30
0.0
 11
1269.849999999999
 21
257.5
 31
0.0
  0
ARC
  5
149
  8
0
  6
CONTINUOUS
 62
     7
 10
1247.74049272631
 20
227.1095072736896
 30
0.0
 40
29.99999999999996
 50
91.0
 51
179.0
  0
LINE
  5
14A
  8
0
  6
CONTINUOUS
 62
     7
 10
1327.349999999999
 20
205.0
 30
0.0
 11
1327.349999999999
 21
200.0000000000004
 31
0.0
  0
LINE
  5
14B
  8
0
  6
CONTINUOUS
 62
     7
 10
1274.849999999999
 20
257.4999999999999
 30
0.0
 11
1297.483079466808
 21
257.1049381283813
 31
0.0
  0
CIRCLE
  5
14C
  8
0
  6
CONTINUOUS
 62
     7
 10
1272.349999999999
 20
202.5
 30
0.0
 40
53.5000000000001
  0
ARC
  5
14D
  8
0
  6
CONTINUOUS
 62
     7
 10
1272.349999999999
 20
202.5
 30
0.0
 40
38.59999999999997
 50
180.0
 51
270.0
  0
ARC
  5
14E
  8
0
  6
CONTINUOUS
 62
     7
 10
1272.349999999999
 20
202.5
 30
0.0
 40
38.59999999999999
 50
270.0
 51
180.0
  0
ARC
  5
14F
  8
0
  6
CONTINUOUS
 62
     7
 10
537.6500000000005
 20
177.5
 30
0.0
 40
27.75
 50
180.0
 51
270.0
  0
LINE
  5
150
  8
0
  6
CONTINUOUS
 62
     7
 10
537.6500000000005
 20
149.75
 30
0.0
 11
587.6500000000004
 21
149.75
 31
0.0
  0
ARC
  5
151
  8
0
  6
CONTINUOUS
 62
     7
 10
587.6500000000005
 20
177.5
 30
0.0
 40
27.75000000000002
 50
269.9999999999999
 51
0.0
  0
LINE
  5
152
  8
0
  6
CONTINUOUS
 62
     7
 10
615.4000000000005
 20
177.5
 30
0.0
 11
615.4000000000005
 21
227.5
 31
0.0
  0
ARC
  5
153
  8
0
  6
CONTINUOUS
 62
     7
 10
587.6500000000005
 20
227.5
 30
0.0
 40
27.75
 50
359.9999999999998
 51
90.0
  0
LINE
  5
154
  8
0
  6
CONTINUOUS
 62
     7
 10
587.6500000000005
 20
255.25
 30
0.0
 11
537.6500000000007
 21
255.25
 31
0.0
  0
ARC
  5
155
  8
0
  6
CONTINUOUS
 62
     7
 10
537.6500000000005
 20
227.5
 30
0.0
 40
27.75000000000002
 50
89.99999999999996
 51
180.0
  0
LINE
  5
156
  8
0
  6
CONTINUOUS
 62
     7
 10
509.9000000000004
 20
227.5
 30
0.0
 11
509.9000000000007
 21
177.5
 31
0.0
  0
ARC
  5
157
  8
0
  6
CONTINUOUS
 62
     7
 10
587.2595072736902
 20
227.1095072736896
 30
0.0
 40
29.99999999999996
 50
1.000000000000021
 51
89.00000000000001
  0
LINE
  5
158
  8
0
  6
CONTINUOUS
 62
     7
 10
617.6500000000004
 20
204.9999999999996
 30
0.0
 11
617.2549381283818
 21
227.6330794668082
 31
0.0
  0
LINE
  5
159
  8
0
  6
CONTINUOUS
 62
     7
 10
617.6500000000005
 20
200.0
 30
0.0
 11
617.6500000000004
 21
204.9999999999996
 31
0.0
  0
LINE
  5
15A
  8
0
  6
CONTINUOUS
 62
     7
 10
617.2549381283819
 20
177.3669205331919
 30
0.0
 11
617.6500000000005
 21
200.0
 31
0.0
  0
ARC
  5
15B
  8
0
  6
CONTINUOUS
 62
     7
 10
587.2595072736902
 20
177.8904927263104
 30
0.0
 40
29.99999999999999
 50
271.0
 51
358.9999999999999
  0
LINE
  5
15C
  8
0
  6
CONTINUOUS
 62
     7
 10
565.1500000000001
 20
147.5000000000001
 30
0.0
 11
587.7830794668088
 21
147.8950618716187
 31
0.0
  0
LINE
  5
15D
  8
0
  6
CONTINUOUS
 62
     7
 10
560.1500000000005
 20
147.5
 30
0.0
 11
565.1500000000001
 21
147.5000000000001
 31
0.0
  0
LINE
  5
15E
  8
0
  6
CONTINUOUS
 62
     7
 10
537.5169205331924
 20
147.8950618716187
 30
0.0
 11
560.1500000000005
 21
147.5
 31
0.0
  0
ARC
  5
15F
  8
0
  6
CONTINUOUS
 62
     7
 10
538.0404927263111
 20
177.8904927263104
 30
0.0
 40
30.00000000000001
 50
181.0
 51
269.0
  0
LINE
  5
160
  8
0
  6
CONTINUOUS
 62
     7
 10
507.6500000000006
 20
200.0000000000004
 30
0.0
 11
508.0450618716192
 21
177.3669205331919
 31
0.0
  0
LINE
  5
161
  8
0
  6
CONTINUOUS
 62
     7
 10
507.6500000000005
 20
205.0
 30
0.0
 11
507.6500000000006
 21
200.0000000000004
 31
0.0
  0
LINE
  5
162
  8
0
  6
CONTINUOUS
 62
     7
 10
508.0450618716191
 20
227.6330794668081
 30
0.0
 11
507.6500000000005
 21
205.0
 31
0.0
  0
ARC
  5
163
  8
0
  6
CONTINUOUS
 62
     7
 10
538.040492726311
 20
227.1095072736896
 30
0.0
 40
29.99999999999999
 50
91.00000000000001
 51
179.0
  0
LINE
  5
164
  8
0
  6
CONTINUOUS
 62
     7
 10
560.1500000000009
 20
257.4999999999999
 30
0.0
 11
537.5169205331924
 21
257.1049381283813
 31
0.0
  0
LINE
  5
165
  8
0
  6
CONTINUOUS
 62
     7
 10
565.1500000000005
 20
257.5000000000001
 30
0.0
 11
560.150000000001
 21
257.5
 31
0.0
  0
LINE
  5
166
  8
0
  6
CONTINUOUS
 62
     7
 10
587.7830794668088
 20
257.1049381283814
 30
0.0
 11
565.1500000000007
 21
257.5000000000001
 31
0.0
  0
ARC
  5
167
  8
0
  6
CONTINUOUS
 62
     7
 10
537.6500000000005
 20
177.5
 30
0.0
 40
25.29999999999999
 50
180.0
 51
270.0
  0
LINE
  5
168
  8
0
  6
CONTINUOUS
 62
     7
 10
529.9813502267244
 20
153.0422058143496
 30
0.0
 11
529.9983873135799
 21
153.0361924564243
 31
0.0
  0
ARC
  5
169
  8
0
  6
CONTINUOUS
 62
     7
 10
587.6500000000005
 20
227.5
 30
0.0
 40
25.29999999999999
 50
0.0
 51
90.0
  0
LINE
  5
16A
  8
0
  6
CONTINUOUS
 62
     7
 10
595.3186497732767
 20
251.9577941856504
 30
0.0
 11
595.3016126864212
 21
251.9638075435757
 31
0.0
  0
ARC
  5
16B
  8
0
  6
CONTINUOUS
 62
     7
 10
587.6500000000005
 20
177.5
 30
0.0
 40
25.30000000000001
 50
270.0
 51
0.0
  0
ARC
  5
16C
  8
0
  6
CONTINUOUS
 62
     7
 10
537.6500000000005
 20
227.5
 30
0.0
 40
25.29999999999999
 50
89.99999999999999
 51
180.0
  0
LINE
  5
16D
  8
0
  6
CONTINUOUS
 62
     7
 10
537.6500000000005
 20
152.2
 30
0.0
 11
587.6500000000004
 21
152.2
 31
0.0
  0
LINE
  5
16E
  8
0
  6
CONTINUOUS
 62
     7
 10
587.6500000000005
 20
252.8
 30
0.0
 11
537.6500000000007
 21
252.8
 31
0.0
  0
LINE
  5
16F
  8
0
  6
CONTINUOUS
 62
     7
 10
612.9500000000005
 20
177.5
 30
0.0
 11
612.9500000000005
 21
227.5
 31
0.0
  0
LINE
  5
170
  8
0
  6
CONTINUOUS
 62
     7
 10
512.3500000000006
 20
227.5
 30
0.0
 11
512.3500000000006
 21
177.5
 31
0.0
  0
LINE
  5
171
  8
0
  6
CONTINUOUS
 62
     7
 10
513.1861924530692
 20
169.8483873135791
 30
0.0
 11
513.1922058143492
 21
169.8313502267271
 31
0.0
  0
LINE
  5
172
  8
0
  6
CONTINUOUS
 62
     7
 10
612.1138075469319
 20
235.1516126864209
 30
0.0
 11
612.107794185652
 21
235.1686497732729
 31
0.0
  0
LINE
  5
173
  8
0
  6
CONTINUOUS
 62
     7
 10
587.6500000000005
 20
251.5
 30
0.0
 11
537.6500000000007
 21
251.5
 31
0.0
  0
ARC
  5
174
  8
0
  6
CONTINUOUS
 62
     7
 10
537.6500000000005
 20
177.5
 30
0.0
 40
24.00000000000002
 50
180.0
 51
270.0
  0
ARC
  5
175
  8
0
  6
CONTINUOUS
 62
     7
 10
587.6500000000005
 20
227.5
 30
0.0
 40
24.00000000000002
 50
0.0
 51
90.0
  0
LINE
  5
176
  8
0
  6
CONTINUOUS
 62
     7
 10
611.6500000000005
 20
177.5
 30
0.0
 11
611.6500000000005
 21
227.5
 31
0.0
  0
LINE
  5
177
  8
0
  6
CONTINUOUS
 62
     7
 10
513.6500000000004
 20
227.5
 30
0.0
 11
513.6500000000004
 21
177.5
 31
0.0
  0
ARC
  5
178
  8
0
  6
CONTINUOUS
 62
     7
 10
587.6500000000005
 20
177.5
 30
0.0
 40
23.99999999999999
 50
270.0
 51
0.0
  0
ARC
  5
179
  8
0
  6
CONTINUOUS
 62
     7
 10
537.6500000000005
 20
227.5
 30
0.0
 40
23.99999999999996
 50
89.99999999999999
 51
180.0
  0
LINE
  5
17A
  8
0
  6
CONTINUOUS
 62
     7
 10
537.6500000000005
 20
153.5
 30
0.0
 11
587.6500000000004
 21
153.5
 31
0.0
  0
ARC
  5
17B
  8
0
  6
CONTINUOUS
 62
     7
 10
562.6500000000004
 20
202.4999999999999
 30
0.0
 40
37.50000000000009
 50
0.0000000000000848
 51
89.99999999999982
  0
ARC
  5
17C
  8
0
  6
CONTINUOUS
 62
     7
 10
562.6500000000007
 20
202.4999999999999
 30
0.0
 40
37.50000000000004
 50
90.00000000000009
 51
179.9999999999999
  0
ARC
  5
17D
  8
0
  6
CONTINUOUS
 62
     7
 10
562.6500000000005
 20
202.5000000000001
 30
0.0
 40
37.50000000000004
 50
270.0000000000001
 51
359.9999999999998
  0
ARC
  5
17E
  8
0
  6
CONTINUOUS
 62
     7
 10
562.6500000000007
 20
202.5
 30
0.0
 40
37.50000000000004
 50
180.0000000000001
 51
270.0
  0
ENDSEC
  0
EOF
