  0
SECTION
  2
HEADER
  9
$ACADVER
  1
AC1014
  9
$ACADMAINTVER
 70
     9
  9
$DWGCODEPAGE
  3
ANSI_932
  9
$INSBASE
 10
0.0
 20
0.0
 30
0.0
  9
$EXTMIN
 10
413.7901286578151
 20
24.7125109416031
 30
0.0
  9
$EXTMAX
 10
1096.220438495175
 20
176.5535801366493
 30
0.0
  9
$LIMMIN
 10
0.0
 20
0.0
  9
$LIMMAX
 10
12.0
 20
9.0
  9
$ORTHOMODE
 70
     0
  9
$REGENMODE
 70
     1
  9
$FILLMODE
 70
     1
  9
$QTEXTMODE
 70
     0
  9
$MIRRTEXT
 70
     1
  9
$DRAGMODE
 70
     2
  9
$LTSCALE
 40
1.0
  9
$OSMODE
 70
    37
  9
$ATTMODE
 70
     1
  9
$TEXTSIZE
 40
0.2
  9
$TRACEWID
 40
0.05
  9
$TEXTSTYLE
  7
STANDARD
  9
$CLAYER
  8
0
  9
$CELTYPE
  6
BYLAYER
  9
$CECOLOR
 62
   256
  9
$CELTSCALE
 40
1.0
  9
$DELOBJ
 70
     1
  9
$DISPSILH
 70
     0
  9
$DIMSCALE
 40
1.0
  9
$DIMASZ
 40
3.0
  9
$DIMEXO
 40
0.0625
  9
$DIMDLI
 40
0.38
  9
$DIMRND
 40
0.0
  9
$DIMDLE
 40
0.0
  9
$DIMEXE
 40
1.5
  9
$DIMTP
 40
0.0
  9
$DIMTM
 40
0.0
  9
$DIMTXT
 40
3.0
  9
$DIMCEN
 40
0.09
  9
$DIMTSZ
 40
0.0
  9
$DIMTOL
 70
     0
  9
$DIMLIM
 70
     0
  9
$DIMTIH
 70
     1
  9
$DIMTOH
 70
     1
  9
$DIMSE1
 70
     0
  9
$DIMSE2
 70
     0
  9
$DIMTAD
 70
     1
  9
$DIMZIN
 70
     0
  9
$DIMBLK
  1

  9
$DIMASO
 70
     1
  9
$DIMSHO
 70
     1
  9
$DIMPOST
  1

  9
$DIMAPOST
  1

  9
$DIMALT
 70
     0
  9
$DIMALTD
 70
     2
  9
$DIMALTF
 40
25.4
  9
$DIMLFAC
 40
1.0
  9
$DIMTOFL
 70
     0
  9
$DIMTVP
 40
0.0
  9
$DIMTIX
 70
     0
  9
$DIMSOXD
 70
     0
  9
$DIMSAH
 70
     0
  9
$DIMBLK1
  1

  9
$DIMBLK2
  1

  9
$DIMSTYLE
  2
STANDARD
  9
$DIMCLRD
 70
     0
  9
$DIMCLRE
 70
     0
  9
$DIMCLRT
 70
     0
  9
$DIMTFAC
 40
1.0
  9
$DIMGAP
 40
1.5
  9
$DIMJUST
 70
     0
  9
$DIMSD1
 70
     0
  9
$DIMSD2
 70
     0
  9
$DIMTOLJ
 70
     1
  9
$DIMTZIN
 70
     0
  9
$DIMALTZ
 70
     0
  9
$DIMALTTZ
 70
     0
  9
$DIMFIT
 70
     3
  9
$DIMUPT
 70
     0
  9
$DIMUNIT
 70
     2
  9
$DIMDEC
 70
     2
  9
$DIMTDEC
 70
     4
  9
$DIMALTU
 70
     2
  9
$DIMALTTD
 70
     2
  9
$DIMTXSTY
  7
ＭＳ_ゴシック
  9
$DIMAUNIT
 70
     0
  9
$LUNITS
 70
     2
  9
$LUPREC
 70
     4
  9
$SKETCHINC
 40
0.1
  9
$FILLETRAD
 40
0.5
  9
$AUNITS
 70
     0
  9
$AUPREC
 70
     0
  9
$MENU
  1
.
  9
$ELEVATION
 40
0.0
  9
$PELEVATION
 40
0.0
  9
$THICKNESS
 40
0.0
  9
$LIMCHECK
 70
     0
  9
$CHAMFERA
 40
0.0
  9
$CHAMFERB
 40
0.0
  9
$CHAMFERC
 40
0.0
  9
$CHAMFERD
 40
0.0
  9
$SKPOLY
 70
     0
  9
$TDCREATE
 40
2459712.688167871
  9
$TDUPDATE
 40
2459712.688168136
  9
$TDINDWG
 40
0.0000000116
  9
$TDUSRTIMER
 40
0.0000000116
  9
$USRTIMER
 70
     1
  9
$ANGBASE
 50
0.0
  9
$ANGDIR
 70
     0
  9
$PDMODE
 70
     0
  9
$PDSIZE
 40
0.0
  9
$PLINEWID
 40
0.0
  9
$COORDS
 70
     1
  9
$SPLFRAME
 70
     0
  9
$SPLINETYPE
 70
     6
  9
$SPLINESEGS
 70
     8
  9
$ATTDIA
 70
     0
  9
$ATTREQ
 70
     1
  9
$HANDLING
 70
     1
  9
$HANDSEED
  5
386
  9
$SURFTAB1
 70
     6
  9
$SURFTAB2
 70
     6
  9
$SURFTYPE
 70
     6
  9
$SURFU
 70
     6
  9
$SURFV
 70
     6
  9
$UCSNAME
  2

  9
$UCSORG
 10
0.0
 20
0.0
 30
0.0
  9
$UCSXDIR
 10
1.0
 20
0.0
 30
0.0
  9
$UCSYDIR
 10
0.0
 20
1.0
 30
0.0
  9
$PUCSNAME
  2

  9
$PUCSORG
 10
0.0
 20
0.0
 30
0.0
  9
$PUCSXDIR
 10
1.0
 20
0.0
 30
0.0
  9
$PUCSYDIR
 10
0.0
 20
1.0
 30
0.0
  9
$USERI1
 70
     0
  9
$USERI2
 70
     0
  9
$USERI3
 70
     0
  9
$USERI4
 70
     0
  9
$USERI5
 70
     0
  9
$USERR1
 40
0.0
  9
$USERR2
 40
0.0
  9
$USERR3
 40
0.0
  9
$USERR4
 40
0.0
  9
$USERR5
 40
0.0
  9
$WORLDVIEW
 70
     1
  9
$SHADEDGE
 70
     3
  9
$SHADEDIF
 70
    70
  9
$TILEMODE
 70
     1
  9
$MAXACTVP
 70
    64
  9
$PINSBASE
 10
0.0
 20
0.0
 30
0.0
  9
$PLIMCHECK
 70
     0
  9
$PEXTMIN
 10
1.000000000000000E+20
 20
1.000000000000000E+20
 30
1.000000000000000E+20
  9
$PEXTMAX
 10
-1.000000000000000E+20
 20
-1.000000000000000E+20
 30
-1.000000000000000E+20
  9
$PLIMMIN
 10
0.0
 20
0.0
  9
$PLIMMAX
 10
12.0
 20
9.0
  9
$UNITMODE
 70
     0
  9
$VISRETAIN
 70
     1
  9
$PLINEGEN
 70
     0
  9
$PSLTSCALE
 70
     1
  9
$TREEDEPTH
 70
  3020
  9
$PICKSTYLE
 70
     1
  9
$CMLSTYLE
  2
STANDARD
  9
$CMLJUST
 70
     0
  9
$CMLSCALE
 40
1.0
  9
$PROXYGRAPHICS
 70
     1
  9
$MEASUREMENT
 70
     1
  0
ENDSEC
  0
SECTION
  2
CLASSES
  0
CLASS
  1
ACDBDICTIONARYWDFLT
  2
AcDbDictionaryWithDefault
  3
ObjectDBX Classes
 90
        0
280
     0
281
     0
  0
CLASS
  1
VISUALSTYLE
  2
AcDbVisualStyle
  3
ObjectDBX Classes
 90
     4095
280
     0
281
     0
  0
CLASS
  1
MATERIAL
  2
AcDbMaterial
  3
ObjectDBX Classes
 90
     1153
280
     0
281
     0
  0
CLASS
  1
SCALE
  2
AcDbScale
  3
ObjectDBX Classes
 90
     1153
280
     0
281
     0
  0
CLASS
  1
TABLESTYLE
  2
AcDbTableStyle
  3
ObjectDBX Classes
 90
     4095
280
     0
281
     0
  0
CLASS
  1
MLEADERSTYLE
  2
AcDbMLeaderStyle
  3
ACDB_MLEADERSTYLE_CLASS
 90
     4095
280
     0
281
     0
  0
CLASS
  1
SUN
  2
AcDbSun
  3
SCENEOE
 90
     1153
280
     0
281
     0
  0
CLASS
  1
DICTIONARYVAR
  2
AcDbDictionaryVar
  3
ObjectDBX Classes
 90
        0
280
     0
281
     0
  0
CLASS
  1
XRECORD
  2
AcDbXrecord
  3
ObjectDBX Classes
 90
        0
280
     0
281
     0
  0
CLASS
  1
LWPOLYLINE
  2
AcDbPolyline
  3
ObjectDBX Classes
 90
        0
280
     0
281
     1
  0
CLASS
  1
HATCH
  2
AcDbHatch
  3
ObjectDBX Classes
 90
        0
280
     0
281
     1
  0
CLASS
  1
ACDBPLACEHOLDER
  2
AcDbPlaceHolder
  3
ObjectDBX Classes
 90
        0
280
     0
281
     0
  0
CLASS
  1
LAYOUT
  2
AcDbLayout
  3
ObjectDBX Classes
 90
        0
280
     0
281
     0
  0
ENDSEC
  0
SECTION
  2
TABLES
  0
TABLE
  2
VPORT
  5
8
102
{ACAD_XDICTIONARY
360
37B
102
}
330
0
100
AcDbSymbolTable
 70
     1
  0
VPORT
  5
29
330
8
100
AcDbSymbolTableRecord
100
AcDbViewportTableRecord
  2
*ACTIVE
 70
     0
 10
0.0
 20
0.0
 11
1.0
 21
1.0
 12
755.005283576495
 22
100.6330455391262
 13
0.0
 23
0.0
 14
0.5
 24
0.5
 15
0.5
 25
0.5
 16
0.0
 26
0.0
 36
1.0
 17
0.0
 27
0.0
 37
0.0
 40
151.8410691950462
 41
1.6
 42
50.0
 43
0.0
 44
0.0
 50
0.0
 51
0.0
 71
     0
 72
   100
 73
     1
 74
     3
 75
     0
 76
     0
 77
     0
 78
     0
  0
ENDTAB
  0
TABLE
  2
LTYPE
  5
5
330
0
100
AcDbSymbolTable
 70
     2
  0
LTYPE
  5
14
330
5
100
AcDbSymbolTableRecord
100
AcDbLinetypeTableRecord
  2
BYBLOCK
 70
     0
  3

 72
    65
 73
     0
 40
0.0
  0
LTYPE
  5
15
330
5
100
AcDbSymbolTableRecord
100
AcDbLinetypeTableRecord
  2
BYLAYER
 70
     0
  3

 72
    65
 73
     0
 40
0.0
  0
LTYPE
  5
16
330
5
100
AcDbSymbolTableRecord
100
AcDbLinetypeTableRecord
  2
CONTINUOUS
 70
     0
  3
Solid line
 72
    65
 73
     0
 40
0.0
  0
LTYPE
  5
34E
330
5
100
AcDbSymbolTableRecord
100
AcDbLinetypeTableRecord
  2
CENTER
 70
     0
  3

 72
    65
 73
     0
 40
0.0
  0
ENDTAB
  0
TABLE
  2
LAYER
  5
2
330
0
100
AcDbSymbolTable
 70
     1
  0
LAYER
  5
10
330
2
100
AcDbSymbolTableRecord
100
AcDbLayerTableRecord
  2
0
 70
     0
 62
     7
  6
CONTINUOUS
  0
ENDTAB
  0
TABLE
  2
STYLE
  5
3
330
0
100
AcDbSymbolTable
 70
     2
  0
STYLE
  5
11
330
3
100
AcDbSymbolTableRecord
100
AcDbTextStyleTableRecord
  2
STANDARD
 70
     0
 40
0.0
 41
1.0
 50
0.0
 71
     0
 42
0.2
  3
txt
  4

  0
STYLE
  5
6E
330
3
100
AcDbSymbolTableRecord
100
AcDbTextStyleTableRecord
  2
ＭＳ_ゴシック
 70
     0
 40
0.0
 41
1.0
 50
0.0
 71
     0
 42
0.2
  3
ＭＳ ゴシック.shx
  4

  0
ENDTAB
  0
TABLE
  2
VIEW
  5
6
330
0
100
AcDbSymbolTable
 70
     0
  0
ENDTAB
  0
TABLE
  2
UCS
  5
7
330
0
100
AcDbSymbolTable
 70
     0
  0
ENDTAB
  0
TABLE
  2
APPID
  5
9
330
0
100
AcDbSymbolTable
 70
     2
  0
APPID
  5
12
330
9
100
AcDbSymbolTableRecord
100
AcDbRegAppTableRecord
  2
ACAD
 70
     0
  0
APPID
  5
385
330
9
100
AcDbSymbolTableRecord
100
AcDbRegAppTableRecord
  2
ACAD_MLEADERVER
 70
     0
  0
ENDTAB
  0
TABLE
  2
DIMSTYLE
  5
A
330
0
100
AcDbSymbolTable
 70
     1
  0
DIMSTYLE
105
27
330
A
100
AcDbSymbolTableRecord
100
AcDbDimStyleTableRecord
  2
STANDARD
 70
     0
  3

  4

  5

  6

  7

 40
1.0
 41
0.18
 42
0.0625
 43
0.38
 44
0.18
 45
0.0
 46
0.0
 47
0.0
 48
0.0
140
0.18
141
0.09
142
0.0
143
25.4
144
1.0
145
0.0
146
1.0
147
0.09
 71
     0
 72
     0
 73
     1
 74
     1
 75
     0
 76
     0
 77
     0
 78
     0
170
     0
171
     2
172
     0
173
     0
174
     0
175
     0
176
     0
177
     0
178
     0
270
     2
271
     4
272
     4
273
     2
274
     2
340
11
275
     0
280
     0
281
     0
282
     0
283
     1
284
     0
285
     0
286
     0
287
     3
288
     0
  0
ENDTAB
  0
TABLE
  2
BLOCK_RECORD
  5
1
330
0
100
AcDbSymbolTable
 70
     0
  0
BLOCK_RECORD
  5
1F
330
1
100
AcDbSymbolTableRecord
100
AcDbBlockTableRecord
  2
*MODEL_SPACE
  0
BLOCK_RECORD
  5
1B
330
1
100
AcDbSymbolTableRecord
100
AcDbBlockTableRecord
  2
*PAPER_SPACE
  0
ENDTAB
  0
ENDSEC
  0
SECTION
  2
BLOCKS
  0
BLOCK
  5
20
330
1F
100
AcDbEntity
  8
0
100
AcDbBlockBegin
  2
*MODEL_SPACE
 70
     0
 10
0.0
 20
0.0
 30
0.0
  3
*MODEL_SPACE
  1

  0
ENDBLK
  5
21
330
1F
100
AcDbEntity
  8
0
100
AcDbBlockEnd
  0
BLOCK
  5
1C
330
1B
100
AcDbEntity
 67
     1
  8
0
100
AcDbBlockBegin
  2
*PAPER_SPACE
 70
     0
 10
0.0
 20
0.0
 30
0.0
  3
*PAPER_SPACE
  1

  0
ENDBLK
  5
1D
330
1B
100
AcDbEntity
 67
     1
  8
0
100
AcDbBlockEnd
  0
ENDSEC
  0
SECTION
  2
ENTITIES
  0
MTEXT
  5
6F
330
1F
100
AcDbEntity
  8
0
 62
     4
100
AcDbMText
 10
745.2260222583468
 20
27.37160185069401
 30
0.0
 40
3.0
 41
0.0
 71
     1
 72
     1
  1
{\fＭＳ ゴシック;KFEKH-75P}
  0
LINE
  5
70
330
1F
100
AcDbEntity
  8
0
  6
CONTINUOUS
 62
     7
100
AcDbLine
 10
1035.989448398679
 20
169.7920479512287
 30
0.0
 11
1035.989448399077
 21
172.5350878762574
 31
0.0
  0
ARC
  5
71
330
1F
100
AcDbEntity
  8
0
  6
CONTINUOUS
 62
     7
100
AcDbCircle
 10
1034.989448399015
 20
114.8011396113655
 30
0.0
 40
57.74260803127496
100
AcDbArc
 50
89.00768867403784
 51
90.99231132583913
  0
LINE
  5
72
330
1F
100
AcDbEntity
  8
0
  6
CONTINUOUS
 62
     7
100
AcDbLine
 10
1033.989448398679
 20
169.7920479512309
 30
0.0
 11
1033.989448399077
 21
172.5350878762595
 31
0.0
  0
ARC
  5
73
330
1F
100
AcDbEntity
  8
0
  6
CONTINUOUS
 62
     7
100
AcDbCircle
 10
1034.98944839862
 20
114.8011396117607
 30
0.0
 40
54.99999999999999
100
AcDbArc
 50
91.04179885039376
 51
91.30252047923679
  0
ARC
  5
74
330
1F
100
AcDbEntity
  8
0
  6
CONTINUOUS
 62
     7
100
AcDbCircle
 10
1034.98944839862
 20
114.8011396117607
 30
0.0
 40
54.99999999999999
100
AcDbArc
 50
91.30252047923679
 51
93.5207710379873
  0
ARC
  5
75
330
1F
100
AcDbEntity
  8
0
  6
CONTINUOUS
 62
     7
100
AcDbCircle
 10
1034.98944839862
 20
114.8011396117607
 30
0.0
 40
55.0
100
AcDbArc
 50
116.0210040474752
 51
116.9999999995822
  0
ARC
  5
76
330
1F
100
AcDbEntity
  8
0
  6
CONTINUOUS
 62
     7
100
AcDbCircle
 10
1034.98944839862
 20
114.8011396117607
 30
0.0
 40
55.00000000000009
100
AcDbArc
 50
152.9999999991963
 51
153.5207710421962
  0
ARC
  5
77
330
1F
100
AcDbEntity
  8
0
  6
CONTINUOUS
 62
     7
100
AcDbCircle
 10
1034.98944839862
 20
114.8011396117607
 30
0.0
 40
55.00000000000009
100
AcDbArc
 50
206.0210040739114
 51
206.9999999986379
  0
ARC
  5
78
330
1F
100
AcDbEntity
  8
0
  6
CONTINUOUS
 62
     7
100
AcDbCircle
 10
1034.98944839862
 20
114.8011396117607
 30
0.0
 40
55.00000000000001
100
AcDbArc
 50
219.999999998602
 51
229.999999998602
  0
ARC
  5
79
330
1F
100
AcDbEntity
  8
0
  6
CONTINUOUS
 62
     7
100
AcDbCircle
 10
1034.98944839862
 20
114.8011396117607
 30
0.0
 40
55.00000000000006
100
AcDbArc
 50
242.9999999986377
 51
243.5207710127155
  0
ARC
  5
7A
330
1F
100
AcDbEntity
  8
0
  6
CONTINUOUS
 62
     7
100
AcDbCircle
 10
1034.98944839862
 20
114.8011396117607
 30
0.0
 40
54.99999999999991
100
AcDbArc
 50
296.0210041293383
 51
296.9999999991957
  0
ARC
  5
7B
330
1F
100
AcDbEntity
  8
0
  6
CONTINUOUS
 62
     7
100
AcDbCircle
 10
1034.98944839862
 20
114.8011396117607
 30
0.0
 40
54.99999999999984
100
AcDbArc
 50
332.9999999995816
 51
333.5207709986242
  0
ARC
  5
7C
330
1F
100
AcDbEntity
  8
0
  6
CONTINUOUS
 62
     7
100
AcDbCircle
 10
1034.98944839862
 20
114.8011396117607
 30
0.0
 40
54.99999999999994
100
AcDbArc
 50
359.0210041199486
 51
27.00000000013949
  0
ARC
  5
7D
330
1F
100
AcDbEntity
  8
0
  6
CONTINUOUS
 62
     7
100
AcDbCircle
 10
1034.98944839862
 20
114.8011396117607
 30
0.0
 40
54.99999999999999
100
AcDbArc
 50
40.00000000017518
 51
50.00000000017527
  0
ARC
  5
7E
330
1F
100
AcDbEntity
  8
0
  6
CONTINUOUS
 62
     7
100
AcDbCircle
 10
1034.98944839862
 20
114.8011396117607
 30
0.0
 40
54.99999999999998
100
AcDbArc
 50
63.00000000013974
 51
88.69767373583664
  0
ARC
  5
7F
330
1F
100
AcDbEntity
  8
0
  6
CONTINUOUS
 62
     7
100
AcDbCircle
 10
1034.98944839862
 20
114.8011396117607
 30
0.0
 40
54.99999999999996
100
AcDbArc
 50
88.69767373583664
 51
88.9582011494832
  0
CIRCLE
  5
80
330
1F
100
AcDbEntity
  8
0
  6
CONTINUOUS
 62
     7
100
AcDbCircle
 10
1034.994965189816
 20
115.3224597346988
 30
0.0
 40
58.22547330535884
  0
LINE
  5
81
330
1F
100
AcDbEntity
  8
0
  6
CONTINUOUS
 62
     7
100
AcDbLine
 10
1035.989448398679
 20
169.7920479512287
 30
0.0
 11
1035.989448398678
 21
168.7705259824087
 31
0.0
  0
LINE
  5
82
330
1F
100
AcDbEntity
  8
0
  6
CONTINUOUS
 62
     7
100
AcDbLine
 10
1033.989448398679
 20
169.7920479512309
 30
0.0
 11
1033.989448398678
 21
168.7705259824109
 31
0.0
  0
LINE
  5
83
330
1F
100
AcDbEntity
  8
0
  6
CONTINUOUS
 62
     7
100
AcDbLine
 10
1033.989448399076
 20
171.5131340132906
 30
0.0
 11
1035.989448399076
 21
171.5131340132884
 31
0.0
  0
LINE
  5
84
330
1F
100
AcDbEntity
  8
0
  6
CONTINUOUS
 62
     7
100
AcDbLine
 10
1010.473961412642
 20
162.9154919187673
 30
0.0
 11
1010.019970912935
 21
163.8064984429153
 31
0.0
  0
ARC
  5
85
330
1F
100
AcDbEntity
  8
0
  6
CONTINUOUS
 62
     7
100
AcDbCircle
 10
1034.989448398084
 20
114.8011396122964
 30
0.0
 40
55.00000000000004
100
AcDbArc
 50
91.30228893456709
 51
116.999999999389
  0
LINE
  5
86
330
1F
100
AcDbEntity
  8
0
  6
CONTINUOUS
 62
     7
100
AcDbLine
 10
1033.739448398622
 20
168.8011396123389
 30
0.0
 11
1033.73944839867
 21
169.7869332321084
 31
0.0
  0
LINE
  5
87
330
1F
100
AcDbEntity
  8
0
  6
CONTINUOUS
 62
     7
100
AcDbLine
 10
1034.989448398622
 20
168.8011396123256
 30
0.0
 11
1033.739448398622
 21
168.8011396123389
 31
0.0
  0
LINE
  5
88
330
1F
100
AcDbEntity
  8
0
  6
CONTINUOUS
 62
     7
100
AcDbLine
 10
1059.958925884278
 20
163.8064984423827
 30
0.0
 11
1059.504935384536
 21
162.9154919182141
 31
0.0
  0
LINE
  5
89
330
1F
100
AcDbEntity
  8
0
  6
CONTINUOUS
 62
     7
100
AcDbLine
 10
1036.239448398622
 20
168.8011396123123
 30
0.0
 11
1034.989448398622
 21
168.8011396123256
 31
0.0
  0
LINE
  5
8A
330
1F
100
AcDbEntity
  8
0
  6
CONTINUOUS
 62
     7
100
AcDbLine
 10
1036.23944839867
 20
169.7869332320817
 30
0.0
 11
1036.239448398622
 21
168.8011396123123
 31
0.0
  0
ARC
  5
8B
330
1F
100
AcDbEntity
  8
0
  6
CONTINUOUS
 62
     7
100
AcDbCircle
 10
1034.989448398084
 20
114.8011396122964
 30
0.0
 40
55.00000000000001
100
AcDbArc
 50
62.99999999938869
 51
88.6977110642107
  0
ARC
  5
8C
330
1F
100
AcDbEntity
  8
0
  6
CONTINUOUS
 62
     7
100
AcDbCircle
 10
1034.989448398046
 20
114.8011396123338
 30
0.0
 40
47.99999999999994
100
AcDbArc
 50
116.999999999389
 51
129.9999999993891
  0
LINE
  5
8D
330
1F
100
AcDbEntity
  8
0
  6
CONTINUOUS
 62
     7
100
AcDbLine
 10
1013.197904411007
 20
157.5694527736014
 30
0.0
 11
1010.473961412627
 21
162.9154919187599
 31
0.0
  0
LINE
  5
8E
330
1F
100
AcDbEntity
  8
0
  6
CONTINUOUS
 62
     7
100
AcDbLine
 10
1059.504935384491
 20
162.9154919182369
 30
0.0
 11
1056.780992385998
 21
157.5694527731366
 31
0.0
  0
ARC
  5
8F
330
1F
100
AcDbEntity
  8
0
  6
CONTINUOUS
 62
     7
100
AcDbCircle
 10
1034.989448398046
 20
114.8011396123338
 30
0.0
 40
48.0
100
AcDbArc
 50
49.9999999993887
 51
62.99999999938869
  0
LINE
  5
90
330
1F
100
AcDbEntity
  8
0
  6
CONTINUOUS
 62
     7
100
AcDbLine
 10
1065.843253663388
 20
151.5712728817101
 30
0.0
 11
1069.699979321555
 21
156.1675395403821
 31
0.0
  0
LINE
  5
91
330
1F
100
AcDbEntity
  8
0
  6
CONTINUOUS
 62
     7
100
AcDbLine
 10
1076.355848326835
 20
149.5116705349604
 30
0.0
 11
1071.759581668081
 21
145.6549448768908
 31
0.0
  0
ARC
  5
92
330
1F
100
AcDbEntity
  8
0
  6
CONTINUOUS
 62
     7
100
AcDbCircle
 10
1034.989448398046
 20
114.8011396123338
 30
0.0
 40
48.0000000000001
100
AcDbArc
 50
26.99999999938865
 51
39.99999999938865
  0
LINE
  5
93
330
1F
100
AcDbEntity
  8
0
  6
CONTINUOUS
 62
     7
100
AcDbLine
 10
1077.757761559314
 20
136.5926835993725
 30
0.0
 11
1083.103800704473
 21
139.3166265977524
 31
0.0
  0
LINE
  5
94
330
1F
100
AcDbEntity
  8
0
  6
CONTINUOUS
 62
     7
100
AcDbLine
 10
1083.10380070395
 20
90.28565262588879
 30
0.0
 11
1077.757761558849
 21
93.00959562438268
 31
0.0
  0
ARC
  5
95
330
1F
100
AcDbEntity
  8
0
  6
CONTINUOUS
 62
     7
100
AcDbCircle
 10
1034.989448398046
 20
114.8011396123338
 30
0.0
 40
48.00000000000014
100
AcDbArc
 50
319.999999999389
 51
332.999999999389
  0
LINE
  5
96
330
1F
100
AcDbEntity
  8
0
  6
CONTINUOUS
 62
     7
100
AcDbLine
 10
1071.759581667423
 20
83.94733434699239
 30
0.0
 11
1076.355848326095
 21
80.09060868882473
 31
0.0
  0
LINE
  5
97
330
1F
100
AcDbEntity
  8
0
  6
CONTINUOUS
 62
     7
100
AcDbLine
 10
1069.699979320673
 20
73.43473968354502
 30
0.0
 11
1065.843253662604
 21
78.0310063422993
 31
0.0
  0
ARC
  5
98
330
1F
100
AcDbEntity
  8
0
  6
CONTINUOUS
 62
     7
100
AcDbCircle
 10
1034.989448398046
 20
114.8011396123338
 30
0.0
 40
48.00000000000011
100
AcDbArc
 50
296.999999999389
 51
309.999999999389
  0
LINE
  5
99
330
1F
100
AcDbEntity
  8
0
  6
CONTINUOUS
 62
     7
100
AcDbLine
 10
1056.780992385085
 20
72.03282645106619
 30
0.0
 11
1059.504935383465
 21
66.68678730590774
 31
0.0
  0
LINE
  5
9A
330
1F
100
AcDbEntity
  8
0
  6
CONTINUOUS
 62
     7
100
AcDbLine
 10
1010.473961411601
 20
66.68678730643074
 30
0.0
 11
1013.197904410095
 21
72.03282645153108
 31
0.0
  0
ARC
  5
9B
330
1F
100
AcDbEntity
  8
0
  6
CONTINUOUS
 62
     7
100
AcDbCircle
 10
1034.989448398046
 20
114.8011396123338
 30
0.0
 40
47.99999999999998
100
AcDbArc
 50
229.9999999993887
 51
242.9999999993887
  0
LINE
  5
9C
330
1F
100
AcDbEntity
  8
0
  6
CONTINUOUS
 62
     7
100
AcDbLine
 10
1004.135643132705
 20
78.03100634295753
 30
0.0
 11
1000.278917474537
 21
73.4347396842855
 31
0.0
  0
LINE
  5
9D
330
1F
100
AcDbEntity
  8
0
  6
CONTINUOUS
 62
     7
100
AcDbLine
 10
993.6230484692571
 20
80.09060868970718
 30
0.0
 11
998.2193151280115
 21
83.9473343477768
 31
0.0
  0
ARC
  5
9E
330
1F
100
AcDbEntity
  8
0
  6
CONTINUOUS
 62
     7
100
AcDbCircle
 10
1034.989448398046
 20
114.8011396123338
 30
0.0
 40
47.99999999999994
100
AcDbArc
 50
206.9999999993887
 51
219.9999999993886
  0
LINE
  5
9F
330
1F
100
AcDbEntity
  8
0
  6
CONTINUOUS
 62
     7
100
AcDbLine
 10
992.2211352367783
 20
93.00959562529506
 30
0.0
 11
986.8750960916198
 21
90.28565262691522
 31
0.0
  0
LINE
  5
A0
330
1F
100
AcDbEntity
  8
0
  6
CONTINUOUS
 62
     7
100
AcDbLine
 10
986.8750960921428
 20
139.3166265987788
 30
0.0
 11
992.2211352372432
 21
136.5926836002849
 31
0.0
  0
ARC
  5
A1
330
1F
100
AcDbEntity
  8
0
  6
CONTINUOUS
 62
     7
100
AcDbCircle
 10
1034.989448398046
 20
114.8011396123338
 30
0.0
 40
47.99999999999992
100
AcDbArc
 50
139.999999999389
 51
152.999999999389
  0
LINE
  5
A2
330
1F
100
AcDbEntity
  8
0
  6
CONTINUOUS
 62
     7
100
AcDbLine
 10
998.2193151286697
 20
145.6549448776752
 30
0.0
 11
993.6230484699976
 21
149.5116705358429
 31
0.0
  0
LINE
  5
A3
330
1F
100
AcDbEntity
  8
0
  6
CONTINUOUS
 62
     7
100
AcDbLine
 10
1000.278917475419
 20
156.1675395411226
 30
0.0
 11
1004.135643133489
 21
151.5712728823683
 31
0.0
  0
LINE
  5
A4
330
1F
100
AcDbEntity
  8
0
  6
CONTINUOUS
 62
     7
100
AcDbLine
 10
1076.355848326092
 20
80.0906086888212
 30
0.0
 11
1077.121892769244
 21
79.4478210790929
 31
0.0
  0
ARC
  5
A5
330
1F
100
AcDbEntity
  8
0
  6
CONTINUOUS
 62
     7
100
AcDbCircle
 10
1034.989448398084
 20
114.8011396122964
 30
0.0
 40
54.99999999999999
100
AcDbArc
 50
309.999999999389
 51
319.999999999389
  0
LINE
  5
A6
330
1F
100
AcDbEntity
  8
0
  6
CONTINUOUS
 62
     7
100
AcDbLine
 10
1070.342766930389
 20
72.66869524038202
 30
0.0
 11
1069.699979320677
 21
73.43473968354799
 31
0.0
  0
ARC
  5
A7
330
1F
100
AcDbEntity
  8
0
  6
CONTINUOUS
 62
     7
100
AcDbCircle
 10
1034.989448398084
 20
114.8011396122964
 30
0.0
 40
54.99999999999994
100
AcDbArc
 50
332.999999999389
 51
359.9999999993888
  0
LINE
  5
A8
330
1F
100
AcDbEntity
  8
0
  6
CONTINUOUS
 62
     7
100
AcDbLine
 10
1083.103800704496
 20
139.3166265977076
 30
0.0
 11
1083.994807228703
 21
139.7706170974449
 31
0.0
  0
ARC
  5
A9
330
1F
100
AcDbEntity
  8
0
  6
CONTINUOUS
 62
     7
100
AcDbCircle
 10
1034.989448398084
 20
114.8011396122964
 30
0.0
 40
54.99999999999988
100
AcDbArc
 50
359.9999999993888
 51
26.99999999938865
  0
LINE
  5
AA
330
1F
100
AcDbEntity
  8
0
  6
CONTINUOUS
 62
     7
100
AcDbLine
 10
1083.99480722817
 20
89.8316621261025
 30
0.0
 11
1083.103800703942
 21
90.28565262587425
 31
0.0
  0
LINE
  5
AB
330
1F
100
AcDbEntity
  8
0
  6
CONTINUOUS
 62
     7
100
AcDbLine
 10
1059.50493538348
 20
66.68678730591517
 30
0.0
 11
1059.958925883232
 21
65.79578078167754
 31
0.0
  0
ARC
  5
AC
330
1F
100
AcDbEntity
  8
0
  6
CONTINUOUS
 62
     7
100
AcDbCircle
 10
1034.989448398084
 20
114.8011396122964
 30
0.0
 40
55.00000000000002
100
AcDbArc
 50
242.9999999993886
 51
296.999999999389
  0
LINE
  5
AD
330
1F
100
AcDbEntity
  8
0
  6
CONTINUOUS
 62
     7
100
AcDbLine
 10
1010.01997091189
 20
65.79578078221009
 30
0.0
 11
1010.473961411646
 21
66.6867873064079
 31
0.0
  0
LINE
  5
AE
330
1F
100
AcDbEntity
  8
0
  6
CONTINUOUS
 62
     7
100
AcDbLine
 10
1069.699979321596
 20
156.1675395403483
 30
0.0
 11
1070.342766931288
 21
156.9335839834565
 31
0.0
  0
ARC
  5
AF
330
1F
100
AcDbEntity
  8
0
  6
CONTINUOUS
 62
     7
100
AcDbCircle
 10
1034.989448398084
 20
114.8011396122964
 30
0.0
 40
54.99999999999991
100
AcDbArc
 50
39.99999999938854
 51
49.99999999938865
  0
LINE
  5
B0
330
1F
100
AcDbEntity
  8
0
  6
CONTINUOUS
 62
     7
100
AcDbLine
 10
1077.121892769998
 20
150.1544581446012
 30
0.0
 11
1076.355848326869
 21
149.51167053492
 31
0.0
  0
ARC
  5
B1
330
1F
100
AcDbEntity
  8
0
  6
CONTINUOUS
 62
     7
100
AcDbCircle
 10
1034.989448398084
 20
114.8011396122964
 30
0.0
 40
55.00000000000001
100
AcDbArc
 50
219.9999999993886
 51
229.9999999993887
  0
LINE
  5
B2
330
1F
100
AcDbEntity
  8
0
  6
CONTINUOUS
 62
     7
100
AcDbLine
 10
992.857004026169
 20
79.44782107999163
 30
0.0
 11
993.623048469291
 21
80.09060868966684
 31
0.0
  0
LINE
  5
B3
330
1F
100
AcDbEntity
  8
0
  6
CONTINUOUS
 62
     7
100
AcDbLine
 10
1000.278917474577
 20
73.43473968425162
 30
0.0
 11
999.63612986488
 21
72.66869524113633
 31
0.0
  0
ARC
  5
B4
330
1F
100
AcDbEntity
  8
0
  6
CONTINUOUS
 62
     7
100
AcDbCircle
 10
1034.989448398084
 20
114.8011396122964
 30
0.0
 40
55.00000000000008
100
AcDbArc
 50
152.999999999389
 51
206.9999999993887
  0
LINE
  5
B5
330
1F
100
AcDbEntity
  8
0
  6
CONTINUOUS
 62
     7
100
AcDbLine
 10
985.984089567997
 20
139.7706170984904
 30
0.0
 11
986.8750960921354
 21
139.3166265987643
 31
0.0
  0
LINE
  5
B6
330
1F
100
AcDbEntity
  8
0
  6
CONTINUOUS
 62
     7
100
AcDbLine
 10
986.8750960916427
 20
90.28565262687042
 30
0.0
 11
985.9840895674644
 21
89.831662127148
 31
0.0
  0
ARC
  5
B7
330
1F
100
AcDbEntity
  8
0
  6
CONTINUOUS
 62
     7
100
AcDbCircle
 10
1034.989448398084
 20
114.8011396122964
 30
0.0
 40
54.99999999999997
100
AcDbArc
 50
129.9999999993889
 51
139.999999999389
  0
LINE
  5
B8
330
1F
100
AcDbEntity
  8
0
  6
CONTINUOUS
 62
     7
100
AcDbLine
 10
993.6230484699947
 20
149.5116705358394
 30
0.0
 11
992.8570040269233
 21
150.1544581454999
 31
0.0
  0
LINE
  5
B9
330
1F
100
AcDbEntity
  8
0
  6
CONTINUOUS
 62
     7
100
AcDbLine
 10
999.6361298657787
 20
156.9335839842108
 30
0.0
 11
1000.278917475423
 21
156.1675395411256
 31
0.0
  0
CIRCLE
  5
BA
330
1F
100
AcDbEntity
  8
0
  6
CONTINUOUS
 62
     7
100
AcDbCircle
 10
1034.989448402442
 20
114.8011396079416
 30
0.0
 40
37.49999999999964
  0
ARC
  5
BB
330
1F
100
AcDbEntity
  8
0
  6
CONTINUOUS
 62
     7
100
AcDbCircle
 10
1034.989448398196
 20
114.8011396121843
 30
0.0
 40
54.99999999999998
100
AcDbArc
 50
319.999999999389
 51
332.999999999389
  0
ARC
  5
BC
330
1F
100
AcDbEntity
  8
0
  6
CONTINUOUS
 62
     7
100
AcDbCircle
 10
1034.989448398196
 20
114.8011396121843
 30
0.0
 40
55.00000000000002
100
AcDbArc
 50
296.999999999389
 51
309.999999999389
  0
ARC
  5
BD
330
1F
100
AcDbEntity
  8
0
  6
CONTINUOUS
 62
     7
100
AcDbCircle
 10
1034.989448398196
 20
114.8011396121843
 30
0.0
 40
55.00000000000008
100
AcDbArc
 50
26.99999999938866
 51
39.99999999938857
  0
ARC
  5
BE
330
1F
100
AcDbEntity
  8
0
  6
CONTINUOUS
 62
     7
100
AcDbCircle
 10
1034.989448398196
 20
114.8011396121843
 30
0.0
 40
54.99999999999994
100
AcDbArc
 50
229.9999999993887
 51
242.9999999993887
  0
ARC
  5
BF
330
1F
100
AcDbEntity
  8
0
  6
CONTINUOUS
 62
     7
100
AcDbCircle
 10
1034.989448398196
 20
114.8011396121843
 30
0.0
 40
55.00000000000008
100
AcDbArc
 50
49.99999999938867
 51
62.99999999938869
  0
ARC
  5
C0
330
1F
100
AcDbEntity
  8
0
  6
CONTINUOUS
 62
     7
100
AcDbCircle
 10
1034.989448398196
 20
114.8011396121843
 30
0.0
 40
54.99999999999997
100
AcDbArc
 50
206.9999999993887
 51
219.9999999993887
  0
ARC
  5
C1
330
1F
100
AcDbEntity
  8
0
  6
CONTINUOUS
 62
     7
100
AcDbCircle
 10
1034.989448398196
 20
114.8011396121843
 30
0.0
 40
54.99999999999999
100
AcDbArc
 50
116.999999999389
 51
129.9999999993891
  0
ARC
  5
C2
330
1F
100
AcDbEntity
  8
0
  6
CONTINUOUS
 62
     7
100
AcDbCircle
 10
1034.989448398196
 20
114.8011396121843
 30
0.0
 40
54.99999999999998
100
AcDbArc
 50
139.9999999993891
 51
152.999999999389
  0
LINE
  5
C3
330
1F
100
AcDbEntity
  8
0
  6
CONTINUOUS
 62
     7
100
AcDbLine
 10
980.303682704896
 20
135.3036104572595
 30
0.0
 11
980.3845102788873
 21
139.9342190699277
 31
0.0
  0
LINE
  5
C4
330
1F
100
AcDbEntity
  8
0
  6
CONTINUOUS
 62
     7
100
AcDbLine
 10
980.3845102788872
 20
89.66806013631141
 30
0.0
 11
980.2842979330198
 21
95.40922158598315
 31
0.0
  0
ARC
  5
C5
330
1F
100
AcDbEntity
  8
0
  6
CONTINUOUS
 62
     7
100
AcDbCircle
 10
1010.379941133579
 20
90.19163232942992
 30
0.0
 40
29.99999999999998
100
AcDbArc
 50
181.0
 51
269.0
  0
ARC
  5
C6
330
1F
100
AcDbEntity
  8
0
  6
CONTINUOUS
 62
     7
100
AcDbCircle
 10
1010.379941133579
 20
139.4106468768092
 30
0.0
 40
29.99999999999996
100
AcDbArc
 50
91.0
 51
179.0
  0
LINE
  5
C7
330
1F
100
AcDbEntity
  8
0
  6
CONTINUOUS
 62
     7
100
AcDbLine
 10
1016.631003281188
 20
60.07794979245586
 30
0.0
 11
1009.85636894046
 21
60.1962014747382
 31
0.0
  0
LINE
  5
C8
330
1F
100
AcDbEntity
  8
0
  6
CONTINUOUS
 62
     7
100
AcDbLine
 10
1009.85636894046
 20
169.4060777315009
 30
0.0
 11
1013.59628202962
 21
169.4713581572981
 31
0.0
  0
LINE
  5
C9
330
1F
100
AcDbEntity
  8
0
  6
CONTINUOUS
 62
     7
100
AcDbLine
 10
1060.122527874077
 20
60.19620147473815
 30
0.0
 11
1053.345691180079
 21
60.07791135023649
 31
0.0
  0
LINE
  5
CA
330
1F
100
AcDbEntity
  8
0
  6
CONTINUOUS
 62
     7
100
AcDbLine
 10
1056.357219559587
 20
169.471801432605
 30
0.0
 11
1060.122527874077
 21
169.4060777315009
 31
0.0
  0
LINE
  5
CB
330
1F
100
AcDbEntity
  8
0
  6
CONTINUOUS
 62
     7
100
AcDbLine
 10
1089.59438653565
 20
139.9342190699277
 30
0.0
 11
1089.675455392398
 21
135.2897873773948
 31
0.0
  0
ARC
  5
CC
330
1F
100
AcDbEntity
  8
0
  6
CONTINUOUS
 62
     7
100
AcDbCircle
 10
1059.598955680958
 20
90.1916323294299
 30
0.0
 40
29.99999999999996
100
AcDbArc
 50
271.0
 51
358.9999999999999
  0
ARC
  5
CD
330
1F
100
AcDbEntity
  8
0
  6
CONTINUOUS
 62
     7
100
AcDbCircle
 10
1059.598955680958
 20
139.4106468768091
 30
0.0
 40
29.99999999999999
100
AcDbArc
 50
1.0
 51
89.00000000000001
  0
LINE
  5
CE
330
1F
100
AcDbEntity
  8
0
  6
CONTINUOUS
 62
     7
100
AcDbLine
 10
1089.695092069124
 20
95.43747628502209
 30
0.0
 11
1089.59438653565
 21
89.66806013631137
 31
0.0
  0
LINE
  5
CF
330
1F
100
AcDbEntity
  8
0
  6
CONTINUOUS
 62
     7
100
AcDbLine
 10
1089.792293087084
 20
134.9795486940286
 30
0.0
 11
1089.980870628759
 21
134.9795486940286
 31
0.0
  0
LINE
  5
D0
330
1F
100
AcDbEntity
  8
0
  6
CONTINUOUS
 62
     7
100
AcDbLine
 10
1089.980870628759
 20
134.9795486940286
 30
0.0
 11
1089.991200514885
 21
134.3877499142554
 31
0.0
  0
LINE
  5
D1
330
1F
100
AcDbEntity
  8
0
  6
CONTINUOUS
 62
     7
100
AcDbLine
 10
1089.935822976206
 20
96.0954577849377
 30
0.0
 11
1090.006577178926
 21
96.0954577849377
 31
0.0
  0
LINE
  5
D2
330
1F
100
AcDbEntity
  8
0
  6
CONTINUOUS
 62
     7
100
AcDbLine
 10
1090.006577178926
 20
96.0954577849377
 30
0.0
 11
1089.998008328871
 21
95.6045486940286
 31
0.0
  0
LINE
  5
D3
330
1F
100
AcDbEntity
  8
0
  6
CONTINUOUS
 62
     7
100
AcDbLine
 10
1089.756217636596
 20
95.6045486940286
 30
0.0
 11
1089.998008328871
 21
95.6045486940286
 31
0.0
  0
LINE
  5
D4
330
1F
100
AcDbEntity
  8
0
  6
CONTINUOUS
 62
     7
100
AcDbLine
 10
1090.010121932186
 20
96.29853656319156
 30
0.0
 11
1090.006577178926
 21
96.0954577849377
 31
0.0
  0
LINE
  5
D5
330
1F
100
AcDbEntity
  8
0
  6
CONTINUOUS
 62
     7
100
AcDbLine
 10
1089.977960035333
 20
135.1462964797113
 30
0.0
 11
1089.979996330027
 21
135.0296372348461
 31
0.0
  0
LINE
  5
D6
330
1F
100
AcDbEntity
  8
0
  6
CONTINUOUS
 62
     7
100
AcDbLine
 10
1089.977969312431
 20
135.1462964829434
 30
0.0
 11
1089.730418805145
 21
135.1462964829434
 31
0.0
  0
ARC
  5
D7
330
1F
100
AcDbEntity
  8
0
  6
CONTINUOUS
 62
     7
100
AcDbCircle
 10
474.9963693136628
 20
115.3261452059805
 30
0.0
 40
58.23462704429983
100
AcDbArc
 50
340.0276176659099
 51
20.06330087083001
  0
ARC
  5
D8
330
1F
100
AcDbEntity
  8
0
  6
CONTINUOUS
 62
     7
100
AcDbCircle
 10
475.0105509770077
 20
115.3351399947913
 30
0.0
 40
58.21844014185798
100
AcDbArc
 50
68.41606451021435
 51
111.5688240831459
  0
ARC
  5
D9
330
1F
100
AcDbEntity
  8
0
  6
CONTINUOUS
 62
     7
100
AcDbCircle
 10
475.0251695024595
 20
115.3261447691861
 30
0.0
 40
58.23504084464435
100
AcDbArc
 50
160.8903507423913
 51
199.0716342086336
  0
ARC
  5
DA
330
1F
100
AcDbEntity
  8
0
  6
CONTINUOUS
 62
     7
100
AcDbCircle
 10
475.0105516572871
 20
115.3120362900011
 30
0.0
 40
58.21360342884713
100
AcDbArc
 50
251.6140109333314
 51
288.4036886473071
  0
LINE
  5
DB
330
1F
100
AcDbEntity
  8
0
  6
CONTINUOUS
 62
     7
100
AcDbLine
 10
450.0105515927314
 20
62.05113960311949
 30
0.0
 11
500.0105515927313
 21
62.05113960311952
 31
0.0
  0
ARC
  5
DC
330
1F
100
AcDbEntity
  8
0
  6
CONTINUOUS
 62
     7
100
AcDbCircle
 10
450.0105515927314
 20
139.8011396031195
 30
0.0
 40
27.75
100
AcDbArc
 50
89.99999999999996
 51
180.0
  0
LINE
  5
DD
330
1F
100
AcDbEntity
  8
0
  6
CONTINUOUS
 62
     7
100
AcDbLine
 10
500.0105515927313
 20
167.5511396031195
 30
0.0
 11
450.0105515927313
 21
167.5511396031195
 31
0.0
  0
ARC
  5
DE
330
1F
100
AcDbEntity
  8
0
  6
CONTINUOUS
 62
     7
100
AcDbCircle
 10
500.0105515927313
 20
89.80113960311952
 30
0.0
 40
27.75000000000001
100
AcDbArc
 50
269.9999999999999
 51
0.0
  0
LINE
  5
DF
330
1F
100
AcDbEntity
  8
0
  6
CONTINUOUS
 62
     7
100
AcDbLine
 10
422.2605515927314
 20
139.8011396031195
 30
0.0
 11
422.2605515927314
 21
89.80113960311951
 31
0.0
  0
ARC
  5
E0
330
1F
100
AcDbEntity
  8
0
  6
CONTINUOUS
 62
     7
100
AcDbCircle
 10
450.0105515927314
 20
89.8011396031195
 30
0.0
 40
27.75
100
AcDbArc
 50
180.0
 51
270.0
  0
LINE
  5
E1
330
1F
100
AcDbEntity
  8
0
  6
CONTINUOUS
 62
     7
100
AcDbLine
 10
527.7605515927314
 20
89.80113960311952
 30
0.0
 11
527.7605515927313
 21
139.8011396031195
 31
0.0
  0
ARC
  5
E2
330
1F
100
AcDbEntity
  8
0
  6
CONTINUOUS
 62
     7
100
AcDbCircle
 10
500.0105515927313
 20
139.8011396031195
 30
0.0
 40
27.75
100
AcDbArc
 50
359.9999999999998
 51
90.0
  0
ARC
  5
E3
330
1F
100
AcDbEntity
  8
0
  6
CONTINUOUS
 62
     7
100
AcDbCircle
 10
499.6200588664209
 20
139.4106468768092
 30
0.0
 40
29.99999999999996
100
AcDbArc
 50
1.000000000000021
 51
89.00000000000001
  0
LINE
  5
E4
330
1F
100
AcDbEntity
  8
0
  6
CONTINUOUS
 62
     7
100
AcDbLine
 10
530.0105515927313
 20
117.3011396031191
 30
0.0
 11
529.6154897211127
 21
139.9342190699277
 31
0.0
  0
LINE
  5
E5
330
1F
100
AcDbEntity
  8
0
  6
CONTINUOUS
 62
     7
100
AcDbLine
 10
530.0105515927313
 20
112.3011396031195
 30
0.0
 11
530.0105515927313
 21
117.3011396031191
 31
0.0
  0
LINE
  5
E6
330
1F
100
AcDbEntity
  8
0
  6
CONTINUOUS
 62
     7
100
AcDbLine
 10
529.6154897211127
 20
89.66806013631141
 30
0.0
 11
530.0105515927313
 21
112.3011396031195
 31
0.0
  0
ARC
  5
E7
330
1F
100
AcDbEntity
  8
0
  6
CONTINUOUS
 62
     7
100
AcDbCircle
 10
499.620058866421
 20
90.19163232942992
 30
0.0
 40
29.99999999999999
100
AcDbArc
 50
271.0
 51
358.9999999999999
  0
LINE
  5
E8
330
1F
100
AcDbEntity
  8
0
  6
CONTINUOUS
 62
     7
100
AcDbLine
 10
477.510551592731
 20
59.80113960311955
 30
0.0
 11
500.1436310595395
 21
60.1962014747382
 31
0.0
  0
LINE
  5
E9
330
1F
100
AcDbEntity
  8
0
  6
CONTINUOUS
 62
     7
100
AcDbLine
 10
472.5105515927314
 20
59.80113960311951
 30
0.0
 11
477.510551592731
 21
59.80113960311955
 31
0.0
  0
LINE
  5
EA
330
1F
100
AcDbEntity
  8
0
  6
CONTINUOUS
 62
     7
100
AcDbLine
 10
449.8774721259232
 20
60.19620147473815
 30
0.0
 11
472.5105515927314
 21
59.80113960311951
 31
0.0
  0
ARC
  5
EB
330
1F
100
AcDbEntity
  8
0
  6
CONTINUOUS
 62
     7
100
AcDbCircle
 10
450.4010443190418
 20
90.19163232942988
 30
0.0
 40
30.00000000000001
100
AcDbArc
 50
181.0
 51
269.0
  0
LINE
  5
EC
330
1F
100
AcDbEntity
  8
0
  6
CONTINUOUS
 62
     7
100
AcDbLine
 10
420.0105515927314
 20
112.3011396031199
 30
0.0
 11
420.40561346435
 21
89.66806013631137
 31
0.0
  0
LINE
  5
ED
330
1F
100
AcDbEntity
  8
0
  6
CONTINUOUS
 62
     7
100
AcDbLine
 10
420.0105515927313
 20
117.3011396031195
 30
0.0
 11
420.0105515927314
 21
112.3011396031199
 31
0.0
  0
LINE
  5
EE
330
1F
100
AcDbEntity
  8
0
  6
CONTINUOUS
 62
     7
100
AcDbLine
 10
420.40561346435
 20
139.9342190699277
 30
0.0
 11
420.0105515927313
 21
117.3011396031195
 31
0.0
  0
ARC
  5
EF
330
1F
100
AcDbEntity
  8
0
  6
CONTINUOUS
 62
     7
100
AcDbCircle
 10
450.4010443190417
 20
139.4106468768091
 30
0.0
 40
29.99999999999999
100
AcDbArc
 50
91.00000000000001
 51
179.0
  0
LINE
  5
F0
330
1F
100
AcDbEntity
  8
0
  6
CONTINUOUS
 62
     7
100
AcDbLine
 10
472.5105515927318
 20
169.8011396031195
 30
0.0
 11
449.8774721259232
 21
169.4060777315009
 31
0.0
  0
LINE
  5
F1
330
1F
100
AcDbEntity
  8
0
  6
CONTINUOUS
 62
     7
100
AcDbLine
 10
477.5105515927314
 20
169.8011396031195
 30
0.0
 11
472.5105515927318
 21
169.8011396031195
 31
0.0
  0
LINE
  5
F2
330
1F
100
AcDbEntity
  8
0
  6
CONTINUOUS
 62
     7
100
AcDbLine
 10
500.1436310595395
 20
169.4060777315009
 30
0.0
 11
477.5105515927314
 21
169.8011396031195
 31
0.0
  0
ARC
  5
F3
330
1F
100
AcDbEntity
  8
0
  6
CONTINUOUS
 62
     7
100
AcDbCircle
 10
450.0105515927314
 20
89.80113960311951
 30
0.0
 40
25.29999999999999
100
AcDbArc
 50
180.0
 51
270.0
  0
LINE
  5
F4
330
1F
100
AcDbEntity
  8
0
  6
CONTINUOUS
 62
     7
100
AcDbLine
 10
450.0105515927314
 20
64.50113960311951
 30
0.0
 11
500.0105515927313
 21
64.50113960311951
 31
0.0
  0
LINE
  5
F5
330
1F
100
AcDbEntity
  8
0
  6
CONTINUOUS
 62
     7
100
AcDbLine
 10
500.0105515927313
 20
165.1011396031195
 30
0.0
 11
450.0105515927313
 21
165.1011396031195
 31
0.0
  0
ARC
  5
F6
330
1F
100
AcDbEntity
  8
0
  6
CONTINUOUS
 62
     7
100
AcDbCircle
 10
450.0105515927314
 20
139.8011396031195
 30
0.0
 40
25.29999999999999
100
AcDbArc
 50
89.99999999999999
 51
180.0
  0
ARC
  5
F7
330
1F
100
AcDbEntity
  8
0
  6
CONTINUOUS
 62
     7
100
AcDbCircle
 10
500.0105515927313
 20
139.8011396031195
 30
0.0
 40
25.29999999999999
100
AcDbArc
 50
0.0
 51
90.0
  0
ARC
  5
F8
330
1F
100
AcDbEntity
  8
0
  6
CONTINUOUS
 62
     7
100
AcDbCircle
 10
500.0105515927313
 20
89.80113960311951
 30
0.0
 40
25.29999999999999
100
AcDbArc
 50
270.0
 51
0.0
  0
LINE
  5
F9
330
1F
100
AcDbEntity
  8
0
  6
CONTINUOUS
 62
     7
100
AcDbLine
 10
525.3105515927314
 20
89.80113960311952
 30
0.0
 11
525.3105515927314
 21
139.8011396031195
 31
0.0
  0
LINE
  5
FA
330
1F
100
AcDbEntity
  8
0
  6
CONTINUOUS
 62
     7
100
AcDbLine
 10
424.7105515927313
 20
139.8011396031195
 30
0.0
 11
424.7105515927313
 21
89.80113960311951
 31
0.0
  0
ARC
  5
FB
330
1F
100
AcDbEntity
  8
0
  6
CONTINUOUS
 62
     7
100
AcDbCircle
 10
500.0105515927313
 20
89.80113960311951
 30
0.0
 40
23.99999999999999
100
AcDbArc
 50
270.0
 51
0.0
  0
ARC
  5
FC
330
1F
100
AcDbEntity
  8
0
  6
CONTINUOUS
 62
     7
100
AcDbCircle
 10
500.0105515927313
 20
139.8011396031195
 30
0.0
 40
23.99999999999996
100
AcDbArc
 50
0.0
 51
90.0
  0
LINE
  5
FD
330
1F
100
AcDbEntity
  8
0
  6
CONTINUOUS
 62
     7
100
AcDbLine
 10
524.0105515927313
 20
89.80113960311952
 30
0.0
 11
524.0105515927313
 21
139.8011396031195
 31
0.0
  0
LINE
  5
FE
330
1F
100
AcDbEntity
  8
0
  6
CONTINUOUS
 62
     7
100
AcDbLine
 10
500.0105515927313
 20
163.8011396031195
 30
0.0
 11
450.0105515927313
 21
163.8011396031195
 31
0.0
  0
LINE
  5
FF
330
1F
100
AcDbEntity
  8
0
  6
CONTINUOUS
 62
     7
100
AcDbLine
 10
450.0105515927314
 20
65.80113960311951
 30
0.0
 11
500.0105515927313
 21
65.80113960311952
 31
0.0
  0
ARC
  5
100
330
1F
100
AcDbEntity
  8
0
  6
CONTINUOUS
 62
     7
100
AcDbCircle
 10
450.0105515927314
 20
139.8011396031195
 30
0.0
 40
24.00000000000002
100
AcDbArc
 50
89.99999999999999
 51
180.0
  0
ARC
  5
101
330
1F
100
AcDbEntity
  8
0
  6
CONTINUOUS
 62
     7
100
AcDbCircle
 10
450.0105515927314
 20
89.80113960311951
 30
0.0
 40
23.99999999999996
100
AcDbArc
 50
180.0
 51
270.0
  0
LINE
  5
102
330
1F
100
AcDbEntity
  8
0
  6
CONTINUOUS
 62
     7
100
AcDbLine
 10
426.0105515927314
 20
139.8011396031195
 30
0.0
 11
426.0105515927314
 21
89.80113960311951
 31
0.0
  0
ARC
  5
103
330
1F
100
AcDbEntity
  8
0
  6
CONTINUOUS
 62
     7
100
AcDbCircle
 10
475.0105515927314
 20
114.8011396031195
 30
0.0
 40
37.49999999999996
100
AcDbArc
 50
270.0
 51
0.0000000000000568
  0
ARC
  5
104
330
1F
100
AcDbEntity
  8
0
  6
CONTINUOUS
 62
     7
100
AcDbCircle
 10
475.0105515927314
 20
114.8011396031196
 30
0.0
 40
37.49999999999998
100
AcDbArc
 50
359.9999999999998
 51
90.0
  0
ARC
  5
105
330
1F
100
AcDbEntity
  8
0
  6
CONTINUOUS
 62
     7
100
AcDbCircle
 10
475.0105515927314
 20
114.8011396031195
 30
0.0
 40
37.50000000000006
100
AcDbArc
 50
90.00000000000009
 51
179.9999999999999
  0
ARC
  5
106
330
1F
100
AcDbEntity
  8
0
  6
CONTINUOUS
 62
     7
100
AcDbCircle
 10
475.0105515927314
 20
114.8011396031195
 30
0.0
 40
37.49999999999998
100
AcDbArc
 50
180.0
 51
270.0
  0
LINE
  5
107
330
1F
100
AcDbEntity
  8
0
  6
CONTINUOUS
 62
     7
100
AcDbLine
 10
917.0999999986451
 20
172.5437476426384
 30
0.0
 11
917.0999999986454
 21
172.5350878762585
 31
0.0
  0
LINE
  5
108
330
1F
100
AcDbEntity
  8
0
  6
CONTINUOUS
 62
     7
100
AcDbLine
 10
917.2600350594684
 20
57.09843280117902
 30
0.0
 11
916.8809915118001
 21
67.76135343464861
 31
0.0
  0
LINE
  5
109
330
1F
100
AcDbEntity
  8
0
  6
CONTINUOUS
 62
     7
100
AcDbLine
 10
928.0999999987079
 20
169.7920479512309
 30
0.0
 11
917.0999999986094
 21
172.5350878762595
 31
0.0
  0
LINE
  5
10A
330
1F
100
AcDbEntity
  8
0
  6
CONTINUOUS
 62
     7
100
AcDbLine
 10
928.0999999987438
 20
169.7920479512298
 30
0.0
 11
928.099999998744
 21
169.7869332318937
 31
0.0
  0
LINE
  5
10B
330
1F
100
AcDbEntity
  8
0
  6
CONTINUOUS
 62
     7
100
AcDbLine
 10
928.0999999987439
 20
169.7869332318939
 30
0.0
 11
928.1000000026958
 21
59.80113961176261
 31
0.0
  0
LINE
  5
10C
330
1F
100
AcDbEntity
  8
0
  6
CONTINUOUS
 62
     7
100
AcDbLine
 10
916.8809915118002
 20
67.76135343464861
 30
0.0
 11
913.0483067115647
 21
173.5539482378745
 31
0.0
  0
LINE
  5
10D
330
1F
100
AcDbEntity
  8
0
  6
CONTINUOUS
 62
     7
100
AcDbLine
 10
878.1000000008056
 20
112.5791104659029
 30
0.0
 11
878.1000000006394
 21
117.0231687594249
 31
0.0
  0
LINE
  5
10E
330
1F
100
AcDbEntity
  8
0
  6
CONTINUOUS
 62
     7
100
AcDbLine
 10
881.099999998579
 20
117.6470928415318
 30
0.0
 11
881.0999999985787
 21
117.6540144215425
 31
0.0
  0
LINE
  5
10F
330
1F
100
AcDbEntity
  8
0
  6
CONTINUOUS
 62
     7
100
AcDbLine
 10
907.7342928092294
 20
169.801139613222
 30
0.0
 11
907.7342928133412
 21
59.80113961321251
 31
0.0
  0
LINE
  5
110
330
1F
100
AcDbEntity
  8
0
  6
CONTINUOUS
 62
     7
100
AcDbLine
 10
903.6000000022375
 20
74.26752905588788
 30
0.0
 11
903.6000000027764
 21
59.85241864677909
 31
0.0
  0
LINE
  5
111
330
1F
100
AcDbEntity
  8
0
  6
CONTINUOUS
 62
     7
100
AcDbLine
 10
903.6000000008111
 20
112.4266787974887
 30
0.0
 11
903.600000002112
 21
77.62552374545757
 31
0.0
  0
LINE
  5
112
330
1F
100
AcDbEntity
  8
0
  6
CONTINUOUS
 62
     7
100
AcDbLine
 10
903.5999999993327
 20
151.9767554815293
 30
0.0
 11
903.6000000006336
 21
117.1756004298066
 31
0.0
  0
LINE
  5
113
330
1F
100
AcDbEntity
  8
0
  6
CONTINUOUS
 62
     7
100
AcDbLine
 10
903.5999999986683
 20
169.7498605793949
 30
0.0
 11
903.5999999992073
 21
155.3347501710306
 31
0.0
  0
LINE
  5
114
330
1F
100
AcDbEntity
  8
0
  6
CONTINUOUS
 62
     7
100
AcDbLine
 10
881.099999998792
 20
111.9482648040624
 30
0.0
 11
881.0999999987918
 21
111.9551862944472
 31
0.0
  0
LINE
  5
115
330
1F
100
AcDbEntity
  8
0
  6
CONTINUOUS
 62
     7
100
AcDbLine
 10
892.0128442578367
 20
81.718315780984
 30
0.0
 11
903.6000000005815
 21
81.03998812878224
 31
0.0
  0
LINE
  5
116
330
1F
100
AcDbEntity
  8
0
  6
CONTINUOUS
 62
     7
100
AcDbLine
 10
892.0128442553635
 20
147.883963445059
 30
0.0
 11
903.5999999980575
 21
148.5622910981431
 31
0.0
  0
LWPOLYLINE
  5
117
330
1F
100
AcDbEntity
  8
0
  6
CONTINUOUS
 62
     7
100
AcDbPolyline
 90
        9
 70
     0
 43
0.0
 10
891.1000000005873
 20
82.38490014332749
 10
891.1171450089215
 20
82.26152569522645
 10
891.1679921313035
 20
82.14238175900866
 10
891.2507978190592
 20
82.03155378223306
 10
891.3627226637753
 20
81.93284205807076
 10
891.4999287606606
 20
81.84963141318873
 10
891.6577113103657
 20
81.78477514198704
 10
891.8306599466314
 20
81.74049716708633
 10
892.0128442578368
 20
81.71831578098401
  0
LINE
  5
118
330
1F
100
AcDbEntity
  8
0
  6
CONTINUOUS
 62
     7
100
AcDbLine
 10
891.1000000019342
 20
82.3849001433199
 30
0.0
 11
891.1000000008291
 21
111.9482648044378
 31
0.0
  0
LINE
  5
119
330
1F
100
AcDbEntity
  8
0
  6
CONTINUOUS
 62
     7
100
AcDbLine
 10
891.1000000006158
 20
117.6540144219169
 30
0.0
 11
891.0999999995106
 21
147.217379082642
 31
0.0
  0
LWPOLYLINE
  5
11A
330
1F
100
AcDbEntity
  8
0
  6
CONTINUOUS
 62
     7
100
AcDbPolyline
 90
        9
 70
     0
 43
0.0
 10
892.0128442553635
 20
147.883963445059
 10
891.8306599441657
 20
147.8617820589437
 10
891.6577113079087
 20
147.8175040840316
 10
891.4999287582123
 20
147.7526478128204
 10
891.3627226613349
 20
147.669437167931
 10
891.250797816626
 20
147.5707254437634
 10
891.1679921288755
 20
147.4598974669847
 10
891.1171450064969
 20
147.3407535307657
 10
891.0999999981639
 20
147.2173790826652
  0
LINE
  5
11B
330
1F
100
AcDbEntity
  8
0
  6
CONTINUOUS
 62
     7
100
AcDbLine
 10
878.0999999990851
 20
111.4346704073138
 30
0.0
 11
878.0999999990197
 21
112.5054585482744
 31
0.0
  0
LINE
  5
11C
330
1F
100
AcDbEntity
  8
0
  6
CONTINUOUS
 62
     7
100
AcDbLine
 10
878.0999999990197
 20
112.5054585482744
 30
0.0
 11
878.0999999990129
 21
112.5822659750141
 31
0.0
  0
LINE
  5
11D
330
1F
100
AcDbEntity
  8
0
  6
CONTINUOUS
 62
     7
100
AcDbLine
 10
878.0999999990129
 20
112.5822659750141
 30
0.0
 11
878.0999999989946
 21
112.7753800802984
 31
0.0
  0
LINE
  5
11E
330
1F
100
AcDbEntity
  8
0
  6
CONTINUOUS
 62
     7
100
AcDbLine
 10
878.0999999988433
 20
116.8268991449491
 30
0.0
 11
878.099999998847
 21
117.0189930908955
 31
0.0
  0
LINE
  5
11F
330
1F
100
AcDbEntity
  8
0
  6
CONTINUOUS
 62
     7
100
AcDbLine
 10
878.0999999988469
 20
117.0189930908955
 30
0.0
 11
878.0999999988334
 21
118.1676088179106
 31
0.0
  0
LINE
  5
120
330
1F
100
AcDbEntity
  8
0
  6
CONTINUOUS
 62
     7
100
AcDbLine
 10
878.0999999995657
 20
145.7465726317186
 30
0.0
 11
878.1000000005968
 21
118.1676088179094
 31
0.0
  0
LINE
  5
121
330
1F
100
AcDbEntity
  8
0
  6
CONTINUOUS
 62
     7
100
AcDbLine
 10
878.1000000008484
 20
111.434670407313
 30
0.0
 11
878.1000000018793
 21
83.8557065932595
 31
0.0
  0
LINE
  5
122
330
1F
100
AcDbEntity
  8
0
  6
CONTINUOUS
 62
     7
100
AcDbLine
 10
878.100000000839
 20
76.49396043796834
 30
0.0
 11
878.1183571442815
 21
76.24805066166473
 31
0.0
  0
LINE
  5
123
330
1F
100
AcDbEntity
  8
0
  6
CONTINUOUS
 62
     7
100
AcDbLine
 10
878.1000000021545
 20
76.49396043795952
 30
0.0
 11
878.1000000020371
 21
79.63638419333077
 31
0.0
  0
LINE
  5
124
330
1F
100
AcDbEntity
  8
0
  6
CONTINUOUS
 62
     7
100
AcDbLine
 10
878.099999999408
 20
149.9658950317058
 30
0.0
 11
878.0999999992905
 21
153.1083187870099
 31
0.0
  0
LINE
  5
125
330
1F
100
AcDbEntity
  8
0
  6
CONTINUOUS
 62
     7
100
AcDbLine
 10
878.1000000006038
 20
79.6363841933388
 30
0.0
 11
878.1000000006143
 21
82.1457489884606
 31
0.0
  0
LINE
  5
126
330
1F
100
AcDbEntity
  8
0
  6
CONTINUOUS
 62
     7
100
AcDbLine
 10
878.0999999981728
 20
147.4565302365162
 30
0.0
 11
878.0999999979748
 21
149.9658950316975
 31
0.0
  0
LINE
  5
127
330
1F
100
AcDbEntity
  8
0
  6
CONTINUOUS
 62
     7
100
AcDbLine
 10
878.1183597597494
 20
153.3542460465201
 30
0.0
 11
878.0999999979753
 21
153.1083187870009
 31
0.0
  0
LINE
  5
128
330
1F
100
AcDbEntity
  8
0
  6
CONTINUOUS
 62
     7
100
AcDbLine
 10
878.1000000006123
 20
82.21031360472684
 30
0.0
 11
878.1000000006094
 21
82.31026090837443
 31
0.0
  0
LINE
  5
129
330
1F
100
AcDbEntity
  8
0
  6
CONTINUOUS
 62
     7
100
AcDbLine
 10
878.1000000006094
 20
82.31026090837443
 30
0.0
 11
878.1000000005433
 21
83.85570659326804
 31
0.0
  0
LINE
  5
12A
330
1F
100
AcDbEntity
  8
0
  6
CONTINUOUS
 62
     7
100
AcDbLine
 10
878.1000000006143
 20
82.1457489884606
 30
0.0
 11
878.1000000006123
 21
82.21031360472684
 31
0.0
  0
LINE
  5
12B
330
1F
100
AcDbEntity
  8
0
  6
CONTINUOUS
 62
     7
100
AcDbLine
 10
878.0999999981759
 20
147.3919656202499
 30
0.0
 11
878.0999999981727
 21
147.4565302365162
 31
0.0
  0
LINE
  5
12C
330
1F
100
AcDbEntity
  8
0
  6
CONTINUOUS
 62
     7
100
AcDbLine
 10
878.0999999982298
 20
145.7465726317128
 30
0.0
 11
878.0999999981804
 21
147.2920183166023
 31
0.0
  0
LINE
  5
12D
330
1F
100
AcDbEntity
  8
0
  6
CONTINUOUS
 62
     7
100
AcDbLine
 10
878.0999999981804
 20
147.2920183166023
 30
0.0
 11
878.0999999981758
 21
147.3919656202499
 31
0.0
  0
LINE
  5
12E
330
1F
100
AcDbEntity
  8
0
  6
CONTINUOUS
 62
     7
100
AcDbLine
 10
892.0128442597235
 20
65.4273930558647
 30
0.0
 11
903.6000000025069
 21
64.41503758827383
 31
0.0
  0
LINE
  5
12F
330
1F
100
AcDbEntity
  8
0
  6
CONTINUOUS
 62
     7
100
AcDbLine
 10
892.0128442560323
 20
164.1748861694497
 30
0.0
 11
903.59999999874
 21
165.1872416379079
 31
0.0
  0
LWPOLYLINE
  5
130
330
1F
100
AcDbEntity
  8
0
  6
CONTINUOUS
 62
     7
100
AcDbPolyline
 90
        9
 70
     0
 43
0.0
 10
891.100000002436
 20
66.42222250371019
 10
891.1171450107772
 20
66.23809497085114
 10
891.1679921331661
 20
66.0602811741644
 10
891.2507978209281
 20
65.8948783517024
 10
891.3627226656497
 20
65.74755816900455
 10
891.4999287625398
 20
65.62337223759128
 10
891.6577113122487
 20
65.52657889512086
 10
891.8306599485167
 20
65.46049718692008
 10
892.0128442597235
 20
65.42739305586471
  0
LINE
  5
131
330
1F
100
AcDbEntity
  8
0
  6
CONTINUOUS
 62
     7
100
AcDbLine
 10
891.1000000025308
 20
66.42222250369863
 30
0.0
 11
891.1000000022425
 21
74.136016424125
 31
0.0
  0
LINE
  5
132
330
1F
100
AcDbEntity
  8
0
  6
CONTINUOUS
 62
     7
100
AcDbLine
 10
891.0999999992024
 20
155.4662628018519
 30
0.0
 11
891.099999998914
 21
163.1800567215476
 31
0.0
  0
LWPOLYLINE
  5
133
330
1F
100
AcDbEntity
  8
0
  6
CONTINUOUS
 62
     7
100
AcDbPolyline
 90
        9
 70
     0
 43
0.0
 10
892.0128442560323
 20
164.1748861694497
 10
891.830659944828
 20
164.1417820383807
 10
891.6577113085649
 20
164.0757003301669
 10
891.4999287588632
 20
163.9789069876846
 10
891.3627226619825
 20
163.8547210562609
 10
891.2507978172719
 20
163.7074008735545
 10
891.1679921295221
 20
163.5419980510862
 10
891.1171450071466
 20
163.3641842543954
 10
891.0999999988192
 20
163.1800567215349
  0
LINE
  5
134
330
1F
100
AcDbEntity
  8
0
  6
CONTINUOUS
 62
     7
100
AcDbLine
 10
878.1000000008535
 20
79.39978806558577
 30
0.0
 11
878.1000000008488
 21
79.39372648840512
 31
0.0
  0
LINE
  5
135
330
1F
100
AcDbEntity
  8
0
  6
CONTINUOUS
 62
     7
100
AcDbLine
 10
878.1000000008488
 20
79.39372648840512
 30
0.0
 11
878.1000000008387
 21
79.35185557943012
 31
0.0
  0
LINE
  5
136
330
1F
100
AcDbEntity
  8
0
  6
CONTINUOUS
 62
     7
100
AcDbLine
 10
878.1000000008387
 20
79.35185557943014
 30
0.0
 11
878.1000000008361
 21
79.33496831261039
 31
0.0
  0
LINE
  5
137
330
1F
100
AcDbEntity
  8
0
  6
CONTINUOUS
 62
     7
100
AcDbLine
 10
878.1000000008361
 20
79.33496831260915
 30
0.0
 11
878.1000000008285
 21
79.28089238370886
 31
0.0
  0
LINE
  5
138
330
1F
100
AcDbEntity
  8
0
  6
CONTINUOUS
 62
     7
100
AcDbLine
 10
878.0999999982257
 20
150.3171253689102
 30
0.0
 11
878.0999999982274
 21
150.3591975976198
 31
0.0
  0
LINE
  5
139
330
1F
100
AcDbEntity
  8
0
  6
CONTINUOUS
 62
     7
100
AcDbLine
 10
878.0999999982274
 20
150.3591975976198
 30
0.0
 11
878.0999999982299
 21
150.5074790391066
 31
0.0
  0
LINE
  5
13A
330
1F
100
AcDbEntity
  8
0
  6
CONTINUOUS
 62
     7
100
AcDbLine
 10
878.099999998173
 20
150.3213868412068
 30
0.0
 11
878.0999999981823
 21
150.2776798180252
 31
0.0
  0
LINE
  5
13B
330
1F
100
AcDbEntity
  8
0
  6
CONTINUOUS
 62
     7
100
AcDbLine
 10
878.0999999981884
 20
150.2507448592187
 30
0.0
 11
878.0999999981959
 21
150.2231096181418
 31
0.0
  0
LINE
  5
13C
330
1F
100
AcDbEntity
  8
0
  6
CONTINUOUS
 62
     7
100
AcDbLine
 10
878.0999999981959
 20
150.2231096181418
 30
0.0
 11
878.0999999982014
 21
150.2090410136191
 31
0.0
  0
LINE
  5
13D
330
1F
100
AcDbEntity
  8
0
  6
CONTINUOUS
 62
     7
100
AcDbLine
 10
878.0999999982014
 20
150.2090410136191
 30
0.0
 11
878.099999998207
 21
150.2024256429751
 31
0.0
  0
LINE
  5
13E
330
1F
100
AcDbEntity
  8
0
  6
CONTINUOUS
 62
     7
100
AcDbLine
 10
878.0999999989608
 20
161.9310598867455
 30
0.0
 11
878.0999999992792
 21
153.412117214672
 31
0.0
  0
LINE
  5
13F
330
1F
100
AcDbEntity
  8
0
  6
CONTINUOUS
 62
     7
100
AcDbLine
 10
878.0999999992792
 20
153.4121172146722
 30
0.0
 11
878.09999999929
 21
153.1211914542635
 31
0.0
  0
LINE
  5
140
330
1F
100
AcDbEntity
  8
0
  6
CONTINUOUS
 62
     7
100
AcDbLine
 10
878.09999999929
 20
153.1211914542635
 30
0.0
 11
878.0999999993878
 21
150.507479039113
 31
0.0
  0
LINE
  5
141
330
1F
100
AcDbEntity
  8
0
  6
CONTINUOUS
 62
     7
100
AcDbLine
 10
878.1000000020572
 20
79.09480018576592
 30
0.0
 11
878.1000000021548
 21
76.48301982232672
 31
0.0
  0
LINE
  5
142
330
1F
100
AcDbEntity
  8
0
  6
CONTINUOUS
 62
     7
100
AcDbLine
 10
878.100000002155
 20
76.48301982232691
 30
0.0
 11
878.1000000021656
 21
76.19382513369489
 31
0.0
  0
LINE
  5
143
330
1F
100
AcDbEntity
  8
0
  6
CONTINUOUS
 62
     7
100
AcDbLine
 10
878.1000000021656
 20
76.19382513369493
 30
0.0
 11
878.1000000024842
 21
67.67121933754404
 31
0.0
  0
LINE
  5
144
330
1F
100
AcDbEntity
  8
0
  6
CONTINUOUS
 62
     7
100
AcDbLine
 10
878.1000000024488
 20
66.59368377471439
 30
0.0
 11
878.1000000023732
 21
67.59971719218849
 31
0.0
  0
LINE
  5
145
330
1F
100
AcDbEntity
  8
0
  6
CONTINUOUS
 62
     7
100
AcDbLine
 10
878.1000000023732
 20
67.59971719218849
 30
0.0
 11
878.1000000023583
 21
67.6712193375542
 31
0.0
  0
LINE
  5
146
330
1F
100
AcDbEntity
  8
0
  6
CONTINUOUS
 62
     7
100
AcDbLine
 10
878.0999999988348
 20
161.9310598867367
 30
0.0
 11
878.0999999988389
 21
161.9469913789839
 31
0.0
  0
LINE
  5
147
330
1F
100
AcDbEntity
  8
0
  6
CONTINUOUS
 62
     7
100
AcDbLine
 10
878.0999999988389
 20
161.9469913789839
 30
0.0
 11
878.0999999988403
 21
161.9572371929293
 31
0.0
  0
LINE
  5
148
330
1F
100
AcDbEntity
  8
0
  6
CONTINUOUS
 62
     7
100
AcDbLine
 10
878.0999999988403
 20
161.9572371929293
 30
0.0
 11
878.0999999988417
 21
161.9697646844925
 31
0.0
  0
LINE
  5
149
330
1F
100
AcDbEntity
  8
0
  6
CONTINUOUS
 62
     7
100
AcDbLine
 10
878.0999999988418
 20
161.9697646844925
 30
0.0
 11
878.0999999988449
 21
162.0108811466829
 31
0.0
  0
LINE
  5
14A
330
1F
100
AcDbEntity
  8
0
  6
CONTINUOUS
 62
     7
100
AcDbLine
 10
878.0999999988447
 20
162.0108811466829
 30
0.0
 11
878.0999999988446
 21
163.0085954495479
 31
0.0
  0
LINE
  5
14B
330
1F
100
AcDbEntity
  8
0
  6
CONTINUOUS
 62
     7
100
AcDbLine
 10
878.1000000025814
 20
62.84863643403672
 30
0.0
 11
878.1000000024488
 21
66.59368377471439
 31
0.0
  0
LINE
  5
14C
330
1F
100
AcDbEntity
  8
0
  6
CONTINUOUS
 62
     7
100
AcDbLine
 10
878.0999999988446
 20
163.0085954495479
 30
0.0
 11
878.0999999986974
 21
166.7536427902297
 31
0.0
  0
LINE
  5
14D
330
1F
100
AcDbEntity
  8
0
  6
CONTINUOUS
 62
     7
100
AcDbLine
 10
878.1000000026663
 20
62.80113961210504
 30
0.0
 11
878.1000000026645
 21
62.84863643402436
 31
0.0
  0
LINE
  5
14E
330
1F
100
AcDbEntity
  8
0
  6
CONTINUOUS
 62
     7
100
AcDbLine
 10
878.0999999987805
 20
166.7536427902421
 30
0.0
 11
878.0999999987787
 21
166.8011396121141
 31
0.0
  0
LINE
  5
14F
330
1F
100
AcDbEntity
  8
0
  6
CONTINUOUS
 62
     7
100
AcDbLine
 10
928.0999999986501
 20
169.7869332319291
 30
0.0
 11
928.1000000027615
 21
59.80113961211028
 31
0.0
  0
LINE
  5
150
330
1F
100
AcDbEntity
  8
0
  6
CONTINUOUS
 62
     7
100
AcDbLine
 10
928.0999999986033
 20
169.7869332319214
 30
0.0
 11
933.0999999986032
 21
169.7869332321084
 31
0.0
  0
LINE
  5
151
330
1F
100
AcDbEntity
  8
0
  6
CONTINUOUS
 62
     7
100
AcDbLine
 10
930.0999999979393
 20
163.8064984428034
 30
0.0
 11
933.0999999979393
 21
163.8064984429156
 31
0.0
  0
LINE
  5
152
330
1F
100
AcDbEntity
  8
0
  6
CONTINUOUS
 62
     7
100
AcDbLine
 10
930.0999999988736
 20
163.8064984428102
 30
0.0
 11
930.0999999991305
 21
156.9335839841046
 31
0.0
  0
LINE
  5
153
330
1F
100
AcDbEntity
  8
0
  6
CONTINUOUS
 62
     7
100
AcDbLine
 10
930.0999999978079
 20
156.9335839840988
 30
0.0
 11
933.0999999978079
 21
156.9335839842109
 31
0.0
  0
LINE
  5
154
330
1F
100
AcDbEntity
  8
0
  6
CONTINUOUS
 62
     7
100
AcDbLine
 10
930.0999999978077
 20
150.154458145388
 30
0.0
 11
933.0999999978077
 21
150.1544581455001
 31
0.0
  0
LINE
  5
155
330
1F
100
AcDbEntity
  8
0
  6
CONTINUOUS
 62
     7
100
AcDbLine
 10
930.099999999384
 20
150.1544581453927
 30
0.0
 11
930.0999999997721
 21
139.7706170983816
 31
0.0
  0
LINE
  5
156
330
1F
100
AcDbEntity
  8
0
  6
CONTINUOUS
 62
     7
100
AcDbLine
 10
930.0999999979387
 20
139.7706170983783
 30
0.0
 11
933.0999999979387
 21
139.7706170984904
 31
0.0
  0
LINE
  5
157
330
1F
100
AcDbEntity
  8
0
  6
CONTINUOUS
 62
     7
100
AcDbLine
 10
930.0999999998054
 20
89.83166212703571
 30
0.0
 11
933.0999999998053
 21
89.83166212714787
 31
0.0
  0
LINE
  5
158
330
1F
100
AcDbEntity
  8
0
  6
CONTINUOUS
 62
     7
100
AcDbLine
 10
930.1000000016388
 20
89.83166212703242
 30
0.0
 11
930.100000002027
 21
79.44782107987473
 31
0.0
  0
LINE
  5
159
330
1F
100
AcDbEntity
  8
0
  6
CONTINUOUS
 62
     7
100
AcDbLine
 10
930.1000000004507
 20
79.4478210798794
 30
0.0
 11
933.1000000004507
 21
79.44782107999154
 31
0.0
  0
LINE
  5
15A
330
1F
100
AcDbEntity
  8
0
  6
CONTINUOUS
 62
     7
100
AcDbLine
 10
930.1000000009577
 20
72.66869524102397
 30
0.0
 11
933.1000000009577
 21
72.66869524113612
 31
0.0
  0
LINE
  5
15B
330
1F
100
AcDbEntity
  8
0
  6
CONTINUOUS
 62
     7
100
AcDbLine
 10
930.1000000022804
 20
72.66869524101833
 30
0.0
 11
930.1000000025372
 21
65.79578078209127
 31
0.0
  0
LINE
  5
15C
330
1F
100
AcDbEntity
  8
0
  6
CONTINUOUS
 62
     7
100
AcDbLine
 10
930.1000000016031
 20
65.79578078209782
 30
0.0
 11
933.100000001603
 21
65.79578078220996
 31
0.0
  0
LINE
  5
15D
330
1F
100
AcDbEntity
  8
0
  6
CONTINUOUS
 62
     7
100
AcDbLine
 10
934.099999999789
 20
139.3166265987821
 30
0.0
 11
934.1000000016218
 21
90.28565262691227
 31
0.0
  0
LWPOLYLINE
  5
15E
330
1F
100
AcDbEntity
  8
0
  6
CONTINUOUS
 62
     7
100
AcDbPolyline
 90
        9
 70
     0
 43
0.0
 10
933.0999999998054
 20
89.83166212714787
 10
933.2950903218269
 20
89.84038542730754
 10
933.4826834321814
 20
89.86622009623888
 10
933.6555702328408
 20
89.90817332210307
 10
933.8071067810115
 20
89.9646328659577
 10
933.9314696121297
 20
90.03342901919517
 10
934.0238795323388
 20
90.11191798422779
 10
934.080785280229
 20
90.1970834741463
 10
934.0999999998218
 20
90.2856526269343
  0
LWPOLYLINE
  5
15F
330
1F
100
AcDbEntity
  8
0
  6
CONTINUOUS
 62
     7
100
AcDbPolyline
 90
        9
 70
     0
 43
0.0
 10
934.099999997989
 20
139.3166265987788
 10
934.0807852783825
 20
139.4051957515664
 10
934.023879530481
 20
139.490361241481
 10
933.9314696102635
 20
139.5688502065067
 10
933.80710677914
 20
139.6376463597346
 10
933.6555702309668
 20
139.6941059035775
 10
933.4826834303076
 20
139.7360591294284
 10
933.2950903199558
 20
139.7618937983455
 10
933.0999999979388
 20
139.7706170984904
  0
ARC
  5
160
330
1F
100
AcDbEntity
  8
0
  6
CONTINUOUS
 62
     7
100
AcDbCircle
 10
770.7831457251248
 20
71.13781668372535
 30
0.0
 40
1.252939656876814
100
AcDbArc
 50
177.5987378587968
 51
221.8786497900417
  0
LINE
  5
161
330
1F
100
AcDbEntity
  8
0
  6
CONTINUOUS
 62
     7
100
AcDbLine
 10
774.8502862779935
 20
159.3008263510626
 30
0.0
 11
774.767067257439
 21
159.2401935601086
 31
0.0
  0
LINE
  5
162
330
1F
100
AcDbEntity
  8
0
  6
CONTINUOUS
 62
     7
100
AcDbLine
 10
774.767067257439
 20
159.2401935601086
 30
0.0
 11
774.5315363004966
 21
158.4132474705875
 31
0.0
  0
ARC
  5
163
330
1F
100
AcDbEntity
  8
0
  6
CONTINUOUS
 62
     7
100
AcDbCircle
 10
782.1522974377388
 20
71.62813148806713
 30
0.0
 40
2.657287440752234
100
AcDbArc
 50
189.5157394721698
 51
209.9500360700572
  0
ARC
  5
164
330
1F
100
AcDbEntity
  8
0
  6
CONTINUOUS
 62
     7
100
AcDbCircle
 10
787.0367173918602
 20
158.0154395968123
 30
0.0
 40
2.536581489554753
100
AcDbArc
 50
149.5552095686274
 51
170.9955566104346
  0
ARC
  5
165
330
1F
100
AcDbEntity
  8
0
  6
CONTINUOUS
 62
     7
100
AcDbCircle
 10
791.9280250759356
 20
71.54644716853278
 30
0.0
 40
2.422971592305912
100
AcDbArc
 50
188.4940533891031
 51
210.9158598515387
  0
ARC
  5
166
330
1F
100
AcDbEntity
  8
0
  6
CONTINUOUS
 62
     7
100
AcDbCircle
 10
796.802223568385
 20
158.0991412328064
 30
0.0
 40
2.292217023720653
100
AcDbArc
 50
148.386881130545
 51
172.0754652806016
  0
ARC
  5
167
330
1F
100
AcDbEntity
  8
0
  6
CONTINUOUS
 62
     7
100
AcDbCircle
 10
801.6955909734962
 20
71.46536540101063
 30
0.0
 40
2.18162175758577
100
AcDbArc
 50
187.2686334981498
 51
212.2372731613793
  0
LINE
  5
168
330
1F
100
AcDbEntity
  8
0
  6
CONTINUOUS
 62
     7
100
AcDbLine
 10
804.8500015143156
 20
159.3006250683168
 30
0.0
 11
804.7623841031244
 21
159.2332198935499
 31
0.0
  0
LINE
  5
169
330
1F
100
AcDbEntity
  8
0
  6
CONTINUOUS
 62
     7
100
AcDbLine
 10
804.7623841031244
 20
159.2332198935499
 30
0.0
 11
804.5316677226684
 21
158.4138246317881
 31
0.0
  0
ARC
  5
16A
330
1F
100
AcDbEntity
  8
0
  6
CONTINUOUS
 62
     7
100
AcDbCircle
 10
811.4885679001733
 20
71.39030150822293
 30
0.0
 40
1.967274732580089
100
AcDbArc
 50
185.8892510595843
 51
213.5984289816096
  0
ARC
  5
16B
330
1F
100
AcDbEntity
  8
0
  6
CONTINUOUS
 62
     7
100
AcDbCircle
 10
816.3959916091529
 20
158.2460633657312
 30
0.0
 40
1.871926794672783
100
AcDbArc
 50
145.7131484428568
 51
174.8873213639735
  0
ARC
  5
16C
330
1F
100
AcDbEntity
  8
0
  6
CONTINUOUS
 62
     7
100
AcDbCircle
 10
821.2896571974715
 20
71.3190643083387
 30
0.0
 40
1.762853563018781
100
AcDbArc
 50
184.2362044829437
 51
215.2478747966021
  0
LINE
  5
16D
330
1F
100
AcDbEntity
  8
0
  6
CONTINUOUS
 62
     7
100
AcDbLine
 10
824.8502192743131
 20
159.3005807458716
 30
0.0
 11
824.7670066454888
 21
159.2402532897321
 31
0.0
  0
LINE
  5
16E
330
1F
100
AcDbEntity
  8
0
  6
CONTINUOUS
 62
     7
100
AcDbLine
 10
824.7670066454888
 20
159.2402532897321
 30
0.0
 11
824.5323159208202
 21
158.4172593538205
 31
0.0
  0
ARC
  5
16F
330
1F
100
AcDbEntity
  8
0
  6
CONTINUOUS
 62
     7
100
AcDbCircle
 10
831.101537629623
 20
71.25163761229453
 30
0.0
 40
1.571197716118222
100
AcDbArc
 50
182.2802183210955
 51
217.1998895466186
  0
ARC
  5
170
330
1F
100
AcDbEntity
  8
0
  6
CONTINUOUS
 62
     7
100
AcDbCircle
 10
836.0108813465492
 20
158.3832618277467
 30
0.0
 40
1.479533074817247
100
AcDbArc
 50
141.6828834364142
 51
178.8278444182581
  0
ARC
  5
171
330
1F
100
AcDbEntity
  8
0
  6
CONTINUOUS
 62
     7
100
AcDbCircle
 10
840.9245166055522
 20
71.1879476031593
 30
0.0
 40
1.392884854175366
100
AcDbArc
 50
179.9596347434568
 51
219.51550328374
  0
ARC
  5
172
330
1F
100
AcDbEntity
  8
0
  6
CONTINUOUS
 62
     7
100
AcDbCircle
 10
845.8407689059406
 20
158.444317469047
 30
0.0
 40
1.30959604283084
100
AcDbArc
 50
139.1658534602097
 51
181.376140013755
  0
ARC
  5
173
330
1F
100
AcDbEntity
  8
0
  6
CONTINUOUS
 62
     7
100
AcDbCircle
 10
850.7576759743882
 20
71.1284286833455
 30
0.0
 40
1.227728416151096
100
AcDbArc
 50
177.1340468431594
 51
222.3329178143052
  0
LINE
  5
174
330
1F
100
AcDbEntity
  8
0
  6
CONTINUOUS
 62
     7
100
AcDbLine
 10
854.8499114017953
 20
159.3006775894978
 30
0.0
 11
854.7623652590826
 21
159.2335662290349
 31
0.0
  0
LINE
  5
175
330
1F
100
AcDbEntity
  8
0
  6
CONTINUOUS
 62
     7
100
AcDbLine
 10
854.7623652590827
 20
159.2335662290349
 30
0.0
 11
854.5316047765149
 21
158.4131188414347
 31
0.0
  0
ARC
  5
176
330
1F
100
AcDbEntity
  8
0
  6
CONTINUOUS
 62
     7
100
AcDbCircle
 10
860.5969068067212
 20
71.06840712779663
 30
0.0
 40
1.070403402015529
100
AcDbArc
 50
173.8425653069118
 51
225.7580838133145
  0
LWPOLYLINE
  5
177
330
1F
100
AcDbEntity
  8
0
  6
CONTINUOUS
 62
     7
100
AcDbPolyline
 90
       33
 70
     0
 43
0.0
 10
864.8501277741854
 20
159.3007453319912
 10
864.8401709760207
 20
159.299933639469
 10
864.8302141778562
 20
159.2973823580927
 10
864.8202573796915
 20
159.2930909147925
 10
864.8103005815271
 20
159.2870587364991
 10
864.8003437833626
 20
159.2792852501426
 10
864.7903869851983
 20
159.2697698826536
 10
864.7804301870339
 20
159.2585120609625
 10
864.7704733888698
 20
159.2455112119997
 10
864.7605165907055
 20
159.2307667626956
 10
864.7505597925416
 20
159.2142781399806
 10
864.7406029943774
 20
159.1960447707852
 10
864.7306461962136
 20
159.1760660820397
 10
864.7206893980496
 20
159.1543415326283
 10
864.7107325998857
 20
159.1308717756965
 10
864.700775801722
 20
159.1056589885969
 10
864.6908190035582
 20
159.0787054478585
 10
864.6808622053945
 20
159.0500134300107
 10
864.670905407231
 20
159.0195852115825
 10
864.6609486090674
 20
158.9874230691031
 10
864.650991810904
 20
158.9535292791017
 10
864.6410350127404
 20
158.9179061181075
 10
864.6310782145769
 20
158.8805558626497
 10
864.6211214164136
 20
158.8414807892574
 10
864.6111646182505
 20
158.8006831744597
 10
864.6012078200871
 20
158.758165294786
 10
864.5912510219241
 20
158.7139294267652
 10
864.5812942237609
 20
158.6679778469267
 10
864.5713374255977
 20
158.6203128317995
 10
864.5613806274347
 20
158.5709366579129
 10
864.5514238292719
 20
158.5198516017961
 10
864.5414670311089
 20
158.4670599399781
 10
864.531510232946
 20
158.4125639489877
  0
LWPOLYLINE
  5
178
330
1F
100
AcDbEntity
  8
0
  6
CONTINUOUS
 62
     7
100
AcDbPolyline
 90
       33
 70
     0
 43
0.0
 10
-869.8499933855961
 20
70.30149434842141
 10
-869.8400395926044
 20
70.30232692207346
 10
-869.8300857996128
 20
70.30489875465005
 10
-869.8201320066212
 20
70.30921049019234
 10
-869.8101782136292
 20
70.31526277274139
 10
-869.8002244206374
 20
70.32305624633841
 10
-869.7902706276454
 20
70.33259155502445
 10
-869.7803168346535
 20
70.34386934284073
 10
-869.7703630416617
 20
70.35689025382834
 10
-869.7604092486695
 20
70.3716549320284
 10
-869.7504554556772
 20
70.38816402148205
 10
-869.7405016626849
 20
70.40641816623042
 10
-869.7305478696928
 20
70.4264179625491
 10
-869.7205940767004
 20
70.44816270476477
 10
-869.7106402837079
 20
70.47165026114082
 10
-869.7006864907155
 20
70.49687842728773
 10
-869.6907326977228
 20
70.52384499881583
 10
-869.6807789047305
 20
70.55254777133564
 10
-869.6708251117376
 20
70.5829845404575
 10
-869.6608713187451
 20
70.61515310179188
 10
-869.6509175257522
 20
70.64905125094916
 10
-869.6409637327594
 20
70.68467678353981
 10
-869.6310099397666
 20
70.7220274951742
 10
-869.6210561467735
 20
70.76110118146275
 10
-869.6111023537806
 20
70.80189563801592
 10
-869.6011485607876
 20
70.8444086604441
 10
-869.5911947677945
 20
70.88863804435772
 10
-869.5812409748012
 20
70.93458158536718
 10
-869.571287181808
 20
70.98223707908292
 10
-869.561333388815
 20
71.03160232111539
 10
-869.5513795958216
 20
71.08267510707493
 10
-869.5414258028283
 20
71.135453232572
 10
-869.5314720098348
 20
71.18993449321681
210
0.0
220
0.0
230
-1.0
  0
LWPOLYLINE
  5
179
330
1F
100
AcDbEntity
  8
0
  6
CONTINUOUS
 62
     7
100
AcDbPolyline
 90
       25
 70
     0
 43
0.0
 10
874.8500044944387
 20
159.300825915077
 10
874.8491661342867
 20
159.300823155097
 10
874.8483277741349
 20
159.300808056084
 10
874.8474894139828
 20
159.3007806176106
 10
874.8466510538309
 20
159.3007408392491
 10
874.845812693679
 20
159.3006887205721
 10
874.8449743335271
 20
159.3006242611522
 10
874.844135973375
 20
159.3005474605617
 10
874.8432976132231
 20
159.3004583183732
 10
874.8424592530711
 20
159.3003568341592
 10
874.8416208929192
 20
159.3002430074922
 10
874.8407825327672
 20
159.3001168379447
 10
874.8399441726153
 20
159.2999783250891
 10
874.8391058124632
 20
159.2998274684981
 10
874.8382674523116
 20
159.2996642677441
 10
874.8374290921595
 20
159.2994887223995
 10
874.8365907320075
 20
159.2993008320369
 10
874.8357523718555
 20
159.2991005962288
 10
874.8349140117036
 20
159.2988880145476
 10
874.8340756515518
 20
159.298663086566
 10
874.8332372913995
 20
159.2984258118562
 10
874.8323989312476
 20
159.298176189991
 10
874.8315605710958
 20
159.2979142205428
 10
874.8307222109438
 20
159.297639903084
 10
874.8298838507919
 20
159.2973532371872
  0
LWPOLYLINE
  5
17A
330
1F
100
AcDbEntity
  8
0
  6
CONTINUOUS
 62
     7
100
AcDbPolyline
 90
       33
 70
     0
 43
0.0
 10
874.8298838507919
 20
159.2973532371871
 10
874.8205580816349
 20
159.2933316154736
 10
874.8112323124778
 20
159.2877813638964
 10
874.8019065433208
 20
159.2807018940184
 10
874.7925807741641
 20
159.2720926174027
 10
874.783255005007
 20
159.2619529456119
 10
874.7739292358502
 20
159.2502822902091
 10
874.7646034666934
 20
159.237080062757
 10
874.7552776975366
 20
159.2223456748186
 10
874.74595192838
 20
159.2060785379568
 10
874.7366261592233
 20
159.1882784136163
 10
874.7273003900668
 20
159.1689466226779
 10
874.7179746209104
 20
159.1480849203231
 10
874.7086488517539
 20
159.1256950617515
 10
874.6993230825976
 20
159.1017788021626
 10
874.6899973134413
 20
159.0763378967561
 10
874.6806715442848
 20
159.0493741007316
 10
874.6713457751285
 20
159.0208891692887
 10
874.6620200059725
 20
158.9908848576272
 10
874.6526942368162
 20
158.9593629209465
 10
874.6433684676601
 20
158.9263251144463
 10
874.6340426985041
 20
158.8917731933263
 10
874.6247169293482
 20
158.8557089127862
 10
874.6153911601921
 20
158.8181340280253
 10
874.6060653910363
 20
158.7790502942435
 10
874.5967396218805
 20
158.7384594666404
 10
874.5874138527245
 20
158.6963633004156
 10
874.5780880835687
 20
158.6527635507687
 10
874.5687623144131
 20
158.6076619728994
 10
874.5594365452575
 20
158.5610603220072
 10
874.5501107761017
 20
158.5129603532918
 10
874.5407850069464
 20
158.4633638219529
 10
874.5314592377906
 20
158.4122724831895
  0
LWPOLYLINE
  5
17B
330
1F
100
AcDbEntity
  8
0
  6
CONTINUOUS
 62
     7
100
AcDbPolyline
 90
       33
 70
     0
 43
0.0
 10
-909.8507123471819
 20
70.3011886934037
 10
-909.8407319411026
 20
70.3019164552999
 10
-909.8307515350233
 20
70.30440114284065
 10
-909.8207711289438
 20
70.30864398050318
 10
-909.8107907228643
 20
70.31464595539053
 10
-909.8008103167848
 20
70.32240624839302
 10
-909.7908299107052
 20
70.33192321009966
 10
-909.7808495046255
 20
70.34319518671708
 10
-909.7708690985456
 20
70.35622052445194
 10
-909.7608886924659
 20
70.37099756951092
 10
-909.7509082863859
 20
70.38752466810065
 10
-909.7409278803059
 20
70.40580016642784
 10
-909.730947474226
 20
70.42582241069907
 10
-909.7209670681459
 20
70.44758974712103
 10
-909.7109866620657
 20
70.47110052190041
 10
-909.7010062559854
 20
70.4963530812438
 10
-909.6910258499053
 20
70.52334577135792
 10
-909.6810454438248
 20
70.55207693844937
 10
-909.6710650377446
 20
70.58254492872487
 10
-909.6610846316642
 20
70.61474808839102
 10
-909.6511042255836
 20
70.6486847636545
 10
-909.641123819503
 20
70.68435330072197
 10
-909.6311434134225
 20
70.72175204580009
 10
-909.6211630073419
 20
70.7608793450955
 10
-909.6111826012611
 20
70.80173354481485
 10
-909.6012021951802
 20
70.84431299116483
 10
-909.5912217890996
 20
70.88861603035207
 10
-909.5812413830188
 20
70.93464100858324
 10
-909.5712609769378
 20
70.98238627206499
 10
-909.5612805708568
 20
71.03185016700395
 10
-909.5513001647756
 20
71.08303103960682
 10
-909.5413197586945
 20
71.13592723608024
 10
-909.5313393526135
 20
71.19053710263093
210
0.0
220
0.0
230
-1.0
  0
LWPOLYLINE
  5
17C
330
1F
100
AcDbEntity
  8
0
  6
CONTINUOUS
 62
     7
100
AcDbPolyline
 90
      113
 70
     0
 43
0.0
 10
-773.3502565245309
 20
70.3014103561615
 10
-773.3084528784332
 20
70.31672916663238
 10
-773.2666492323344
 20
70.36268243168355
 10
-773.2248455862344
 20
70.43921185839355
 10
-773.1830419401334
 20
70.54625915384091
 10
-773.1412382940315
 20
70.68376602510416
 10
-773.0994346479285
 20
70.85167417926185
 10
-773.0576310018246
 20
71.04992532339249
 10
-773.0158273557198
 20
71.27846060447747
 10
-772.9740237096139
 20
71.53715545612219
 10
-772.9322200635073
 20
71.82575877917206
 10
-772.8904164173999
 20
72.14400508797144
 10
-772.8486127712918
 20
72.49162889686467
 10
-772.8068091251828
 20
72.86836472019611
 10
-772.7650054790734
 20
73.27394707231014
 10
-772.7232018329629
 20
73.70811046755104
 10
-772.6813981868521
 20
74.17058942026325
 10
-772.6395945407406
 20
74.66111844479109
 10
-772.5977908946286
 20
75.17943146859552
 10
-772.5559872485161
 20
75.7252009795043
 10
-772.514183602403
 20
76.29798497131543
 10
-772.4723799562898
 20
76.89732893323487
 10
-772.430576310176
 20
77.52277835446854
 10
-772.388772664062
 20
78.17387872422238
 10
-772.3469690179475
 20
78.85017553170226
 10
-772.3051653718329
 20
79.55121426611419
 10
-772.2633617257181
 20
80.27654041666405
 10
-772.2215580796031
 20
81.02569947255779
 10
-772.179754433488
 20
81.79823636328912
 10
-772.1379507873727
 20
82.5936434401817
 10
-772.0961471412576
 20
83.41131821547532
 10
-772.0543434951423
 20
84.250648256117
 10
-772.012539849027
 20
85.11102112905381
 10
-771.970736202912
 20
85.9918244012328
 10
-771.9289325567969
 20
86.89244563960108
 10
-771.8871289106821
 20
87.81227241110564
 10
-771.8453252645676
 20
88.7506922826936
 10
-771.8035216184533
 20
89.70709282131196
 10
-771.7617179723392
 20
90.68086112715652
 10
-771.7199143262254
 20
91.67134475592825
 10
-771.678110680112
 20
92.67782221145154
 10
-771.6363070339992
 20
93.69956504815961
 10
-771.5945033878868
 20
94.73584482048562
 10
-771.552699741775
 20
95.7859330828628
 10
-771.5108960956636
 20
96.84910138972434
 10
-771.4690924495527
 20
97.92462129550346
 10
-771.4272888034427
 20
99.01176435463333
 10
-771.3854851573332
 20
100.1098021215472
 10
-771.3436815112245
 20
101.2180058500511
 10
-771.3018778651162
 20
102.3356237153338
 10
-771.2600742190091
 20
103.4618648746824
 10
-771.2182705729027
 20
104.5959347186776
 10
-771.1764669267972
 20
105.7370386379004
 10
-771.1346632806924
 20
106.8843820229315
 10
-771.0928596345889
 20
108.037170264352
 10
-771.0510559884859
 20
109.1946087527425
 10
-771.0092523423841
 20
110.355902878684
 10
-770.9674486962832
 20
111.5202580327574
 10
-770.9256450501837
 20
112.6868795453434
 10
-770.8838414040852
 20
113.8549685413985
 10
-770.8420377579876
 20
115.0237192612143
 10
-770.8002341118912
 20
116.192325307876
 10
-770.7584304657962
 20
117.3599802844688
 10
-770.7166268197022
 20
118.5258777940781
 10
-770.6748231736095
 20
119.6892114397888
 10
-770.6330195275182
 20
120.8491748246864
 10
-770.5912158814281
 20
122.0049615518559
 10
-770.5494122353392
 20
123.1557652243826
 10
-770.5076085892516
 20
124.3007796933698
 10
-770.4658049431655
 20
125.4392146379351
 10
-770.424001297081
 20
126.5703048311687
 10
-770.3821976509976
 20
127.6932872716533
 10
-770.3403940049157
 20
128.807398957972
 10
-770.2985903588354
 20
129.9118768887075
 10
-770.2567867127563
 20
131.0059580624427
 10
-770.2149830666789
 20
132.0888794777606
 10
-770.1731794206029
 20
133.1598781332441
 10
-770.1313757745285
 20
134.2181910274759
 10
-770.0895721284556
 20
135.2630557680627
 10
-770.0477684823842
 20
136.2937455970794
 10
-770.0059648363144
 20
137.3095884747538
 10
-769.9641611902463
 20
138.3099170085384
 10
-769.9223575441796
 20
139.2940638058859
 10
-769.8805538981145
 20
140.2613614742488
 10
-769.8387502520511
 20
141.2111426210797
 10
-769.7969466059892
 20
142.1427398538313
 10
-769.7551429599291
 20
143.055485779956
 10
-769.7133393138703
 20
143.9487130069064
 10
-769.6715356678134
 20
144.8217551413736
 10
-769.629732021758
 20
145.6739995725969
 10
-769.5879283757045
 20
146.5049136853349
 10
-769.5461247296523
 20
147.3139713666186
 10
-769.5043210836018
 20
148.1006465034788
 10
-769.4625174375528
 20
148.8644129829463
 10
-769.4207137915054
 20
149.6047446920521
 10
-769.3789101454597
 20
150.3211155178271
 10
-769.3371064994158
 20
151.012999347302
 10
-769.2953028533734
 20
151.6798700675077
 10
-769.2534992073324
 20
152.3212029527947
 10
-769.2116955612933
 20
152.936542177542
 10
-769.1698919152554
 20
153.5255311931374
 10
-769.1280882692193
 20
154.0878211689177
 10
-769.0862846231847
 20
154.6230632742196
 10
-769.0444809771517
 20
155.1309086783799
 10
-769.0026773311203
 20
155.6110085507354
 10
-768.9608736850902
 20
156.0630140606228
 10
-768.9190700390616
 20
156.4865763773788
 10
-768.8772663930347
 20
156.8813466703402
 10
-768.8354627470089
 20
157.2469778447539
 10
-768.7936591009849
 20
157.5832025829157
 10
-768.7518554549622
 20
157.8898649326751
 10
-768.7100518089408
 20
158.1668172166987
 10
-768.6682481629203
 20
158.4139117576564
210
0.0
220
0.0
230
-1.0
  0
LWPOLYLINE
  5
17D
330
1F
100
AcDbEntity
  8
0
  6
CONTINUOUS
 62
     7
100
AcDbPolyline
 90
      113
 70
     0
 43
0.0
 10
-783.3498612489177
 20
70.30149506865021
 10
-783.3080640721854
 20
70.31707652267514
 10
-783.2662668954518
 20
70.3632664492215
 10
-783.2244697187173
 20
70.44001716253754
 10
-783.1826725419817
 20
70.54728097687148
 10
-783.140875365245
 20
70.68501020647152
 10
-783.0990781885074
 20
70.85315716558593
 10
-783.0572810117689
 20
71.05167416846291
 10
-783.0154838350294
 20
71.28049828576837
 10
-782.9736866582888
 20
71.53943861617924
 10
-782.9318894815476
 20
71.8282403083798
 10
-782.8900923048055
 20
72.14664803783286
 10
-782.8482951280629
 20
72.49440648000127
 10
-782.8064979513193
 20
72.87126031034778
 10
-782.7647007745751
 20
73.2769542043353
 10
-782.7229035978303
 20
73.71123283742658
 10
-782.6811064210847
 20
74.17384088508445
 10
-782.6393092443385
 20
74.66452302277173
 10
-782.5975120675919
 20
75.18300938400625
 10
-782.5557148908447
 20
75.72891213495171
 10
-782.5139177140973
 20
76.30178616375352
 10
-782.4721205373492
 20
76.90118597934367
 10
-782.4303233606007
 20
77.52666609065423
 10
-782.388526183852
 20
78.17778100661724
 10
-782.3467290071032
 20
78.85408523616476
 10
-782.3049318303539
 20
79.55513328822879
 10
-782.2631346536043
 20
80.28047967174143
 10
-782.2213374768546
 20
81.02967889563467
 10
-782.1795403001049
 20
81.80227275684611
 10
-782.1377431233551
 20
82.59770337767087
 10
-782.0959459466052
 20
83.4153658630366
 10
-782.0541487698554
 20
84.2546550409903
 10
-782.0123515931057
 20
85.11496573957888
 10
-781.9705544163558
 20
85.99569278684933
 10
-781.9287572396059
 20
86.89623101084855
 10
-781.8869600628567
 20
87.8159752396236
 10
-781.8451628861076
 20
88.75432030122138
 10
-781.8033657093586
 20
89.71066102368883
 10
-781.7615685326099
 20
90.68438243861101
 10
-781.7197713558614
 20
91.67479531234432
 10
-781.6779741791137
 20
92.6811763820119
 10
-781.636177002366
 20
93.7028022076322
 10
-781.5943798256192
 20
94.73894934922386
 10
-781.5525826488727
 20
95.78889436680532
 10
-781.5107854721268
 20
96.8519138203952
 10
-781.4689882953813
 20
97.92728427001197
 10
-781.4271911186366
 20
99.01428227567425
 10
-781.3853939418926
 20
100.1121843974005
 10
-781.3435967651491
 20
101.2202612718815
 10
-781.3017995884065
 20
102.3377401113347
 10
-781.2600024116645
 20
103.463828802131
 10
-781.2182052349235
 20
104.5977351423821
 10
-781.1764080581833
 20
105.7386669301996
 10
-781.134610881444
 20
106.8858319636952
 10
-781.0928137047058
 20
108.0384380409806
 10
-781.0510165279683
 20
109.1956929601673
 10
-781.0092193512319
 20
110.356804519367
 10
-780.9674221744965
 20
111.5209805166915
 10
-780.9256249977622
 20
112.6874274474262
 10
-780.8838278210288
 20
113.8553425682012
 10
-780.8420306442968
 20
115.0239191427015
 10
-780.8002334675657
 20
116.1923504187375
 10
-780.7584362908359
 20
117.3598296441197
 10
-780.7166391141075
 20
118.5255500666584
 10
-780.67484193738
 20
119.688704934164
 10
-780.6330447606542
 20
120.848487494447
 10
-780.5912475839292
 20
122.0040909953176
 10
-780.5494504072059
 20
123.1547086845864
 10
-780.5076532304838
 20
124.2995375921603
 10
-780.4658560537631
 20
125.4378006959247
 10
-780.4240588770438
 20
126.5687318633389
 10
-780.3822617003258
 20
127.6915649992176
 10
-780.3404645236095
 20
128.8055340083752
 10
-780.2986673468943
 20
129.9098727956261
 10
-780.2568701701808
 20
131.0038152657848
 10
-780.2150729934687
 20
132.0865953236658
 10
-780.173275816758
 20
133.1574468740835
 10
-780.131478640049
 20
134.2156038218526
 10
-780.0896814633415
 20
135.2603090634033
 10
-780.0478842866355
 20
136.2908651913113
 10
-780.0060871099312
 20
137.3065991212061
 10
-779.9642899332283
 20
138.3068378399894
 10
-779.9224927565269
 20
139.2909083345633
 10
-779.8806955798271
 20
140.2581375918296
 10
-779.8388984031291
 20
141.2078525986905
 10
-779.7971012264326
 20
142.1393803420477
 10
-779.7553040497379
 20
143.0520478088033
 10
-779.7135068730445
 20
143.9451819858592
 10
-779.6717096963529
 20
144.8181238105195
 10
-779.6299125196629
 20
145.6703038630513
 10
-779.5881153429746
 20
146.5011881800306
 10
-779.5463181662876
 20
147.3102428857784
 10
-779.5045209896026
 20
148.0969341046155
 10
-779.4627238129191
 20
148.8607279608632
 10
-779.4209266362371
 20
149.6010905788423
 10
-779.3791294595568
 20
150.3174880828739
 10
-779.3373322828782
 20
151.009386597279
 10
-779.295535106201
 20
151.6762522463786
 10
-779.2537379295253
 20
152.3175694277796
 10
-779.2119407528515
 20
152.9329362087846
 10
-779.1701435761793
 20
153.5219942950491
 10
-779.1283463995085
 20
154.0843854822549
 10
-779.0865492228392
 20
154.6197515660841
 10
-779.0447520461715
 20
155.1277343422186
 10
-779.0029548695053
 20
155.6079756063404
 10
-778.961157692841
 20
156.0601171541315
 10
-778.9193605161776
 20
156.4838007812738
 10
-778.8775633395157
 20
156.8786682834493
 10
-778.8357661628557
 20
157.2443830498947
 10
-778.7939689861971
 20
157.5807385235892
 10
-778.7521718095395
 20
157.8875766019635
 10
-778.7103746328837
 20
158.1647392645384
 10
-778.6685774562288
 20
158.4120684908353
210
0.0
220
0.0
230
-1.0
  0
LWPOLYLINE
  5
17E
330
1F
100
AcDbEntity
  8
0
  6
CONTINUOUS
 62
     7
100
AcDbPolyline
 90
      113
 70
     0
 43
0.0
 10
-793.3493026828245
 20
70.30157585334074
 10
-793.307510111691
 20
70.317531136969
 10
-793.2657175405565
 20
70.36407700643272
 10
-793.2239249694209
 20
70.44117637655725
 10
-793.1821323982841
 20
70.54879216216783
 10
-793.1403398271464
 20
70.68688727808978
 10
-793.0985472560079
 20
70.85542463914838
 10
-793.0567546848682
 20
71.05436645479259
 10
-793.0149621137276
 20
71.28360621955613
 10
-792.9731695425862
 20
71.54291209861255
 10
-792.9313769714438
 20
71.83203893029751
 10
-792.8895844003008
 20
72.15074155294667
 10
-792.8477918291569
 20
72.49877480489565
 10
-792.8059992580123
 20
72.87589352448009
 10
-792.7642066868672
 20
73.28185255003568
 10
-792.7224141157211
 20
73.71640671989802
 10
-792.6806215445746
 20
74.17931087240278
 10
-792.6388289734274
 20
74.67031912872362
 10
-792.5970364022797
 20
75.18912125617646
 10
-792.5552438311315
 20
75.73529258092799
 10
-792.5134512599828
 20
76.30839664161766
 10
-792.4716586888338
 20
76.90799697688492
 10
-792.4298661176844
 20
77.53365712536919
 10
-792.3880735465345
 20
78.18494062571003
 10
-792.3462809753845
 20
78.86141101654681
 10
-792.3044884042342
 20
79.56263183651903
 10
-792.2626958330837
 20
80.28816662426617
 10
-792.220903261933
 20
81.03757825134599
 10
-792.1791106907822
 20
81.8103742857523
 10
-792.1373181196312
 20
82.60596639911249
 10
-792.0955255484805
 20
83.42375669809853
 10
-792.0537329773294
 20
84.26314728938253
 10
-792.0119404061785
 20
85.12354027963652
 10
-791.9701478350278
 20
86.00433777553266
 10
-791.9283552638772
 20
86.9049418837429
 10
-791.8865626927267
 20
87.82475471093937
 10
-791.8447701215764
 20
88.76317836379411
 10
-791.8029775504265
 20
89.71961440171691
 10
-791.7611849792768
 20
90.6934223513344
 10
-791.7193924081274
 20
91.68389066493472
 10
-791.6775998369784
 20
92.69030093199159
 10
-791.63580726583
 20
93.71193474197872
 10
-791.5940146946818
 20
94.74807368436984
 10
-791.5522221235341
 20
95.79799934863863
 10
-791.5104295523873
 20
96.86099332425886
 10
-791.4686369812407
 20
97.93633720070416
 10
-791.4268444100951
 20
99.02331256744833
 10
-791.3850518389498
 20
100.1212006589219
 10
-791.3432592678054
 20
101.2292573807828
 10
-791.3014666966617
 20
102.3466968703375
 10
-791.2596741255188
 20
103.4727293618096
 10
-791.2178815543767
 20
104.6065650894225
 10
-791.1760889832354
 20
105.7474142873996
 10
-791.1342964120953
 20
106.8944871899646
 10
-791.0925038409558
 20
108.0469940313407
 10
-791.0507112698174
 20
109.2041450457515
 10
-791.0089186986798
 20
110.3651504674205
 10
-790.9671261275433
 20
111.5292204364482
 10
-790.9253335564081
 20
112.6955588409488
 10
-790.883540985274
 20
113.8633595138256
 10
-790.8417484141407
 20
115.0318153789505
 10
-790.7999558430087
 20
116.2001193601955
 10
-790.7581632718778
 20
117.3674643814326
 10
-790.7163707007483
 20
118.5330433665336
 10
-790.6745781296198
 20
119.6960492393704
 10
-790.6327855584927
 20
120.8556749238151
 10
-790.5909929873669
 20
122.0111133437395
 10
-790.5492004162426
 20
123.1615576477527
 10
-790.5074078451194
 20
124.306214915084
 10
-790.4656152739976
 20
125.4443140780886
 10
-790.4238227028773
 20
126.5750859797598
 10
-790.3820301317584
 20
127.6977614630911
 10
-790.3402375606407
 20
128.8115713710757
 10
-790.2984449895246
 20
129.915746546707
 10
-790.2566524184099
 20
131.0095178329783
 10
-790.2148598472968
 20
132.092116072883
 10
-790.1730672761852
 20
133.1627721094145
 10
-790.1312747050749
 20
134.2207173691519
 10
-790.0894821339664
 20
135.2652171082036
 10
-790.0476895628594
 20
136.2955883478421
 10
-790.005896991754
 20
137.3111524847905
 10
-789.96410442065
 20
138.3112309157723
 10
-789.9223118495479
 20
139.2951450375109
 10
-789.880519278447
 20
140.2622162467295
 10
-789.8387267073477
 20
141.2117659401515
 10
-789.7969341362501
 20
142.1431155145002
 10
-789.7551415651544
 20
143.055586366499
 10
-789.71334899406
 20
143.9485008506956
 10
-789.6715564229673
 20
144.8212333499352
 10
-789.6297638518761
 20
145.6732359087573
 10
-789.5879712807867
 20
146.5039669154915
 10
-789.5461787096989
 20
147.3128847584674
 10
-789.5043861386129
 20
148.0994478260145
 10
-789.4625935675282
 20
148.8631145064622
 10
-789.4208009964453
 20
149.6033431881401
 10
-789.3790084253638
 20
150.3195922593777
 10
-789.3372158542842
 20
151.0113201085045
 10
-789.295423283206
 20
151.6779864413049
 10
-789.2536307121295
 20
152.3191181478791
 10
-789.2118381410546
 20
152.9343399515463
 10
-789.1700455699812
 20
153.5232842955703
 10
-789.1282529989093
 20
154.0855836232144
 10
-789.0864604278389
 20
154.6208703777421
 10
-789.0446678567703
 20
155.1287770024171
 10
-789.002875285703
 20
155.6089359405027
 10
-788.9610827146374
 20
156.0609796352624
 10
-788.919290143573
 20
156.4845405299598
 10
-788.8774975725104
 20
156.8792526968713
 10
-788.8357050014494
 20
157.2448283357916
 10
-788.7939124303894
 20
157.5810906400681
 10
-788.7521198593308
 20
157.8878712603768
 10
-788.7103272882738
 20
158.1650018473934
 10
-788.6685347172189
 20
158.4123140517904
210
0.0
220
0.0
230
-1.0
  0
LWPOLYLINE
  5
17F
330
1F
100
AcDbEntity
  8
0
  6
CONTINUOUS
 62
     7
100
AcDbPolyline
 90
      113
 70
     0
 43
0.0
 10
-803.3502742161965
 20
70.30163022515859
 10
-803.3084714128765
 20
70.3168429524001
 10
-803.2666686095557
 20
70.36265665857674
 10
-803.2248658062335
 20
70.43904483024563
 10
-803.1830630029104
 20
70.54598095396383
 10
-803.1412601995863
 20
70.68343851628848
 10
-803.0994573962614
 20
70.85139100377667
 10
-803.0576545929355
 20
71.04979718240313
 10
-803.0158517896085
 20
71.27848803115107
 10
-802.9740489862808
 20
71.53722887470171
 10
-802.9322461829519
 20
71.82578449937412
 10
-802.8904433796226
 20
72.14391969148741
 10
-802.8486405762923
 20
72.49139923736064
 10
-802.8068377729612
 20
72.86798792331292
 10
-802.7650349696296
 20
73.2734505356633
 10
-802.7232321662972
 20
73.70755186073087
 10
-802.6814293629644
 20
74.17005668483472
 10
-802.6396265596308
 20
74.66071556074573
 10
-802.5978237562966
 20
75.17916020892379
 10
-802.556020952962
 20
75.72496324127246
 10
-802.5142181496269
 20
76.29769683991033
 10
-802.4724153462914
 20
76.89693318695595
 10
-802.4306125429556
 20
77.5222444645279
 10
-802.3888097396195
 20
78.17320285474474
 10
-802.3470069362832
 20
78.84938053972502
 10
-802.3052041329462
 20
79.55034970158728
 10
-802.2634013296095
 20
80.2756825224502
 10
-802.2215985262725
 20
81.02493854744502
 10
-802.1797957229351
 20
81.797575817255
 10
-802.1379929195979
 20
82.59300349899515
 10
-802.0961901162606
 20
83.41063044682559
 10
-802.0543873129232
 20
84.24986551490647
 10
-802.0125845095858
 20
85.11011755739796
 10
-801.9707817062489
 20
85.99079542846019
 10
-801.9289789029117
 20
86.89130798225325
 10
-801.8871760995746
 20
87.8110640729373
 10
-801.8453732962382
 20
88.74947255467255
 10
-801.8035704929018
 20
89.70593233486355
 10
-801.7617676895655
 20
90.67976542665625
 10
-801.71996488623
 20
91.67025800981038
 10
-801.6781620828945
 20
92.67669606355562
 10
-801.6363592795595
 20
93.69836556712164
 10
-801.594556476225
 20
94.73455249973813
 10
-801.5527536728911
 20
95.78454284063471
 10
-801.5109508695579
 20
96.84762256904109
 10
-801.4691480662248
 20
97.92307766418692
 10
-801.4273452628928
 20
99.01019410530192
 10
-801.3855424595612
 20
100.1082516073233
 10
-801.3437396562302
 20
101.2164832625481
 10
-801.3019368529002
 20
102.3341011387742
 10
-801.2601340495709
 20
103.4603172018509
 10
-801.2183312462424
 20
104.594343417628
 10
-801.1765284429149
 20
105.7353917519548
 10
-801.134725639588
 20
106.8826741706807
 10
-801.0929228362622
 20
108.0354026396554
 10
-801.0511200329373
 20
109.1927891247283
 10
-801.0093172296134
 20
110.3540455917489
 10
-800.9675144262906
 20
111.5183822301819
 10
-800.9257116229687
 20
112.6849964971988
 10
-800.883908819648
 20
113.8530802947863
 10
-800.8421060163284
 20
115.0218255018147
 10
-800.8003032130102
 20
116.1904239971541
 10
-800.7585004096929
 20
117.3580676596746
 10
-800.7166976063768
 20
118.5239483682465
 10
-800.6748948030622
 20
119.6872580017399
 10
-800.6330919997487
 20
120.8471884390249
 10
-800.5912891964365
 20
122.0029315589717
 10
-800.5494863931257
 20
123.1536824922489
 10
-800.5076835898159
 20
124.2986588218613
 10
-800.4658807865079
 20
125.4370876072111
 10
-800.4240779832011
 20
126.5681959411733
 10
-800.3822751798958
 20
127.6912109166226
 10
-800.3404723765918
 20
128.805359626434
 10
-800.2986695732893
 20
129.9098691634823
 10
-800.2568667699883
 20
131.0039666206423
 10
-800.2150639666887
 20
132.086879090789
 10
-800.1732611633907
 20
133.1578336667973
 10
-800.131458360094
 20
134.216065931953
 10
-800.0896555567992
 20
135.2608679567317
 10
-800.0478527535057
 20
136.2915548709691
 10
-800.0060499502139
 20
137.3074418727799
 10
-799.9642471469235
 20
138.3078441602787
 10
-799.9224443436345
 20
139.2920769315802
 10
-799.8806415403476
 20
140.2594553847988
 10
-799.8388387370622
 20
141.2092947180492
 10
-799.7970359337783
 20
142.1409101294459
 10
-799.7552331304958
 20
143.0536168171035
 10
-799.7134303272152
 20
143.9467435439796
 10
-799.6716275239361
 20
144.819706054359
 10
-799.6298247206586
 20
145.6719544296408
 10
-799.5880219173829
 20
146.5029388352361
 10
-799.5462191141086
 20
147.3121094365558
 10
-799.5044163108361
 20
148.0989163990108
 10
-799.462613507565
 20
148.8628098880119
 10
-799.4208107042956
 20
149.6032400689702
 10
-799.3790079010279
 20
150.3196571072966
 10
-799.3372050977619
 20
151.011511168402
 10
-799.2954022944973
 20
151.678270498475
 10
-799.2535994912345
 20
152.3195151115588
 10
-799.2117966879731
 20
152.9348676815834
 10
-799.1699938847132
 20
153.5239509672907
 10
-799.128191081455
 20
154.0863877274229
 10
-799.0863882781983
 20
154.6218007207223
 10
-799.0445854749432
 20
155.129812705931
 10
-799.0027826716897
 20
155.6100464417911
 10
-798.9609798684376
 20
156.0621246870447
 10
-798.9191770651871
 20
156.4856702004341
 10
-798.8773742619379
 20
156.8803273935404
 10
-798.8355714586902
 20
157.245869738566
 10
-798.793768655444
 20
157.5821183273619
 10
-798.7519658521991
 20
157.8888943272065
 10
-798.7101630489558
 20
158.1660189053785
 10
-798.6683602457142
 20
158.4133132291543
210
0.0
220
0.0
230
-1.0
  0
LWPOLYLINE
  5
180
330
1F
100
AcDbEntity
  8
0
  6
CONTINUOUS
 62
     7
100
AcDbPolyline
 90
      113
 70
     0
 43
0.0
 10
-813.3499531277201
 20
70.3016732259282
 10
-813.3081544798839
 20
70.31707546240244
 10
-813.2663558320468
 20
70.36307235588154
 10
-813.2245571842082
 20
70.43964800120615
 10
-813.1827585363687
 20
70.54678649321701
 10
-813.1409598885283
 20
70.68447192675475
 10
-813.099161240687
 20
70.85268780302204
 10
-813.0573625928445
 20
71.05135073903442
 10
-813.0155639450013
 20
71.28025003149573
 10
-812.973765297157
 20
71.53916070240072
 10
-812.9319666493118
 20
71.82785777374433
 10
-812.890168001466
 20
72.14611626752132
 10
-812.8483693536195
 20
72.49371120572657
 10
-812.8065707057721
 20
72.87041761035492
 10
-812.7647720579239
 20
73.27601050340118
 10
-812.7229734100753
 20
73.71026490686023
 10
-812.6811747622259
 20
74.17295522085743
 10
-812.6393761143759
 20
74.66379251224994
 10
-812.5975774665255
 20
75.1823707826429
 10
-812.5557788186745
 20
75.72827137677965
 10
-812.5139801708232
 20
76.30107563940349
 10
-812.4721815229714
 20
76.90036491525775
 10
-812.4303828751191
 20
77.52572054908575
 10
-812.3885842272666
 20
78.1767238856308
 10
-812.3467855794138
 20
78.85295626963625
 10
-812.3049869315607
 20
79.55399904584537
 10
-812.2631882837073
 20
80.27943296269116
 10
-812.221389635854
 20
81.02878362903334
 10
-812.1795909880004
 20
81.8014776773494
 10
-812.1377923401467
 20
82.59693142436055
 10
-812.095993692293
 20
83.41456118678806
 10
-812.0541950444393
 20
84.2537832813532
 10
-812.0123963965855
 20
85.11401402477713
 10
-811.970597748732
 20
85.99466973378118
 10
-811.9287991008786
 20
86.89516672508657
 10
-811.8870004530255
 20
87.81492131541452
 10
-811.8452018051723
 20
88.7533493151103
 10
-811.8034031573196
 20
89.709823847815
 10
-811.7616045094671
 20
90.68364361864067
 10
-811.7198058616148
 20
91.67409985863982
 10
-811.6780072137632
 20
92.68048379886493
 10
-811.6362085659118
 20
93.70208667036844
 10
-811.5944099180609
 20
94.73819970420288
 10
-811.5526112702107
 20
95.78811413142068
 10
-811.5108126223608
 20
96.85112118307433
 10
-811.4690139745117
 20
97.92651209021632
 10
-811.427215326663
 20
99.01357773799926
 10
-811.3854166788151
 20
100.1115823289457
 10
-811.343618030968
 20
101.2197448816989
 10
-811.3018193831216
 20
102.3372800438024
 10
-811.2600207352756
 20
103.4634024627997
 10
-811.2182220874311
 20
104.5973267862347
 10
-811.176423439587
 20
105.7382676616507
 10
-811.1346247917438
 20
106.8854397365915
 10
-811.0928261439017
 20
108.0380576586006
 10
-811.0510274960604
 20
109.1953360752218
 10
-811.0092288482199
 20
110.3564895193421
 10
-810.9674302003808
 20
111.5207244022691
 10
-810.9256315525427
 20
112.6872337753298
 10
-810.8838329047056
 20
113.8552094454471
 10
-810.8420342568697
 20
115.0238432195442
 10
-810.8002356090349
 20
116.1923269045442
 10
-810.7584369612013
 20
117.3598523073701
 10
-810.716638313369
 20
118.5256112349452
 10
-810.6748396655378
 20
119.6887954941923
 10
-810.6330410177078
 20
120.8485968920347
 10
-810.5912423698794
 20
122.0042074158735
 10
-810.549443722052
 20
123.1548308298205
 10
-810.5076450742262
 20
124.2996897189406
 10
-810.4658464264015
 20
125.438008355444
 10
-810.4240477785785
 20
126.5690110115407
 10
-810.3822491307566
 20
127.6919219594409
 10
-810.3404504829363
 20
128.8059654713545
 10
-810.2986518351173
 20
129.9103658194917
 10
-810.2568531873001
 20
131.0043472760625
 10
-810.215054539484
 20
132.0871341132771
 10
-810.1732558916697
 20
133.1579511282489
 10
-810.1314572438567
 20
134.2160547648699
 10
-810.0896585960454
 20
135.2607506074667
 10
-810.0478599482356
 20
136.291348477794
 10
-810.0060613004273
 20
137.3071581976063
 10
-809.9642626526206
 20
138.3074895886581
 10
-809.9224640048157
 20
139.291652472704
 10
-809.8806653570119
 20
140.2589566714984
 10
-809.8388667092102
 20
141.208712006796
 10
-809.7970680614098
 20
142.1402283003512
 10
-809.755269413611
 20
143.0528162702832
 10
-809.7134707658141
 20
143.9458367057663
 10
-809.6716721180187
 20
144.8187259444105
 10
-809.6298734702248
 20
145.6709265874841
 10
-809.5880748224326
 20
146.5018812362554
 10
-809.546276174642
 20
147.3110324919926
 10
-809.5044775268532
 20
148.0978229559642
 10
-809.4626788790658
 20
148.8616952294382
 10
-809.42088023128
 20
149.602091913683
 10
-809.3790815834959
 20
150.318455609967
 10
-809.3372829357133
 20
151.0102301853604
 10
-809.2954842879324
 20
151.6769251878537
 10
-809.2536856401531
 20
152.3181464689814
 10
-809.2118869923754
 20
152.9335075531862
 10
-809.1700883445992
 20
153.5226219649113
 10
-809.1282896968247
 20
154.0851032285994
 10
-809.0864910490516
 20
154.6205648686937
 10
-809.04469240128
 20
155.1286204096369
 10
-809.00289375351
 20
155.6088833758722
 10
-808.9610951057415
 20
156.0609672918424
 10
-808.9192964579744
 20
156.4844872810104
 10
-808.877497810209
 20
156.8791357248132
 10
-808.8356991624448
 20
157.2447150935528
 10
-808.7939005146824
 20
157.5810362819695
 10
-808.7521018669213
 20
157.8879101848036
 10
-808.7103032191615
 20
158.1651476967952
 10
-808.6685045714022
 20
158.4125597126898
210
0.0
220
0.0
230
-1.0
  0
LWPOLYLINE
  5
181
330
1F
100
AcDbEntity
  8
0
  6
CONTINUOUS
 62
     7
100
AcDbPolyline
 90
      113
 70
     0
 43
0.0
 10
-823.3499999628557
 20
70.30169525261722
 10
-823.308199874387
 20
70.3170203177059
 10
-823.2663997859172
 20
70.36294744373001
 10
-823.2245996974465
 20
70.43947132809622
 10
-823.1827996089744
 20
70.54658666821109
 10
-823.1409995205015
 20
70.68428816148126
 10
-823.0991994320277
 20
70.85255542894569
 10
-823.0573993435528
 20
71.0512393941056
 10
-823.0155992550771
 20
71.28012576924755
 10
-822.9737991666003
 20
71.5389997584056
 10
-822.9319990781229
 20
71.82764656561375
 10
-822.8901989896447
 20
72.1458513949061
 10
-822.8483989011654
 20
72.49339945031664
 10
-822.8065988126856
 20
72.87007593587944
 10
-822.7647987242052
 20
73.27566605562853
 10
-822.722998635724
 20
73.70995501359798
 10
-822.6811985472422
 20
74.1727133680268
 10
-822.6393984587597
 20
74.66359116166323
 10
-822.597598370277
 20
75.18217921496789
 10
-822.5557982817933
 20
75.72806793742382
 10
-822.5139981933097
 20
76.30084773851402
 10
-822.4721981048251
 20
76.90010902772156
 10
-822.4303980163405
 20
77.52544221452946
 10
-822.3885979278557
 20
78.17643770842078
 10
-822.3467978393703
 20
78.85268591887849
 10
-822.3049977508847
 20
79.55377725538565
 10
-822.2631976623991
 20
80.27928903623774
 10
-822.2213975739131
 20
81.02869470609157
 10
-822.179597485427
 20
81.8014182126845
 10
-822.1377973969408
 20
82.59688319986378
 10
-822.0959973084548
 20
83.41451331147665
 10
-822.0541972199686
 20
84.2537321913704
 10
-822.0123971314824
 20
85.11396348339224
 10
-821.9705970429964
 20
85.99463083138944
 10
-821.9287969545105
 20
86.89515787920925
 10
-821.886996866025
 20
87.81496827069896
 10
-821.8451967775393
 20
88.75347522038992
 10
-821.8033966890541
 20
89.71001212305657
 10
-821.7615966005693
 20
90.68387549675174
 10
-821.7197965120846
 20
91.6743616606336
 10
-821.6779964236003
 20
92.68076693386028
 10
-821.6361963351167
 20
93.70238763559006
 10
-821.5943962466333
 20
94.738520084981
 10
-821.5525961581507
 20
95.7884606011913
 10
-821.5107960696682
 20
96.85150550337913
 10
-821.4689959811866
 20
97.92695111070267
 10
-821.4271958927056
 20
99.01408697961764
 10
-821.3853958042253
 20
100.112152729028
 10
-821.3435957157456
 20
101.2203656125124
 10
-821.3017956272666
 20
102.3379427785128
 10
-821.2599955387884
 20
103.4641013754712
 10
-821.2181954503111
 20
104.5980585518297
 10
-821.1763953618349
 20
105.7390314560302
 10
-821.134595273359
 20
106.8862372365148
 10
-821.0927951848844
 20
108.0388930417254
 10
-821.0509950964107
 20
109.1962160201041
 10
-821.0091950079379
 20
110.3574210411176
 10
-820.9673949194664
 20
111.5217067331322
 10
-820.9255948309958
 20
112.6882646742537
 10
-820.8837947425262
 20
113.856286413956
 10
-820.841994654058
 20
115.0249635017129
 10
-820.8001945655906
 20
116.1934874869984
 10
-820.7583944771246
 20
117.3610499192861
 10
-820.7165943886598
 20
118.52684234805
 10
-820.6747943001961
 20
119.6900563227639
 10
-820.6329942117338
 20
120.8498833929016
 10
-820.5911941232728
 20
122.0055178643844
 10
-820.5493940348131
 20
123.1561730059829
 10
-820.5075939463547
 20
124.3010700640161
 10
-820.4657938578976
 20
125.439430312515
 10
-820.423993769442
 20
126.5704750255104
 10
-820.3821936809878
 20
127.693425477033
 10
-820.340393592535
 20
128.8075029411137
 10
-820.2985935040836
 20
129.9119286917834
 10
-820.2567934156339
 20
131.0059240030727
 10
-820.2149933271854
 20
132.0887101490127
 10
-820.1731932387386
 20
133.1595164179241
 10
-820.1313931502933
 20
134.2176253333299
 10
-820.0895930618495
 20
135.2623411194924
 10
-820.0477929734071
 20
136.292968064427
 10
-820.0059928849664
 20
137.3088104561489
 10
-819.9641927965273
 20
138.3091725826737
 10
-819.9223927080899
 20
139.2933587320164
 10
-819.8805926196538
 20
140.2606731921927
 10
-819.8387925312195
 20
141.2104202512176
 10
-819.7969924427869
 20
142.1419041971066
 10
-819.7551923543557
 20
143.0544424392796
 10
-819.713392265926
 20
143.9474365633031
 10
-819.6715921774982
 20
144.8203213982922
 10
-819.6297920890719
 20
145.6725318548985
 10
-819.5879920006471
 20
146.5035028437734
 10
-819.546191912224
 20
147.3126692755685
 10
-819.5043918238027
 20
148.0994660609353
 10
-819.4625917353827
 20
148.8633281105253
 10
-819.4207916469647
 20
149.60369033499
 10
-819.378991558548
 20
150.3199876449808
 10
-819.3371914701331
 20
151.0116726368605
 10
-819.2953913817198
 20
151.678307502852
 10
-819.253591293308
 20
152.3194963616044
 10
-819.2117912048977
 20
152.9348434163471
 10
-819.1699911164892
 20
153.5239528703097
 10
-819.1281910280821
 20
154.0864289267216
 10
-819.0863909396764
 20
154.6218757888122
 10
-819.0445908512727
 20
155.1298976598111
 10
-819.0027907628703
 20
155.6100987429477
 10
-818.9609906744693
 20
156.0620832414514
 10
-818.9191905860697
 20
156.485476683091
 10
-818.877390497672
 20
156.880032267591
 10
-818.8355904092755
 20
157.2455504986088
 10
-818.7937903208804
 20
157.5818319569397
 10
-818.7519902324866
 20
157.8886772233786
 10
-818.7101901440944
 20
158.1658868787208
 10
-818.668390055703
 20
158.4132615037648
210
0.0
220
0.0
230
-1.0
  0
LWPOLYLINE
  5
182
330
1F
100
AcDbEntity
  8
0
  6
CONTINUOUS
 62
     7
100
AcDbPolyline
 90
      113
 70
     0
 43
0.0
 10
-833.3500297879726
 20
70.30169527652164
 10
-833.308219469583
 20
70.31696336582363
 10
-833.2664091511923
 20
70.36285910448746
 10
-833.2245988328008
 20
70.43938779893674
 10
-833.182788514408
 20
70.54655475559511
 10
-833.1409781960139
 20
70.68436469554364
 10
-833.099167877619
 20
70.8527553748426
 10
-833.0573575592233
 20
71.0515365203315
 10
-833.0155472408267
 20
71.28050342808386
 10
-832.9737369224289
 20
71.53945139417328
 10
-832.9319266040305
 20
71.82817571467334
 10
-832.8901162856312
 20
72.14647168565762
 10
-832.8483059672312
 20
72.49413460319967
 10
-832.8064956488304
 20
72.87095976337307
 10
-832.764685330429
 20
73.2767424622514
 10
-832.7228750120269
 20
73.71127735806719
 10
-832.6810646936239
 20
74.17429485989086
 10
-832.6392543752206
 20
74.66540700742178
 10
-832.5974440568167
 20
75.18421309459107
 10
-832.5556337384126
 20
75.73031241532993
 10
-832.5138234200075
 20
76.30330426356942
 10
-832.4720131016022
 20
76.90278793324077
 10
-832.4302027831967
 20
77.5283627182751
 10
-832.3883924647907
 20
78.17962791260358
 10
-832.3465821463844
 20
78.8561828101573
 10
-832.3047718279781
 20
79.55762606918755
 10
-832.2629615095713
 20
80.2834995754453
 10
-832.2211511911645
 20
81.03324440554321
 10
-832.1793408727574
 20
81.80629127220858
 10
-832.1375305543503
 20
82.60207088816884
 10
-832.0957202359434
 20
83.42001396615133
 10
-832.0539099175361
 20
84.25955121888342
 10
-832.012099599129
 20
85.12011335909247
 10
-831.970289280722
 20
86.0011310995059
 10
-831.9284789623152
 20
86.90203515285101
 10
-831.8866686439086
 20
87.82225566938783
 10
-831.8448583255021
 20
88.76117798025535
 10
-831.803048007096
 20
89.71811069979944
 10
-831.7612376886901
 20
90.6923549167559
 10
-831.7194273702846
 20
91.6832117198606
 10
-831.6776170518795
 20
92.68998219784935
 10
-831.6358067334747
 20
93.711967439458
 10
-831.5939964150705
 20
94.74846853342241
 10
-831.5521860966667
 20
95.7987865684784
 10
-831.5103757782636
 20
96.86222263336184
 10
-831.468565459861
 20
97.93807741092485
 10
-831.426755141459
 20
99.02562256437511
 10
-831.3849448230578
 20
100.1240818657507
 10
-831.3431345046571
 20
101.2326746073793
 10
-831.3013241862573
 20
102.3506200815885
 10
-831.259513867858
 20
103.4771375807059
 10
-831.2177035494597
 20
104.6114463970593
 10
-831.1758932310624
 20
105.7527658229761
 10
-831.1340829126659
 20
106.900315150784
 10
-831.0922725942704
 20
108.0533136728107
 10
-831.0504622758755
 20
109.210980521314
 10
-831.008651957482
 20
110.3725245068129
 10
-830.9668416390896
 20
111.5371380143047
 10
-830.9250313206979
 20
112.7040119647474
 10
-830.8832210023074
 20
113.8723372790991
 10
-830.8414106839181
 20
115.0413048783177
 10
-830.7996003655301
 20
116.2101056833612
 10
-830.7577900471429
 20
117.3779306151876
 10
-830.7159797287572
 20
118.5439705947548
 10
-830.6741694103728
 20
119.707416543021
 10
-830.6323590919895
 20
120.8674595532053
 10
-830.5905487736073
 20
122.0233007834858
 10
-830.548738455227
 20
123.1741568390181
 10
-830.5069281368476
 20
124.3192456359258
 10
-830.4651178184696
 20
125.4577850903327
 10
-830.4233075000932
 20
126.5889931183629
 10
-830.381497181718
 20
127.7120876361398
 10
-830.3396868633442
 20
128.8262865597875
 10
-830.297876544972
 20
129.9308078054298
 10
-830.2560662266012
 20
131.0248692891902
 10
-830.2142559082317
 20
132.1076895054752
 10
-830.1724455898641
 20
133.1785176951749
 10
-830.1306352714979
 20
134.2366486136965
 10
-830.088824953133
 20
135.281380691544
 10
-830.04701463477
 20
136.3120123592215
 10
-830.0052043164084
 20
137.3278420472327
 10
-829.9633939980483
 20
138.3281681860818
 10
-829.9215836796898
 20
139.3122892062725
 10
-829.879773361333
 20
140.279503538309
 10
-829.8379630429778
 20
141.2291096126952
 10
-829.7961527246239
 20
142.1604068942822
 10
-829.7543424062721
 20
143.0727450877559
 10
-829.7125320879215
 20
143.9655456406732
 10
-829.670721769573
 20
144.8382355074089
 10
-829.6289114512255
 20
145.6902416423371
 10
-829.5871011328801
 20
146.5209909998323
 10
-829.5452908145361
 20
147.3299105342687
 10
-829.5034804961937
 20
148.1164272000208
 10
-829.4616701778531
 20
148.879967951463
 10
-829.419859859514
 20
149.6199597429695
 10
-829.3780495411766
 20
150.3358310352612
 10
-829.3362392228407
 20
151.0270773684419
 10
-829.2944289045064
 20
151.6932866979729
 10
-829.2526185861736
 20
152.3340537165012
 10
-829.2108082678427
 20
152.9489731166738
 10
-829.1689979495131
 20
153.5376395911377
 10
-829.1271876311853
 20
154.0996478325397
 10
-829.0853773128587
 20
154.6345925335268
 10
-829.0435669945339
 20
155.142068386746
 10
-829.0017566762104
 20
155.6216700848442
 10
-828.9599463578887
 20
156.0729942717203
 10
-828.9181360395683
 20
156.4957175180467
 10
-828.8763257212495
 20
156.8896226412385
 10
-828.8345154029321
 20
157.2544998080271
 10
-828.7927050846163
 20
157.5901391851436
 10
-828.7508947663016
 20
157.8963309393193
 10
-828.7090844479885
 20
158.1728652372854
 10
-828.6672741296776
 20
158.4195322457687
210
0.0
220
0.0
230
-1.0
  0
LWPOLYLINE
  5
183
330
1F
100
AcDbEntity
  8
0
  6
CONTINUOUS
 62
     7
100
AcDbPolyline
 90
      113
 70
     0
 43
0.0
 10
-843.3499721931973
 20
70.30167309800278
 10
-843.3081737069658
 20
70.31693610550761
 10
-843.2663752207329
 20
70.36282537180908
 10
-843.2245767344994
 20
70.43935680181828
 10
-843.1827782482643
 20
70.54654630044614
 10
-843.1409797620287
 20
70.68439468488998
 10
-843.0991812757917
 20
70.85277371713089
 10
-843.0573827895539
 20
71.05148965695182
 10
-843.015584303315
 20
71.28034825044269
 10
-842.9737858170754
 20
71.53915524369336
 10
-842.931987330835
 20
71.82771638279367
 10
-842.8901888445937
 20
72.14583741383355
 10
-842.8483903583517
 20
72.49332408290283
 10
-842.8065918721088
 20
72.8699821360914
 10
-842.7647933858653
 20
73.27561731948911
 10
-842.7229948996212
 20
73.71002063503693
 10
-842.6811964133765
 20
74.1728613630452
 10
-842.6393979271312
 20
74.66374880455389
 10
-842.5975994408851
 20
75.18229183992854
 10
-842.5558009546389
 20
75.72809934953465
 10
-842.5140024683922
 20
76.30078021373777
 10
-842.4722039821447
 20
76.89994331290335
 10
-842.4304054958972
 20
77.52519752739698
 10
-842.3886070096491
 20
78.17615173758414
 10
-842.346808523401
 20
78.85241482383039
 10
-842.3050100371524
 20
79.55358238417227
 10
-842.2632115509037
 20
80.27914415238456
 10
-842.2214130646548
 20
81.02853922379688
 10
-842.1796145784059
 20
81.80120637797445
 10
-842.1378160921569
 20
82.59658439448245
 10
-842.0960176059077
 20
83.41411205288613
 10
-842.0542191196585
 20
84.25322813275068
 10
-842.0124206334096
 20
85.11337141364139
 10
-841.9706221471606
 20
85.99398067512338
 10
-841.9288236609116
 20
86.89449469676191
 10
-841.887025174663
 20
87.81434154270826
 10
-841.8452266884145
 20
88.7528667996917
 10
-841.8034282021664
 20
89.70937776257458
 10
-841.7616297159185
 20
90.68318151530777
 10
-841.7198312296711
 20
91.67358514184224
 10
-841.6780327434237
 20
92.67989572612888
 10
-841.6362342571772
 20
93.70142035211865
 10
-841.5944357709308
 20
94.73746610376243
 10
-841.552637284685
 20
95.78734006501118
 10
-841.5108387984399
 20
96.85034931981583
 10
-841.469040312195
 20
97.92579381076017
 10
-841.4272418259512
 20
99.0129203827794
 10
-841.3854433397079
 20
100.1109519570884
 10
-841.3436448534652
 20
101.2191113393453
 10
-841.3018463672234
 20
102.3366213352082
 10
-841.2600478809823
 20
103.4627047503351
 10
-841.218249394742
 20
104.5965843903841
 10
-841.1764509085025
 20
105.7374830610133
 10
-841.134652422264
 20
106.8846235678806
 10
-841.0928539360264
 20
108.0372287166443
 10
-841.0510554497897
 20
109.194518570565
 10
-841.0092569635541
 20
110.3556934912773
 10
-840.9674584773195
 20
111.5199452269551
 10
-840.9256599910859
 20
112.6864654895794
 10
-840.8838615048535
 20
113.8544459911314
 10
-840.8420630186221
 20
115.0230784435921
 10
-840.8002645323919
 20
116.1915545589428
 10
-840.7584660461629
 20
117.3590660491645
 10
-840.716667559935
 20
118.5248046262383
 10
-840.6748690737085
 20
119.6879620021454
 10
-840.6330705874832
 20
120.8477321110157
 10
-840.5912721012593
 20
122.0033243155574
 10
-840.5494736150365
 20
123.153954522773
 10
-840.5076751288151
 20
124.2988386633714
 10
-840.4658766425952
 20
125.4371926680611
 10
-840.4240781563766
 20
126.568232467551
 10
-840.3822796701593
 20
127.6911739925496
 10
-840.3404811839436
 20
128.8052331737657
 10
-840.2986826977293
 20
129.909625941908
 10
-840.2568842115165
 20
131.0035682276851
 10
-840.2150857253052
 20
132.0862833912034
 10
-840.1732872390953
 20
133.1570446562319
 10
-840.1314887528869
 20
134.2151457638636
 10
-840.0896902666802
 20
135.2598805186141
 10
-840.047891780475
 20
136.2905427249991
 10
-840.0060932942714
 20
137.3064261875341
 10
-839.9642948080691
 20
138.3068247107349
 10
-839.9224963218687
 20
139.2910320991171
 10
-839.8806978356698
 20
140.2583421571963
 10
-839.8388993494723
 20
141.2080486894882
 10
-839.7971008632767
 20
142.1394580130058
 10
-839.7553023770826
 20
143.0519576422891
 10
-839.7135038908901
 20
143.9449674972174
 10
-839.6717054046992
 20
144.8179075821668
 10
-839.62990691851
 20
145.6701979015141
 10
-839.5881084323224
 20
146.5012584596354
 10
-839.5463099461363
 20
147.3105092609072
 10
-839.5045114599518
 20
148.0973703097059
 10
-839.4627129737692
 20
148.861261610408
 10
-839.4209144875879
 20
149.6016031673898
 10
-839.3791160014083
 20
150.3178320700666
 10
-839.3373175152306
 20
151.0094926257255
 10
-839.2955190290542
 20
151.676170638533
 10
-839.2537205428794
 20
152.3174520027275
 10
-839.2119220567064
 20
152.9329226125476
 10
-839.1701235705347
 20
153.5221683622317
 10
-839.1283250843646
 20
154.0847751460185
 10
-839.0865265981963
 20
154.6203288581464
 10
-839.0447281120294
 20
155.1284153928539
 10
-839.0029296258638
 20
155.6086206443796
 10
-838.9611311397001
 20
156.0605512757814
 10
-838.9193326535378
 20
156.4839400148217
 10
-838.8775341673769
 20
156.8785668993176
 10
-838.8357356812173
 20
157.2442120512702
 10
-838.7939371950591
 20
157.5806555926804
 10
-838.7521387089027
 20
157.8876776455494
 10
-838.7103402227474
 20
158.1650583318782
 10
-838.6685417365943
 20
158.412577773664
210
0.0
220
0.0
230
-1.0
  0
LWPOLYLINE
  5
184
330
1F
100
AcDbEntity
  8
0
  6
CONTINUOUS
 62
     7
100
AcDbPolyline
 90
      113
 70
     0
 43
0.0
 10
-853.350084727382
 20
70.3016305264318
 10
-853.3082831045531
 20
70.31678142817994
 10
-853.266481481723
 20
70.36258437600787
 10
-853.2246798588918
 20
70.4390658810485
 10
-853.1828782360599
 20
70.54625189115474
 10
-853.1410766132266
 20
70.68410171117097
 10
-853.0992749903925
 20
70.85244602166176
 10
-853.0574733675573
 20
71.0511008370016
 10
-853.0156717447214
 20
71.27988217156498
 10
-852.9738701218844
 20
71.53860603972636
 10
-852.9320684990466
 20
71.82708845586022
 10
-852.8902668762082
 20
72.14514543434109
 10
-852.8484652533689
 20
72.49259298954338
 10
-852.8066636305289
 20
72.86924713584162
 10
-852.764862007688
 20
73.27492328241513
 10
-852.7230603848466
 20
73.70937268686356
 10
-852.6812587620045
 20
74.17222662101484
 10
-852.6394571391619
 20
74.66310319290712
 10
-852.5976555163188
 20
75.18162051057848
 10
-852.5558538934752
 20
75.72739668206697
 10
-852.514052270631
 20
76.30004981541079
 10
-852.4722506477865
 20
76.89919801864806
 10
-852.4304490249417
 20
77.52445939981693
 10
-852.3886474020962
 20
78.17545206695547
 10
-852.3468457792509
 20
78.85179353123372
 10
-852.3050441564051
 20
79.5530443214024
 10
-852.2632425335592
 20
80.27866167217445
 10
-852.2214409107131
 20
81.0280919187118
 10
-852.1796392878666
 20
81.80078139617623
 10
-852.1378376650202
 20
82.5961764397296
 10
-852.0960360421739
 20
83.41372338453378
 10
-852.0542344193274
 20
84.25286856575062
 10
-852.0124327964812
 20
85.11305831854197
 10
-851.970631173635
 20
85.99373897806966
 10
-851.9288295507888
 20
86.89435635362842
 10
-851.8870279279429
 20
87.81431082285792
 10
-851.8452263050971
 20
88.75292293443886
 10
-851.8034246822517
 20
89.70950513880165
 10
-851.7616230594064
 20
90.68336988637662
 10
-851.7198214365617
 20
91.6738296275942
 10
-851.6780198137172
 20
92.6801968128847
 10
-851.6362181908731
 20
93.70178389267852
 10
-851.5944165680298
 20
94.73790331740607
 10
-851.5526149451865
 20
95.7878675374976
 10
-851.5108133223442
 20
96.85098861970273
 10
-851.4690116995023
 20
97.9265485030175
 10
-851.4272100766613
 20
99.0137778061284
 10
-851.3854084538204
 20
100.1119021448192
 10
-851.3436068309805
 20
101.2201471348738
 10
-851.3018052081413
 20
102.337738392076
 10
-851.2600035853031
 20
103.4639015322095
 10
-851.2182019624654
 20
104.5978621710582
 10
-851.1764003396288
 20
105.7388459244058
 10
-851.1345987167929
 20
106.8860784080361
 10
-851.0927970939581
 20
108.0387850702626
 10
-851.050995471124
 20
109.1961793592229
 10
-851.0091938482913
 20
110.3574549040778
 10
-850.9673922254592
 20
111.521803478279
 10
-850.9255906026285
 20
112.6884168552785
 10
-850.8837889797989
 20
113.856486808528
 10
-850.8419873569703
 20
115.0252051114796
 10
-850.8001857341425
 20
116.193763537585
 10
-850.7583841113162
 20
117.3613538602961
 10
-850.7165824884912
 20
118.527167853065
 10
-850.6747808656673
 20
119.6903974078211
 10
-850.6329792428447
 20
120.8502421921877
 10
-850.5911776200235
 20
122.0059143261524
 10
-850.5493759972035
 20
123.156627049033
 10
-850.5075743743851
 20
124.3015936001475
 10
-850.4657727515676
 20
125.4400272188138
 10
-850.4239711287519
 20
126.5711411443498
 10
-850.3821695059374
 20
127.6941486160735
 10
-850.3403678831243
 20
128.8082628733028
 10
-850.2985662603129
 20
129.9126971553557
 10
-850.2567646375028
 20
131.0066651633551
 10
-850.214963014694
 20
132.0894084526339
 10
-850.173161391887
 20
133.1602118366549
 10
-850.1313597690815
 20
134.2183638598574
 10
-850.0895581462775
 20
135.2631530666808
 10
-850.047756523475
 20
136.2938680015646
 10
-850.0059549006742
 20
137.3097972089482
 10
-849.9641532778749
 20
138.310229233271
 10
-849.922351655077
 20
139.2944526189724
 10
-849.8805500322807
 20
140.2617559104918
 10
-849.838748409486
 20
141.2114284940875
 10
-849.7969467866931
 20
142.14280656693
 10
-849.7551451639017
 20
143.0552968329387
 10
-849.7133435411121
 20
143.9483118276835
 10
-849.6715419183238
 20
144.8212640867342
 10
-849.6297402955373
 20
145.6735661456609
 10
-849.5879386727523
 20
146.5046305400333
 10
-849.546137049969
 20
147.3138698054215
 10
-849.5043354271874
 20
148.1006964773952
 10
-849.4625338044073
 20
148.8645230915245
 10
-849.4207321816289
 20
149.6047634134337
 10
-849.3789305588523
 20
150.3208944522811
 10
-849.3371289360771
 20
151.0124856117164
 10
-849.2953273133033
 20
151.6791136195431
 10
-849.2535256905314
 20
152.3203552035653
 10
-849.211724067761
 20
152.9357870915865
 10
-849.1699224449923
 20
153.5249860114105
 10
-849.128120822225
 20
154.0875286908411
 10
-849.0863191994592
 20
154.6229918576821
 10
-849.0445175766948
 20
155.1309522397372
 10
-849.0027159539322
 20
155.6109881565388
 10
-848.9609143311711
 20
156.0627538030327
 10
-848.9191127084114
 20
156.4860109003544
 10
-848.8773110856532
 20
156.8805293337153
 10
-848.8355094628965
 20
157.2460789883267
 10
-848.7937078401411
 20
157.5824297494001
 10
-848.7519062173874
 20
157.8893515021468
 10
-848.7101045946351
 20
158.1666141317784
 10
-848.6683029718835
 20
158.4139875235081
210
0.0
220
0.0
230
-1.0
  0
LWPOLYLINE
  5
185
330
1F
100
AcDbEntity
  8
0
  6
CONTINUOUS
 62
     7
100
AcDbPolyline
 90
      113
 70
     0
 43
0.0
 10
-863.3500977207984
 20
70.30156971635934
 10
-863.3082979557719
 20
70.31668712329845
 10
-863.2664981907442
 20
70.36248038275085
 10
-863.2246984257155
 20
70.43898659898153
 10
-863.1828986606855
 20
70.54622798573445
 10
-863.1410988956546
 20
70.68409769204199
 10
-863.0992991306229
 20
70.8524226396891
 10
-863.0574993655903
 20
71.0510292098765
 10
-863.0156996005566
 20
71.27974378380492
 10
-862.9738998355219
 20
71.53839274267513
 10
-862.9321000704865
 20
71.82680246768787
 10
-862.8903003054502
 20
72.14479934004389
 10
-862.8485005404134
 20
72.4922097409439
 10
-862.8067007753755
 20
72.8688600515887
 10
-862.7649010103372
 20
73.27456197409771
 10
-862.723101245298
 20
73.70900455042096
 10
-862.6813014802584
 20
74.17181576490367
 10
-862.6395017152181
 20
74.66262315668644
 10
-862.5977019501772
 20
75.18105426490979
 10
-862.555902185136
 20
75.72673662871436
 10
-862.5141024200941
 20
76.29929778724073
 10
-862.472302655052
 20
76.89836527962949
 10
-862.4305028900094
 20
77.52356664502122
 10
-862.3887031249667
 20
78.1745294225565
 10
-862.3469033599233
 20
78.85086779020997
 10
-862.3051035948799
 20
79.55208825525463
 10
-862.2633038298362
 20
80.27764533941686
 10
-862.2215040647925
 20
81.0269932278522
 10
-862.1797042997486
 20
81.79958610571617
 10
-862.1379045347046
 20
82.59487815816432
 10
-862.0961047696603
 20
83.4123235703521
 10
-862.0543050046165
 20
84.25137652743513
 10
-862.0125052395723
 20
85.11149121456884
 10
-861.9707054745285
 20
85.9921218169088
 10
-861.9289057094846
 20
86.89271158221685
 10
-861.887105944441
 20
87.81261873279755
 10
-861.8453061793975
 20
88.75116167812824
 10
-861.8035064143546
 20
89.70765860033696
 10
-861.7617066493115
 20
90.68142768155163
 10
-861.7199068842693
 20
91.67178710390031
 10
-861.6781071192271
 20
92.67805504951093
 10
-861.6363073541853
 20
93.69954970051153
 10
-861.5945075891441
 20
94.73558923903009
 10
-861.5527078241034
 20
95.7854918471946
 10
-861.5109080590631
 20
96.84856821451935
 10
-861.4691082940237
 20
97.9240728253693
 10
-861.4273085289848
 20
99.01123464428733
 10
-861.3855087639466
 20
100.1092825082299
 10
-861.3437089989089
 20
101.2174452541534
 10
-861.301909233872
 20
102.3349517190142
 10
-861.2601094688362
 20
103.4610307397688
 10
-861.2183097038009
 20
104.5949111533736
 10
-861.1765099387665
 20
105.7358217967848
 10
-861.1347101737329
 20
106.8829915069591
 10
-861.0929104087005
 20
108.0356459243685
 10
-861.0511106436687
 20
109.19298754534
 10
-861.0093108786382
 20
110.3542086777711
 10
-860.9675111136086
 20
111.5185015853314
 10
-860.9257113485802
 20
112.6850585316904
 10
-860.8839115835526
 20
113.8530717805179
 10
-860.8421118185265
 20
115.0217335954833
 10
-860.8003120535014
 20
116.1902362402564
 10
-860.7585122884772
 20
117.3577719785067
 10
-860.7167125234544
 20
118.5235330739039
 10
-860.6749127584329
 20
119.6867134926068
 10
-860.633112993413
 20
120.8465191019425
 10
-860.5913132283938
 20
122.0021608479798
 10
-860.5495134633762
 20
123.1528496957533
 10
-860.5077136983598
 20
124.2977966102973
 10
-860.4659139333448
 20
125.4362125566464
 10
-860.4241141683315
 20
126.567308499835
 10
-860.3823144033192
 20
127.6902954048975
 10
-860.3405146383084
 20
128.8043842368684
 10
-860.2987148732992
 20
129.9087859607822
 10
-860.2569151082915
 20
131.0027184311825
 10
-860.2151153432852
 20
132.0854460112771
 10
-860.1733155782805
 20
133.1562523012037
 10
-860.1315158132772
 20
134.2144209622498
 10
-860.0897160482756
 20
135.2592356557028
 10
-860.0479162832753
 20
136.2899800428501
 10
-860.0061165182766
 20
137.3059377849794
 10
-859.9643167532797
 20
138.306392543378
 10
-859.9225169882843
 20
139.2906279793334
 10
-859.8807172232905
 20
140.2579277541329
 10
-859.838917458298
 20
141.2075875312292
 10
-859.7971176933074
 20
142.1389812345212
 10
-859.7553179283185
 20
143.0515141578467
 10
-859.7135181633311
 20
143.9445916789166
 10
-859.671718398345
 20
144.8176191754421
 10
-859.6299186333611
 20
145.6700020251344
 10
-859.5881188683785
 20
146.5011456057046
 10
-859.5463191033974
 20
147.3104552948639
 10
-859.504519338418
 20
148.0973364703234
 10
-859.4627195734405
 20
148.8611945097942
 10
-859.4209198084643
 20
149.601451445244
 10
-859.3791200434897
 20
150.3176342230405
 10
-859.3373202785169
 20
151.0093105378583
 10
-859.2955205135457
 20
151.676048174759
 10
-859.2537207485759
 20
152.3174149188041
 10
-859.2119209836079
 20
152.9329785550553
 10
-859.1701212186413
 20
153.5223068685742
 10
-859.1283214536763
 20
154.0849676444223
 10
-859.086521688713
 20
154.6205286676613
 10
-859.0447219237511
 20
155.1285577233526
 10
-859.0029221587907
 20
155.6086430598581
 10
-858.9611223938318
 20
156.0604974905227
 10
-858.9193226288746
 20
156.4838807000046
 10
-858.8775228639188
 20
156.8785524578552
 10
-858.8357230989643
 20
157.2442725336264
 10
-858.7939233340112
 20
157.5808006968694
 10
-858.7521235690597
 20
157.887896717136
 10
-858.7103238041096
 20
158.1653203639776
 10
-858.6685240391608
 20
158.412831406946
210
0.0
220
0.0
230
-1.0
  0
LWPOLYLINE
  5
186
330
1F
100
AcDbEntity
  8
0
  6
CONTINUOUS
 62
     7
100
AcDbPolyline
 90
      113
 70
     0
 43
0.0
 10
-873.3499933967704
 20
70.30149434861171
 10
-873.308195190944
 20
70.31667659360805
 10
-873.2663969851164
 20
70.36256436153099
 10
-873.2245987792878
 20
70.43920477171206
 10
-873.1828005734579
 20
70.54657805463273
 10
-873.1410023676272
 20
70.68453562957117
 10
-873.0992041617953
 20
70.85291426816514
 10
-873.0574059559626
 20
71.05155074205237
 10
-873.0156077501291
 20
71.28028182287065
 10
-872.9738095442946
 20
71.53894428225773
 10
-872.9320113384592
 20
71.82737489185135
 10
-872.890213132623
 20
72.14541042328929
 10
-872.8484149267863
 20
72.49288764820935
 10
-872.8066167209486
 20
72.86964272744984
 10
-872.7648185151103
 20
73.27544707392046
 10
-872.7230203092711
 20
73.70995099812414
 10
-872.6812221034317
 20
74.17279152409638
 10
-872.6394238975913
 20
74.66360567587269
 10
-872.5976256917505
 20
75.18203047748858
 10
-872.5558274859095
 20
75.7277029529796
 10
-872.5140292800676
 20
76.30026012638123
 10
-872.4722310742256
 20
76.899339021729
 10
-872.430432868383
 20
77.52457666305844
 10
-872.3886346625402
 20
78.17560947205946
 10
-872.3468364566971
 20
78.85201594270865
 10
-872.3050382508536
 20
79.55326932670015
 10
-872.2632400450101
 20
80.27883173947622
 10
-872.2214418391663
 20
81.02816529647913
 10
-872.1796436333225
 20
81.80073211315117
 10
-872.1378454274789
 20
82.59599430493462
 10
-872.0960472216346
 20
83.41341398727172
 10
-872.0542490157907
 20
84.2524532756048
 10
-872.0124508099467
 20
85.11257428537607
 10
-871.9706526041027
 20
85.99323859884086
 10
-871.928854398259
 20
86.89386108604936
 10
-871.8870561924155
 20
87.81377417300432
 10
-871.8452579865723
 20
88.7523018748305
 10
-871.8034597807291
 20
89.70876820665256
 10
-871.7616615748863
 20
90.68249718359532
 10
-871.7198633690439
 20
91.67281282078342
 10
-871.6780651632018
 20
92.67903913334169
 10
-871.6362669573604
 20
93.70050013639481
 10
-871.594468751519
 20
94.73651984506749
 10
-871.5526705456784
 20
95.78642187861513
 10
-871.5108723398383
 20
96.8494981411154
 10
-871.4690741339987
 20
97.92498615313383
 10
-871.42727592816
 20
99.0121180881725
 10
-871.3854777223218
 20
100.1101261197335
 10
-871.3436795164843
 20
101.218242421319
 10
-871.3018813106476
 20
102.335699166431
 10
-871.2600831048117
 20
103.4617285285717
 10
-871.2182848989764
 20
104.5955626812431
 10
-871.1764866931422
 20
105.7364337979474
 10
-871.1346884873086
 20
106.8835738638143
 10
-871.0928902814762
 20
108.0362010147939
 10
-871.0510920756446
 20
109.1935103119603
 10
-871.0092938698141
 20
110.3546946307527
 10
-870.9674956639848
 20
111.5189468466105
 10
-870.9256974581564
 20
112.6854598349729
 10
-870.8838992523288
 20
113.853426471279
 10
-870.8421010465025
 20
115.0220396309684
 10
-870.8003028406774
 20
116.1904921894801
 10
-870.7585046348536
 20
117.3579770222535
 10
-870.7167064290311
 20
118.5236870893622
 10
-870.6749082232093
 20
119.6868210796061
 10
-870.6331100173894
 20
120.8465869571422
 10
-870.5913118115704
 20
122.002193532134
 10
-870.5495136057531
 20
123.1528496147453
 10
-870.5077153999366
 20
124.2977640151398
 10
-870.4659171941221
 20
125.4361455434811
 10
-870.4241189883085
 20
126.5672030099331
 10
-870.3823207824964
 20
127.6901452246593
 10
-870.3405225766858
 20
128.8041809978235
 10
-870.2987243708765
 20
129.9085195506071
 10
-870.256926165069
 20
131.0023957955666
 10
-870.2151279592626
 20
132.0850850708993
 10
-870.173329753458
 20
133.1558662638427
 10
-870.1315315476548
 20
134.2140182616344
 10
-870.0897333418532
 20
135.2588199515116
 10
-870.0479351360532
 20
136.289550220712
 10
-870.0061369302546
 20
137.305487956473
 10
-869.9643387244574
 20
138.3059120460321
 10
-869.9225405186621
 20
139.2901013766267
 10
-869.8807423128683
 20
140.2573356065384
 10
-869.838944107076
 20
141.2069390253752
 10
-869.7971459012855
 20
142.1383041792474
 10
-869.7553476954965
 20
143.0508293793326
 10
-869.7135494897091
 20
143.9439129368085
 10
-869.6717512839234
 20
144.8169531628525
 10
-869.6299530781394
 20
145.6693483686423
 10
-869.5881548723569
 20
146.5004968653555
 10
-869.5463566665755
 20
147.3097969641694
 10
-869.5045584607965
 20
148.0966469762619
 10
-869.4627602550189
 20
148.8604463508016
 10
-869.4209620492429
 20
149.6006556969942
 10
-869.3791638434686
 20
150.3168265404165
 10
-869.3373656376955
 20
151.0085177906867
 10
-869.2955674319245
 20
151.6752883574231
 10
-869.253769226155
 20
152.316697150244
 10
-869.2119710203867
 20
152.9323030787677
 10
-869.1701728146204
 20
153.5216650526125
 10
-869.1283746088554
 20
154.0843419813967
 10
-869.0865764030922
 20
154.6198927747386
 10
-869.0447781973302
 20
155.1278778218116
 10
-869.00297999157
 20
155.6079315211801
 10
-868.9611817858112
 20
156.0597952173952
 10
-868.9193835800539
 20
156.4832186030159
 10
-868.8775853742982
 20
156.8779513706011
 10
-868.8357871685438
 20
157.2437432127095
 10
-868.793988962791
 20
157.5803438219003
 10
-868.7521907570396
 20
157.8875028907323
 10
-868.7103925512896
 20
158.1649701117643
 10
-868.6685943455408
 20
158.4124951775553
210
0.0
220
0.0
230
-1.0
  0
LWPOLYLINE
  5
187
330
1F
100
AcDbEntity
  8
0
  6
CONTINUOUS
 62
     7
100
AcDbPolyline
 90
      121
 70
     0
 43
0.0
 10
-913.35071234718
 20
70.3011886919635
 10
-913.3116949466906
 20
70.31402980190481
 10
-913.2726775462002
 20
70.35373051096052
 10
-913.2336601457085
 20
70.42020785953038
 10
-913.1946427452164
 20
70.51336303512892
 10
-913.155625344723
 20
70.63309722527072
 10
-913.1166079442289
 20
70.77931161747036
 10
-913.0775905437338
 20
70.9519073992424
 10
-913.0385731432383
 20
71.15078575810143
 10
-912.9995557427418
 20
71.37584788156204
 10
-912.9605383422445
 20
71.62699495713873
 10
-912.9215209417464
 20
71.90412817234618
 10
-912.8825035412477
 20
72.2071457101449
 10
-912.8434861407484
 20
72.53586889543611
 10
-912.8044687402484
 20
72.89003762372518
 10
-912.7654513397476
 20
73.2693878707394
 10
-912.7264339392467
 20
73.67365561220609
 10
-912.6874165387447
 20
74.10257682385256
 10
-912.6483991382424
 20
74.55588748140612
 10
-912.6093817377398
 20
75.03332356059408
 10
-912.5703643372366
 20
75.53462103714376
 10
-912.5313469367331
 20
76.05951588678245
 10
-912.4923295362291
 20
76.60774408523747
 10
-912.4533121357248
 20
77.17903012337602
 10
-912.4142947352201
 20
77.77300692116438
 10
-912.3752773347152
 20
78.38926358368832
 10
-912.33625993421
 20
79.02738894247895
 10
-912.2972425337048
 20
79.68697182906735
 10
-912.2582251331991
 20
80.36760107498462
 10
-912.2192077326935
 20
81.06886551176186
 10
-912.1801903321877
 20
81.79035397093017
 10
-912.1411729316819
 20
82.53165528402062
 10
-912.1021555311761
 20
83.29235828256432
 10
-912.0631381306702
 20
84.07205178963231
 10
-912.0241207301641
 20
84.8703000028361
 10
-911.9851033296585
 20
85.6865884305379
 10
-911.9460859291527
 20
86.52038689696947
 10
-911.9070685286472
 20
87.37116522636266
 10
-911.8680511281419
 20
88.23839324294927
 10
-911.8290337276369
 20
89.12154077096112
 10
-911.7900163271319
 20
90.02007763462994
 10
-911.7509989266273
 20
90.93347365818765
 10
-911.7119815261228
 20
91.86119866586597
 10
-911.6729641256189
 20
92.80272248189677
 10
-911.6339467251154
 20
93.7575142093148
 10
-911.594929324612
 20
94.72501007252583
 10
-911.5559119241093
 20
95.70460055180266
 10
-911.516894523607
 20
96.69567274482905
 10
-911.4778771231054
 20
97.69761374928879
 10
-911.438859722604
 20
98.70981066286562
 10
-911.3998423221034
 20
99.73165058324338
 10
-911.3608249216032
 20
100.7625206081058
 10
-911.3218075211037
 20
101.8018078351366
 10
-911.282790120605
 20
102.8488993620197
 10
-911.243772720107
 20
103.9031822864388
 10
-911.2047553196097
 20
104.9640416368971
 10
-911.1657379191131
 20
106.0308389062999
 10
-911.1267205186173
 20
107.1029206459866
 10
-911.0877031181224
 20
108.1796331689504
 10
-911.0486857176281
 20
109.2603227881844
 10
-911.0096683171347
 20
110.3443358166818
 10
-910.9706509166424
 20
111.4310185674359
 10
-910.931633516151
 20
112.5197173534396
 10
-910.8926161156603
 20
113.6097784876863
 10
-910.853598715171
 20
114.7005482831691
 10
-910.8145813146822
 20
115.7913730528812
 10
-910.7755639141947
 20
116.8815997129844
 10
-910.736546513708
 20
117.9705778085424
 10
-910.6975291132227
 20
119.0576576006595
 10
-910.6585117127382
 20
120.1421893504555
 10
-910.6194943122553
 20
121.22352331905
 10
-910.580476911773
 20
122.3010097675628
 10
-910.5414595112921
 20
123.3739989571136
 10
-910.5024421108124
 20
124.4418411488221
 10
-910.4634247103337
 20
125.5038866038081
 10
-910.4244073098566
 20
126.5594855831912
 10
-910.3853899093804
 20
127.6079885071021
 10
-910.3463725089055
 20
128.6487616913392
 10
-910.307355108432
 20
129.6812006704787
 10
-910.2683377079595
 20
130.7047041164074
 10
-910.2293203074887
 20
131.7186707010123
 10
-910.1903029070189
 20
132.7224990961803
 10
-910.1512855065504
 20
133.7155879737986
 10
-910.1122681060833
 20
134.697336005754
 10
-910.0732507056175
 20
135.6671418639335
 10
-910.0342333051531
 20
136.624404220224
 10
-909.9952159046901
 20
137.5685217465126
 10
-909.9561985042286
 20
138.4988958619234
 10
-909.9171811037681
 20
139.4149746317467
 10
-909.8781637033094
 20
140.3162450918957
 10
-909.8391463028519
 20
141.2021954748413
 10
-909.8001289023958
 20
142.0723140130545
 10
-909.7611115019411
 20
142.9260889390062
 10
-909.7220941014878
 20
143.7630084851674
 10
-909.683076701036
 20
144.582560884009
 10
-909.6440593005855
 20
145.3842343680019
 10
-909.6050419001365
 20
146.1675171696172
 10
-909.5660244996886
 20
146.9318975213258
 10
-909.5270070992425
 20
147.6768772124702
 10
-909.4879896987976
 20
148.4020390454841
 10
-909.4489722983544
 20
149.1069957862042
 10
-909.4099548979123
 20
149.7913602487319
 10
-909.3709374974717
 20
150.4547452471694
 10
-909.3319200970326
 20
151.0967635956183
 10
-909.2929026965946
 20
151.7170281081804
 10
-909.2538852961583
 20
152.3151515989576
 10
-909.2148678957233
 20
152.8907468820515
 10
-909.1758504952896
 20
153.443426771564
 10
-909.1368330948574
 20
153.9728041972795
 10
-909.0978156944265
 20
154.478531566784
 10
-909.0587982939968
 20
154.9603581777336
 10
-909.0197808935686
 20
155.4180479215932
 10
-908.9807634931417
 20
155.851364689828
 10
-908.941746092716
 20
156.2600723739028
 10
-908.9027286922917
 20
156.6439348652827
 10
-908.8637112918685
 20
157.0027160554327
 10
-908.8246938914467
 20
157.3361798358177
 10
-908.7856764910263
 20
157.6440900979029
 10
-908.7466590906071
 20
157.9262107331532
 10
-908.7076416901888
 20
158.1823084345763
 10
-908.6686242897721
 20
158.4122263173333
210
0.0
220
0.0
230
-1.0
  0
LINE
  5
188
330
1F
100
AcDbEntity
  8
0
  6
CONTINUOUS
 62
     7
100
AcDbLine
 10
767.0999999988021
 20
121.7624814398689
 30
0.0
 11
767.0999999990439
 21
159.3009053555816
 31
0.0
  0
LWPOLYLINE
  5
189
330
1F
100
AcDbEntity
  8
0
  6
CONTINUOUS
 62
     7
100
AcDbPolyline
 90
       73
 70
     0
 43
0.0
 10
-769.5313062652916
 20
71.19031192712313
 10
-769.4975381227041
 20
71.38794251885231
 10
-769.463769980116
 20
71.60518602257459
 10
-769.4300018375274
 20
71.84190256085135
 10
-769.3962336949381
 20
72.09795220073144
 10
-769.3624655523483
 20
72.37319500926355
 10
-769.3286974097583
 20
72.66749105349652
 10
-769.2949292671676
 20
72.98070040047912
 10
-769.2611611245766
 20
73.31268311726012
 10
-769.227392981985
 20
73.66329927088829
 10
-769.1936248393929
 20
74.03240892841245
 10
-769.1598566968006
 20
74.41987215688135
 10
-769.126088554208
 20
74.82554902334377
 10
-769.0923204116149
 20
75.2492976391754
 10
-769.0585522690216
 20
75.69092898971194
 10
-769.0247841264279
 20
76.1502057105245
 10
-768.991015983834
 20
76.62688823671577
 10
-768.9572478412398
 20
77.12073700338841
 10
-768.9234796986455
 20
77.63151244564513
 10
-768.8897115560507
 20
78.15897499858855
 10
-768.855943413456
 20
78.70288509732138
 10
-768.822175270861
 20
79.26300317694634
 10
-768.7884071282657
 20
79.83908967256602
 10
-768.7546389856705
 20
80.43090501928316
 10
-768.720870843075
 20
81.0382096522004
 10
-768.6871027004796
 20
81.66076397908522
 10
-768.6533345578841
 20
82.29830874489532
 10
-768.6195664152885
 20
82.95053042873243
 10
-768.5857982726931
 20
83.61710622755118
 10
-768.5520301300975
 20
84.29771333830605
 10
-768.5182619875019
 20
84.99202895795167
 10
-768.4844938449065
 20
85.69973028344262
 10
-768.450725702311
 20
86.42049451173347
 10
-768.4169575597159
 20
87.15399883977878
 10
-768.3831894171207
 20
87.89992046453314
 10
-768.3494212745258
 20
88.65793658295112
 10
-768.3156531319308
 20
89.4277243919873
 10
-768.281884989336
 20
90.20896108859624
 10
-768.2481168467417
 20
91.00131938604841
 10
-768.2143487041475
 20
91.80443431811393
 10
-768.1805805615536
 20
92.61792207341276
 10
-768.1468124189598
 20
93.44139870066508
 10
-768.1130442763663
 20
94.27448024859116
 10
-768.0792761337733
 20
95.11678276591124
 10
-768.0455079911806
 20
95.96792230134555
 10
-768.0117398485883
 20
96.8275149036143
 10
-767.9779717059962
 20
97.69517662143772
 10
-767.9442035634047
 20
98.57052350353611
 10
-767.9104354208134
 20
99.45317159862962
 10
-767.8766672782226
 20
100.3427369554385
 10
-767.8428991356325
 20
101.2388352624131
 10
-767.8091309930428
 20
102.1410678447469
 10
-767.7753628504533
 20
103.0490171596028
 10
-767.7415947078647
 20
103.9622643818491
 10
-767.7078265652765
 20
104.880390686354
 10
-767.6740584226889
 20
105.8029772479859
 10
-767.6402902801019
 20
106.7296052416131
 10
-767.6065221375153
 20
107.6598558421038
 10
-767.5727539949296
 20
108.5933102243264
 10
-767.5389858523445
 20
109.5295495631491
 10
-767.5052177097597
 20
110.4681550334403
 10
-767.471449567176
 20
111.4087078100682
 10
-767.4376814245927
 20
112.3507890678705
 10
-767.4039132820105
 20
113.2939788471588
 10
-767.3701451394286
 20
114.2378530521053
 10
-767.3363769968477
 20
115.1819866445808
 10
-767.3026088542674
 20
116.1259545864557
 10
-767.268840711688
 20
117.0693318396008
 10
-767.2350725691093
 20
118.0116933658866
 10
-767.2013044265314
 20
118.9526141271837
 10
-767.1675362839542
 20
119.8916690853628
 10
-767.1337681413781
 20
120.8284332022945
 10
-767.0999999988021
 20
121.7624814398689
210
0.0
220
0.0
230
-1.0
  0
LWPOLYLINE
  5
18A
330
1F
100
AcDbEntity
  8
0
  6
CONTINUOUS
 62
     7
100
AcDbPolyline
 90
      113
 70
     0
 43
0.0
 10
779.5315736747597
 20
71.18883261379602
 10
779.4897764658343
 20
71.43620985152843
 10
779.4479792569083
 20
71.7135467848195
 10
779.4061820479815
 20
72.02058808860284
 10
779.3643848390536
 20
72.35707843781195
 10
779.3225876301253
 20
72.72276250738041
 10
779.2807904211962
 20
73.11738497224181
 10
779.2389932122662
 20
73.54069050732963
 10
779.197196003336
 20
73.99242378757752
 10
779.1553987944051
 20
74.47232948791898
 10
779.1136015854734
 20
74.98015045565164
 10
779.0718043765412
 20
75.51555240006145
 10
779.0300071676085
 20
76.07809715345834
 10
778.9882099586756
 20
76.66733922379848
 10
778.9464127497421
 20
77.28283311903803
 10
778.9046155408082
 20
77.9241333471332
 10
778.8628183318743
 20
78.59079441604017
 10
778.82102112294
 20
79.28237083371508
 10
778.7792239140053
 20
79.99841710811414
 10
778.7374267050706
 20
80.73848774719352
 10
778.6956294961357
 20
81.50213559670127
 10
778.6538322872007
 20
82.28884762954584
 10
778.6120350782656
 20
83.09802451458253
 10
778.5702378693306
 20
83.92906107850253
 10
778.5284406603956
 20
84.7813521479971
 10
778.4866434514606
 20
85.65429254975756
 10
778.4448462425257
 20
86.54727711047516
 10
778.4030490335912
 20
87.45970065684116
 10
778.3612518246566
 20
88.39095801554681
 10
778.3194546157225
 20
89.34044401328345
 10
778.2776574067885
 20
90.30755214604997
 10
778.2358601978548
 20
91.29162630807083
 10
778.1940629889218
 20
92.29194716434552
 10
778.152265779989
 20
93.30779127324976
 10
778.1104685710567
 20
94.3384351931594
 10
778.0686713621249
 20
95.38315548245022
 10
778.0268741531933
 20
96.44122869949801
 10
777.9850769442626
 20
97.51193140267857
 10
777.9432797353325
 20
98.59454015036772
 10
777.9014825264028
 20
99.68833150094122
 10
777.8596853174741
 20
100.7925811781672
 10
777.8178881085458
 20
101.9065355960016
 10
777.7760908996187
 20
103.0294048146512
 10
777.7342936906921
 20
104.1603966304102
 10
777.6924964817665
 20
105.2987188395728
 10
777.6506992728416
 20
106.4435792384334
 10
777.6089020639176
 20
107.5941856232861
 10
777.5671048549948
 20
108.7497457904253
 10
777.5253076460727
 20
109.9094675361453
 10
777.4835104371517
 20
111.0725586567403
 10
777.441713228232
 20
112.2382267583445
 10
777.3999160193132
 20
113.4056731457502
 10
777.3581188103954
 20
114.5740915186964
 10
777.3163216014789
 20
115.7426751231259
 10
777.2745243925634
 20
116.9106172049815
 10
777.2327271836491
 20
118.0771110102059
 10
777.1909299747363
 20
119.2413497847418
 10
777.1491327658246
 20
120.402526774532
 10
777.1073355569141
 20
121.5598352255192
 10
777.065538348005
 20
122.7124683836462
 10
777.0237411390973
 20
123.8596200659692
 10
776.9819439301907
 20
125.0005019730664
 10
776.9401467212857
 20
126.1343468079986
 10
776.8983495123822
 20
127.2603884737903
 10
776.8565523034799
 20
128.3778608734658
 10
776.8147550945791
 20
129.4859979100494
 10
776.7729578856797
 20
130.5840334865655
 10
776.731160676782
 20
131.6712015060384
 10
776.6893634678856
 20
132.7467358714926
 10
776.6475662589908
 20
133.8098704859523
 10
776.6057690500975
 20
134.8598406554403
 10
776.5639718412058
 20
135.8959232583107
 10
776.5221746323156
 20
136.9174426827404
 10
776.480377423427
 20
137.9237259140411
 10
776.4385802145399
 20
138.9140999375248
 10
776.3967830056545
 20
139.8878917385032
 10
776.3549857967706
 20
140.8444283022884
 10
776.3131885878882
 20
141.783036614192
 10
776.2713913790076
 20
142.7030436595262
 10
776.2295941701285
 20
143.6037764236025
 10
776.1877969612511
 20
144.4845641383891
 10
776.1459997523755
 20
145.3447991123054
 10
776.1042025435013
 20
146.1839438023089
 10
776.0624053346287
 20
147.0014643314397
 10
776.0206081257578
 20
147.7968268227373
 10
775.9788109168884
 20
148.5694973992416
 10
775.9370137080208
 20
149.3189421839925
 10
775.8952164991547
 20
150.0446273000295
 10
775.8534192902902
 20
150.7460188703926
 10
775.8116220814275
 20
151.4225830181214
 10
775.7698248725659
 20
152.0737889003166
 10
775.7280276637064
 20
152.6991864859496
 10
775.6862304548481
 20
153.2984132036035
 10
775.6444332459916
 20
153.8711108480754
 10
775.6026360371367
 20
154.4169212141628
 10
775.5608388282832
 20
154.9354860966627
 10
775.5190416194313
 20
155.4264472903726
 10
775.4772444105807
 20
155.8894465900895
 10
775.4354472017319
 20
156.3241257906109
 10
775.3936499928845
 20
156.7301266867341
 10
775.3518527840384
 20
157.1070947659352
 10
775.3100555751942
 20
157.454768931678
 10
775.2682583663509
 20
157.7729864751843
 10
775.2264611575093
 20
158.0615893755472
 10
775.184663948669
 20
158.3204196118596
 10
775.1428667398301
 20
158.549319163215
 10
775.1010695309925
 20
158.7481300087061
 10
775.0592723221563
 20
158.9166941274263
 10
775.0174751133213
 20
159.0548534984686
 10
774.9756779044876
 20
159.1624501009262
 10
774.9338806956551
 20
159.2393300650099
 10
774.8920834868239
 20
159.2854393726843
 10
774.8502862779935
 20
159.3008263510626
  0
LWPOLYLINE
  5
18B
330
1F
100
AcDbEntity
  8
0
  6
CONTINUOUS
 62
     7
100
AcDbPolyline
 90
      113
 70
     0
 43
0.0
 10
789.5316305771711
 20
71.18855787920944
 10
789.4898292799508
 20
71.43595632815274
 10
789.4480279827296
 20
71.71328595390084
 10
789.4062266855077
 20
72.02030144125256
 10
789.3644253882849
 20
72.35675747500675
 10
789.3226240910615
 20
72.72240873996223
 10
789.2808227938372
 20
73.11700992091788
 10
789.2390214966124
 20
73.54031570267254
 10
789.1972201993868
 20
73.99208077002505
 10
789.1554189021608
 20
74.47205980777424
 10
789.113617604934
 20
74.97998536073443
 10
789.0718163077069
 20
75.51546473265715
 10
789.0300150104792
 20
76.07806123686723
 10
788.9882137132512
 20
76.66733813860789
 10
788.9464124160227
 20
77.28285870312243
 10
788.9046111187938
 20
77.92418619565414
 10
788.8628098215646
 20
78.59088388144633
 10
788.8210085243353
 20
79.28251502574227
 10
788.7792072271056
 20
79.9986428937852
 10
788.7374059298758
 20
80.73883075081844
 10
788.695604632646
 20
81.50262244793397
 10
788.6538033354159
 20
82.289455780741
 10
788.6120020381856
 20
83.09873251100191
 10
788.5702007409556
 20
83.92985437084216
 10
788.5283994437256
 20
84.78222309238714
 10
788.4865981464955
 20
85.6552404077623
 10
788.4447968492658
 20
86.54830804909314
 10
788.4029955520359
 20
87.46082774850495
 10
788.3611942548063
 20
88.39220123812329
 10
788.3193929575771
 20
89.34183025007356
 10
788.2775916603479
 20
90.30910146312793
 10
788.2357903631193
 20
91.29332213169606
 10
788.1939890658908
 20
92.29377341076292
 10
788.152187768663
 20
93.30973643973597
 10
788.1103864714356
 20
94.3404923580226
 10
788.0685851742087
 20
95.38532230503031
 10
788.0267838769822
 20
96.44350742016648
 10
787.9849825797564
 20
97.51432884283861
 10
787.9431812825312
 20
98.59706771245408
 10
787.9013799853066
 20
99.69100516842035
 10
787.8595786880827
 20
100.7954130976192
 10
787.8177773908596
 20
101.9095162305736
 10
787.7759760936372
 20
103.0325243129181
 10
787.7341747964156
 20
104.1636470840891
 10
787.6923734991949
 20
105.3020942835226
 10
787.6505722019749
 20
106.4470756506552
 10
787.6087709047559
 20
107.597800924923
 10
787.566969607538
 20
108.7534798457623
 10
787.5251683103209
 20
109.9133221526094
 10
787.483367013105
 20
111.0765375849005
 10
787.44156571589
 20
112.2423335529595
 10
787.3997644186761
 20
113.4099059993943
 10
787.3579631214632
 20
114.5784473433786
 10
787.3161618242518
 20
115.7471500031355
 10
787.2743605270412
 20
116.9152063968877
 10
787.232559229832
 20
118.0818089428582
 10
787.190757932624
 20
119.2461500592698
 10
787.1489566354171
 20
120.4074221643455
 10
787.1071553382118
 20
121.5648176763081
 10
787.0653540410075
 20
122.7175290133806
 10
787.0235527438047
 20
123.8647538855058
 10
786.9817514466031
 20
125.0057151753422
 10
786.939950149403
 20
126.1396432427623
 10
786.8981488522044
 20
127.2657684488508
 10
786.856347555007
 20
128.3833211546925
 10
786.8145462578112
 20
129.4915317213721
 10
786.7727449606168
 20
130.5896305099745
 10
786.7309436634238
 20
131.6768478815845
 10
786.6891423662323
 20
132.7524141972868
 10
786.6473410690427
 20
133.8155598181664
 10
786.6055397718543
 20
134.8655282064463
 10
786.5637384746674
 20
135.9016230418476
 10
786.5219371774822
 20
136.9231652944078
 10
786.4801358802985
 20
137.9294759356599
 10
786.4383345831164
 20
138.9198759371369
 10
786.3965332859359
 20
139.8936862703719
 10
786.354731988757
 20
140.8502279068979
 10
786.3129306915796
 20
141.7888218182479
 10
786.2711293944038
 20
142.708788975955
 10
786.2293280972297
 20
143.6094503515521
 10
786.1875268000572
 20
144.4901474553492
 10
786.1457255028863
 20
145.3503130188516
 10
786.1039242057171
 20
146.1894050900444
 10
786.0621229085494
 20
147.0068817178818
 10
786.0203216113836
 20
147.8022009513175
 10
785.9785203142192
 20
148.5748208393054
 10
785.9367190170564
 20
149.3241994307994
 10
785.8949177198953
 20
150.0497947747535
 10
785.8531164227358
 20
150.7510649201214
 10
785.811315125578
 20
151.4274679158571
 10
785.7695138284215
 20
152.0784888419793
 10
785.7277125312668
 20
152.7037287930069
 10
785.6859112341136
 20
153.3028199814912
 10
785.6441099369621
 20
153.8753946203588
 10
785.6023086398119
 20
154.4210849225362
 10
785.5605073426635
 20
154.9395231009499
 10
785.5187060455166
 20
155.4303413685265
 10
785.476904748371
 20
155.8931719381926
 10
785.4351034512272
 20
156.3276470228747
 10
785.3933021540846
 20
156.7333988354993
 10
785.3515008569439
 20
157.1100916222431
 10
785.3096995598041
 20
157.4575224885467
 10
785.2678982626662
 20
157.7755229794917
 10
785.2260969655293
 20
158.0639246402178
 10
785.184295668394
 20
158.3225590158649
 10
785.1424943712602
 20
158.5512576515731
 10
785.1006930741274
 20
158.749852092482
 10
785.0588917769962
 20
158.9181738837317
 10
785.017090479866
 20
159.056054570462
 10
784.9752891827374
 20
159.1633256978128
 10
784.9334878856098
 20
159.2398538830944
 10
784.8916865884835
 20
159.2856463167485
 10
784.8498852913576
 20
159.3007454037561
  0
LWPOLYLINE
  5
18C
330
1F
100
AcDbEntity
  8
0
  6
CONTINUOUS
 62
     7
100
AcDbPolyline
 90
      113
 70
     0
 43
0.0
 10
799.5315010440131
 20
71.18934317313378
 10
799.4897033172728
 20
71.43683010731436
 10
799.4479055905316
 20
71.71421264363087
 10
799.4061078637897
 20
72.02125565414704
 10
799.3643101370469
 20
72.35772401092656
 10
799.3225124103034
 20
72.72338258603315
 10
799.2807146835592
 20
73.11799625153057
 10
799.2389169568143
 20
73.54132987948248
 10
799.1971192300687
 20
73.99314834195266
 10
799.1553215033225
 20
74.47321464906736
 10
799.1135237765759
 20
74.981213610457
 10
799.0717260498286
 20
75.51672495061376
 10
799.0299283230809
 20
76.07932100755572
 10
798.9881305963327
 20
76.66857411930096
 10
798.9463328695841
 20
77.28405662386757
 10
798.9045351428351
 20
77.92534085927369
 10
798.862737416086
 20
78.59199916353741
 10
798.8209396893367
 20
79.2836038746768
 10
798.7791419625871
 20
79.99972733070997
 10
798.7373442358372
 20
80.73994015817708
 10
798.6955465090873
 20
81.50374553108388
 10
798.6537487823371
 20
82.29055846491475
 10
798.6119510555869
 20
83.09978802921586
 10
798.5701533288368
 20
83.9308432935333
 10
798.5283556020867
 20
84.78313332741318
 10
798.4865578753365
 20
85.65606720040162
 10
798.4447601485866
 20
86.54905398204474
 10
798.4029624218368
 20
87.46150274188868
 10
798.3611646950873
 20
88.39282254947953
 10
798.3193669683379
 20
89.34242108162594
 10
798.2775692415889
 20
90.3096544152145
 10
798.2357715148402
 20
91.29381303201404
 10
798.193973788092
 20
92.29418317138756
 10
798.1521760613441
 20
93.31005107269786
 10
798.1103783345965
 20
94.34070297530792
 10
798.0685806078496
 20
95.38542511858057
 10
798.0267828811031
 20
96.44350374187873
 10
797.984985154357
 20
97.51422508456531
 10
797.9431874276119
 20
98.59687538600319
 10
797.9013897008673
 20
99.69073997994387
 10
797.8595919741234
 20
100.7950726064992
 10
797.81779424738
 20
101.9090879398195
 10
797.7759965206376
 20
103.0319982328335
 10
797.7341987938959
 20
104.1630157384698
 10
797.6924010671552
 20
105.301352709657
 10
797.650603340415
 20
106.4462213993238
 10
797.6088056136763
 20
107.5968340603989
 10
797.5670078869382
 20
108.7524029458109
 10
797.525210160201
 20
109.9121403084884
 10
797.4834124334649
 20
111.0752581365431
 10
797.4416147067302
 20
112.2409597051391
 10
797.3998169799961
 20
113.4084378095198
 10
797.3580192532631
 20
114.5768846229351
 10
797.3162215265316
 20
115.7454923186349
 10
797.2744237998013
 20
116.9134530698693
 10
797.2326260730717
 20
118.0799590498882
 10
797.1908283463437
 20
119.2442024319416
 10
797.149030619617
 20
120.4053753892794
 10
797.1072328928915
 20
121.5626700951516
 10
797.065435166167
 20
122.7152792221057
 10
797.0236374394442
 20
123.8624109588661
 10
796.9818397127228
 20
125.003291648775
 10
796.9400419860027
 20
126.1371486662428
 10
796.898244259284
 20
127.2632093856799
 10
796.8564465325667
 20
128.3807011814968
 10
796.8146488058509
 20
129.4888514281041
 10
796.7728510791362
 20
130.5868874999121
 10
796.7310533524235
 20
131.6740367713313
 10
796.6892556257119
 20
132.7495266167722
 10
796.647457899002
 20
133.8125857518963
 10
796.6056601722936
 20
134.8624823154576
 10
796.5638624455868
 20
135.8985293182309
 10
796.5220647188813
 20
136.9200422077561
 10
796.4802669921775
 20
137.9263364315733
 10
796.4384692654755
 20
138.9167274372226
 10
796.3966715387749
 20
139.890530672244
 10
796.3548738120758
 20
140.8470615841775
 10
796.3130760853784
 20
141.7856356205633
 10
796.2712783586827
 20
142.7055682289414
 10
796.2294806319886
 20
143.6061770592047
 10
796.187682905296
 20
144.4868410694442
 10
796.1458851786051
 20
145.3470071032256
 10
796.1040874519159
 20
146.1861255262067
 10
796.0622897252282
 20
147.0036467040452
 10
796.0204919985423
 20
147.7990210023986
 10
795.9786942718578
 20
148.5716987869247
 10
795.9368965451749
 20
149.3211304232812
 10
795.8950988184938
 20
150.0467662771258
 10
795.8533010918143
 20
150.7480567141161
 10
795.8115033651361
 20
151.4244551139595
 10
795.7697056384599
 20
152.0754944206019
 10
795.7279079117851
 20
152.7007932853458
 10
795.6861101851118
 20
153.2999746042982
 10
795.6443124584403
 20
153.8726612735663
 10
795.6025147317702
 20
154.418476189257
 10
795.5607170051017
 20
154.9370422474774
 10
795.5189192784345
 20
155.4279823443344
 10
795.477121551769
 20
155.8909193759351
 10
795.435323825105
 20
156.3254762383866
 10
795.3935260984425
 20
156.7312795303637
 10
795.3517283717814
 20
157.108048645056
 10
795.3099306451218
 20
157.4556002213985
 10
795.2681329184638
 20
157.7737554917525
 10
795.2263351918069
 20
158.0623356884794
 10
795.1845374651515
 20
158.3211620439407
 10
795.1427397384975
 20
158.5500557904979
 10
795.100942011845
 20
158.7488381605124
 10
795.0591442851935
 20
158.9173303863457
 10
795.0173465585434
 20
159.0553537003593
 10
794.9755488318946
 20
159.1627335295023
 10
794.9337511052471
 20
159.2393952200144
 10
794.8919533786006
 20
159.285365988925
 10
794.850155651955
 20
159.3006776381972
  0
LWPOLYLINE
  5
18D
330
1F
100
AcDbEntity
  8
0
  6
CONTINUOUS
 62
     7
100
AcDbPolyline
 90
      113
 70
     0
 43
0.0
 10
809.5316762784892
 20
71.18844746583046
 10
809.4898756109262
 20
71.43582873397493
 10
809.4480749433627
 20
71.71308600264364
 10
809.4062742757983
 20
72.01999426127817
 10
809.3644736082329
 20
72.35632849932023
 10
809.322672940667
 20
72.72186370621145
 10
809.2808722731003
 20
73.11637487139346
 10
809.2390716055329
 20
73.5396369843079
 10
809.1972709379647
 20
73.99142503439644
 10
809.1554702703962
 20
74.471491785073
 10
809.1136696028271
 20
74.97946335967009
 10
809.0718689352574
 20
75.51492109401055
 10
809.0300682676872
 20
76.07744627220087
 10
808.9882676001165
 20
76.66662017834753
 10
808.9464669325456
 20
77.28202409655702
 10
808.9046662649743
 20
77.92323931093588
 10
808.8628655974027
 20
78.58984710559055
 10
808.8210649298308
 20
79.28142876462752
 10
808.7792642622588
 20
79.99756557215332
 10
808.7374635946862
 20
80.73781914103421
 10
808.6956629271139
 20
81.50164279801001
 10
808.6538622595413
 20
82.28845280777212
 10
808.6120615919687
 20
83.09766540247081
 10
808.5702609243962
 20
83.92869681425636
 10
808.5284602568237
 20
84.78096327527899
 10
808.4866595892512
 20
85.65388101768899
 10
808.4448589216786
 20
86.54686627363657
 10
808.4030582541064
 20
87.45933527527201
 10
808.3612575865342
 20
88.39070425474557
 10
808.3194569189625
 20
89.34037396437361
 10
808.2776562513909
 20
90.30766281862952
 10
808.2358555838198
 20
91.29186196345113
 10
808.1940549162491
 20
92.29226252717307
 10
808.1522542486787
 20
93.30815563813002
 10
808.1104535811088
 20
94.33883242465662
 10
808.0686529135394
 20
95.38358401508751
 10
808.0268522459703
 20
96.44170153775737
 10
807.9850515784019
 20
97.51247612100082
 10
807.9432509108341
 20
98.59519889315251
 10
807.901450243267
 20
99.6891511474719
 10
807.8596495757007
 20
100.7935636230675
 10
807.8178489081349
 20
101.9076508610169
 10
807.77604824057
 20
103.0306273950284
 10
807.7342475730061
 20
104.1617077588099
 10
807.6924469054428
 20
105.3001064860696
 10
807.6506462378804
 20
106.4450381105155
 10
807.6088455703189
 20
107.5957171658558
 10
807.5670449027584
 20
108.7513581857986
 10
807.5252442351989
 20
109.9111757040518
 10
807.48344356764
 20
111.0743812117712
 10
807.4416429000828
 20
112.2401710850306
 10
807.3998422325265
 20
113.4077370150119
 10
807.3580415649711
 20
114.5762706914749
 10
807.316240897417
 20
115.7449638041796
 10
807.274440229864
 20
116.9130080428856
 10
807.2326395623121
 20
118.0795950973529
 10
807.1908388947617
 20
119.2439166573412
 10
807.1490382272123
 20
120.4051644126104
 10
807.1072375596643
 20
121.5625300529202
 10
807.0654368921176
 20
122.7152097518178
 10
807.0236362245723
 20
123.8624212132292
 10
806.9818355570285
 20
125.0033885956766
 10
806.9400348894857
 20
126.1373360588965
 10
806.8982342219446
 20
127.2634877626259
 10
806.8564335544048
 20
128.3810678666013
 10
806.8146328868664
 20
129.4893005305595
 10
806.7728322193294
 20
130.5874099142372
 10
806.7310315517942
 20
131.6746201773711
 10
806.6892308842602
 20
132.7501554796979
 10
806.6474302167277
 20
133.8132522257872
 10
806.605629549197
 20
134.8632036568413
 10
806.5638288816676
 20
135.8993194927957
 10
806.5220282141399
 20
136.9209094553184
 10
806.4802275466137
 20
137.9272832660771
 10
806.438426879089
 20
138.9177506467396
 10
806.3966262115661
 20
139.8916213189738
 10
806.3548255440445
 20
140.8482050044475
 10
806.3130248765248
 20
141.7868114248285
 10
806.2712242090065
 20
142.7067503017845
 10
806.2294235414898
 20
143.6073510445974
 10
806.187622873975
 20
144.4880314042078
 10
806.1458222064615
 20
145.3482338997916
 10
806.1040215389498
 20
146.1874010517663
 10
806.0622208714396
 20
147.0049753805489
 10
806.0204202039313
 20
147.8003994065568
 10
805.9786195364244
 20
148.5731156502074
 10
805.9368188689192
 20
149.3225666319178
 10
805.8950182014154
 20
150.0481948721053
 10
805.8532175339135
 20
150.7494428911873
 10
805.811416866413
 20
151.4257794524669
 10
805.7696161989142
 20
152.0767871613369
 10
805.7278155314169
 20
152.7020794855949
 10
805.6860148639212
 20
153.3012698936015
 10
805.6442141964271
 20
153.8739718537172
 10
805.6024135289346
 20
154.4197988343022
 10
805.5606128614436
 20
154.9383643037172
 10
805.5188121939541
 20
155.4292817303224
 10
805.4770115264662
 20
155.8921645824785
 10
805.4352108589796
 20
156.3266263285457
 10
805.3934101914948
 20
156.7323118034488
 10
805.3516095240112
 20
157.108997392601
 10
805.3098088565292
 20
157.4564939631369
 10
805.2680081890485
 20
157.7746123823207
 10
805.2262075215692
 20
158.0631635174163
 10
805.1844068540914
 20
158.3219582356879
 10
805.142606186615
 20
158.5508074043994
 10
805.1008055191398
 20
158.7495218908147
 10
805.0590048516659
 20
158.9179125621981
 10
805.0172041841936
 20
159.0557902858135
 10
804.9754035167222
 20
159.1630005110466
 10
804.9336028492522
 20
159.2395289106668
 10
804.8918021817835
 20
159.2853966934854
 10
804.8500015143156
 20
159.3006250683168
  0
LWPOLYLINE
  5
18E
330
1F
100
AcDbEntity
  8
0
  6
CONTINUOUS
 62
     7
100
AcDbPolyline
 90
      113
 70
     0
 43
0.0
 10
819.5316197506926
 20
71.18884518389359
 10
819.4898138068198
 20
71.43628803016738
 10
819.448007862946
 20
71.7135943534933
 10
819.4062019190717
 20
72.02054926768785
 10
819.3643959751965
 20
72.35693788656755
 10
819.3225900313206
 20
72.72254532394886
 10
819.280784087444
 20
73.11715669364831
 10
819.2389781435666
 20
73.54055710948236
 10
819.1971721996886
 20
73.99252983547215
 10
819.1553662558101
 20
74.47277929326931
 10
819.1135603119309
 20
74.98090328467967
 10
819.0717543680512
 20
75.51649204708973
 10
819.0299484241712
 20
76.07913581788598
 10
818.9881424802907
 20
76.66842483445491
 10
818.9463365364096
 20
77.28394933418302
 10
818.9045305925284
 20
77.92529955445681
 10
818.8627246486468
 20
78.59206573266275
 10
818.8209187047648
 20
79.28383810618736
 10
818.7791127608826
 20
80.000205169263
 10
818.7373068170007
 20
80.74068653762467
 10
818.695500873118
 20
81.50471170191265
 10
818.6536949292354
 20
82.29170406377548
 10
818.6118889853531
 20
83.1010870248618
 10
818.5700830414705
 20
83.93228398682007
 10
818.5282770975878
 20
84.78471835129884
 10
818.4864711537055
 20
85.65781351994671
 10
818.444665209823
 20
86.55099289441219
 10
818.402859265941
 20
87.46367987634385
 10
818.3610533220591
 20
88.3952964067882
 10
818.3192473781772
 20
89.34521078806246
 10
818.2774414342958
 20
90.31272340906098
 10
818.2356354904147
 20
91.29713029321509
 10
818.1938295465338
 20
92.29772746395615
 10
818.1520236026535
 20
93.31381094471546
 10
818.1102176587735
 20
94.34467675892438
 10
818.068411714894
 20
95.38962093001422
 10
818.0266057710153
 20
96.44793948141638
 10
817.9847998271371
 20
97.51892843656213
 10
817.9429938832592
 20
98.60188282494465
 10
817.9011879393821
 20
99.69606367312588
 10
817.8593819955057
 20
100.8006903460466
 10
817.8175760516301
 20
101.9149796631308
 10
817.7757701077553
 20
103.0381484438028
 10
817.7339641638814
 20
104.1694135074864
 10
817.692158220008
 20
105.3079916736058
 10
817.6503522761357
 20
106.4530997615852
 10
817.6085463322644
 20
107.6039545908485
 10
817.5667403883939
 20
108.7597729808199
 10
817.5249344445245
 20
109.9197714001319
 10
817.483128500656
 20
111.0831551137539
 10
817.4413225567886
 20
112.2491161021219
 10
817.3995166129223
 20
113.4168455749158
 10
817.3577106690569
 20
114.5855347418159
 10
817.3159047251929
 20
115.754374812502
 10
817.27409878133
 20
116.9225569966543
 10
817.2322928374682
 20
118.0892725039528
 10
817.1904868936077
 20
119.2537125440776
 10
817.1486809497486
 20
120.4150683267086
 10
817.1068750058906
 20
121.5725315050272
 10
817.065069062034
 20
122.7253069829564
 10
817.0232631181789
 20
123.8726148703481
 10
816.9814571743249
 20
125.0136761139158
 10
816.9396512304722
 20
126.1477116603735
 10
816.8978452866211
 20
127.2739424564348
 10
816.8560393427715
 20
128.3915894488136
 10
816.8142333989232
 20
129.4998735842236
 10
816.7724274550762
 20
130.5980158093786
 10
816.7306215112309
 20
131.6852370709923
 10
816.6888155673871
 20
132.7607596612196
 10
816.6470096235447
 20
133.823843548539
 10
816.6052036797039
 20
134.8737905464622
 10
816.5633977358648
 20
135.909904650563
 10
816.5215917920269
 20
136.9314898564152
 10
816.4797858481908
 20
137.9378501595927
 10
816.4379799043563
 20
138.9282895556693
 10
816.3961739605232
 20
139.9021120402188
 10
816.354368016692
 20
140.8586216088151
 10
816.3125620728621
 20
141.797122257032
 10
816.270756129034
 20
142.7169202750131
 10
816.2289501852074
 20
143.6173822831143
 10
816.1871442413826
 20
144.4979397539697
 10
816.1453382975593
 20
145.3580273606769
 10
816.1035323537376
 20
146.1970797763339
 10
816.0617264099175
 20
147.0145316740383
 10
816.0199204660992
 20
147.8098177268879
 10
815.9781145222823
 20
148.5823726079807
 10
815.9363085784672
 20
149.3316309904142
 10
815.8945026346535
 20
150.0570275472864
 10
815.8526966908418
 20
150.7580001681388
 10
815.8108907470312
 20
151.434066278279
 10
815.7690848032225
 20
152.0848260546022
 10
815.7272788594154
 20
152.7098835339279
 10
815.6854729156096
 20
153.3088427530759
 10
815.6436669718057
 20
153.8813077488659
 10
815.6018610280033
 20
154.4268825581176
 10
815.5600550842022
 20
154.9451712176507
 10
815.5182491404029
 20
155.4357777642848
 10
815.476443196605
 20
155.8983062348396
 10
815.4346372528087
 20
156.3323646934688
 10
815.3928313090136
 20
156.7376550114125
 10
815.3510253652204
 20
157.1139735263761
 10
815.3092194214285
 20
157.4611207352766
 10
815.2674134776378
 20
157.7788971350309
 10
815.2256075338487
 20
158.0671032225561
 10
815.183801590061
 20
158.3255394947693
 10
815.1419956462744
 20
158.5540064485873
 10
815.1001897024895
 20
158.7523045809273
 10
815.0583837587056
 20
158.9202343887063
 10
815.0165778149233
 20
159.0576010092717
 10
814.9747718711419
 20
159.164311543599
 10
814.9329659273619
 20
159.2403724766188
 10
814.8911599835834
 20
159.2857944176513
 10
814.8493540398056
 20
159.3005879760165
  0
LWPOLYLINE
  5
18F
330
1F
100
AcDbEntity
  8
0
  6
CONTINUOUS
 62
     7
100
AcDbPolyline
 90
      113
 70
     0
 43
0.0
 10
829.5315840015561
 20
71.18912466279959
 10
829.4897861021802
 20
71.43651925766109
 10
829.4479882028035
 20
71.71375105135972
 10
829.4061903034259
 20
72.02061552238784
 10
829.3643924040475
 20
72.35690814923768
 10
829.3225945046684
 20
72.72242441040153
 10
829.2807966052885
 20
73.11695978437169
 10
829.238998705908
 20
73.5403097496404
 10
829.1972008065268
 20
73.99224726844804
 10
829.1554029071451
 20
74.472417249997
 10
829.1136050077628
 20
74.98041939670338
 10
829.0718071083799
 20
75.51585335951584
 10
829.0300092089966
 20
76.07831878938309
 10
828.988211309613
 20
76.66741533725377
 10
828.946413410229
 20
77.28274265407654
 10
828.9046155108446
 20
77.92390039080013
 10
828.8628176114596
 20
78.59048819837312
 10
828.8210197120748
 20
79.2821057277443
 10
828.7792218126895
 20
79.99833255926188
 10
828.737423913304
 20
80.73863777186436
 10
828.6956260139184
 20
81.50245261871872
 10
828.6538281145326
 20
82.2892083197374
 10
828.6120302151471
 20
83.0983360948328
 10
828.5702323157612
 20
83.9292671639174
 10
828.5284344163756
 20
84.78143274690365
 10
828.48663651699
 20
85.65426406370398
 10
828.4448386176044
 20
86.54719233423086
 10
828.4030407182192
 20
87.45964877839668
 10
828.3612428188338
 20
88.3910486290049
 10
828.319444919449
 20
89.34072189826506
 10
828.2776470200645
 20
90.3079703161957
 10
828.2358491206801
 20
91.29209559417788
 10
828.1940512212961
 20
92.29239944359257
 10
828.1522533219128
 20
93.30818357582082
 10
828.1104554225296
 20
94.3387497022436
 10
828.0686575231468
 20
95.3833995342419
 10
828.0268596237651
 20
96.44143478319678
 10
827.9850617243835
 20
97.51215716048921
 10
827.9432638250026
 20
98.59485793092885
 10
827.9014659256226
 20
99.68877443762133
 10
827.8596680262428
 20
100.7931266766494
 10
827.817870126864
 20
101.9071346358375
 10
827.7760722274862
 20
103.0300183030098
 10
827.734274328109
 20
104.1609976659906
 10
827.6924764287326
 20
105.2992927126044
 10
827.6506785293573
 20
106.4441234306752
 10
827.6088806299825
 20
107.5947098080276
 10
827.5670827306088
 20
108.7502718324858
 10
827.5252848312363
 20
109.9100257412743
 10
827.4834869318646
 20
111.0731690238995
 10
827.4416890324941
 20
112.2388933239925
 10
827.3998911331244
 20
113.4063902832652
 10
827.3580932337561
 20
114.5748515434301
 10
827.3162953343888
 20
115.7434687461993
 10
827.2744974350228
 20
116.9114335332852
 10
827.232699535658
 20
118.0779375464
 10
827.1909016362941
 20
119.242172427256
 10
827.1491037369318
 20
120.4033298175653
 10
827.1073058375708
 20
121.5606050515046
 10
827.065507938211
 20
122.7132113387899
 10
827.0237100388524
 20
123.8603672910854
 10
826.9819121394953
 20
125.0012915212044
 10
826.9401142401395
 20
126.1352026419601
 10
826.8983163407853
 20
127.261319266166
 10
826.8565184414324
 20
128.3788600066355
 10
826.8147205420809
 20
129.4870434761818
 10
826.7729226427309
 20
130.5850882876182
 10
826.7311247433825
 20
131.6722130537582
 10
826.6893268440355
 20
132.7476477780487
 10
826.6475289446898
 20
133.8106758733563
 10
826.6057310453459
 20
134.8605963931516
 10
826.5639331460035
 20
135.8967083928878
 10
826.5221352466625
 20
136.9183109280181
 10
826.4803373473233
 20
137.9247030539956
 10
826.4385394479856
 20
138.9151838262737
 10
826.3967415486494
 20
139.8890523003055
 10
826.3549436493148
 20
140.8456075315442
 10
826.3131457499817
 20
141.784148575443
 10
826.2713478506506
 20
142.7039932866584
 10
826.2295499513207
 20
143.60454490123
 10
826.1877520519926
 20
144.4852308823556
 10
826.1459541526663
 20
145.3454786948522
 10
826.1041562533412
 20
146.184715803537
 10
826.062358354018
 20
147.0023696732269
 10
826.0205604546965
 20
147.7978677687391
 10
825.9787625553765
 20
148.5706375548906
 10
825.9369646560581
 20
149.3201064964986
 10
825.8951667567412
 20
150.0457020583801
 10
825.8533688574262
 20
150.7468770630501
 10
825.8115709581126
 20
151.4231958930685
 10
825.7697730588005
 20
152.0742536011975
 10
825.7279751594903
 20
152.6996452410897
 10
825.6861772601814
 20
153.298965866398
 10
825.644379360874
 20
153.8718105307751
 10
825.6025814615684
 20
154.4177742878738
 10
825.5607835622644
 20
154.9364521913467
 10
825.5189856629617
 20
155.4274392948466
 10
825.4771877636606
 20
155.8903306520263
 10
825.435389864361
 20
156.3247518469828
 10
825.3935919650629
 20
156.7304585775434
 10
825.3517940657662
 20
157.1072411969973
 10
825.3099961664711
 20
157.4548900589403
 10
825.2681982671772
 20
157.7731955169683
 10
825.2264003678849
 20
158.0619479246772
 10
825.184602468594
 20
158.3209376356629
 10
825.1428045693044
 20
158.5499550035214
 10
825.1010066700162
 20
158.7487903818484
 10
825.0592087707291
 20
158.91723412424
 10
825.0174108714434
 20
159.0551104322326
 10
824.9756129721591
 20
159.1623832484485
 10
824.9338150728761
 20
159.239052572815
 10
824.8920171735938
 20
159.2851184052999
 10
824.8502192743131
 20
159.3005807458716
  0
LWPOLYLINE
  5
190
330
1F
100
AcDbEntity
  8
0
  6
CONTINUOUS
 62
     7
100
AcDbPolyline
 90
      113
 70
     0
 43
0.0
 10
839.5316320970418
 20
71.18892889969283
 10
839.4898322813449
 20
71.43626895674271
 10
839.4480324656472
 20
71.71343963189457
 10
839.4062326499486
 20
72.02024665276413
 10
839.3644328342493
 20
72.3564957469671
 10
839.3226330185493
 20
72.72199264211923
 10
839.2808332028483
 20
73.11654306583621
 10
839.239033387147
 20
73.53995091330451
 10
839.1972335714448
 20
73.99194075331339
 10
839.1554337557423
 20
74.47212916547701
 10
839.1136339400388
 20
74.98012499289528
 10
839.0718341243352
 20
75.51553707866816
 10
839.0300343086309
 20
76.07797426589562
 10
838.988234492926
 20
76.66704539767748
 10
838.9464346772211
 20
77.28235931711382
 10
838.9046348615158
 20
77.92352486730444
 10
838.86283504581
 20
78.59015089134935
 10
838.8210352301041
 20
79.28184450780601
 10
838.7792354143978
 20
79.99814304957054
 10
838.7374355986914
 20
80.7384915752687
 10
838.695635782985
 20
81.50232881095887
 10
838.6538359672783
 20
82.28909348269937
 10
838.6120361515716
 20
83.09822431654851
 10
838.570236335865
 20
83.92916003856466
 10
838.5284365201583
 20
84.78133937480612
 10
838.4866367044517
 20
85.65420105133127
 10
838.4448368887452
 20
86.54718379419836
 10
838.403037073039
 20
87.45972487861937
 10
838.3612372573328
 20
88.39120658995792
 10
838.3194374416269
 20
89.34094058600698
 10
838.2776376259213
 20
90.30823388463085
 10
838.2358378102161
 20
91.29239350369386
 10
838.1940379945113
 20
92.29272646106028
 10
838.1522381788067
 20
93.30853977459442
 10
838.1104383631027
 20
94.33914046216057
 10
838.0686385473991
 20
95.38383554162303
 10
838.0268387316963
 20
96.44193203084613
 10
837.9850389159938
 20
97.51273594104977
 10
837.943239100292
 20
98.59551748046353
 10
837.9014392845909
 20
99.68950218780812
 10
837.8596394688902
 20
100.7939127945976
 10
837.8178396531905
 20
101.9079720323463
 10
837.7760398374917
 20
103.0309026325681
 10
837.7342400217934
 20
104.1619273267771
 10
837.6924402060962
 20
105.3002688464876
 10
837.6506403903996
 20
106.4451499232135
 10
837.608840574704
 20
107.5957932884691
 10
837.5670407590094
 20
108.7514212719578
 10
837.5252409433159
 20
109.9112427692115
 10
837.4834411276233
 20
111.0744503931866
 10
837.4416413119318
 20
112.2402357787367
 10
837.3998414962414
 20
113.4077905607155
 10
837.3580416805518
 20
114.5763063739765
 10
837.3162418648636
 20
115.7449748533735
 10
837.2744420491765
 20
116.91298763376
 10
837.2326422334905
 20
118.0795363499896
 10
837.1908424178059
 20
119.243812636916
 10
837.1490426021228
 20
120.4050084673133
 10
837.1072427864406
 20
121.5623264521814
 10
837.0654429707599
 20
122.7149817287188
 10
837.0236431550804
 20
123.8621901528009
 10
836.9818433394025
 20
125.0031675803036
 10
836.9400435237258
 20
126.1371298671023
 10
836.8982437080504
 20
127.2632928690726
 10
836.8564438923763
 20
128.3808724420902
 10
836.814644076704
 20
129.4890844420307
 10
836.7728442610332
 20
130.5871447247698
 10
836.7310444453636
 20
131.674270317134
 10
836.6892446296957
 20
132.749713010392
 10
836.6474448140291
 20
133.8127643642202
 10
836.6056449983643
 20
134.8627181157164
 10
836.563845182701
 20
135.8988680019785
 10
836.5220453670389
 20
136.9205077601046
 10
836.4802455513789
 20
137.9269311271924
 10
836.43844573572
 20
138.9174318403399
 10
836.3966459200628
 20
139.8913036366451
 10
836.3548461044074
 20
140.8478402532057
 10
836.3130462887535
 20
141.7863374683875
 10
836.2712464731013
 20
142.7061482974863
 10
836.2294466574506
 20
143.6066893685891
 10
836.1876468418016
 20
144.4873806306835
 10
836.145847026154
 20
145.3476420327571
 10
836.1040472105082
 20
146.1868935237972
 10
836.062247394864
 20
147.0045550527916
 10
836.0204475792214
 20
147.8000465687277
 10
835.9786477635804
 20
148.572788020593
 10
835.936847947941
 20
149.3221993573751
 10
835.8950481323033
 20
150.0477034094506
 10
835.8532483166673
 20
150.7487994189654
 10
835.8114485010329
 20
151.425069137427
 10
835.7696486853998
 20
152.0760984195042
 10
835.7278488697685
 20
152.701473119866
 10
835.6860490541387
 20
153.300779093181
 10
835.6442492385105
 20
153.8736021941182
 10
835.6024494228838
 20
154.4195282773464
 10
835.5606496072588
 20
154.9381431975345
 10
835.5188497916353
 20
155.4290328093512
 10
835.4770499760133
 20
155.8917865841993
 10
835.4352501603926
 20
156.3260848226919
 10
835.3934503447738
 20
156.7317031161173
 10
835.351650529156
 20
157.108421565434
 10
835.3098507135398
 20
157.4560202716002
 10
835.2680508979253
 20
157.7742793355744
 10
835.2262510823118
 20
158.062978858315
 10
835.1844512666999
 20
158.3218989407803
 10
835.1426514510894
 20
158.5508196839288
 10
835.1008516354801
 20
158.7495211887187
 10
835.0590518198725
 20
158.9177877272914
 10
835.0172520042656
 20
159.0555028962886
 10
834.9754521886605
 20
159.1626515359458
 10
834.9336523730561
 20
159.2392230415438
 10
834.8918525574534
 20
159.2852068083637
 10
834.8500527418506
 20
159.3005922316861
  0
LWPOLYLINE
  5
191
330
1F
100
AcDbEntity
  8
0
  6
CONTINUOUS
 62
     7
100
AcDbPolyline
 90
      113
 70
     0
 43
0.0
 10
849.5314831460946
 20
71.18981444444789
 10
849.4896834870319
 20
71.43722181294086
 10
849.4478838279683
 20
71.71445452838763
 10
849.406084168904
 20
72.02132863115374
 10
849.364284509839
 20
72.35766016160464
 10
849.322484850773
 20
72.72326516010584
 10
849.2806851917065
 20
73.11795966702283
 10
849.2388855326393
 20
73.54153684592133
 10
849.1970858735714
 20
73.99366039888551
 10
849.1552862145028
 20
74.47394853770501
 10
849.1134865554341
 20
74.98201942429363
 10
849.0716868963642
 20
75.51749122056545
 10
849.0298872372942
 20
76.0799820884343
 10
848.9880875782239
 20
76.6691101898141
 10
848.9462879191531
 20
77.28449368661873
 10
848.9044882600818
 20
77.92575074076208
 10
848.8626886010104
 20
78.59249951415806
 10
848.8208889419385
 20
79.28433756291948
 10
848.7790892828666
 20
80.00074969775964
 10
848.7372896237945
 20
80.74118236390701
 10
848.6954899647221
 20
81.50508197459722
 10
848.6536903056497
 20
82.29189494306581
 10
848.6118906465772
 20
83.10106768254843
 10
848.5700909875046
 20
83.93204660628066
 10
848.5282913284323
 20
84.78427812749811
 10
848.4864916693598
 20
85.65720865943635
 10
848.4446920102876
 20
86.550284615331
 10
848.4028923512155
 20
87.46293574865501
 10
848.3610926921438
 20
88.39450366764333
 10
848.319293033072
 20
89.34430093746938
 10
848.2774933740006
 20
90.3116401054925
 10
848.2356937149295
 20
91.29583371907206
 10
848.1938940558591
 20
92.2961943255675
 10
848.1520943967886
 20
93.31203447233808
 10
848.1102947377187
 20
94.3426667067433
 10
848.0684950786497
 20
95.38740357614252
 10
848.0266954195807
 20
96.44555762789506
 10
847.9848957605126
 20
97.51643020616552
 10
847.943096101445
 20
98.59926533022744
 10
847.9012964423779
 20
99.69328873292596
 10
847.8594967833118
 20
100.7977261391962
 10
847.8176971242463
 20
101.9118032739733
 10
847.7758974651815
 20
103.0347458621923
 10
847.7340978061175
 20
104.1657796287882
 10
847.6922981470544
 20
105.3041302986961
 10
847.6504984879921
 20
106.449023596851
 10
847.6086988289309
 20
107.5996852481882
 10
847.5668991698705
 20
108.7553364524911
 10
847.525099510811
 20
109.9151760145827
 10
847.4832998517527
 20
111.078395823817
 10
847.4415001926952
 20
112.2441877675499
 10
847.399700533639
 20
113.4117437331375
 10
847.3579008745838
 20
114.5802556079358
 10
847.31610121553
 20
115.7489152793009
 10
847.2743015564771
 20
116.9169146345887
 10
847.2325018974252
 20
118.0834455611552
 10
847.190702238375
 20
119.2476999463565
 10
847.148902579326
 20
120.4088726510063
 10
847.1071029202781
 20
121.5661727701265
 10
847.0653032612314
 20
122.7188136531343
 10
847.0235036021861
 20
123.8660086502101
 10
846.9817039431425
 20
125.006971111534
 10
846.9399042841001
 20
126.1409143872863
 10
846.8981046250589
 20
127.2670518276475
 10
846.8563049660193
 20
128.3845967827978
 10
846.8145053069811
 20
129.4927626029175
 10
846.7727056479443
 20
130.5907626381868
 10
846.7309059889091
 20
131.6778210406983
 10
846.6891063298752
 20
132.753211984317
 10
846.647306670843
 20
133.8162241122628
 10
846.6055070118123
 20
134.8661460692092
 10
846.5637073527831
 20
135.9022664998298
 10
846.5219076937557
 20
136.9238740487982
 10
846.4801080347296
 20
137.9302573607877
 10
846.4383083757051
 20
138.920705080472
 10
846.3965087166821
 20
139.8945058525245
 10
846.3547090576608
 20
140.8509483216189
 10
846.3129093986412
 20
141.7893395424754
 10
846.2711097396232
 20
142.7090690456613
 10
846.2293100806066
 20
143.6095494483826
 10
846.1875104215919
 20
144.4901933689558
 10
846.1457107625785
 20
145.3504134256975
 10
846.1039111035669
 20
146.1896222369244
 10
846.062111444557
 20
147.007232420953
 10
846.0203117855485
 20
147.8026565960999
 10
845.9785121265418
 20
148.5753073806816
 10
845.9367124675366
 20
149.3245973930148
 10
845.8949128085333
 20
150.0499644766116
 10
845.8531131495313
 20
150.7509558052738
 10
845.8113134905309
 20
151.4271481658792
 10
845.7695138315322
 20
152.0781183458285
 10
845.7277141725352
 20
152.703443132522
 10
845.6859145135396
 20
153.3026993133603
 10
845.6441148545458
 20
153.875463675744
 10
845.6023151955534
 20
154.4213130070736
 10
845.5605155365625
 20
154.9398240947495
 10
845.5187158775732
 20
155.4305737261724
 10
845.4769162185854
 20
155.8931693820946
 10
845.4351165595989
 20
156.327347249323
 10
845.3933169006141
 20
156.7328772453124
 10
845.351517241631
 20
157.1095292876427
 10
845.309717582649
 20
157.4570732938936
 10
845.2679179236684
 20
157.7752791816454
 10
845.2261182646893
 20
158.0639168684779
 10
845.1843186057117
 20
158.3227562719711
 10
845.1425189467352
 20
158.5515673097048
 10
845.1007192877603
 20
158.7501198992591
 10
845.0589196287867
 20
158.9182182799218
 10
845.0171199698142
 20
159.0558059363857
 10
844.9753203108429
 20
159.162861661304
 10
844.9335206518732
 20
159.2393642473334
 10
844.8917209929045
 20
159.2852924871306
 10
844.849921333937
 20
159.3006251733523
  0
LWPOLYLINE
  5
192
330
1F
100
AcDbEntity
  8
0
  6
CONTINUOUS
 62
     7
100
AcDbPolyline
 90
      113
 70
     0
 43
0.0
 10
859.532678644503
 20
71.18321941715574
 10
859.4908682226675
 20
71.42979655059465
 10
859.4490578008314
 20
71.70622014314539
 10
859.4072473789944
 20
72.01231644324551
 10
859.3654369571562
 20
72.34791169933257
 10
859.3236265353177
 20
72.71283215984417
 10
859.2818161134785
 20
73.1069025576233
 10
859.2400056916384
 20
73.52987071695848
 10
859.1981952697978
 20
73.98137268783034
 10
859.1563848479566
 20
74.46103572448817
 10
859.1145744261147
 20
74.9684870811812
 10
859.0727640042724
 20
75.50335401215874
 10
859.0309535824296
 20
76.06526377167006
 10
858.9891431605864
 20
76.65384361396444
 10
858.9473327387427
 20
77.26872079329115
 10
858.9055223168989
 20
77.90952256389951
 10
858.8637118950546
 20
78.57587470238683
 10
858.82190147321
 20
79.2673343682204
 10
858.7800910513652
 20
79.9833625213458
 10
858.7382806295203
 20
80.72341292939464
 10
858.6964702076752
 20
81.48693935999857
 10
858.6546597858301
 20
82.27339558078926
 10
858.6128493639848
 20
83.08223535939833
 10
858.5710389421397
 20
83.91291246345747
 10
858.5292285202943
 20
84.76488066059825
 10
858.4874180984491
 20
85.63759371845242
 10
858.4456076766041
 20
86.53050411341701
 10
858.4037972547593
 20
87.44300926258983
 10
858.3619868329148
 20
88.37443211153962
 10
858.3201764110703
 20
89.32409032080976
 10
858.278365989226
 20
90.2913015509436
 10
858.2365555673822
 20
91.2753834624845
 10
858.1947451455387
 20
92.27565371597586
 10
858.1529347236957
 20
93.29142997196098
 10
858.1111243018531
 20
94.32202989098323
 10
858.0693138800111
 20
95.36677113358601
 10
858.0275034581695
 20
96.4249704190264
 10
857.9856930363284
 20
97.49590749300486
 10
857.9438826144882
 20
98.57881384964871
 10
857.9020721926483
 20
99.67291773596176
 10
857.8602617708093
 20
100.7774473989479
 10
857.818451348971
 20
101.8916310856109
 10
857.7766409271336
 20
103.0146970429548
 10
857.7348305052967
 20
104.1458735179833
 10
857.6930200834609
 20
105.2843887577003
 10
857.6512096616257
 20
106.4294710091096
 10
857.6093992397917
 20
107.5803480931329
 10
857.5675888179585
 20
108.7362323681682
 10
857.5257783961265
 20
109.8963167211809
 10
857.4839679742952
 20
111.0597927978916
 10
857.442157552465
 20
112.2258522440209
 10
857.4003471306362
 20
113.3936867052892
 10
857.3585367088083
 20
114.5624878274171
 10
857.3167262869814
 20
115.7314472561252
 10
857.2749158651557
 20
116.8997566371338
 10
857.2331054433314
 20
118.0666076161637
 10
857.1912950215082
 20
119.231192079075
 10
857.1494845996863
 20
120.3927099849464
 10
857.1076741778655
 20
121.5503711034049
 10
857.0658637560462
 20
122.7033857958265
 10
857.0240533342283
 20
123.8509644235874
 10
856.9822429124116
 20
124.9923173480635
 10
856.9404324905964
 20
126.1266549306309
 10
856.8986220687826
 20
127.2531875326655
 10
856.8568116469701
 20
128.3711255155436
 10
856.8150012251591
 20
129.4796792406409
 10
856.7731908033496
 20
130.5780600950732
 10
856.7313803815417
 20
131.6655114923477
 10
856.689569959735
 20
132.7413144046771
 10
856.64775953793
 20
133.8047519452905
 10
856.6059491161263
 20
134.8551072274168
 10
856.5641386943246
 20
135.891663364285
 10
856.5223282725241
 20
136.9137034691241
 10
856.480517850725
 20
137.9205106551632
 10
856.438707428928
 20
138.9113680356311
 10
856.3968970071325
 20
139.8855587237569
 10
856.3550865853383
 20
140.8423677145165
 10
856.3132761635458
 20
141.7811346963407
 10
856.271465741755
 20
142.7012612612723
 10
856.2296553199657
 20
143.6021523320686
 10
856.187844898178
 20
144.4832128314867
 10
856.1460344763922
 20
145.3438476822837
 10
856.1042240546078
 20
146.1834618072167
 10
856.0624136328246
 20
147.0014601290428
 10
856.0206032110437
 20
147.7972475705193
 10
855.9787927892643
 20
148.5702290544031
 10
855.9369823674863
 20
149.3198122471186
 10
855.8951719457101
 20
150.0454792116477
 10
855.8533615239353
 20
150.7467932806739
 10
855.8115511021623
 20
151.4233219085423
 10
855.7697406803911
 20
152.0746325495982
 10
855.7279302586212
 20
152.7002926581868
 10
855.6861198368528
 20
153.2998696886533
 10
855.6443094150859
 20
153.8729310953429
 10
855.6024989933208
 20
154.419044332601
 10
855.5606885715572
 20
154.9377768547726
 10
855.5188781497951
 20
155.4286996512872
 10
855.4770677280346
 20
155.8914733198175
 10
855.4352573062755
 20
156.3258529361536
 10
855.393446884518
 20
156.7315980859996
 10
855.3516364627617
 20
157.1084683550599
 10
855.309826041007
 20
157.4562233290388
 10
855.2680156192539
 20
157.7746225936406
 10
855.2262051975022
 20
158.0634257345695
 10
855.1843947757517
 20
158.3223923375299
 10
855.1425843540026
 20
158.551281988226
 10
855.1007739322548
 20
158.7498584453269
 10
855.0589635105083
 20
158.9179845370687
 10
855.017153088763
 20
159.0556239097425
 10
854.9753426670192
 20
159.1627447323353
 10
854.9335322452769
 20
159.2393151738342
 10
854.8917218235351
 20
159.285303403226
 10
854.8499114017953
 20
159.3006775894978
  0
LWPOLYLINE
  5
193
330
1F
100
AcDbEntity
  8
0
  6
CONTINUOUS
 62
     7
100
AcDbPolyline
 90
      113
 70
     0
 43
0.0
 10
869.5314720098348
 20
71.18993449321681
 10
869.4896742934197
 20
71.43725273469548
 10
869.4478765770035
 20
71.7144003826235
 10
869.4060788605866
 20
72.02121421443488
 10
869.3642811441689
 20
72.3575310075636
 10
869.3224834277503
 20
72.7231875394436
 10
869.2806857113311
 20
73.11799757921574
 10
869.2388879949115
 20
73.54164426135097
 10
869.1970902784909
 20
73.99376467446095
 10
869.1552925620698
 20
74.47399585538835
 10
869.113494845648
 20
74.98197484097602
 10
869.071697129226
 20
75.51733866806666
 10
869.0298994128034
 20
76.07972437350305
 10
868.9881016963802
 20
76.66876899412793
 10
868.946303979957
 20
77.28410956678411
 10
868.904506263533
 20
77.92538312831427
 10
868.862708547109
 20
78.59220583910333
 10
868.8209108306847
 20
79.28407909559506
 10
868.7791131142601
 20
80.00046506622232
 10
868.7373153978353
 20
80.74082588536928
 10
868.6955176814104
 20
81.50462368741995
 10
868.653719964985
 20
82.29132060675855
 10
868.6119222485603
 20
83.10037877776921
 10
868.5701245321351
 20
83.93126033483595
 10
868.5283268157101
 20
84.78342741234302
 10
868.486529099285
 20
85.65634214467444
 10
868.4447313828601
 20
86.54944959351123
 10
868.4029336664356
 20
87.46210393844116
 10
868.3611359500111
 20
88.39362923796068
 10
868.3193382335868
 20
89.34334953097476
 10
868.2775405171628
 20
90.31058885638834
 10
868.2357428007392
 20
91.2946712531064
 10
868.193945084316
 20
92.29492076003389
 10
868.1521473678931
 20
93.31066141607576
 10
868.1103496514708
 20
94.34121726013696
 10
868.0685519350488
 20
95.38591233112251
 10
868.0267542186275
 20
96.44405891267269
 10
867.9849565022066
 20
97.51490868694421
 10
867.9431587857865
 20
98.59769386357726
 10
867.9013610693669
 20
99.69164664306531
 10
867.859563352948
 20
100.7959992259017
 10
867.81776563653
 20
101.9099838125799
 10
867.7759679201125
 20
103.0328326035933
 10
867.734170203696
 20
104.1637777994353
 10
867.6923724872803
 20
105.3020516005992
 10
867.6505747708657
 20
106.4468862075785
 10
867.6087770544515
 20
107.5975086151961
 10
867.5669793380385
 20
108.7531198259922
 10
867.5251816216265
 20
109.9129127463818
 10
867.4833839052155
 20
111.0760802801597
 10
867.4415861888056
 20
112.2418153311203
 10
867.3997884723967
 20
113.4093108030582
 10
867.357990755989
 20
114.577759599768
 10
867.3161930395825
 20
115.7463546250443
 10
867.274395323177
 20
116.9142887826816
 10
867.2325976067729
 20
118.0807549764746
 10
867.1907998903697
 20
119.2449482939191
 10
867.1490021739679
 20
120.4060743837463
 10
867.1072044575676
 20
121.5633420832301
 10
867.0654067411683
 20
122.7159602303131
 10
867.0236090247707
 20
123.8631376629381
 10
866.9818113083743
 20
125.0040832190475
 10
866.9400135919792
 20
126.1380057365841
 10
866.8982158755855
 20
127.2641140534904
 10
866.8564181591931
 20
128.3816170077091
 10
866.8146204428024
 20
129.4897234371828
 10
866.7728227264131
 20
130.587652111102
 10
866.7310250100252
 20
131.6746683262451
 10
866.6892272936389
 20
132.7500509934511
 10
866.647429577254
 20
133.8130790252589
 10
866.6056318608707
 20
134.8630313342077
 10
866.5638341444889
 20
135.8991868328366
 10
866.5220364281085
 20
136.9208244336844
 10
866.4802387117298
 20
137.9272230492903
 10
866.4384409953527
 20
138.9176615921934
 10
866.3966432789774
 20
139.8914189749327
 10
866.3548455626034
 20
140.8477916059677
 10
866.3130478462311
 20
141.7861553000751
 10
866.2712501298605
 20
142.705908388044
 10
866.2294524134915
 20
143.6064492021449
 10
866.187654697124
 20
144.4871760746481
 10
866.1458569807581
 20
145.3474873378241
 10
866.1040592643936
 20
146.186781323943
 10
866.0622615480313
 20
147.0044563652755
 10
866.0204638316702
 20
147.7999107940918
 10
865.978666115311
 20
148.5725429426623
 10
865.9368683989534
 20
149.321775456699
 10
865.8950706825971
 20
150.0471378867346
 10
865.8532729662425
 20
150.7481891569898
 10
865.8114752498897
 20
151.4244881925235
 10
865.7696775335384
 20
152.0755939183946
 10
865.7278798171889
 20
152.7010652596621
 10
865.6860821008405
 20
153.3004611413848
 10
865.6442843844939
 20
153.8733404886217
 10
865.6024866681488
 20
154.4192622264316
 10
865.5606889518056
 20
154.9377852798737
 10
865.5188912354637
 20
155.428498410651
 10
865.4770935191232
 20
155.8911174815438
 10
865.4352958027844
 20
156.3253921935492
 10
865.3934980864468
 20
156.731072247958
 10
865.3517003701108
 20
157.1079073460608
 10
865.3099026537762
 20
157.4556471891484
 10
865.2681049374431
 20
157.7740414785115
 10
865.2263072211115
 20
158.062839915441
 10
865.1845095047811
 20
158.3217922012274
 10
865.1427117884522
 20
158.5506480371616
 10
865.1009140721245
 20
158.7491907016949
 10
865.0591163557984
 20
158.9173420537934
 10
865.0173186394734
 20
159.0550596992696
 10
864.9755209231494
 20
159.1623012439755
 10
864.9337232068272
 20
159.2390242937631
 10
864.891925490506
 20
159.2851864544844
 10
864.8501277741854
 20
159.3007453319912
  0
LWPOLYLINE
  5
194
330
1F
100
AcDbEntity
  8
0
  6
CONTINUOUS
 62
     7
100
AcDbPolyline
 90
       89
 70
     0
 43
0.0
 10
878.0999999998794
 20
94.5985743159893
 10
878.0630682327311
 20
95.52398260973052
 10
878.0261364655832
 20
96.45981461499949
 10
877.9892046984355
 20
97.40554361568027
 10
877.9522729312886
 20
98.36064229317952
 10
877.915341164142
 20
99.32458332890373
 10
877.878409396996
 20
100.2968394042594
 10
877.8414776298504
 20
101.2768832006531
 10
877.8045458627056
 20
102.2641873994914
 10
877.7676140955614
 20
103.2582246821808
 10
877.7306823284179
 20
104.2584677301278
 10
877.6937505612748
 20
105.2643892247389
 10
877.6568187941323
 20
106.2754616995449
 10
877.619887026991
 20
107.2911473489619
 10
877.5829552598501
 20
108.3108914362656
 10
877.54602349271
 20
109.3341376570611
 10
877.5090917255706
 20
110.360329706953
 10
877.472159958432
 20
111.3889112815462
 10
877.4352281912945
 20
112.4193260764456
 10
877.3982964241578
 20
113.4510177872558
 10
877.3613646570218
 20
114.4834301095817
 10
877.3244328898866
 20
115.5160067390283
 10
877.2875011227526
 20
116.5481913712001
 10
877.2505693556192
 20
117.5794277017026
 10
877.2136375884869
 20
118.6091609728784
 10
877.1767058213557
 20
119.6368424819162
 10
877.1397740542253
 20
120.6619250073927
 10
877.1028422870961
 20
121.6838613278849
 10
877.0659105199677
 20
122.7021042219696
 10
877.0289787528403
 20
123.7161064682238
 10
876.9920469857143
 20
124.7253208452243
 10
876.9551152185891
 20
125.7292001315479
 10
876.9181834514651
 20
126.7271971057716
 10
876.881251684342
 20
127.7187645464722
 10
876.8443199172201
 20
128.7033552322266
 10
876.8073881500995
 20
129.680424619577
 10
876.7704563829801
 20
130.6494556596331
 10
876.7335246158617
 20
131.6099474550495
 10
876.6965928487446
 20
132.5613993145869
 10
876.6596610816284
 20
133.5033105470062
 10
876.6227293145135
 20
134.4351804610683
 10
876.5857975474
 20
135.3565083655339
 10
876.5488657802877
 20
136.2667935691639
 10
876.5119340131764
 20
137.1655353807191
 10
876.4750022460664
 20
138.0522331089605
 10
876.4380704789576
 20
138.9263860626487
 10
876.4011387118501
 20
139.7874943864535
 10
876.3642069447437
 20
140.6350915114554
 10
876.327275177639
 20
141.468754571887
 10
876.290343410535
 20
142.2880636697721
 10
876.2534116434325
 20
143.0925989071348
 10
876.2164798763313
 20
143.8819403859988
 10
876.1795481092315
 20
144.6556682083883
 10
876.1426163421327
 20
145.413362476327
 10
876.1056845750351
 20
146.1546032918389
 10
876.0687528079391
 20
146.878970756948
 10
876.0318210408439
 20
147.5860449736781
 10
875.9948892737503
 20
148.2754060575095
 10
875.957957506658
 20
148.9466577320579
 10
875.9210257395667
 20
149.5994758858934
 10
875.884093972477
 20
150.2335501485737
 10
875.8471622053883
 20
150.8485701496565
 10
875.8102304383009
 20
151.4442255186995
 10
875.7732986712147
 20
152.0202058852604
 10
875.73636690413
 20
152.5762008788969
 10
875.6994351370463
 20
153.1119001291667
 10
875.6625033699639
 20
153.6269932656274
 10
875.6255716028828
 20
154.1211699178369
 10
875.5886398358027
 20
154.5941197153527
 10
875.5517080687239
 20
155.045542818974
 10
875.5147763016464
 20
155.4752211588834
 10
875.4778445345701
 20
155.8829749138363
 10
875.4409127674948
 20
156.2686244800555
 10
875.4039810004208
 20
156.6319902537638
 10
875.3670492333479
 20
156.9728926311842
 10
875.3301174662761
 20
157.2911520085395
 10
875.2931856992053
 20
157.5865887820525
 10
875.2562539321359
 20
157.8590233479462
 10
875.2193221650673
 20
158.1082761024435
 10
875.1823903979998
 20
158.3341674417671
 10
875.1454586309336
 20
158.5365203840593
 10
875.1085268638683
 20
158.7152246114721
 10
875.071595096804
 20
158.8702402073963
 10
875.0346633297407
 20
159.0015306252855
 10
874.9977315626784
 20
159.109059318593
 10
874.9607997956173
 20
159.1927897407725
 10
874.9238680285572
 20
159.2526853452774
 10
874.8869362614977
 20
159.288709585561
 10
874.8500044944387
 20
159.300825915077
  0
LWPOLYLINE
  5
195
330
1F
100
AcDbEntity
  8
0
  6
CONTINUOUS
 62
     7
100
AcDbPolyline
 90
       57
 70
     0
 43
0.0
 10
-909.5313393526135
 20
71.19053710263093
 10
-909.4992492357802
 20
71.37771851339255
 10
-909.4671591189465
 20
71.58254416840573
 10
-909.4350690021124
 20
71.80495909453636
 10
-909.4029788852777
 20
72.04490831865024
 10
-909.3708887684425
 20
72.30232402367325
 10
-909.3387986516067
 20
72.57707740736721
 10
-909.3067085347706
 20
72.86902158580742
 10
-909.2746184179341
 20
73.1780096722252
 10
-909.2425283010974
 20
73.50389477985189
 10
-909.21043818426
 20
73.84653002191878
 10
-909.1783480674225
 20
74.20576851165717
 10
-909.1462579505845
 20
74.58146336229838
 10
-909.1141678337464
 20
74.97346768707371
 10
-909.0820777169077
 20
75.38163459921446
 10
-909.0499876000688
 20
75.805817211952
 10
-909.0178974832296
 20
76.24586863851758
 10
-908.9858073663904
 20
76.70164199214256
 10
-908.9537172495507
 20
77.17297935573343
 10
-908.9216271327109
 20
77.65966860769963
 10
-908.889537015871
 20
78.16148100369803
 10
-908.8574468990306
 20
78.67818779501508
 10
-908.8253567821906
 20
79.20956023293738
 10
-908.79326666535
 20
79.75536956875132
 10
-908.7611765485094
 20
80.31538705374345
 10
-908.7290864316687
 20
80.88938393920029
 10
-908.696996314828
 20
81.4771314764083
 10
-908.6649061979872
 20
82.07840091665403
 10
-908.6328160811464
 20
82.69296351122392
 10
-908.6007259643054
 20
83.3205905114045
 10
-908.5686358474645
 20
83.96105316848227
 10
-908.5365457306239
 20
84.61411413544693
 10
-908.5044556137832
 20
85.27949233117482
 10
-908.4723654969423
 20
85.9568928042442
 10
-908.4402753801016
 20
86.64602059762657
 10
-908.4081852632611
 20
87.34658075429334
 10
-908.3760951464207
 20
88.0582783172159
 10
-908.3440050295803
 20
88.78081832936572
 10
-908.31191491274
 20
89.5139058337142
 10
-908.2798247959
 20
90.25724587323282
 10
-908.2477346790604
 20
91.01054349089299
 10
-908.2156445622206
 20
91.7735037296661
 10
-908.1835544453813
 20
92.54583163252366
 10
-908.151464328542
 20
93.32723224243705
 10
-908.1193742117035
 20
94.11740484428934
 10
-908.0872840948648
 20
94.9160184054553
 10
-908.0551939780266
 20
95.72273195077202
 10
-908.0231038611886
 20
96.53720449926341
 10
-907.9910137443511
 20
97.35909506995345
 10
-907.958923627514
 20
98.1880626818661
 10
-907.926833510677
 20
99.02376635402523
 10
-907.8947433938406
 20
99.8658651054548
 10
-907.8626532770044
 20
100.7140179551788
 10
-907.8305631601686
 20
101.5678839222211
 10
-907.7984730433336
 20
102.4271220256057
 10
-907.7663829264989
 20
103.2913912843565
 10
-907.7342928096646
 20
104.1603507174974
210
0.0
220
0.0
230
-1.0
  0
ARC
  5
196
330
1F
100
AcDbEntity
  8
0
  6
CONTINUOUS
 62
     7
100
AcDbCircle
 10
964.7491351523055
 20
82.07552542268222
 30
0.0
 40
56.29755865634589
100
AcDbArc
 50
183.262054189207
 51
188.5163376283528
  0
ARC
  5
197
330
1F
100
AcDbEntity
  8
0
  6
CONTINUOUS
 62
     7
100
AcDbCircle
 10
1500.421274808915
 20
118.1070530708029
 30
0.0
 40
593.1774796941011
100
AcDbArc
 50
182.3302027990067
 51
183.7925299518071
  0
LINE
  5
198
330
1F
100
AcDbEntity
  8
0
  6
CONTINUOUS
 62
     7
100
AcDbLine
 10
877.6450906901915
 20
96.06562311772599
 30
0.0
 11
878.1000000003824
 21
86.22728204774882
 31
0.0
  0
LINE
  5
199
330
1F
100
AcDbEntity
  8
0
  6
CONTINUOUS
 62
     7
100
AcDbLine
 10
877.2275541552233
 20
106.4554292475071
 30
0.0
 11
877.6450906901915
 21
96.06562311772599
 31
0.0
  0
LINE
  5
19A
330
1F
100
AcDbEntity
  8
0
  6
CONTINUOUS
 62
     7
100
AcDbLine
 10
876.8100176203386
 20
117.4163452994986
 30
0.0
 11
877.2275541552232
 21
106.455429247507
 31
0.0
  0
LINE
  5
19B
330
1F
100
AcDbEntity
  8
0
  6
CONTINUOUS
 62
     7
100
AcDbLine
 10
876.3924810855669
 20
128.1982987644054
 30
0.0
 11
876.8100176203386
 21
117.4163452994986
 31
0.0
  0
LINE
  5
19C
330
1F
100
AcDbEntity
  8
0
  6
CONTINUOUS
 62
     7
100
AcDbLine
 10
875.9749445509337
 20
138.0634638206392
 30
0.0
 11
876.3924810855669
 21
128.1982987644054
 31
0.0
  0
LINE
  5
19D
330
1F
100
AcDbEntity
  8
0
  6
CONTINUOUS
 62
     7
100
AcDbLine
 10
875.5574080164479
 20
146.3367519014768
 30
0.0
 11
875.9749445509337
 21
138.0634638206392
 31
0.0
  0
LINE
  5
19E
330
1F
100
AcDbEntity
  8
0
  6
CONTINUOUS
 62
     7
100
AcDbLine
 10
875.1398714821138
 20
152.4520090539075
 30
0.0
 11
875.5574080164479
 21
146.3367519014768
 31
0.0
  0
LINE
  5
19F
330
1F
100
AcDbEntity
  8
0
  6
CONTINUOUS
 62
     7
100
AcDbLine
 10
874.7223349479244
 20
155.9907587331207
 30
0.0
 11
875.1398714821138
 21
152.4520090539074
 31
0.0
  0
LINE
  5
1A0
330
1F
100
AcDbEntity
  8
0
  6
CONTINUOUS
 62
     7
100
AcDbLine
 10
868.8768234684835
 20
75.12888364046447
 30
0.0
 11
869.0724954496216
 21
73.73743209623812
 31
0.0
  0
ARC
  5
1A1
330
1F
100
AcDbEntity
  8
0
  6
CONTINUOUS
 62
     7
100
AcDbCircle
 10
1091.974125167853
 20
96.49527120519444
 30
0.0
 40
224.1181129295577
100
AcDbArc
 50
182.3328118859844
 51
185.47062382485
  0
LINE
  5
1A2
330
1F
100
AcDbEntity
  8
0
  6
CONTINUOUS
 62
     7
100
AcDbLine
 10
867.2066773284769
 20
106.9960721260091
 30
0.0
 11
868.0417503984579
 21
87.37276753323546
 31
0.0
  0
LINE
  5
1A3
330
1F
100
AcDbEntity
  8
0
  6
CONTINUOUS
 62
     7
100
AcDbLine
 10
866.7891407935974
 20
117.965961970453
 30
0.0
 11
867.2066773284769
 21
106.996072126009
 31
0.0
  0
LINE
  5
1A4
330
1F
100
AcDbEntity
  8
0
  6
CONTINUOUS
 62
     7
100
AcDbLine
 10
866.3716042588329
 20
128.7192781053513
 30
0.0
 11
866.7891407935974
 21
117.965961970453
 31
0.0
  0
ARC
  5
1A5
330
1F
100
AcDbEntity
  8
0
  6
CONTINUOUS
 62
     7
100
AcDbCircle
 10
243.1666897898962
 20
108.1766793990735
 30
0.0
 40
623.5433936622551
100
AcDbArc
 50
1.887947552804121
 51
4.093962779296419
  0
LINE
  5
1A6
330
1F
100
AcDbEntity
  8
0
  6
CONTINUOUS
 62
     7
100
AcDbLine
 10
858.8559466417341
 20
75.31315427436233
 30
0.0
 11
859.0733442899705
 21
73.73273447804307
 31
0.0
  0
ARC
  5
1A7
330
1F
100
AcDbEntity
  8
0
  6
CONTINUOUS
 62
     7
100
AcDbCircle
 10
1097.703156437428
 20
97.56369372975529
 30
0.0
 40
239.8813792966108
100
AcDbArc
 50
182.3345390426136
 51
185.3222022513542
  0
LINE
  5
1A8
330
1F
100
AcDbEntity
  8
0
  6
CONTINUOUS
 62
     7
100
AcDbLine
 10
857.6033370366924
 20
97.05810576423373
 30
0.0
 11
858.0208735717067
 21
87.7923369395987
 31
0.0
  0
LINE
  5
1A9
330
1F
100
AcDbEntity
  8
0
  6
CONTINUOUS
 62
     7
100
AcDbLine
 10
857.1858005017303
 20
107.5380579523605
 30
0.0
 11
857.6033370366924
 21
97.05810576423373
 31
0.0
  0
LINE
  5
1AA
330
1F
100
AcDbEntity
  8
0
  6
CONTINUOUS
 62
     7
100
AcDbLine
 10
855.9331908974776
 20
138.972763873859
 30
0.0
 11
857.1858005017303
 21
107.5380579523605
 31
0.0
  0
LINE
  5
1AB
330
1F
100
AcDbEntity
  8
0
  6
CONTINUOUS
 62
     7
100
AcDbLine
 10
855.5156543630078
 20
147.0535632800292
 30
0.0
 11
855.9331908974776
 21
138.972763873859
 31
0.0
  0
ARC
  5
1AC
330
1F
100
AcDbEntity
  8
0
  6
CONTINUOUS
 62
     7
100
AcDbCircle
 10
773.9363928401388
 20
144.2061521592336
 30
0.0
 40
81.62893886794981
100
AcDbArc
 50
1.999018305768175
 51
8.443431586921804
  0
LINE
  5
1AD
330
1F
100
AcDbEntity
  8
0
  6
CONTINUOUS
 62
     7
100
AcDbLine
 10
848.8350698149862
 20
75.504219251117
 30
0.0
 11
849.0724706457147
 21
73.7375695399211
 31
0.0
  0
ARC
  5
1AE
330
1F
100
AcDbEntity
  8
0
  6
CONTINUOUS
 62
     7
100
AcDbCircle
 10
1104.172378908096
 20
98.66091882295677
 30
0.0
 40
256.3852065739575
100
AcDbArc
 50
182.3347044736873
 51
185.1820139605042
  0
LINE
  5
1AF
330
1F
100
AcDbEntity
  8
0
  6
CONTINUOUS
 62
     7
100
AcDbLine
 10
847.582460209943
 20
97.55896924102788
 30
0.0
 11
847.9999967449548
 21
88.21655350799969
 31
0.0
  0
LINE
  5
1B0
330
1F
100
AcDbEntity
  8
0
  6
CONTINUOUS
 62
     7
100
AcDbLine
 10
846.3298506053641
 20
129.7539632519477
 30
0.0
 11
847.5824602099431
 21
97.55896924102785
 31
0.0
  0
LINE
  5
1B1
330
1F
100
AcDbEntity
  8
0
  6
CONTINUOUS
 62
     7
100
AcDbLine
 10
845.9123140707508
 20
139.4212143473406
 30
0.0
 11
846.329850605364
 21
129.7539632519477
 31
0.0
  0
LINE
  5
1B2
330
1F
100
AcDbEntity
  8
0
  6
CONTINUOUS
 62
     7
100
AcDbLine
 10
845.4947775362875
 20
147.4036754898951
 30
0.0
 11
845.9123140707508
 21
139.4212143473406
 31
0.0
  0
ARC
  5
1B3
330
1F
100
AcDbEntity
  8
0
  6
CONTINUOUS
 62
     7
100
AcDbCircle
 10
771.5243931542448
 20
144.9245030456639
 30
0.0
 40
74.01191837559256
100
AcDbArc
 50
1.919592113824422
 51
8.827116725112774
  0
LINE
  5
1B4
330
1F
100
AcDbEntity
  8
0
  6
CONTINUOUS
 62
     7
100
AcDbLine
 10
838.8141929882373
 20
75.70204569591534
 30
0.0
 11
839.072647426258
 21
73.73659017369852
 31
0.0
  0
LINE
  5
1B5
330
1F
100
AcDbEntity
  8
0
  6
CONTINUOUS
 62
     7
100
AcDbLine
 10
838.396656453231
 20
81.01777077164806
 30
0.0
 11
838.8141929882373
 21
75.70204569591534
 31
0.0
  0
ARC
  5
1B6
330
1F
100
AcDbEntity
  8
0
  6
CONTINUOUS
 62
     7
100
AcDbCircle
 10
2092.124346411304
 20
151.7335191799066
 30
0.0
 40
1255.720445656813
100
AcDbArc
 50
181.9673027874819
 51
183.2283129440835
  0
LINE
  5
1B7
330
1F
100
AcDbEntity
  8
0
  6
CONTINUOUS
 62
     7
100
AcDbLine
 10
836.7265103133744
 20
119.6111669423699
 30
0.0
 11
837.1440468482388
 21
108.6256852150083
 31
0.0
  0
LINE
  5
1B8
330
1F
100
AcDbEntity
  8
0
  6
CONTINUOUS
 62
     7
100
AcDbLine
 10
836.3089737786294
 20
130.2674910286239
 30
0.0
 11
836.7265103133744
 21
119.6111669423699
 31
0.0
  0
LINE
  5
1B9
330
1F
100
AcDbEntity
  8
0
  6
CONTINUOUS
 62
     7
100
AcDbLine
 10
835.4739007095685
 20
147.7481780743018
 30
0.0
 11
836.3089737786294
 21
130.2674910286239
 31
0.0
  0
LINE
  5
1BA
330
1F
100
AcDbEntity
  8
0
  6
CONTINUOUS
 62
     7
100
AcDbLine
 10
835.056364175265
 20
153.3763104691763
 30
0.0
 11
835.4739007095685
 21
147.7481780743018
 31
0.0
  0
ARC
  5
1BB
330
1F
100
AcDbEntity
  8
0
  6
CONTINUOUS
 62
     7
100
AcDbCircle
 10
911.414156952818
 20
85.11197254272842
 30
0.0
 40
83.12364078962032
100
AcDbArc
 50
182.5953382426812
 51
187.8639366979447
  0
LINE
  5
1BC
330
1F
100
AcDbEntity
  8
0
  6
CONTINUOUS
 62
     7
100
AcDbLine
 10
827.9582430914533
 20
89.07863537926535
 30
0.0
 11
828.3757796264804
 21
81.34799205253108
 31
0.0
  0
LINE
  5
1BD
330
1F
100
AcDbEntity
  8
0
  6
CONTINUOUS
 62
     7
100
AcDbLine
 10
827.1231700214933
 20
109.1711395130665
 30
0.0
 11
827.9582430914531
 21
89.07863537926535
 31
0.0
  0
LINE
  5
1BE
330
1F
100
AcDbEntity
  8
0
  6
CONTINUOUS
 62
     7
100
AcDbLine
 10
826.7056334866351
 20
120.1580390556939
 30
0.0
 11
827.1231700214934
 21
109.1711395130665
 31
0.0
  0
LINE
  5
1BF
330
1F
100
AcDbEntity
  8
0
  6
CONTINUOUS
 62
     7
100
AcDbLine
 10
825.8705604172975
 20
140.3053303971358
 30
0.0
 11
826.7056334866351
 21
120.1580390556939
 31
0.0
  0
ARC
  5
1C0
330
1F
100
AcDbEntity
  8
0
  6
CONTINUOUS
 62
     7
100
AcDbCircle
 10
525.0907306377337
 20
128.068628254463
 30
0.0
 40
301.0286412977208
100
AcDbArc
 50
2.329693991217596
 51
4.863575225930333
  0
LINE
  5
1C1
330
1F
100
AcDbEntity
  8
0
  6
CONTINUOUS
 62
     7
100
AcDbLine
 10
818.7724393347382
 20
76.11784567922989
 30
0.0
 11
819.0726046885134
 21
73.73682689401839
 31
0.0
  0
LINE
  5
1C2
330
1F
100
AcDbEntity
  8
0
  6
CONTINUOUS
 62
     7
100
AcDbLine
 10
818.3549027997298
 20
81.6839693159618
 30
0.0
 11
818.7724393347382
 21
76.11784567922989
 31
0.0
  0
LINE
  5
1C3
330
1F
100
AcDbEntity
  8
0
  6
CONTINUOUS
 62
     7
100
AcDbLine
 10
817.9373662647015
 20
89.51635235148936
 30
0.0
 11
818.3549027997299
 21
81.6839693159618
 31
0.0
  0
LINE
  5
1C4
330
1F
100
AcDbEntity
  8
0
  6
CONTINUOUS
 62
     7
100
AcDbLine
 10
816.684756659895
 20
120.7039894554809
 30
0.0
 11
817.9373662647015
 21
89.51635235148936
 31
0.0
  0
LINE
  5
1C5
330
1F
100
AcDbEntity
  8
0
  6
CONTINUOUS
 62
     7
100
AcDbLine
 10
815.8496835905719
 20
140.7408438515321
 30
0.0
 11
816.684756659895
 21
120.7039894554808
 31
0.0
  0
LINE
  5
1C6
330
1F
100
AcDbEntity
  8
0
  6
CONTINUOUS
 62
     7
100
AcDbLine
 10
815.4321470561312
 20
148.4201182403325
 30
0.0
 11
815.8496835905719
 21
140.7408438515321
 31
0.0
  0
ARC
  5
1C7
330
1F
100
AcDbEntity
  8
0
  6
CONTINUOUS
 62
     7
100
AcDbCircle
 10
761.4759701237201
 20
146.9371449864124
 30
0.0
 40
53.97655267644909
100
AcDbArc
 50
1.574365119471054
 51
10.21426975672313
  0
LINE
  5
1C8
330
1F
100
AcDbEntity
  8
0
  6
CONTINUOUS
 62
     7
100
AcDbLine
 10
808.7515625079898
 20
76.33574767475953
 30
0.0
 11
809.0727187772474
 21
73.73619503094392
 31
0.0
  0
LINE
  5
1C9
330
1F
100
AcDbEntity
  8
0
  6
CONTINUOUS
 62
     7
100
AcDbLine
 10
808.3340259729785
 20
82.0256447533666
 30
0.0
 11
808.7515625079898
 21
76.33574767475953
 31
0.0
  0
LINE
  5
1CA
330
1F
100
AcDbEntity
  8
0
  6
CONTINUOUS
 62
     7
100
AcDbLine
 10
807.4989529029457
 20
99.59122084369993
 30
0.0
 11
808.3340259729785
 21
82.02564475336659
 31
0.0
  0
LINE
  5
1CB
330
1F
100
AcDbEntity
  8
0
  6
CONTINUOUS
 62
     7
100
AcDbLine
 10
807.081416368003
 20
110.2648602016921
 30
0.0
 11
807.4989529029457
 21
99.59122084369994
 31
0.0
  0
LINE
  5
1CC
330
1F
100
AcDbEntity
  8
0
  6
CONTINUOUS
 62
     7
100
AcDbLine
 10
805.8288067638457
 20
141.1718940940809
 30
0.0
 11
807.0814163680031
 21
110.264860201692
 31
0.0
  0
LINE
  5
1CD
330
1F
100
AcDbEntity
  8
0
  6
CONTINUOUS
 62
     7
100
AcDbLine
 10
805.4112702294137
 20
148.7474402072315
 30
0.0
 11
805.8288067638457
 21
141.1718940940809
 31
0.0
  0
LINE
  5
1CE
330
1F
100
AcDbEntity
  8
0
  6
CONTINUOUS
 62
     7
100
AcDbLine
 10
804.9937336951322
 20
153.9999882468952
 30
0.0
 11
805.4112702294137
 21
148.7474402072315
 31
0.0
  0
LINE
  5
1CF
330
1F
100
AcDbEntity
  8
0
  6
CONTINUOUS
 62
     7
100
AcDbLine
 10
798.7306856812402
 20
76.5602680647108
 30
0.0
 11
799.0726193752924
 21
73.73674554099695
 31
0.0
  0
ARC
  5
1D0
330
1F
100
AcDbEntity
  8
0
  6
CONTINUOUS
 62
     7
100
AcDbCircle
 10
1148.405511358519
 20
104.599408704838
 30
0.0
 40
350.797202269733
100
AcDbArc
 50
182.3190477452711
 51
184.5845290810547
  0
LINE
  5
1D1
330
1F
100
AcDbEntity
  8
0
  6
CONTINUOUS
 62
     7
100
AcDbLine
 10
797.0605395412583
 20
110.8129384055658
 30
0.0
 11
797.8956126112007
 21
90.40476181184042
 31
0.0
  0
LINE
  5
1D2
330
1F
100
AcDbEntity
  8
0
  6
CONTINUOUS
 62
     7
100
AcDbLine
 10
796.225466471697
 20
132.2941139516494
 30
0.0
 11
797.0605395412583
 21
110.8129384055658
 31
0.0
  0
LINE
  5
1D3
330
1F
100
AcDbEntity
  8
0
  6
CONTINUOUS
 62
     7
100
AcDbLine
 10
795.807929937121
 20
141.5984069578024
 30
0.0
 11
796.225466471697
 21
132.2941139516494
 31
0.0
  0
ARC
  5
1D4
330
1F
100
AcDbEntity
  8
0
  6
CONTINUOUS
 62
     7
100
AcDbCircle
 10
547.9743235807101
 20
131.4935975272259
 30
0.0
 40
248.0395202649221
100
AcDbArc
 50
2.334802121393126
 51
5.251118797337653
  0
ARC
  5
1D5
330
1F
100
AcDbEntity
  8
0
  6
CONTINUOUS
 62
     7
100
AcDbCircle
 10
783.2231723213563
 20
153.426112029083
 30
0.0
 40
11.77477864127519
100
AcDbArc
 50
3.741314149926494
 51
15.75984489169616
  0
LINE
  5
1D6
330
1F
100
AcDbEntity
  8
0
  6
CONTINUOUS
 62
     7
100
AcDbLine
 10
788.7098088544906
 20
76.79136821786476
 30
0.0
 11
789.0725641712594
 21
73.73705134218058
 31
0.0
  0
LINE
  5
1D7
330
1F
100
AcDbEntity
  8
0
  6
CONTINUOUS
 62
     7
100
AcDbLine
 10
788.292272319476
 20
82.72585402365277
 30
0.0
 11
788.7098088544906
 21
76.79136821786476
 31
0.0
  0
LINE
  5
1D8
330
1F
100
AcDbEntity
  8
0
  6
CONTINUOUS
 62
     7
100
AcDbLine
 10
787.874735784448
 20
90.85530143941473
 30
0.0
 11
788.2922723194761
 21
82.72585402365277
 31
0.0
  0
LINE
  5
1D9
330
1F
100
AcDbEntity
  8
0
  6
CONTINUOUS
 62
     7
100
AcDbLine
 10
787.0396627145144
 20
111.3617028233743
 30
0.0
 11
787.8747357844479
 21
90.85530143941473
 31
0.0
  0
LINE
  5
1DA
330
1F
100
AcDbEntity
  8
0
  6
CONTINUOUS
 62
     7
100
AcDbLine
 10
786.622126179677
 20
122.3353718955703
 30
0.0
 11
787.0396627145145
 21
111.3617028233743
 31
0.0
  0
LINE
  5
1DB
330
1F
100
AcDbEntity
  8
0
  6
CONTINUOUS
 62
     7
100
AcDbLine
 10
786.2045896449646
 20
132.7934617505092
 30
0.0
 11
786.622126179677
 21
122.3353718955703
 31
0.0
  0
LINE
  5
1DC
330
1F
100
AcDbEntity
  8
0
  6
CONTINUOUS
 62
     7
100
AcDbLine
 10
785.7870531103965
 20
142.0203090564845
 30
0.0
 11
786.2045896449646
 21
132.7934617505092
 31
0.0
  0
ARC
  5
1DD
330
1F
100
AcDbEntity
  8
0
  6
CONTINUOUS
 62
     7
100
AcDbCircle
 10
554.0707980097476
 20
132.5763560283903
 30
0.0
 40
231.9086266758222
100
AcDbArc
 50
2.333886083697962
 51
5.395340594687468
  0
LINE
  5
1DE
330
1F
100
AcDbEntity
  8
0
  6
CONTINUOUS
 62
     7
100
AcDbLine
 10
784.5344435075817
 20
156.6711265728671
 30
0.0
 11
784.6040329299282
 21
156.4867708307708
 31
0.0
  0
ARC
  5
1DF
330
1F
100
AcDbEntity
  8
0
  6
CONTINUOUS
 62
     7
100
AcDbCircle
 10
772.681400325155
 20
153.4346031021295
 30
0.0
 40
12.3071075428859
100
AcDbArc
 50
4.415491184765699
 51
14.35921829860792
  0
LINE
  5
1E0
330
1F
100
AcDbEntity
  8
0
  6
CONTINUOUS
 62
     7
100
AcDbLine
 10
778.6889320277406
 20
77.02900837090132
 30
0.0
 11
779.0726687975487
 21
73.73647180863595
 31
0.0
  0
LINE
  5
1E1
330
1F
100
AcDbEntity
  8
0
  6
CONTINUOUS
 62
     7
100
AcDbLine
 10
778.2713954927252
 20
83.08426737780646
 30
0.0
 11
778.6889320277406
 21
77.02900837090132
 31
0.0
  0
LINE
  5
1E2
330
1F
100
AcDbEntity
  8
0
  6
CONTINUOUS
 62
     7
100
AcDbLine
 10
777.8538589576979
 20
91.30996121217538
 30
0.0
 11
778.2713954927253
 21
83.08426737780646
 31
0.0
  0
LINE
  5
1E3
330
1F
100
AcDbEntity
  8
0
  6
CONTINUOUS
 62
     7
100
AcDbLine
 10
777.4363224227009
 20
101.1431928691896
 30
0.0
 11
777.8538589576979
 21
91.30996121217538
 31
0.0
  0
LINE
  5
1E4
330
1F
100
AcDbEntity
  8
0
  6
CONTINUOUS
 62
     7
100
AcDbLine
 10
777.0187858877694
 20
111.9110590342064
 30
0.0
 11
777.4363224227009
 21
101.1431928691896
 31
0.0
  0
LINE
  5
1E5
330
1F
100
AcDbEntity
  8
0
  6
CONTINUOUS
 62
     7
100
AcDbLine
 10
776.6012493529394
 20
122.8766979014486
 30
0.0
 11
777.0187858877694
 21
111.9110590342064
 31
0.0
  0
LINE
  5
1E6
330
1F
100
AcDbEntity
  8
0
  6
CONTINUOUS
 62
     7
100
AcDbLine
 10
776.183712818235
 20
133.2897137720892
 30
0.0
 11
776.6012493529394
 21
122.8766979014486
 31
0.0
  0
LINE
  5
1E7
330
1F
100
AcDbEntity
  8
0
  6
CONTINUOUS
 62
     7
100
AcDbLine
 10
775.348639749263
 20
149.6941408551642
 30
0.0
 11
776.183712818235
 21
133.2897137720892
 31
0.0
  0
LINE
  5
1E8
330
1F
100
AcDbEntity
  8
0
  6
CONTINUOUS
 62
     7
100
AcDbLine
 10
774.9311032150028
 20
154.5629716438415
 30
0.0
 11
775.348639749263
 21
149.6941408551642
 31
0.0
  0
LINE
  5
1E9
330
1F
100
AcDbEntity
  8
0
  6
CONTINUOUS
 62
     7
100
AcDbLine
 10
774.513566680879
 20
156.7108385103976
 30
0.0
 11
774.5831561032244
 21
156.5504632106395
 31
0.0
  0
ARC
  5
1EA
330
1F
100
AcDbEntity
  8
0
  6
CONTINUOUS
 62
     7
100
AcDbCircle
 10
764.7043256707318
 20
153.7967883933436
 30
0.0
 40
10.25543834818139
100
AcDbArc
 50
4.284556707699949
 51
15.57554738098633
  0
LINE
  5
1EB
330
1F
100
AcDbEntity
  8
0
  6
CONTINUOUS
 62
     7
100
AcDbLine
 10
768.6680552009922
 20
77.27314763518913
 30
0.0
 11
769.0724359716364
 21
73.73776169107933
 31
0.0
  0
LINE
  5
1EC
330
1F
100
AcDbEntity
  8
0
  6
CONTINUOUS
 62
     7
100
AcDbLine
 10
768.2505186659745
 20
83.44813796921763
 30
0.0
 11
768.6680552009921
 21
77.27314763518913
 31
0.0
  0
LINE
  5
1ED
330
1F
100
AcDbEntity
  8
0
  6
CONTINUOUS
 62
     7
100
AcDbLine
 10
767.4154455959529
 20
101.6653359863341
 30
0.0
 11
768.2505186659746
 21
83.44813796921763
 31
0.0
  0
LINE
  5
1EE
330
1F
100
AcDbEntity
  8
0
  6
CONTINUOUS
 62
     7
100
AcDbLine
 10
767.0999999993355
 20
109.7790079893389
 30
0.0
 11
767.4154455959529
 21
101.6653359863341
 31
0.0
  0
LINE
  5
1EF
330
1F
100
AcDbEntity
  8
0
  6
CONTINUOUS
 62
     7
100
AcDbLine
 10
767.0999999993342
 20
109.7790079893397
 30
0.0
 11
767.099999998802
 21
121.7624814398689
 31
0.0
  0
LINE
  5
1F0
330
1F
100
AcDbEntity
  8
0
  6
CONTINUOUS
 62
     7
100
AcDbLine
 10
769.127583851526
 20
155.864407662378
 30
0.0
 11
769.2918612918331
 21
154.7369930989815
 31
0.0
  0
LINE
  5
1F1
330
1F
100
AcDbEntity
  8
0
  6
CONTINUOUS
 62
     7
100
AcDbLine
 10
779.1275855633226
 20
155.8643981753933
 30
0.0
 11
779.3127381185433
 21
154.5629730609391
 31
0.0
  0
LINE
  5
1F2
330
1F
100
AcDbEntity
  8
0
  6
CONTINUOUS
 62
     7
100
AcDbLine
 10
789.1274490942516
 20
155.8651543846317
 30
0.0
 11
789.3336149452522
 21
154.3821115614545
 31
0.0
  0
LINE
  5
1F3
330
1F
100
AcDbEntity
  8
0
  6
CONTINUOUS
 62
     7
100
AcDbLine
 10
799.1274175514574
 20
155.8653291284692
 30
0.0
 11
799.3544917719615
 21
154.1944397197252
 31
0.0
  0
ARC
  5
1F4
330
1F
100
AcDbEntity
  8
0
  6
CONTINUOUS
 62
     7
100
AcDbCircle
 10
739.1161157676507
 20
145.7296203861571
 30
0.0
 40
70.74118890078165
100
AcDbArc
 50
2.444982599713455
 51
8.237480753301668
  0
ARC
  5
1F5
330
1F
100
AcDbEntity
  8
0
  6
CONTINUOUS
 62
     7
100
AcDbCircle
 10
739.2629097187897
 20
144.7482238739082
 30
0.0
 40
80.63452019061718
100
AcDbArc
 50
2.610010943991369
 51
7.925040416427919
  0
LINE
  5
1F6
330
1F
100
AcDbEntity
  8
0
  6
CONTINUOUS
 62
     7
100
AcDbLine
 10
829.1265934862228
 20
155.8698886411723
 30
0.0
 11
829.417122252094
 21
153.5908908765653
 31
0.0
  0
LINE
  5
1F7
330
1F
100
AcDbEntity
  8
0
  6
CONTINUOUS
 62
     7
100
AcDbLine
 10
839.1274597853096
 20
155.8650951556014
 30
0.0
 11
839.4379990788052
 21
153.3763122093372
 31
0.0
  0
ARC
  5
1F8
330
1F
100
AcDbEntity
  8
0
  6
CONTINUOUS
 62
     7
100
AcDbCircle
 10
763.644712122033
 20
144.0343678677506
 30
0.0
 40
86.29749933943914
100
AcDbArc
 50
2.23756593257059
 51
7.880359602460942
  0
ARC
  5
1F9
330
1F
100
AcDbEntity
  8
0
  6
CONTINUOUS
 62
     7
100
AcDbCircle
 10
768.5781971846036
 20
143.5137918671608
 30
0.0
 40
91.38767192721835
100
AcDbArc
 50
2.219827546414422
 51
7.768807895347152
  0
LINE
  5
1FA
330
1F
100
AcDbEntity
  8
0
  6
CONTINUOUS
 62
     7
100
AcDbLine
 10
869.1275276774284
 20
155.8647189756776
 30
0.0
 11
869.5006295589412
 21
152.6929058933721
 31
0.0
  0
ARC
  5
1FB
330
1F
100
AcDbEntity
  8
0
  6
CONTINUOUS
 62
     7
100
AcDbCircle
 10
798.5463932856215
 20
141.4252553341948
 30
0.0
 40
111.51989581225
100
AcDbArc
 50
1.950524652073398
 51
7.439392849826105
  0
LWPOLYLINE
  5
1FC
330
1F
100
AcDbEntity
  8
0
  6
CONTINUOUS
 62
     7
100
AcDbPolyline
 90
       33
 70
     0
 43
0.0
 10
768.6682481629203
 20
158.4139117576564
 10
768.6582833594736
 20
158.468388930905
 10
768.6483185560271
 20
158.5211591648519
 10
768.6383537525805
 20
158.5722204592778
 10
768.6283889491342
 20
158.6215708139637
 10
768.6184241456876
 20
158.6692082286906
 10
768.6084593422415
 20
158.7151307032393
 10
768.5984945387951
 20
158.7593362373907
 10
768.5885297353491
 20
158.8018228309258
 10
768.5785649319031
 20
158.8425884836255
 10
768.568600128457
 20
158.8816311952706
 10
768.5586353250111
 20
158.9189489656422
 10
768.5486705215653
 20
158.9545397945211
 10
768.5387057181194
 20
158.9884016816882
 10
768.5287409146738
 20
159.0205326269245
 10
768.518776111228
 20
159.0509306300109
 10
768.5088113077826
 20
159.0795936907282
 10
768.498846504337
 20
159.1065198088574
 10
768.4888817008916
 20
159.1317069841794
 10
768.4789168974462
 20
159.1551532164752
 10
768.468952094001
 20
159.1768565055255
 10
768.4589872905558
 20
159.1968148511115
 10
768.4490224871106
 20
159.2150262530138
 10
768.4390576836655
 20
159.2314887110136
 10
768.4290928802205
 20
159.2462002663531
 10
768.4191280767757
 20
159.2591602273707
 10
768.4091632733308
 20
159.2703693728395
 10
768.399198469886
 20
159.2798285639446
 10
768.3892336664413
 20
159.287538661871
 10
768.3792688629967
 20
159.2935005278036
 10
768.3693040595522
 20
159.2977150229274
 10
768.3593392561074
 20
159.3001830084273
 10
768.349374452663
 20
159.3009053454885
  0
LWPOLYLINE
  5
1FD
330
1F
100
AcDbEntity
  8
0
  6
CONTINUOUS
 62
     7
100
AcDbPolyline
 90
       33
 70
     0
 43
0.0
 10
-773.6685766465138
 20
71.19020195301029
 10
-773.6586291427028
 20
71.1357566181514
 10
-773.6486816388921
 20
71.08301216541493
 10
-773.638734135081
 20
71.0319706548414
 10
-773.62878663127
 20
70.98263414647144
 10
-773.6188391274588
 20
70.93500470034564
 10
-773.6088916236475
 20
70.88908437650457
 10
-773.5989441198365
 20
70.84487523498882
 10
-773.5889966160249
 20
70.802379335839
 10
-773.5790491122136
 20
70.76159873909567
 10
-773.5691016084021
 20
70.72253550479944
 10
-773.5591541045906
 20
70.6851916929909
 10
-773.5492066007789
 20
70.64956936371061
 10
-773.539259096967
 20
70.61567057699916
 10
-773.5293115931553
 20
70.58349739289717
 10
-773.5193640893436
 20
70.55305187144522
 10
-773.5094165855317
 20
70.52433607268388
 10
-773.4994690817197
 20
70.49735205665375
 10
-773.4895215779075
 20
70.47210188339541
 10
-773.4795740740955
 20
70.44858761294947
 10
-773.4696265702833
 20
70.4268113053565
 10
-773.4596790664709
 20
70.40677502065708
 10
-773.4497315626586
 20
70.38848081889181
 10
-773.439784058846
 20
70.37193072537455
 10
-773.4298365550335
 20
70.35712555111058
 10
-773.4198890512209
 20
70.34406460397237
 10
-773.4099415474084
 20
70.33274709851513
 10
-773.3999940435957
 20
70.32317224929396
 10
-773.3900465397828
 20
70.31533927086411
 10
-773.3800990359701
 20
70.30924737778078
 10
-773.3701515321573
 20
70.3048957845991
 10
-773.3602040283441
 20
70.30228370587426
 10
-773.3502565245309
 20
70.3014103561615
210
0.0
220
0.0
230
-1.0
  0
LWPOLYLINE
  5
1FE
330
1F
100
AcDbEntity
  8
0
  6
CONTINUOUS
 62
     7
100
AcDbPolyline
 90
       33
 70
     0
 43
0.0
 10
778.6685774562288
 20
158.4120684908353
 10
778.6586308572571
 20
158.4665142745605
 10
778.6486842582855
 20
158.5192594782328
 10
778.6387376593137
 20
158.5703019722606
 10
778.6287910603422
 20
158.6196396270519
 10
778.6188444613706
 20
158.667270313015
 10
778.6088978623993
 20
158.7131919005583
 10
778.5989512634279
 20
158.7574022600897
 10
778.5890046644566
 20
158.7998992620178
 10
778.5790580654857
 20
158.8406807767506
 10
778.5691114665144
 20
158.8797446746963
 10
778.5591648675432
 20
158.9170888262633
 10
778.5492182685724
 20
158.9527111018597
 10
778.5392716696016
 20
158.9866093718938
 10
778.5293250706306
 20
159.0187815067738
 10
778.5193784716602
 20
159.049225376908
 10
778.5094318726893
 20
159.0779388527044
 10
778.4994852737186
 20
159.1049198045716
 10
778.489538674748
 20
159.1301661029175
 10
778.4795920757779
 20
159.1536756181506
 10
778.4696454768073
 20
159.1754462206789
 10
778.459698877837
 20
159.1954757809108
 10
778.4497522788669
 20
159.2137622171118
 10
778.4398056798966
 20
159.2303047482916
 10
778.4298590809266
 20
159.2451040161046
 10
778.4199124819565
 20
159.2581607345041
 10
778.4099658829864
 20
159.2694756174437
 10
778.4000192840164
 20
159.2790493788769
 10
778.3900726850468
 20
159.2868827327571
 10
778.380126086077
 20
159.2929763930378
 10
778.3701794871072
 20
159.2973310736725
 10
778.3602328881375
 20
159.2999474886145
 10
778.350286289168
 20
159.3008263518175
  0
LWPOLYLINE
  5
1FF
330
1F
100
AcDbEntity
  8
0
  6
CONTINUOUS
 62
     7
100
AcDbPolyline
 90
       33
 70
     0
 43
0.0
 10
-783.6685549657308
 20
71.1900844244338
 10
-783.6585957870814
 20
71.1355695323019
 10
-783.6486366084322
 20
71.08275961404846
 10
-783.6386774297829
 20
71.03165687764312
 10
-783.6287182511333
 20
70.9822635310556
 10
-783.6187590724838
 20
70.93458178225556
 10
-783.608799893834
 20
70.88861383921267
 10
-783.5988407151843
 20
70.84436190989663
 10
-783.5888815365345
 20
70.80182820227711
 10
-783.5789223578847
 20
70.76101492432377
 10
-783.5689631792346
 20
70.7219242840063
 10
-783.5590040005845
 20
70.68455848929437
 10
-783.5490448219346
 20
70.64891974815771
 10
-783.5390856432845
 20
70.61501026856594
 10
-783.5291264646341
 20
70.58283225848876
 10
-783.5191672859839
 20
70.55238792589583
 10
-783.5092081073335
 20
70.52367947875686
 10
-783.4992489286831
 20
70.49670912504152
 10
-783.4892897500323
 20
70.47147907271945
 10
-783.4793305713818
 20
70.44799152976036
 10
-783.4693713927311
 20
70.42624870413394
 10
-783.4594122140807
 20
70.40625272757367
 10
-783.4494530354298
 20
70.38800428904928
 10
-783.4394938567789
 20
70.37150278878336
 10
-783.4295346781278
 20
70.35674758168884
 10
-783.4195754994769
 20
70.3437380226786
 10
-783.4096163208256
 20
70.33247346666553
 10
-783.3996571421746
 20
70.32295326856257
 10
-783.3896979635234
 20
70.31517678328257
 10
-783.379738784872
 20
70.30914336573844
 10
-783.3697796062208
 20
70.30485237084308
 10
-783.3598204275693
 20
70.30230315350936
 10
-783.3498612489177
 20
70.30149506865021
210
0.0
220
0.0
230
-1.0
  0
LWPOLYLINE
  5
200
330
1F
100
AcDbEntity
  8
0
  6
CONTINUOUS
 62
     7
100
AcDbPolyline
 90
       33
 70
     0
 43
0.0
 10
788.6685347172189
 20
158.4123140517904
 10
788.6585769230088
 20
158.4668230992955
 10
788.6486191287987
 20
158.5196274866736
 10
788.6386613345888
 20
158.5707249367121
 10
788.6287035403789
 20
158.6201131721986
 10
788.6187457461691
 20
158.6677899159207
 10
788.6087879519594
 20
158.713752890666
 10
788.5988301577497
 20
158.7579998192219
 10
788.5888723635403
 20
158.800528424376
 10
788.5789145693307
 20
158.8413364289159
 10
788.5689567751213
 20
158.8804215556291
 10
788.5589989809122
 20
158.9177815273033
 10
788.5490411867025
 20
158.9534140667258
 10
788.5390833924934
 20
158.9873168966843
 10
788.5291255982843
 20
159.0194877399664
 10
788.5191678040752
 20
159.0499243193596
 10
788.5092100098663
 20
159.0786243576514
 10
788.4992522156573
 20
159.1055855776294
 10
788.4892944214486
 20
159.1308057020811
 10
788.4793366272398
 20
159.1542824537942
 10
788.469378833031
 20
159.1760136534772
 10
788.4594210388224
 20
159.19599864235
 10
788.449463244614
 20
159.2142379610805
 10
788.4395054504055
 20
159.23073218291
 10
788.4295476561969
 20
159.2454818810803
 10
788.4195898619887
 20
159.2584876288329
 10
788.4096320677803
 20
159.2697499994094
 10
788.3996742735719
 20
159.2792695660515
 10
788.3897164793636
 20
159.2870469020005
 10
788.3797586851559
 20
159.2930825804983
 10
788.3698008909478
 20
159.2973771747863
 10
788.3598430967397
 20
159.2999312581061
 10
788.3498853025318
 20
159.3007454036994
  0
LWPOLYLINE
  5
201
330
1F
100
AcDbEntity
  8
0
  6
CONTINUOUS
 62
     7
100
AcDbPolyline
 90
       33
 70
     0
 43
0.0
 10
-793.6685270544369
 20
71.18991046892742
 10
-793.6585512928252
 20
71.13530100847194
 10
-793.6485755312133
 20
71.08240260192933
 10
-793.6385997696015
 20
71.03121760930651
 10
-793.6286240079894
 20
70.98174839061026
 10
-793.6186482463773
 20
70.93399730584737
 10
-793.6086724847652
 20
70.8879667150247
 10
-793.5986967231529
 20
70.84365897814908
 10
-793.5887209615407
 20
70.80107645522732
 10
-793.5787451999282
 20
70.7602215062662
 10
-793.5687694383159
 20
70.72109649127262
 10
-793.5587936767033
 20
70.68370377025335
 10
-793.5488179150908
 20
70.64804570321522
 10
-793.5388421534783
 20
70.61412465016507
 10
-793.5288663918656
 20
70.58194297110968
 10
-793.5188906302526
 20
70.55150302605593
 10
-793.5089148686397
 20
70.5228071750106
 10
-793.4989391070268
 20
70.49585777798053
 10
-793.4889633454138
 20
70.47065719497255
 10
-793.4789875838006
 20
70.44720764059664
 10
-793.4690118221873
 20
70.42550967635968
 10
-793.4590360605741
 20
70.40556281462258
 10
-793.449060298961
 20
70.38736655102461
 10
-793.4390845373478
 20
70.37092038120504
 10
-793.4291087757342
 20
70.35622380080316
 10
-793.4191330141206
 20
70.3432763054583
 10
-793.4091572525073
 20
70.33207739080974
 10
-793.3991814908936
 20
70.32262655249676
 10
-793.3892057292799
 20
70.31492328615865
 10
-793.379229967666
 20
70.3089670874347
 10
-793.369254206052
 20
70.30475745196416
 10
-793.3592784444384
 20
70.30229387538645
 10
-793.3493026828245
 20
70.30157585334074
210
0.0
220
0.0
230
-1.0
  0
ARC
  5
202
330
1F
100
AcDbEntity
  8
0
  6
CONTINUOUS
 62
     7
100
AcDbCircle
 10
797.5202948263438
 20
158.5023580425739
 30
0.0
 40
1.151513432813951
100
AcDbArc
 50
355.564975439583
 51
43.89020042161041
  0
ARC
  5
203
330
1F
100
AcDbEntity
  8
0
  6
CONTINUOUS
 62
     7
100
AcDbCircle
 10
802.4394177792504
 20
71.12902570381863
 30
0.0
 40
1.230545702862345
100
AcDbArc
 50
317.7489059327154
 51
2.820210863206455
  0
ARC
  5
204
330
1F
100
AcDbEntity
  8
0
  6
CONTINUOUS
 62
     7
100
AcDbCircle
 10
807.3596460658332
 20
158.4442878971497
 30
0.0
 40
1.309243012312528
100
AcDbArc
 50
358.6113586032431
 51
40.8492043715479
  0
ARC
  5
205
330
1F
100
AcDbEntity
  8
0
  6
CONTINUOUS
 62
     7
100
AcDbCircle
 10
812.2758029940169
 20
71.18803334623618
 30
0.0
 40
1.392635190064847
100
AcDbArc
 50
320.4714576130792
 51
0.0527838189631211
  0
ARC
  5
206
330
1F
100
AcDbEntity
  8
0
  6
CONTINUOUS
 62
     7
100
AcDbCircle
 10
817.1946657712034
 20
158.3844051850535
 30
0.0
 40
1.474006768591366
100
AcDbArc
 50
1.121739014704544
 51
38.43010111269962
  0
ARC
  5
207
330
1F
100
AcDbEntity
  8
0
  6
CONTINUOUS
 62
     7
100
AcDbCircle
 10
822.0983632845997
 20
71.25158645067489
 30
0.0
 40
1.571269442999276
100
AcDbArc
 50
322.8044366415431
 51
357.7151663499528
  0
ARC
  5
208
330
1F
100
AcDbEntity
  8
0
  6
CONTINUOUS
 62
     7
100
AcDbCircle
 10
827.0108543516765
 20
158.3210237275061
 30
0.0
 40
1.659346380091823
100
AcDbArc
 50
3.403414107579911
 51
36.1802186161004
  0
ARC
  5
209
330
1F
100
AcDbEntity
  8
0
  6
CONTINUOUS
 62
     7
100
AcDbCircle
 10
831.91040678044
 20
71.3189292180666
 30
0.0
 40
1.762747655124868
100
AcDbArc
 50
324.755070127519
 51
355.7580156568826
  0
ARC
  5
20A
330
1F
100
AcDbEntity
  8
0
  6
CONTINUOUS
 62
     7
100
AcDbCircle
 10
836.8104457590745
 20
158.2472869373174
 30
0.0
 40
1.86543338724688
100
AcDbArc
 50
5.0834856117635
 51
34.37755601327952
  0
ARC
  5
20B
330
1F
100
AcDbEntity
  8
0
  6
CONTINUOUS
 62
     7
100
AcDbCircle
 10
841.7112421726192
 20
71.39063395119796
 30
0.0
 40
1.967554781991006
100
AcDbArc
 50
326.3953617176776
 51
354.1237127216631
  0
ARC
  5
20C
330
1F
100
AcDbEntity
  8
0
  6
CONTINUOUS
 62
     7
100
AcDbCircle
 10
846.6097254382471
 20
158.175257877483
 30
0.0
 40
2.072373833526175
100
AcDbArc
 50
6.614943232202754
 51
32.89034519152246
  0
ARC
  5
20D
330
1F
100
AcDbEntity
  8
0
  6
CONTINUOUS
 62
     7
100
AcDbCircle
 10
851.5001358034062
 20
71.46612452318115
 30
0.0
 40
2.18594539954321
100
AcDbArc
 50
327.8106686956887
 51
352.7199865108129
  0
ARC
  5
20E
330
1F
100
AcDbEntity
  8
0
  6
CONTINUOUS
 62
     7
100
AcDbCircle
 10
856.3929143615977
 20
158.0972974775949
 30
0.0
 40
2.297381349534898
100
AcDbArc
 50
7.894244036926463
 51
31.58783925089546
  0
ARC
  5
20F
330
1F
100
AcDbEntity
  8
0
  6
CONTINUOUS
 62
     7
100
AcDbCircle
 10
861.2856318432608
 20
71.54269559708692
 30
0.0
 40
2.408819796358523
100
AcDbArc
 50
328.9863471774046
 51
351.4739066526254
  0
ARC
  5
210
330
1F
100
AcDbEntity
  8
0
  6
CONTINUOUS
 62
     7
100
AcDbCircle
 10
866.1631936832188
 20
158.0154429125916
 30
0.0
 40
2.536667692047225
100
AcDbArc
 50
9.005260075461809
 51
30.44355732068672
  0
ARC
  5
211
330
1F
100
AcDbEntity
  8
0
  6
CONTINUOUS
 62
     7
100
AcDbCircle
 10
871.048224196811
 20
71.62835062436831
 30
0.0
 40
2.656819343951796
100
AcDbArc
 50
330.0386747607828
 51
350.4960060329886
  0
ARC
  5
212
330
1F
100
AcDbEntity
  8
0
  6
CONTINUOUS
 62
     7
100
AcDbCircle
 10
907.4162298087762
 20
158.4644809241428
 30
0.0
 40
1.253484136302355
100
AcDbArc
 50
357.6107904369708
 51
41.86740864411877
  0
ARC
  5
213
330
1F
100
AcDbEntity
  8
0
  6
CONTINUOUS
 62
     7
100
AcDbCircle
 10
912.4022374868899
 20
71.14185303893777
 30
0.0
 40
1.267407237187761
100
AcDbArc
 50
318.4483773838941
 51
2.202455022095762
  0
LINE
  5
214
330
1F
100
AcDbEntity
  8
0
  6
CONTINUOUS
 62
     7
100
AcDbLine
 10
769.2918612918331
 20
154.7369930989815
 30
0.0
 11
769.7093978260868
 21
149.9977740639164
 31
0.0
  0
LINE
  5
215
330
1F
100
AcDbEntity
  8
0
  6
CONTINUOUS
 62
     7
100
AcDbLine
 10
769.7093978260868
 20
149.9977740639164
 30
0.0
 11
770.1269343604903
 21
142.8499946674852
 31
0.0
  0
LINE
  5
216
330
1F
100
AcDbEntity
  8
0
  6
CONTINUOUS
 62
     7
100
AcDbLine
 10
770.1269343604903
 20
142.8499946674852
 30
0.0
 11
771.379543964566
 21
112.4609169077804
 31
0.0
  0
LINE
  5
217
330
1F
100
AcDbEntity
  8
0
  6
CONTINUOUS
 62
     7
100
AcDbLine
 10
771.379543964566
 20
112.4609169077804
 30
0.0
 11
771.7970804994932
 21
101.6653401650396
 31
0.0
  0
LINE
  5
218
330
1F
100
AcDbEntity
  8
0
  6
CONTINUOUS
 62
     7
100
AcDbLine
 10
771.7970804994932
 20
101.6653401650396
 30
0.0
 11
772.2146170344881
 21
91.76866657985495
 31
0.0
  0
LINE
  5
219
330
1F
100
AcDbEntity
  8
0
  6
CONTINUOUS
 62
     7
100
AcDbLine
 10
772.2146170344881
 20
91.76866657985495
 30
0.0
 11
772.6321535695143
 21
83.44814089657945
 31
0.0
  0
ARC
  5
21A
330
1F
100
AcDbEntity
  8
0
  6
CONTINUOUS
 62
     7
100
AcDbCircle
 10
840.688686338147
 20
84.76511608323872
 30
0.0
 40
68.06927409727722
100
AcDbArc
 50
181.108603394683
 51
189.9823471753403
  0
LWPOLYLINE
  5
21B
330
1F
100
AcDbEntity
  8
0
  6
CONTINUOUS
 62
     7
100
AcDbPolyline
 90
        3
 70
     0
 43
0.0
 10
773.6498988735261
 20
72.96566476533212
 10
773.7281869738171
 20
72.83365549477614
 10
773.7908190529398
 20
72.80113960636677
  0
LINE
  5
21C
330
1F
100
AcDbEntity
  8
0
  6
CONTINUOUS
 62
     7
100
AcDbLine
 10
779.3127381185434
 20
154.5629730609391
 30
0.0
 11
779.7302746528031
 21
149.6941433039133
 31
0.0
  0
LINE
  5
21D
330
1F
100
AcDbEntity
  8
0
  6
CONTINUOUS
 62
     7
100
AcDbLine
 10
779.7302746528031
 20
149.6941433039133
 30
0.0
 11
780.5653477217736
 21
133.2897177223603
 31
0.0
  0
LINE
  5
21E
330
1F
100
AcDbEntity
  8
0
  6
CONTINUOUS
 62
     7
100
AcDbLine
 10
780.5653477217736
 20
133.2897177223603
 30
0.0
 11
780.9828842564795
 21
122.8767022187736
 31
0.0
  0
LINE
  5
21F
330
1F
100
AcDbEntity
  8
0
  6
CONTINUOUS
 62
     7
100
AcDbLine
 10
780.9828842564796
 20
122.8767022187736
 30
0.0
 11
781.817957326241
 21
101.1431970294965
 31
0.0
  0
LINE
  5
220
330
1F
100
AcDbEntity
  8
0
  6
CONTINUOUS
 62
     7
100
AcDbLine
 10
781.817957326241
 20
101.1431970294965
 30
0.0
 11
782.2354938612403
 21
91.3099648590654
 31
0.0
  0
LINE
  5
221
330
1F
100
AcDbEntity
  8
0
  6
CONTINUOUS
 62
     7
100
AcDbLine
 10
782.2354938612403
 20
91.3099648590654
 30
0.0
 11
782.6530303962653
 21
83.08427026183645
 31
0.0
  0
LINE
  5
222
330
1F
100
AcDbEntity
  8
0
  6
CONTINUOUS
 62
     7
100
AcDbLine
 10
782.6530303962653
 20
83.08427026183645
 30
0.0
 11
783.0705669312811
 21
77.0290102946627
 31
0.0
  0
LINE
  5
223
330
1F
100
AcDbEntity
  8
0
  6
CONTINUOUS
 62
     7
100
AcDbLine
 10
783.0705669312812
 20
77.02901029466271
 30
0.0
 11
783.4881034662474
 21
73.55855580181411
 31
0.0
  0
LWPOLYLINE
  5
224
330
1F
100
AcDbEntity
  8
0
  6
CONTINUOUS
 62
     7
100
AcDbPolyline
 90
        6
 70
     0
 43
0.0
 10
783.4881034662474
 20
73.5585558018141
 10
783.5576928887346
 20
73.25089749074924
 10
783.627282311219
 20
73.02266296236915
 10
783.696871733701
 20
72.87428848969324
 10
783.76646115618
 20
72.80605769229318
 10
783.7908167807028
 20
72.8011396067263
  0
ARC
  5
225
330
1F
100
AcDbEntity
  8
0
  6
CONTINUOUS
 62
     7
100
AcDbCircle
 10
558.4525586723001
 20
132.5763645599368
 30
0.0
 40
231.9085008101432
100
AcDbArc
 50
2.333886069991479
 51
5.395341779629405
  0
LINE
  5
226
330
1F
100
AcDbEntity
  8
0
  6
CONTINUOUS
 62
     7
100
AcDbLine
 10
790.1686880139367
 20
142.0203124070059
 30
0.0
 11
791.0037610832173
 21
122.3353762236103
 31
0.0
  0
LINE
  5
227
330
1F
100
AcDbEntity
  8
0
  6
CONTINUOUS
 62
     7
100
AcDbLine
 10
791.0037610832175
 20
122.3353762236103
 30
0.0
 11
791.4212976180535
 21
111.3617072080353
 31
0.0
  0
LINE
  5
228
330
1F
100
AcDbEntity
  8
0
  6
CONTINUOUS
 62
     7
100
AcDbLine
 10
791.4212976180535
 20
111.3617072080353
 30
0.0
 11
792.2563706879893
 21
90.85530505374571
 31
0.0
  0
LINE
  5
229
330
1F
100
AcDbEntity
  8
0
  6
CONTINUOUS
 62
     7
100
AcDbLine
 10
792.2563706879891
 20
90.85530505374571
 30
0.0
 11
792.673907223016
 21
82.72585686385598
 31
0.0
  0
LINE
  5
22A
330
1F
100
AcDbEntity
  8
0
  6
CONTINUOUS
 62
     7
100
AcDbLine
 10
792.673907223016
 20
82.72585686385598
 30
0.0
 11
793.0914437580318
 21
76.7913700895576
 31
0.0
  0
ARC
  5
22B
330
1F
100
AcDbEntity
  8
0
  6
CONTINUOUS
 62
     7
100
AcDbCircle
 10
814.6090792741162
 20
77.95443355923996
 30
0.0
 40
21.54904533471415
100
AcDbArc
 50
183.0939200966103
 51
193.3168272566847
  0
LWPOLYLINE
  5
22C
330
1F
100
AcDbEntity
  8
0
  6
CONTINUOUS
 62
     7
100
AcDbPolyline
 90
        3
 70
     0
 43
0.0
 10
793.6394604601542
 20
72.99092254034467
 10
793.7177485604454
 20
72.84539526484023
 10
793.7908183887084
 20
72.80113960710135
  0
ARC
  5
22D
330
1F
100
AcDbEntity
  8
0
  6
CONTINUOUS
 62
     7
100
AcDbCircle
 10
373.8085475965541
 20
118.8689542460736
 30
0.0
 40
427.0096492212887
100
AcDbArc
 50
1.801673569184572
 51
4.745365900065905
  0
LINE
  5
22E
330
1F
100
AcDbEntity
  8
0
  6
CONTINUOUS
 62
     7
100
AcDbLine
 10
800.6071013752367
 20
132.2941179513334
 30
0.0
 11
801.0246379099561
 21
121.7927538800301
 31
0.0
  0
LINE
  5
22F
330
1F
100
AcDbEntity
  8
0
  6
CONTINUOUS
 62
     7
100
AcDbLine
 10
801.0246379099561
 20
121.7927538800301
 30
0.0
 11
801.4421744447984
 21
110.8129427850976
 31
0.0
  0
LINE
  5
230
330
1F
100
AcDbEntity
  8
0
  6
CONTINUOUS
 62
     7
100
AcDbLine
 10
801.4421744447984
 20
110.8129427850976
 30
0.0
 11
802.2772475147402
 21
90.40476539299539
 31
0.0
  0
ARC
  5
231
330
1F
100
AcDbEntity
  8
0
  6
CONTINUOUS
 62
     7
100
AcDbCircle
 10
966.6085657090706
 20
93.91834432637108
 30
0.0
 40
164.368875935827
100
AcDbArc
 50
181.2248582784264
 51
187.1834875434074
  0
LWPOLYLINE
  5
232
330
1F
100
AcDbEntity
  8
0
  6
CONTINUOUS
 62
     7
100
AcDbPolyline
 90
        5
 70
     0
 43
0.0
 10
803.52985711974
 20
73.3644595051633
 10
803.5994465422252
 20
73.10439458724655
 10
803.669035964708
 20
72.92403349406028
 10
803.7386253871879
 20
72.82372098798226
 10
803.7908185768615
 20
72.8011396074781
  0
LINE
  5
233
330
1F
100
AcDbEntity
  8
0
  6
CONTINUOUS
 62
     7
100
AcDbLine
 10
809.7929051329536
 20
148.7474427978767
 30
0.0
 11
810.6279782019694
 21
131.7917603172253
 31
0.0
  0
LINE
  5
234
330
1F
100
AcDbEntity
  8
0
  6
CONTINUOUS
 62
     7
100
AcDbLine
 10
810.6279782019695
 20
131.7917603172253
 30
0.0
 11
811.4630512715439
 21
110.264864575346
 31
0.0
  0
LINE
  5
235
330
1F
100
AcDbEntity
  8
0
  6
CONTINUOUS
 62
     7
100
AcDbLine
 10
811.4630512715439
 20
110.264864575346
 30
0.0
 11
811.8805878064853
 21
99.59122494451714
 31
0.0
  0
ARC
  5
236
330
1F
100
AcDbEntity
  8
0
  6
CONTINUOUS
 62
     7
100
AcDbCircle
 10
1358.600095452888
 20
117.3777036874515
 30
0.0
 40
547.0087557500319
100
AcDbArc
 50
181.8633519427145
 51
184.3029341970582
  0
LINE
  5
237
330
1F
100
AcDbEntity
  8
0
  6
CONTINUOUS
 62
     7
100
AcDbLine
 10
813.1331974115294
 20
76.33574944138785
 30
0.0
 11
813.5507339464847
 21
73.27809776964163
 31
0.0
  0
LWPOLYLINE
  5
238
330
1F
100
AcDbEntity
  8
0
  6
CONTINUOUS
 62
     7
100
AcDbPolyline
 90
        5
 70
     0
 43
0.0
 10
813.5507339464847
 20
73.27809776964162
 10
813.6203233689695
 20
73.04189871819003
 10
813.6899127914515
 20
72.88552295306833
 10
813.7595022139309
 20
72.80926938841402
 10
813.7908172630075
 20
72.8011396078436
  0
LINE
  5
239
330
1F
100
AcDbEntity
  8
0
  6
CONTINUOUS
 62
     7
100
AcDbLine
 10
819.8137819596722
 20
148.4201208773758
 30
0.0
 11
820.2313184941127
 21
140.74084731161
 31
0.0
  0
LINE
  5
23A
330
1F
100
AcDbEntity
  8
0
  6
CONTINUOUS
 62
     7
100
AcDbLine
 10
820.2313184941127
 20
140.74084731161
 30
0.0
 11
821.066391563434
 21
120.7039938112521
 31
0.0
  0
LINE
  5
23B
330
1F
100
AcDbEntity
  8
0
  6
CONTINUOUS
 62
     7
100
AcDbLine
 10
821.0663915634341
 20
120.7039938112521
 30
0.0
 11
822.3190011682415
 21
89.51635586437234
 31
0.0
  0
LINE
  5
23C
330
1F
100
AcDbEntity
  8
0
  6
CONTINUOUS
 62
     7
100
AcDbLine
 10
822.3190011682415
 20
89.51635586437234
 30
0.0
 11
822.7365377032698
 21
81.68397202179301
 31
0.0
  0
LINE
  5
23D
330
1F
100
AcDbEntity
  8
0
  6
CONTINUOUS
 62
     7
100
AcDbLine
 10
822.7365377032698
 20
81.68397202179301
 30
0.0
 11
823.1540742382788
 21
76.11784739284957
 31
0.0
  0
ARC
  5
23E
330
1F
100
AcDbEntity
  8
0
  6
CONTINUOUS
 62
     7
100
AcDbCircle
 10
840.3245882424221
 20
77.18552146775676
 30
0.0
 40
17.20367632503912
100
AcDbArc
 50
183.5581089765468
 51
194.1269908768383
  0
LWPOLYLINE
  5
23F
330
1F
100
AcDbEntity
  8
0
  6
CONTINUOUS
 62
     7
100
AcDbPolyline
 90
        3
 70
     0
 43
0.0
 10
823.6412001957149
 20
72.98658798653881
 10
823.710789618196
 20
72.85422445565689
 10
823.7908165478676
 20
72.80113960822489
  0
ARC
  5
240
330
1F
100
AcDbEntity
  8
0
  6
CONTINUOUS
 62
     7
100
AcDbCircle
 10
529.4725160010793
 20
128.068637733083
 30
0.0
 40
301.0284907190618
100
AcDbArc
 50
2.329694017465329
 51
4.863576176255549
  0
LINE
  5
241
330
1F
100
AcDbEntity
  8
0
  6
CONTINUOUS
 62
     7
100
AcDbLine
 10
830.2521953208372
 20
140.3053338925796
 30
0.0
 11
831.0872683901744
 21
120.158043419193
 31
0.0
  0
LINE
  5
242
330
1F
100
AcDbEntity
  8
0
  6
CONTINUOUS
 62
     7
100
AcDbLine
 10
831.0872683901744
 20
120.158043419193
 30
0.0
 11
831.5048049250325
 21
109.171143872793
 31
0.0
  0
LINE
  5
243
330
1F
100
AcDbEntity
  8
0
  6
CONTINUOUS
 62
     7
100
AcDbLine
 10
831.5048049250325
 20
109.171143872793
 30
0.0
 11
832.3398779949922
 21
89.07863885712864
 31
0.0
  0
LINE
  5
244
330
1F
100
AcDbEntity
  8
0
  6
CONTINUOUS
 62
     7
100
AcDbLine
 10
832.3398779949922
 20
89.07863885712864
 30
0.0
 11
832.7574145300215
 21
81.34799471260962
 31
0.0
  0
ARC
  5
245
330
1F
100
AcDbEntity
  8
0
  6
CONTINUOUS
 62
     7
100
AcDbCircle
 10
889.767827570753
 20
82.98588038649159
 30
0.0
 40
57.03393607805367
100
AcDbArc
 50
181.6456314724904
 51
189.9543235451907
  0
LINE
  5
246
330
1F
100
AcDbEntity
  8
0
  6
CONTINUOUS
 62
     7
100
AcDbLine
 10
833.5924875999762
 20
73.12682141906696
 30
0.0
 11
833.7908185269575
 21
72.8011396085987
 31
0.0
  0
LINE
  5
247
330
1F
100
AcDbEntity
  8
0
  6
CONTINUOUS
 62
     7
100
AcDbLine
 10
839.4379990788052
 20
153.3763122093372
 30
0.0
 11
839.855535613109
 21
147.7481808028164
 31
0.0
  0
LINE
  5
248
330
1F
100
AcDbEntity
  8
0
  6
CONTINUOUS
 62
     7
100
AcDbLine
 10
839.855535613109
 20
147.7481808028164
 30
0.0
 11
840.6906086821697
 21
130.2674951188846
 31
0.0
  0
LINE
  5
249
330
1F
100
AcDbEntity
  8
0
  6
CONTINUOUS
 62
     7
100
AcDbLine
 10
840.6906086821697
 20
130.2674951188846
 30
0.0
 11
841.1081452169144
 21
119.6111713128343
 31
0.0
  0
LINE
  5
24A
330
1F
100
AcDbEntity
  8
0
  6
CONTINUOUS
 62
     7
100
AcDbLine
 10
841.1081452169144
 20
119.6111713128343
 30
0.0
 11
841.5256817517783
 21
108.6256895666167
 31
0.0
  0
ARC
  5
24B
330
1F
100
AcDbEntity
  8
0
  6
CONTINUOUS
 62
     7
100
AcDbCircle
 10
2096.506445131233
 20
151.7335401245334
 30
0.0
 40
1255.720909769445
100
AcDbArc
 50
181.9673028176332
 51
183.2283125873591
  0
LINE
  5
24C
330
1F
100
AcDbEntity
  8
0
  6
CONTINUOUS
 62
     7
100
AcDbLine
 10
842.7782913567711
 20
81.01777338555543
 30
0.0
 11
843.1958278917774
 21
75.70204730266485
 31
0.0
  0
ARC
  5
24D
330
1F
100
AcDbEntity
  8
0
  6
CONTINUOUS
 62
     7
100
AcDbCircle
 10
858.4201628466699
 20
76.75671576860019
 30
0.0
 40
15.26082240221011
100
AcDbArc
 50
183.9628439409404
 51
194.0110506213187
  0
LINE
  5
24E
330
1F
100
AcDbEntity
  8
0
  6
CONTINUOUS
 62
     7
100
AcDbLine
 10
843.6133644267209
 20
73.06193283278459
 30
0.0
 11
843.7908178118369
 21
72.801139608965
 31
0.0
  0
LINE
  5
24F
330
1F
100
AcDbEntity
  8
0
  6
CONTINUOUS
 62
     7
100
AcDbLine
 10
849.8764124398275
 20
147.4036782634503
 30
0.0
 11
850.2939489742906
 21
139.4212179116523
 31
0.0
  0
LINE
  5
250
330
1F
100
AcDbEntity
  8
0
  6
CONTINUOUS
 62
     7
100
AcDbLine
 10
850.2939489742906
 20
139.4212179116523
 30
0.0
 11
850.7114855089035
 21
129.7539673631268
 31
0.0
  0
LINE
  5
251
330
1F
100
AcDbEntity
  8
0
  6
CONTINUOUS
 62
     7
100
AcDbLine
 10
850.7114855089036
 20
129.7539673631268
 30
0.0
 11
851.9640951134825
 21
97.55897325265036
 31
0.0
  0
LINE
  5
252
330
1F
100
AcDbEntity
  8
0
  6
CONTINUOUS
 62
     7
100
AcDbLine
 10
851.9640951134825
 20
97.55897325265036
 30
0.0
 11
852.3816316484957
 21
88.2165569139508
 31
0.0
  0
ARC
  5
253
330
1F
100
AcDbEntity
  8
0
  6
CONTINUOUS
 62
     7
100
AcDbCircle
 10
1108.554148499956
 20
98.6609277010437
 30
0.0
 40
256.3853413733908
100
AcDbArc
 50
182.3347044693954
 51
185.1820128722281
  0
ARC
  5
254
330
1F
100
AcDbEntity
  8
0
  6
CONTINUOUS
 62
     7
100
AcDbCircle
 10
866.0584802861699
 20
76.36412453989635
 30
0.0
 40
12.87053356177284
100
AcDbArc
 50
183.8308888270507
 51
195.132585833885
  0
LINE
  5
255
330
1F
100
AcDbEntity
  8
0
  6
CONTINUOUS
 62
     7
100
AcDbLine
 10
853.634241253466
 20
73.00422593681951
 30
0.0
 11
853.7908164979733
 21
72.80113960934715
 31
0.0
  0
LINE
  5
256
330
1F
100
AcDbEntity
  8
0
  6
CONTINUOUS
 62
     7
100
AcDbLine
 10
859.8972892665478
 20
147.0535660981413
 30
0.0
 11
860.314825801018
 21
138.9727674716843
 31
0.0
  0
LINE
  5
257
330
1F
100
AcDbEntity
  8
0
  6
CONTINUOUS
 62
     7
100
AcDbLine
 10
860.314825801018
 20
138.9727674716843
 30
0.0
 11
861.5674354052708
 21
107.5380622854813
 31
0.0
  0
LINE
  5
258
330
1F
100
AcDbEntity
  8
0
  6
CONTINUOUS
 62
     7
100
AcDbLine
 10
861.5674354052708
 20
107.5380622854813
 30
0.0
 11
861.9849719402325
 21
97.05810975180763
 31
0.0
  0
LINE
  5
259
330
1F
100
AcDbEntity
  8
0
  6
CONTINUOUS
 62
     7
100
AcDbLine
 10
861.9849719402325
 20
97.05810975180763
 30
0.0
 11
862.402508475247
 21
87.79234030874574
 31
0.0
  0
ARC
  5
25A
330
1F
100
AcDbEntity
  8
0
  6
CONTINUOUS
 62
     7
100
AcDbCircle
 10
1102.084920033423
 20
97.56370237574033
 30
0.0
 40
239.8815080972005
100
AcDbArc
 50
182.3345390498471
 51
185.3222010999429
  0
ARC
  5
25B
330
1F
100
AcDbEntity
  8
0
  6
CONTINUOUS
 62
     7
100
AcDbCircle
 10
876.7849446944933
 20
76.44267876865392
 30
0.0
 40
13.59436907304751
100
AcDbArc
 50
184.7660612339684
 51
194.5911853281784
  0
LWPOLYLINE
  5
25C
330
1F
100
AcDbEntity
  8
0
  6
CONTINUOUS
 62
     7
100
AcDbPolyline
 90
        3
 70
     0
 43
0.0
 10
863.6290220467804
 20
73.01797881367625
 10
863.7073101470721
 20
72.85893979318156
 10
863.7908166861021
 20
72.80113960971799
  0
ARC
  5
25D
330
1F
100
AcDbEntity
  8
0
  6
CONTINUOUS
 62
     7
100
AcDbCircle
 10
247.5485812210859
 20
108.1766927696847
 30
0.0
 40
623.5431369701116
100
AcDbArc
 50
1.887947482649281
 51
4.093963410612901
  0
LINE
  5
25E
330
1F
100
AcDbEntity
  8
0
  6
CONTINUOUS
 62
     7
100
AcDbLine
 10
870.753239162373
 20
128.7192822561859
 30
0.0
 11
871.1707756971371
 21
117.9659663573684
 31
0.0
  0
LINE
  5
25F
330
1F
100
AcDbEntity
  8
0
  6
CONTINUOUS
 62
     7
100
AcDbLine
 10
871.1707756971371
 20
117.9659663573683
 30
0.0
 11
871.5883122320174
 21
106.9960764487797
 31
0.0
  0
LINE
  5
260
330
1F
100
AcDbEntity
  8
0
  6
CONTINUOUS
 62
     7
100
AcDbLine
 10
871.5883122320173
 20
106.9960764487797
 30
0.0
 11
872.4233853019971
 21
87.37277086500345
 31
0.0
  0
ARC
  5
261
330
1F
100
AcDbEntity
  8
0
  6
CONTINUOUS
 62
     7
100
AcDbCircle
 10
1096.35588293827
 20
96.49527962329248
 30
0.0
 40
224.1182359016429
100
AcDbArc
 50
182.332811906677
 51
185.4706226049885
  0
ARC
  5
262
330
1F
100
AcDbEntity
  8
0
  6
CONTINUOUS
 62
     7
100
AcDbCircle
 10
882.1060614405583
 20
75.6455346425007
 30
0.0
 40
8.862674924861253
100
AcDbArc
 50
183.3419516230759
 51
197.9756786003936
  0
LINE
  5
263
330
1F
100
AcDbEntity
  8
0
  6
CONTINUOUS
 62
     7
100
AcDbLine
 10
873.6759949069551
 20
72.91039569488053
 30
0.0
 11
873.7908182941384
 21
72.80113961009054
 31
0.0
  0
LINE
  5
264
330
1F
100
AcDbEntity
  8
0
  6
CONTINUOUS
 62
     7
100
AcDbLine
 10
891.0999999987314
 20
119.8246403714152
 30
0.0
 11
891.1825945728297
 21
117.6548759084335
 31
0.0
  0
LINE
  5
265
330
1F
100
AcDbEntity
  8
0
  6
CONTINUOUS
 62
     7
100
AcDbLine
 10
910.001673400151
 20
145.2210025026576
 30
0.0
 11
910.8367464693157
 21
126.6218947187229
 31
0.0
  0
LINE
  5
266
330
1F
100
AcDbEntity
  8
0
  6
CONTINUOUS
 62
     7
100
AcDbLine
 10
910.8367464693157
 20
126.6218947187229
 30
0.0
 11
911.2542830041035
 21
115.7651784764483
 31
0.0
  0
LINE
  5
267
330
1F
100
AcDbEntity
  8
0
  6
CONTINUOUS
 62
     7
100
AcDbLine
 10
911.2542830041035
 20
115.7651784764483
 30
0.0
 11
911.6718195390036
 21
104.8424915572967
 31
0.0
  0
ARC
  5
268
330
1F
100
AcDbEntity
  8
0
  6
CONTINUOUS
 62
     7
100
AcDbCircle
 10
1815.298754866979
 20
135.4108827509934
 30
0.0
 40
904.143829703217
100
AcDbArc
 50
181.9374944380947
 51
183.585217405487
  0
ARC
  5
269
330
1F
100
AcDbEntity
  8
0
  6
CONTINUOUS
 62
     7
100
AcDbCircle
 10
947.4231210577922
 20
80.03325298899611
 30
0.0
 40
34.51822947486089
100
AcDbArc
 50
181.9278313376183
 51
191.6855851173578
  0
LWPOLYLINE
  5
26A
330
1F
100
AcDbEntity
  8
0
  6
CONTINUOUS
 62
     7
100
AcDbPolyline
 90
        3
 70
     0
 43
0.0
 10
913.6203233689694
 20
73.04189872192644
 10
913.6899127914514
 20
72.88552295680537
 10
913.7595022139309
 20
72.80926939215175
  0
LINE
  5
26B
330
1F
100
AcDbEntity
  8
0
  6
CONTINUOUS
 62
     7
100
AcDbLine
 10
914.099999999581
 20
144.8849693331798
 30
0.0
 11
914.100000002369
 21
70.30113961158699
 31
0.0
  0
LINE
  5
26C
330
1F
100
AcDbEntity
  8
0
  6
CONTINUOUS
 62
     7
100
AcDbLine
 10
930.1000000004831
 20
83.9473343476273
 30
0.0
 11
934.1000000004831
 21
83.94733434777682
 31
0.0
  0
LINE
  5
26D
330
1F
100
AcDbEntity
  8
0
  6
CONTINUOUS
 62
     7
100
AcDbLine
 10
934.1000000018588
 20
83.94733434777268
 30
0.0
 11
934.1000000016224
 21
90.27109553704402
 31
0.0
  0
LINE
  5
26E
330
1F
100
AcDbEntity
  8
0
  6
CONTINUOUS
 62
     7
100
AcDbLine
 10
934.1000000016224
 20
90.27109553704408
 30
0.0
 11
934.10000000152
 21
93.00959562529223
 31
0.0
  0
LINE
  5
26F
330
1F
100
AcDbEntity
  8
0
  6
CONTINUOUS
 62
     7
100
AcDbLine
 10
930.0999999981765
 20
145.6549448775257
 30
0.0
 11
934.0999999981765
 21
145.6549448776752
 31
0.0
  0
LINE
  5
270
330
1F
100
AcDbEntity
  8
0
  6
CONTINUOUS
 62
     7
100
AcDbLine
 10
934.0999999998909
 20
136.5926836002878
 30
0.0
 11
934.0999999995522
 21
145.6549448776792
 31
0.0
  0
LWPOLYLINE
  5
271
330
1F
100
AcDbEntity
  8
0
  6
CONTINUOUS
 62
     7
100
AcDbPolyline
 90
        9
 70
     0
 43
0.0
 10
933.1000000009576
 20
72.66869524113612
 10
933.2950903229809
 20
72.68341457031755
 10
933.4826834333359
 20
72.72700690228152
 10
933.6555702339946
 20
72.79779700815733
 10
933.8071067821635
 20
72.89306446387556
 10
933.9314696132784
 20
73.00914819453928
 10
934.0238795334827
 20
73.14158716747926
 10
934.0807852813672
 20
73.28529182723769
 10
934.1000000009531
 20
73.43473968433011
  0
LWPOLYLINE
  5
272
330
1F
100
AcDbEntity
  8
0
  6
CONTINUOUS
 62
     7
100
AcDbPolyline
 90
        9
 70
     0
 43
0.0
 10
933.1000000004507
 20
79.44782107999154
 10
933.2950903224668
 20
79.46017206367908
 10
933.482683432816
 20
79.49675037335052
 10
933.6555702334709
 20
79.55615032507852
 10
933.8071067816385
 20
79.63608921203006
 10
933.9314696127552
 20
79.73349502760983
 10
934.0238795329648
 20
79.84462452095093
 10
934.0807852808575
 20
79.9652070479464
 10
934.1000000004552
 20
80.09060868970721
  0
LINE
  5
273
330
1F
100
AcDbEntity
  8
0
  6
CONTINUOUS
 62
     7
100
AcDbLine
 10
934.100000002003
 20
80.09060868970258
 30
0.0
 11
934.1000000022518
 21
73.43473968427996
 31
0.0
  0
LINE
  5
274
330
1F
100
AcDbEntity
  8
0
  6
CONTINUOUS
 62
     7
100
AcDbLine
 10
934.1000000004553
 20
80.0906086897072
 30
0.0
 11
934.1000000004831
 21
83.94733434777682
 31
0.0
  0
LWPOLYLINE
  5
275
330
1F
100
AcDbEntity
  8
0
  6
CONTINUOUS
 62
     7
100
AcDbPolyline
 90
        9
 70
     0
 43
0.0
 10
934.0999999978603
 20
149.5116705358115
 10
934.0807852782616
 20
149.6370721775785
 10
934.0238795303654
 20
149.757654704578
 10
933.9314696101505
 20
149.8687841979204
 10
933.8071067790269
 20
149.9661900134986
 10
933.6555702308514
 20
150.0461289004454
 10
933.4826834301881
 20
150.1055288521655
 10
933.2950903198308
 20
150.1421071618261
 10
933.0999999978076
 20
150.1544581455001
  0
LINE
  5
276
330
1F
100
AcDbEntity
  8
0
  6
CONTINUOUS
 62
     7
100
AcDbLine
 10
934.0999999981765
 20
145.6549448776752
 30
0.0
 11
934.0999999978603
 21
149.5116705358429
 31
0.0
  0
LWPOLYLINE
  5
277
330
1F
100
AcDbEntity
  8
0
  6
CONTINUOUS
 62
     7
100
AcDbPolyline
 90
        9
 70
     0
 43
0.0
 10
934.0999999978606
 20
156.1675395411226
 10
934.0807852782534
 20
156.31698739821
 10
934.0238795303517
 20
156.4606920579594
 10
933.9314696101338
 20
156.5931310308871
 10
933.8071067790098
 20
156.7092147615362
 10
933.6555702308364
 20
156.8044822172383
 10
933.482683430177
 20
156.8752723230974
 10
933.295090319825
 20
156.918864655045
 10
933.0999999978079
 20
156.933583984211
  0
LINE
  5
278
330
1F
100
AcDbEntity
  8
0
  6
CONTINUOUS
 62
     7
100
AcDbLine
 10
934.0999999991592
 20
156.1675395411281
 30
0.0
 11
934.0999999994079
 21
149.5116705358475
 31
0.0
  0
LINE
  5
279
330
1F
100
AcDbEntity
  8
0
  6
CONTINUOUS
 62
     7
100
AcDbLine
 10
774.4091824640242
 20
156.8011396063581
 30
0.0
 11
774.513566680879
 21
156.7108385103976
 31
0.0
  0
LINE
  5
27A
330
1F
100
AcDbEntity
  8
0
  6
CONTINUOUS
 62
     7
100
AcDbLine
 10
784.4091813996434
 20
156.8011396067225
 30
0.0
 11
784.5344435075816
 21
156.6711265728671
 31
0.0
  0
LINE
  5
27B
330
1F
100
AcDbEntity
  8
0
  6
CONTINUOUS
 62
     7
100
AcDbLine
 10
794.4091811262655
 20
156.8011396070909
 30
0.0
 11
794.5553203342854
 21
156.6242104428435
 31
0.0
  0
LWPOLYLINE
  5
27C
330
1F
100
AcDbEntity
  8
0
  6
CONTINUOUS
 62
     7
100
AcDbPolyline
 90
        3
 70
     0
 43
0.0
 10
-804.4091829962227
 20
156.8011396074772
 10
-804.5066077386442
 20
156.7224736757673
 10
-804.5761971609893
 20
156.5700981927654
210
0.0
220
0.0
230
-1.0
  0
ARC
  5
27D
330
1F
100
AcDbEntity
  8
0
  6
CONTINUOUS
 62
     7
100
AcDbCircle
 10
790.9943686290334
 20
153.0446417924594
 30
0.0
 40
14.03192463997399
100
AcDbArc
 50
3.903933202985343
 51
14.55122027647224
  0
LINE
  5
27E
330
1F
100
AcDbEntity
  8
0
  6
CONTINUOUS
 62
     7
100
AcDbLine
 10
814.4091815326833
 20
156.8011396078462
 30
0.0
 11
814.597073987692
 21
156.5087991332455
 31
0.0
  0
LINE
  5
27F
330
1F
100
AcDbEntity
  8
0
  6
CONTINUOUS
 62
     7
100
AcDbLine
 10
824.4091824640439
 20
156.8011396082272
 30
0.0
 11
824.5483613920492
 21
156.6406491471253
 31
0.0
  0
ARC
  5
280
330
1F
100
AcDbEntity
  8
0
  6
CONTINUOUS
 62
     7
100
AcDbCircle
 10
811.989614843702
 20
153.0709074872993
 30
0.0
 40
13.05623109413737
100
AcDbArc
 50
2.282483993294534
 51
15.86745409002066
  0
LWPOLYLINE
  5
281
330
1F
100
AcDbEntity
  8
0
  6
CONTINUOUS
 62
     7
100
AcDbPolyline
 90
        3
 70
     0
 43
0.0
 10
-834.4091833953709
 20
156.8011396085938
 10
-834.4996487964097
 20
156.7333073834413
 10
-834.5692382187543
 20
156.5889346303303
210
0.0
220
0.0
230
-1.0
  0
ARC
  5
282
330
1F
100
AcDbEntity
  8
0
  6
CONTINUOUS
 62
     7
100
AcDbCircle
 10
819.579457259545
 20
152.6728107373043
 30
0.0
 40
15.49288738584912
100
AcDbArc
 50
2.602576843255406
 51
14.64143661192599
  0
LWPOLYLINE
  5
283
330
1F
100
AcDbEntity
  8
0
  6
CONTINUOUS
 62
     7
100
AcDbPolyline
 90
        4
 70
     0
 43
0.0
 10
-844.4091839795555
 20
156.8011396089557
 10
-844.5031282675258
 20
156.7279907260566
 10
-844.5814163676639
 20
156.5554468017953
 10
-844.6597044678063
 20
156.2818927415329
210
0.0
220
0.0
230
-1.0
  0
LWPOLYLINE
  5
284
330
1F
100
AcDbEntity
  8
0
  6
CONTINUOUS
 62
     7
100
AcDbPolyline
 90
        4
 70
     0
 43
0.0
 10
-854.4091816657509
 20
156.8011396093433
 10
-854.5414024498157
 20
156.6562879580379
 10
-854.6109918721623
 20
156.4639455805408
 10
-854.6805812945124
 20
156.1919642532091
210
0.0
220
0.0
230
-1.0
  0
LWPOLYLINE
  5
285
330
1F
100
AcDbEntity
  8
0
  6
CONTINUOUS
 62
     7
100
AcDbPolyline
 90
        3
 70
     0
 43
0.0
 10
-864.4091835284187
 20
156.801139609713
 10
-864.4926898541752
 20
156.7433394262996
 10
-864.5622792765193
 20
156.6069721632174
210
0.0
220
0.0
230
-1.0
  0
ARC
  5
286
330
1F
100
AcDbEntity
  8
0
  6
CONTINUOUS
 62
     7
100
AcDbCircle
 10
844.7602676548147
 20
151.7938175596846
 30
0.0
 40
20.37857015356176
100
AcDbArc
 50
2.528665380243581
 51
13.66160631592817
  0
LWPOLYLINE
  5
287
330
1F
100
AcDbEntity
  8
0
  6
CONTINUOUS
 62
     7
100
AcDbPolyline
 90
        6
 70
     0
 43
0.0
 10
-874.4091824640235
 20
156.8011396100962
 10
-874.4439772585358
 20
156.7911029252776
 10
-874.5135666808781
 20
156.710838514136
 10
-874.5831561032236
 20
156.5504632143779
 10
-874.6527455255723
 20
156.3102835852989
 10
-874.7223349479244
 20
155.9907587331207
210
0.0
220
0.0
230
-1.0
  0
LINE
  5
288
330
1F
100
AcDbEntity
  8
0
  6
CONTINUOUS
 62
     7
100
AcDbLine
 10
913.7908098727945
 20
72.8011396115956
 30
0.0
 11
913.7595022139308
 21
72.80926939215165
 31
0.0
  0
LINE
  5
289
330
1F
100
AcDbEntity
  8
0
  6
CONTINUOUS
 62
     7
100
AcDbLine
 10
930.100000001489
 20
72.03282645138157
 30
0.0
 11
934.100000001489
 21
72.03282645153108
 31
0.0
  0
LINE
  5
28A
330
1F
100
AcDbEntity
  8
0
  6
CONTINUOUS
 62
     7
100
AcDbLine
 10
934.1000000023041
 20
72.03282645152531
 30
0.0
 11
934.1000000022556
 21
73.33066306134495
 31
0.0
  0
LINE
  5
28B
330
1F
100
AcDbEntity
  8
0
  6
CONTINUOUS
 62
     7
100
AcDbLine
 10
930.0999999982915
 20
157.5694527734519
 30
0.0
 11
934.0999999982915
 21
157.5694527736014
 31
0.0
  0
LINE
  5
28C
330
1F
100
AcDbEntity
  8
0
  6
CONTINUOUS
 62
     7
100
AcDbLine
 10
934.0999999993309
 20
151.5712728823733
 30
0.0
 11
934.099999999158
 21
156.1965904639069
 31
0.0
  0
LINE
  5
28D
330
1F
100
AcDbEntity
  8
0
  6
CONTINUOUS
 62
     7
100
AcDbLine
 10
934.0999999991581
 20
156.1965904639069
 30
0.0
 11
934.0999999991068
 21
157.5694527736072
 31
0.0
  0
LWPOLYLINE
  5
28E
330
1F
100
AcDbEntity
  8
0
  6
CONTINUOUS
 62
     7
100
AcDbPolyline
 90
        9
 70
     0
 43
0.0
 10
933.100000001603
 20
65.79578078220996
 10
933.2950903236189
 20
65.81290122273833
 10
933.4826834339668
 20
65.86360461538061
 10
933.6555702346199
 20
65.94594245719232
 10
933.8071067827848
 20
66.05675055108827
 10
933.9314696138983
 20
66.19177060416189
 10
934.0238795341043
 20
66.3458138714937
 10
934.0807852819931
 20
66.51296055670862
 10
934.1000000015867
 20
66.68678730643074
  0
LINE
  5
28F
330
1F
100
AcDbEntity
  8
0
  6
CONTINUOUS
 62
     7
100
AcDbLine
 10
934.1000000025039
 20
66.68678730642424
 30
0.0
 11
934.100000002724
 21
60.8011396123347
 31
0.0
  0
LINE
  5
290
330
1F
100
AcDbEntity
  8
0
  6
CONTINUOUS
 62
     7
100
AcDbLine
 10
934.1000000015867
 20
66.68678730643074
 30
0.0
 11
934.1000000014889
 21
72.03282645153108
 31
0.0
  0
LWPOLYLINE
  5
291
330
1F
100
AcDbEntity
  8
0
  6
CONTINUOUS
 62
     7
100
AcDbPolyline
 90
        9
 70
     0
 43
0.0
 10
934.0999999979896
 20
162.9154919186865
 10
934.0807852783971
 20
163.0893186684195
 10
934.0238795305053
 20
163.256465353644
 10
933.9314696102928
 20
163.4105086209834
 10
933.8071067791698
 20
163.5455286740613
 10
933.6555702309931
 20
163.6563367679578
 10
933.4826834303273
 20
163.7386746097658
 10
933.2950903199664
 20
163.7893780023998
 10
933.0999999979392
 20
163.8064984429156
  0
LINE
  5
292
330
1F
100
AcDbEntity
  8
0
  6
CONTINUOUS
 62
     7
100
AcDbLine
 10
934.0999999982915
 20
157.5694527736014
 30
0.0
 11
934.0999999979897
 21
162.9154919187599
 31
0.0
  0
LWPOLYLINE
  5
293
330
1F
100
AcDbEntity
  8
0
  6
CONTINUOUS
 62
     7
100
AcDbPolyline
 90
       39
 70
     0
 43
0.0
 10
934.0998953655782
 20
168.8011396123389
 10
934.0987383666102
 20
168.8368997836703
 10
934.0962995939614
 20
168.8726414163317
 10
934.092565946671
 20
168.9084106350113
 10
934.0875418735818
 20
168.94406856154
 10
934.080184420412
 20
168.9848100798399
 10
934.0711307895501
 20
169.0252813986014
 10
934.0603475236007
 20
169.0655501475647
 10
934.0478729291317
 20
169.1054035505139
 10
934.0334476715014
 20
169.1454791843336
 10
934.0172988270351
 20
169.1849755495511
 10
933.9993775410827
 20
169.2239590895525
 10
933.9797634933631
 20
169.2622079955126
 10
933.9593356760859
 20
169.2982178270178
 10
933.9373964408212
 20
169.3334111249168
 10
933.913891784108
 20
169.3678406402356
 10
933.8889283023397
 20
169.4013181828535
 10
933.8620499982715
 20
169.4343597592447
 10
933.8337366532263
 20
169.4662838950235
 10
933.8039201193276
 20
169.4971371268713
 10
933.7727490759756
 20
169.5267364221408
 10
933.7415568463534
 20
169.5539482891013
 10
933.709208830821
 20
169.5798893863254
 10
933.675636602239
 20
169.6045916090156
 10
933.6410030529913
 20
169.6279126654406
 10
933.6047070457272
 20
169.6501885023181
 10
933.5674269460653
 20
169.6709349079302
 10
933.5290830445424
 20
169.6901732391759
 10
933.4898762450516
 20
169.7077800185994
 10
933.4514434439242
 20
169.7231258454619
 10
933.4123409721517
 20
169.736890355093
 10
933.3724937353421
 20
169.7490810046907
 10
933.3321024904707
 20
169.7596175080635
 10
933.2904890483991
 20
169.7686178201702
 10
933.2484535286534
 20
169.7758497533886
 10
933.2059136929282
 20
169.7813071049468
 10
933.163099894595
 20
169.7849399331961
 10
933.131581422446
 20
169.7864342856562
 10
933.0999999986033
 20
169.7869332321084
  0
LINE
  5
294
330
1F
100
AcDbEntity
  8
0
  6
CONTINUOUS
 62
     7
100
AcDbLine
 10
934.0999999986868
 20
168.8011396123331
 30
0.0
 11
934.0999999989069
 21
162.9154919187664
 31
0.0
  0
LINE
  5
295
330
1F
100
AcDbEntity
  8
0
  6
CONTINUOUS
 62
     7
100
AcDbLine
 10
934.0999999986099
 20
164.7738668851184
 30
0.0
 11
934.3999999986099
 21
164.7738668851296
 31
0.0
  0
LINE
  5
296
330
1F
100
AcDbEntity
  8
0
  6
CONTINUOUS
 62
     7
100
AcDbLine
 10
934.0999999985842
 20
165.4647759760274
 30
0.0
 11
934.3999999985841
 21
165.4647759760386
 31
0.0
  0
LINE
  5
297
330
1F
100
AcDbEntity
  8
0
  6
CONTINUOUS
 62
     7
100
AcDbLine
 10
934.3999999986099
 20
164.7738668851296
 30
0.0
 11
934.399999998584
 21
165.4647759760386
 31
0.0
  0
LINE
  5
298
330
1F
100
AcDbEntity
  8
0
  6
CONTINUOUS
 62
     7
100
AcDbLine
 10
934.0999999989035
 20
158.3738668851038
 30
0.0
 11
934.3999999989037
 21
158.3738668851151
 31
0.0
  0
LINE
  5
299
330
1F
100
AcDbEntity
  8
0
  6
CONTINUOUS
 62
     7
100
AcDbLine
 10
934.3999999989037
 20
158.3738668851151
 30
0.0
 11
934.3999999987711
 21
164.7738668850837
 31
0.0
  0
LINE
  5
29A
330
1F
100
AcDbEntity
  8
0
  6
CONTINUOUS
 62
     7
100
AcDbLine
 10
585.6000000007137
 20
112.3011396031195
 30
0.0
 11
585.6000000007137
 21
117.3011396031191
 31
0.0
  0
LINE
  5
29B
330
1F
100
AcDbEntity
  8
0
  6
CONTINUOUS
 62
     7
100
AcDbLine
 10
585.6000000007137
 20
89.66806013631141
 30
0.0
 11
585.6000000007137
 21
112.3011396031195
 31
0.0
  0
LINE
  5
29C
330
1F
100
AcDbEntity
  8
0
  6
CONTINUOUS
 62
     7
100
AcDbLine
 10
687.6000000007137
 20
112.3098664709078
 30
0.0
 11
687.6000000007137
 21
89.6855125427487
 31
0.0
  0
LINE
  5
29D
330
1F
100
AcDbEntity
  8
0
  6
CONTINUOUS
 62
     7
100
AcDbLine
 10
687.6000000007137
 20
117.2924127353286
 30
0.0
 11
687.6000000007137
 21
112.3098664709078
 31
0.0
  0
LINE
  5
29E
330
1F
100
AcDbEntity
  8
0
  6
CONTINUOUS
 62
     7
100
AcDbLine
 10
687.6000000007137
 20
139.9167666634904
 30
0.0
 11
687.6000000007137
 21
117.2924127353286
 31
0.0
  0
LINE
  5
29F
330
1F
100
AcDbEntity
  8
0
  6
CONTINUOUS
 62
     7
100
AcDbLine
 10
585.6000000007137
 20
117.3011396031191
 30
0.0
 11
585.6000000007137
 21
139.9342190699277
 31
0.0
  0
ARC
  5
2A0
330
1F
100
AcDbEntity
  8
0
  6
CONTINUOUS
 62
     7
100
AcDbCircle
 10
612.5999623845642
 20
78.12348542827807
 30
0.0
 40
3.000037616288382
100
AcDbArc
 50
0.0005512527176279
 51
74.99944874728197
  0
LINE
  5
2A1
330
1F
100
AcDbEntity
  8
0
  6
CONTINUOUS
 62
     7
100
AcDbLine
 10
609.2294095232648
 20
82.13248982984348
 30
0.0
 11
613.3764571360211
 21
81.02129177103201
 31
0.0
  0
LWPOLYLINE
  5
2A2
330
1F
100
AcDbEntity
  8
0
  6
CONTINUOUS
 62
     7
100
AcDbPolyline
 90
       44
 70
     0
 43
0.0
 10
-608.6000000007136
 20
81.64952691669892
 10
-608.6004594526604
 20
81.67091943407192
 10
-608.6018356350205
 20
81.69229862425011
 10
-608.6041252875742
 20
81.71361022098003
 10
-608.6073251501012
 20
81.73479995800822
 10
-608.6115680446021
 20
81.75644911317323
 10
-608.6167718885296
 20
81.77792969366679
 10
-608.6229241523553
 20
81.79918242654978
 10
-608.6300123065506
 20
81.8201480388831
 10
-608.637801783002
 20
81.84023882208997
 10
-608.6464697501532
 20
81.86001956991406
 10
-608.655995622188
 20
81.87943633601081
 10
-608.6663588132906
 20
81.89843517403573
 10
-608.6779093655592
 20
81.91755179537002
 10
-608.690336191231
 20
81.9361830316509
 10
-608.7036058673301
 20
81.9542719560275
 10
-608.7176849708806
 20
81.97176164164901
 10
-608.7317734495998
 20
81.98776842297686
 10
-608.7465713058923
 20
82.00320021370413
 10
-608.7620403078669
 20
82.01801214298227
 10
-608.7781422236327
 20
82.03215933996275
 10
-608.7954023295166
 20
82.04603410332965
 10
-608.8133089757716
 20
82.05916597045044
 10
-608.8318096768259
 20
82.07151228080546
 10
-608.8508519471065
 20
82.08303037387513
 10
-608.8690774748826
 20
82.0930051313225
 10
-608.8877438024638
 20
82.1022343292424
 10
-608.906800864923
 20
82.11069091975818
 10
-608.9261985973329
 20
82.11834785499319
 10
-608.9465378051846
 20
82.12539155307488
 10
-608.9672021171939
 20
82.13156509744591
 10
-608.988130414011
 20
82.13684918817451
 10
-609.0092615762863
 20
82.1412245253289
 10
-609.0292712416674
 20
82.14449730626305
 10
-609.0494238713242
 20
82.1469592565017
 10
-609.0696659523766
 20
82.14860415551081
 10
-609.0899439719448
 20
82.14942578275632
 10
-609.1108458993999
 20
82.14940728911144
 10
-609.1317470063887
 20
82.14851449764821
 10
-609.1525885161454
 20
82.14675168241303
 10
-609.173311651905
 20
82.14412311745222
 10
-609.1921627530365
 20
82.14095892503437
 10
-609.2108765755042
 20
82.13707771056966
 10
-609.229409523265
 20
82.13248982984346
210
0.0
220
0.0
230
-1.0
  0
LINE
  5
2A3
330
1F
100
AcDbEntity
  8
0
  6
CONTINUOUS
 62
     7
100
AcDbLine
 10
608.6000000007136
 20
61.4334607060845
 30
0.0
 11
608.6000000007136
 21
81.64952691669892
 31
0.0
  0
ARC
  5
2A4
330
1F
100
AcDbEntity
  8
0
  6
CONTINUOUS
 62
     7
100
AcDbCircle
 10
609.1016092134398
 20
62.89299053560454
 30
0.0
 40
1.603694142298656
100
AcDbArc
 50
258.7580822724815
 51
274.5708160998747
  0
LWPOLYLINE
  5
2A5
330
1F
100
AcDbEntity
  8
0
  6
CONTINUOUS
 62
     7
100
AcDbPolyline
 90
        4
 70
     0
 43
0.0
 10
-608.7889658838769
 20
61.32006680874336
 10
-608.6913677168698
 20
61.34944397516748
 10
-608.6054408479384
 20
61.41171865766464
 10
-608.6000000007136
 20
61.43346070608449
210
0.0
220
0.0
230
-1.0
  0
LINE
  5
2A6
330
1F
100
AcDbEntity
  8
0
  6
CONTINUOUS
 62
     7
100
AcDbLine
 10
609.229409523265
 20
61.2943967839429
 30
0.0
 11
613.3764571360211
 21
61.62758405116584
 31
0.0
  0
LWPOLYLINE
  5
2A7
330
1F
100
AcDbEntity
  8
0
  6
CONTINUOUS
 62
     7
100
AcDbPolyline
 90
        7
 70
     0
 43
0.0
 10
-615.6000000007136
 20
62.72600786832154
 10
-615.5887659492186
 20
62.61357625984613
 10
-615.5549811849808
 20
62.50428016712068
 10
-615.4965145508115
 20
62.39590619652842
 10
-615.4140401624762
 20
62.29223920219682
 10
-615.3107511871007
 20
62.19648842611682
 10
-615.1851659447705
 20
62.10636226163984
210
0.0
220
0.0
230
-1.0
  0
ARC
  5
2A8
330
1F
100
AcDbEntity
  8
0
  6
CONTINUOUS
 62
     7
100
AcDbCircle
 10
613.1713147272549
 20
66.0583849945073
 30
0.0
 40
4.435547362771587
100
AcDbArc
 50
272.6508540165964
 51
297.0022450208157
  0
LINE
  5
2A9
330
1F
100
AcDbEntity
  8
0
  6
CONTINUOUS
 62
     7
100
AcDbLine
 10
615.6000000007136
 20
62.72600786832151
 30
0.0
 11
615.6000000007136
 21
78.12351429216477
 31
0.0
  0
LINE
  5
2AA
330
1F
100
AcDbEntity
  8
0
  6
CONTINUOUS
 62
     7
100
AcDbLine
 10
585.6000000007137
 20
60.19620147473817
 30
0.0
 11
585.6000000007137
 21
89.66806013631141
 31
0.0
  0
LINE
  5
2AB
330
1F
100
AcDbEntity
  8
0
  6
CONTINUOUS
 62
     7
100
AcDbLine
 10
687.6000000007137
 20
89.6855125427487
 30
0.0
 11
687.6000000007137
 21
61.1960491698946
 31
0.0
  0
LINE
  5
2AC
330
1F
100
AcDbEntity
  8
0
  6
CONTINUOUS
 62
     7
100
AcDbLine
 10
687.6000000007137
 20
168.4062300363445
 30
0.0
 11
687.6000000007137
 21
139.9167666634904
 31
0.0
  0
ARC
  5
2AD
330
1F
100
AcDbEntity
  8
0
  6
CONTINUOUS
 62
     7
100
AcDbCircle
 10
613.1772688083796
 20
163.697162285322
 30
0.0
 40
4.282168077232706
100
AcDbArc
 50
60.40557750739003
 51
87.33388089118074
  0
LWPOLYLINE
  5
2AE
330
1F
100
AcDbEntity
  8
0
  6
CONTINUOUS
 62
     7
100
AcDbPolyline
 90
        6
 70
     0
 43
0.0
 10
-615.2920484413029
 20
167.4206915984661
 10
-615.390739156499
 20
167.3340685012905
 10
-615.471737373389
 20
167.2414343179959
 10
-615.5339591822932
 20
167.1428850774037
 10
-615.5810750209716
 20
167.0216090515852
 10
-615.6000000007136
 20
166.8762713379175
210
0.0
220
0.0
230
-1.0
  0
LINE
  5
2AF
330
1F
100
AcDbEntity
  8
0
  6
CONTINUOUS
 62
     7
100
AcDbLine
 10
613.3764571360213
 20
167.9746951550732
 30
0.0
 11
609.229409523265
 21
168.3078824222962
 31
0.0
  0
LWPOLYLINE
  5
2B0
330
1F
100
AcDbEntity
  8
0
  6
CONTINUOUS
 62
     7
100
AcDbPolyline
 90
        3
 70
     0
 43
0.0
 10
-608.6000000007136
 20
168.1688185001546
 10
-608.6779093655592
 20
168.2470750297928
 10
-608.7781422236327
 20
168.2797133759905
210
0.0
220
0.0
230
-1.0
  0
ARC
  5
2B1
330
1F
100
AcDbEntity
  8
0
  6
CONTINUOUS
 62
     7
100
AcDbCircle
 10
609.1008610584827
 20
166.7384960685743
 30
0.0
 40
1.574642256211302
100
AcDbArc
 50
85.31735533320477
 51
101.826419857453
  0
LINE
  5
2B2
330
1F
100
AcDbEntity
  8
0
  6
CONTINUOUS
 62
     7
100
AcDbLine
 10
608.6000000007136
 20
147.9527522895401
 30
0.0
 11
608.6000000007136
 21
168.1688185001546
 31
0.0
  0
LWPOLYLINE
  5
2B3
330
1F
100
AcDbEntity
  8
0
  6
CONTINUOUS
 62
     7
100
AcDbPolyline
 90
       45
 70
     0
 43
0.0
 10
-609.229409523265
 20
147.4697893763956
 10
-609.2099745155065
 20
147.4649983091716
 10
-609.1903332757687
 20
147.4609830884584
 10
-609.1705364365154
 20
147.4577543582589
 10
-609.150634630211
 20
147.455322762576
 10
-609.130062980684
 20
147.4536587812025
 10
-609.109417259678
 20
147.4528443390244
 10
-609.0887542835836
 20
147.4528806591626
 10
-609.0681308687912
 20
147.4537689647381
 10
-609.0481451951789
 20
147.4554501569521
 10
-609.0282321649701
 20
147.457932716308
 10
-609.0084429756004
 20
147.4612081491987
 10
-608.9888288245056
 20
147.4652679620172
 10
-608.9688492261589
 20
147.4702611900418
 10
-608.9490902643806
 20
147.4760731268798
 10
-608.92960414457
 20
147.4826848090609
 10
-608.9104430721258
 20
147.4900772731147
 10
-608.8920803216254
 20
147.4980349670222
 10
-608.8740567576632
 20
147.506717686708
 10
-608.8564156568716
 20
147.5161001392586
 10
-608.8392002958825
 20
147.5261570317606
 10
-608.8219661658429
 20
147.5371857495145
 10
-608.8052080324237
 20
147.5489023434372
 10
-608.7889658838769
 20
147.5612728699087
 10
-608.7732797084544
 20
147.5742633853091
 10
-608.758209051548
 20
147.5878174416703
 10
-608.7437113664896
 20
147.60195928776
 10
-608.7298186418824
 20
147.6166507382342
 10
-608.7165628663294
 20
147.6318536077493
 10
-608.7036214418359
 20
147.6479860089736
 10
-608.6913677168698
 20
147.6646257704675
 10
-608.6798279957826
 20
147.681728437104
 10
-608.669028582926
 20
147.6992495537559
 10
-608.6588898665652
 20
147.7173370154365
 10
-608.6495155060668
 20
147.735816697681
 10
-608.6409242659398
 20
147.7546412938683
 10
-608.633134910693
 20
147.7737634973771
 10
-608.6259749811738
 20
147.7936966042004
 10
-608.6196673753901
 20
147.8139078681364
 10
-608.6142240817753
 20
147.8343454373295
 10
-608.6096570887629
 20
147.8549574599242
 10
-608.6054408479384
 20
147.8792100692364
 10
-608.6024220373455
 20
147.9036482156594
 10
-608.600606480449
 20
147.9281896916187
 10
-608.6000000007136
 20
147.9527522895401
210
0.0
220
0.0
230
-1.0
  0
LINE
  5
2B4
330
1F
100
AcDbEntity
  8
0
  6
CONTINUOUS
 62
     7
100
AcDbLine
 10
613.3764571360211
 20
148.580987435207
 30
0.0
 11
609.2294095232648
 21
147.4697893763956
 31
0.0
  0
ARC
  5
2B5
330
1F
100
AcDbEntity
  8
0
  6
CONTINUOUS
 62
     7
100
AcDbCircle
 10
612.5998885337707
 20
151.4788504456679
 30
0.0
 40
3.000111468162214
100
AcDbArc
 50
285.0016334724169
 51
359.9983665275836
  0
LINE
  5
2B6
330
1F
100
AcDbEntity
  8
0
  6
CONTINUOUS
 62
     7
100
AcDbLine
 10
615.6000000007136
 20
151.4787649140743
 30
0.0
 11
615.6000000007136
 21
166.8762713379176
 31
0.0
  0
LINE
  5
2B7
330
1F
100
AcDbEntity
  8
0
  6
CONTINUOUS
 62
     7
100
AcDbLine
 10
585.6000000007137
 20
139.9342190699277
 30
0.0
 11
585.6000000007137
 21
169.4060777315009
 31
0.0
  0
LWPOLYLINE
  5
2B8
330
1F
100
AcDbEntity
  8
0
  6
CONTINUOUS
 62
     7
100
AcDbPolyline
 90
        4
 70
     0
 43
0.0
 10
608.6000000007136
 20
65.49672774826102
 10
608.6673492410986
 20
65.41445538289001
 10
608.7645934422419
 20
65.37635404170064
 10
608.8728923149212
 20
65.35327194565781
  0
ARC
  5
2B9
330
1F
100
AcDbEntity
  8
0
  6
CONTINUOUS
 62
     7
100
AcDbCircle
 10
609.0935269143079
 20
66.87026794340817
 30
0.0
 40
1.53295677813731
100
AcDbArc
 50
261.7248233819566
 51
275.0854216544613
  0
ARC
  5
2BA
330
1F
100
AcDbEntity
  8
0
  6
CONTINUOUS
 62
     7
100
AcDbCircle
 10
613.1180346423655
 20
69.75012814988462
 30
0.0
 40
4.016479890757606
100
AcDbArc
 50
273.6889897295253
 51
301.6886171882674
  0
LWPOLYLINE
  5
2BB
330
1F
100
AcDbEntity
  8
0
  6
CONTINUOUS
 62
     7
100
AcDbPolyline
 90
        7
 70
     0
 43
0.0
 10
615.2279020206322
 20
66.33244320843873
 10
615.3664976439486
 20
66.46012920361632
 10
615.4646307441486
 20
66.58384615167168
 10
615.5304152378656
 20
66.70134796872745
 10
615.5747961071085
 20
66.82483468151545
 10
615.5972099588854
 20
66.95395677834253
 10
615.6000000007136
 20
67.0197202641725
  0
LINE
  5
2BC
330
1F
100
AcDbEntity
  8
0
  6
CONTINUOUS
 62
     7
100
AcDbLine
 10
609.229409523265
 20
65.3433454174691
 30
0.0
 11
613.3764571360213
 21
65.7419704025357
 31
0.0
  0
ARC
  5
2BD
330
1F
100
AcDbEntity
  8
0
  6
CONTINUOUS
 62
     7
100
AcDbCircle
 10
609.0936745174073
 20
162.8622128115114
 30
0.0
 40
1.403300922870538
100
AcDbArc
 50
84.44935796855131
 51
103.0426545498362
  0
LWPOLYLINE
  5
2BE
330
1F
100
AcDbEntity
  8
0
  6
CONTINUOUS
 62
     7
100
AcDbPolyline
 90
        4
 70
     0
 43
0.0
 10
608.7769826538475
 20
164.229311836339
 10
608.6723262151328
 20
164.1905180279376
 10
608.6006984696788
 20
164.1143700799972
 10
608.6000000007136
 20
164.1055514579781
  0
LINE
  5
2BF
330
1F
100
AcDbEntity
  8
0
  6
CONTINUOUS
 62
     7
100
AcDbLine
 10
613.3764571360214
 20
163.8603088037033
 30
0.0
 11
609.2294095232651
 21
164.25893378877
 31
0.0
  0
LWPOLYLINE
  5
2C0
330
1F
100
AcDbEntity
  8
0
  6
CONTINUOUS
 62
     7
100
AcDbPolyline
 90
        7
 70
     0
 43
0.0
 10
615.6000000007136
 20
162.5825589420666
 10
615.5884542084756
 20
162.7154129932865
 10
615.553644081006
 20
162.8445442063147
 10
615.4932415881668
 20
162.9725529430756
 10
615.4077717051083
 20
163.0949838205504
 10
615.3003207580136
 20
163.2080959590092
 10
615.1692638157314
 20
163.3144940645737
  0
ARC
  5
2C1
330
1F
100
AcDbEntity
  8
0
  6
CONTINUOUS
 62
     7
100
AcDbCircle
 10
613.1522806774984
 20
159.9066966021591
 30
0.0
 40
3.959962692343916
100
AcDbArc
 50
59.37985788398593
 51
86.75470795935813
  0
LINE
  5
2C2
330
1F
100
AcDbEntity
  8
0
  6
CONTINUOUS
 62
     7
100
AcDbLine
 10
759.1000000007137
 20
162.8011396031195
 30
0.0
 11
759.1000000007137
 21
114.8011396031195
 31
0.0
  0
LINE
  5
2C3
330
1F
100
AcDbEntity
  8
0
  6
CONTINUOUS
 62
     7
100
AcDbLine
 10
759.1000000007137
 20
114.8011396031195
 30
0.0
 11
759.1000000007137
 21
66.80113960311954
 31
0.0
  0
LINE
  5
2C4
330
1F
100
AcDbEntity
  8
0
  6
CONTINUOUS
 62
     7
100
AcDbLine
 10
585.6000000007137
 20
59.80113960311956
 30
0.0
 11
686.6000000007137
 21
59.80113960311956
 31
0.0
  0
LINE
  5
2C5
330
1F
100
AcDbEntity
  8
0
  6
CONTINUOUS
 62
     7
100
AcDbLine
 10
585.6000000007137
 20
59.80113960311956
 30
0.0
 11
585.6000000007137
 21
60.19620147473821
 31
0.0
  0
LWPOLYLINE
  5
2C6
330
1F
100
AcDbEntity
  8
0
  6
CONTINUOUS
 62
     7
100
AcDbPolyline
 90
       33
 70
     0
 43
0.0
 10
686.6000000007136
 20
59.80113960311955
 10
686.649067675041
 20
59.80234414691438
 10
686.6980171410432
 20
59.80595487644735
 10
686.7467304751691
 20
59.81196309315477
 10
686.7950903227297
 20
59.82035432271632
 10
686.8429801806169
 20
59.831108349925
 10
686.8902846779681
 20
59.84419926738733
 10
686.936889854106
 20
59.85959553793652
 10
686.9826834330788
 20
59.87726007060826
 10
687.027555094144
 20
59.8971503099961
 10
687.0713967375397
 20
59.91921833877119
 10
687.1141027449069
 20
59.94341099311927
 10
687.1555702337333
 20
59.969669990817
 10
687.1956993052062
 20
59.9979320716389
 10
687.2343932848773
 20
60.02812914975681
 10
687.2715589555606
 20
60.06018847776458
 10
687.3071067819002
 20
60.094032821933
 10
687.3409511260686
 20
60.12958064827253
 10
687.3730104540764
 20
60.1667463189559
 10
687.4032075321943
 20
60.20544029862712
 10
687.4314696130162
 20
60.24556937009995
 10
687.457728610714
 20
60.28703685892633
 10
687.481921265062
 20
60.32974286629356
 10
687.5039892938371
 20
60.37358450968927
 10
687.523879533225
 20
60.41845617075446
 10
687.5415440658967
 20
60.46424974972733
 10
687.5569403364459
 20
60.5108549258651
 10
687.5700312539083
 20
60.5581594232163
 10
687.5807852811168
 20
60.60604928110342
 10
687.5891765106785
 20
60.6544091286642
 10
687.5951847273859
 20
60.70312246279
 10
687.5987954569189
 20
60.75207192879214
 10
687.6000000007136
 20
60.80113960311956
  0
LINE
  5
2C7
330
1F
100
AcDbEntity
  8
0
  6
CONTINUOUS
 62
     7
100
AcDbLine
 10
687.6000000007137
 20
61.1960491698946
 30
0.0
 11
687.6000000007137
 21
60.80113960311956
 31
0.0
  0
LINE
  5
2C8
330
1F
100
AcDbEntity
  8
0
  6
CONTINUOUS
 62
     7
100
AcDbLine
 10
585.6000000007137
 20
169.8011396031195
 30
0.0
 11
686.6000000007137
 21
169.8011396031195
 31
0.0
  0
LINE
  5
2C9
330
1F
100
AcDbEntity
  8
0
  6
CONTINUOUS
 62
     7
100
AcDbLine
 10
585.6000000007137
 20
169.4060777315009
 30
0.0
 11
585.6000000007137
 21
169.8011396031195
 31
0.0
  0
ARC
  5
2CA
330
1F
100
AcDbEntity
  8
0
  6
CONTINUOUS
 62
     7
100
AcDbCircle
 10
686.6000000007137
 20
168.8011396031195
 30
0.0
 40
1.0
100
AcDbArc
 50
0.0
 51
90.00000000000159
  0
LINE
  5
2CB
330
1F
100
AcDbEntity
  8
0
  6
CONTINUOUS
 62
     7
100
AcDbLine
 10
687.6000000007137
 20
168.8011396031195
 30
0.0
 11
687.6000000007137
 21
168.4062300363445
 31
0.0
  0
LINE
  5
2CC
330
1F
100
AcDbEntity
  8
0
  6
CONTINUOUS
 62
     7
100
AcDbLine
 10
917.2627121015589
 20
57.09910026272113
 30
0.0
 11
928.1000000026958
 21
59.80113961176172
 31
0.0
  0
LINE
  5
2CD
330
1F
100
AcDbEntity
  8
0
  6
CONTINUOUS
 62
     7
100
AcDbLine
 10
917.0999999986451
 20
172.5437476426394
 30
0.0
 11
913.0488593358796
 21
173.5538104531689
 31
0.0
  0
LWPOLYLINE
  5
2CE
330
1F
100
AcDbEntity
  8
0
  6
CONTINUOUS
 62
     7
100
AcDbPolyline
 90
        8
 70
     0
 43
0.0
 10
878.1003370164675
 20
112.5768289364031
 10
878.1124493615821
 20
112.4688260753529
 10
878.1443068155073
 20
112.3725348233459
 10
878.1985600774491
 20
112.2790423374515
 10
878.2699515715644
 20
112.2000822506042
 10
878.3528881258154
 20
112.1389450758103
 10
878.4589036586933
 20
112.0905611560658
 10
878.5792673588512
 20
112.0593881127944
  0
ARC
  5
2CF
330
1F
100
AcDbEntity
  8
0
  6
CONTINUOUS
 62
     7
100
AcDbCircle
 10
880.7991600962539
 20
135.2190874139975
 30
0.0
 40
23.26584611587805
100
AcDbArc
 50
264.5248383905006
 51
270.7408858893407
  0
ARC
  5
2D0
330
1F
100
AcDbEntity
  8
0
  6
CONTINUOUS
 62
     7
100
AcDbCircle
 10
880.7793314558252
 20
95.59372675265483
 30
0.0
 40
22.05569731135443
100
AcDbArc
 50
89.16694533777883
 51
95.79946970882625
  0
LWPOLYLINE
  5
2D1
330
1F
100
AcDbEntity
  8
0
  6
CONTINUOUS
 62
     7
100
AcDbPolyline
 90
        8
 70
     0
 43
0.0
 10
878.5506674415229
 20
117.5365351554423
 10
878.4483698669675
 20
117.5067151268081
 10
878.3452662051304
 20
117.4551659570986
 10
878.2533854163586
 20
117.3826617050049
 10
878.1791838771699
 20
117.291141480928
 10
878.1327283454203
 20
117.198455877922
 10
878.1035975480185
 20
117.078530976743
 10
878.1003370163012
 20
117.0254502889251
  0
LINE
  5
2D2
330
1F
100
AcDbEntity
  8
0
  6
CONTINUOUS
 62
     7
100
AcDbLine
 10
907.7342928092296
 20
169.8011396132117
 30
0.0
 11
881.0999999986568
 21
169.8011396122161
 31
0.0
  0
LINE
  5
2D3
330
1F
100
AcDbEntity
  8
0
  6
CONTINUOUS
 62
     7
100
AcDbLine
 10
881.1000000027686
 20
59.80113961222723
 30
0.0
 11
907.7342928133414
 21
59.80113961322284
 31
0.0
  0
LINE
  5
2D4
330
1F
100
AcDbEntity
  8
0
  6
CONTINUOUS
 62
     7
100
AcDbLine
 10
881.0999999987822
 20
111.9482648040625
 30
0.0
 11
903.5999999987905
 21
111.9482648049036
 31
0.0
  0
LINE
  5
2D5
330
1F
100
AcDbEntity
  8
0
  6
CONTINUOUS
 62
     7
100
AcDbLine
 10
903.5999999985773
 20
117.6540144223835
 30
0.0
 11
881.0999999985689
 21
117.6540144215424
 31
0.0
  0
ARC
  5
2D6
330
1F
100
AcDbEntity
  8
0
  6
CONTINUOUS
 62
     7
100
AcDbCircle
 10
880.8812901686231
 20
76.98792379708085
 30
0.0
 40
2.860281373251629
100
AcDbArc
 50
194.9911939066014
 51
274.3853705778718
  0
ARC
  5
2D7
330
1F
100
AcDbEntity
  8
0
  6
CONTINUOUS
 62
     7
100
AcDbCircle
 10
880.8769445654673
 20
152.6204902788278
 30
0.0
 40
2.854500806487481
100
AcDbArc
 50
85.5182437218043
 51
165.1051918030804
  0
LINE
  5
2D8
330
1F
100
AcDbEntity
  8
0
  6
CONTINUOUS
 62
     7
100
AcDbLine
 10
881.1000000008545
 20
74.13601642375784
 30
0.0
 11
903.6000000008628
 21
74.13601642459889
 31
0.0
  0
LINE
  5
2D9
330
1F
100
AcDbEntity
  8
0
  6
CONTINUOUS
 62
     7
100
AcDbLine
 10
903.5999999978228
 20
155.4662628023124
 30
0.0
 11
881.0999999978145
 21
155.4662628014713
 31
0.0
  0
LINE
  5
2DA
330
1F
100
AcDbEntity
  8
0
  6
CONTINUOUS
 62
     7
100
AcDbLine
 10
878.1000240861077
 20
82.21037149107842
 30
0.0
 11
878.1029679127503
 21
82.1852273655082
 31
0.0
  0
LINE
  5
2DB
330
1F
100
AcDbEntity
  8
0
  6
CONTINUOUS
 62
     7
100
AcDbLine
 10
878.1029679103119
 20
147.4170518594707
 30
0.0
 11
878.1000240836711
 21
147.3919077338983
 31
0.0
  0
ARC
  5
2DC
330
1F
100
AcDbEntity
  8
0
  6
CONTINUOUS
 62
     7
100
AcDbCircle
 10
881.1000000026663
 20
62.80113961222206
 30
0.0
 40
2.999999999999697
100
AcDbArc
 50
180.0000000021987
 51
270.000000002142
  0
ARC
  5
2DD
330
1F
100
AcDbEntity
  8
0
  6
CONTINUOUS
 62
     7
100
AcDbCircle
 10
881.0999999987787
 20
166.8011396122213
 30
0.0
 40
2.999999999999697
100
AcDbArc
 50
90.00000000214209
 51
180.0000000020847
  0
LINE
  5
2DE
330
1F
100
AcDbEntity
  8
0
  6
CONTINUOUS
 62
     7
100
AcDbLine
 10
928.1000000027614
 20
59.80113961211786
 30
0.0
 11
933.1000000027614
 21
59.80113961230477
 31
0.0
  0
LINE
  5
2DF
330
1F
100
AcDbEntity
  8
0
  6
CONTINUOUS
 62
     7
100
AcDbLine
 10
768.349374452663
 20
159.3009053454885
 30
0.0
 11
767.0999999990446
 21
159.3009053459336
 31
0.0
  0
LINE
  5
2E0
330
1F
100
AcDbEntity
  8
0
  6
CONTINUOUS
 62
     7
100
AcDbLine
 10
778.350286289168
 20
159.3008263518175
 30
0.0
 11
774.8502861642396
 21
159.3008263511807
 31
0.0
  0
LINE
  5
2E1
330
1F
100
AcDbEntity
  8
0
  6
CONTINUOUS
 62
     7
100
AcDbLine
 10
788.3498853025318
 20
159.3007454036994
 30
0.0
 11
784.8498851772925
 21
159.3007454031189
 31
0.0
  0
LINE
  5
2E2
330
1F
100
AcDbEntity
  8
0
  6
CONTINUOUS
 62
     7
100
AcDbLine
 10
798.3501556631288
 20
159.3006776386765
 30
0.0
 11
794.8501555372519
 21
159.3006776381771
 31
0.0
  0
LINE
  5
2E3
330
1F
100
AcDbEntity
  8
0
  6
CONTINUOUS
 62
     7
100
AcDbLine
 10
808.3500015254893
 20
159.3006250684756
 30
0.0
 11
804.8500013996669
 21
159.3006250680856
 31
0.0
  0
LINE
  5
2E4
330
1F
100
AcDbEntity
  8
0
  6
CONTINUOUS
 62
     7
100
AcDbLine
 10
818.3493540509793
 20
159.3005879748603
 30
0.0
 11
814.8493539256411
 21
159.3005879746042
 31
0.0
  0
LINE
  5
2E5
330
1F
100
AcDbEntity
  8
0
  6
CONTINUOUS
 62
     7
100
AcDbLine
 10
828.350219285487
 20
159.3005807464437
 30
0.0
 11
824.8502191611453
 21
159.3005807463063
 31
0.0
  0
LINE
  5
2E6
330
1F
100
AcDbEntity
  8
0
  6
CONTINUOUS
 62
     7
100
AcDbLine
 10
838.350052753025
 20
159.3005922319102
 30
0.0
 11
834.8500526273555
 21
159.3005922319126
 31
0.0
  0
LINE
  5
2E7
330
1F
100
AcDbEntity
  8
0
  6
CONTINUOUS
 62
     7
100
AcDbLine
 10
848.3499213227597
 20
159.3006251733149
 30
0.0
 11
844.8499211968225
 21
159.3006251734435
 31
0.0
  0
LINE
  5
2E8
330
1F
100
AcDbEntity
  8
0
  6
CONTINUOUS
 62
     7
100
AcDbLine
 10
858.3499113906178
 20
159.3006775894453
 30
0.0
 11
854.8499112649214
 21
159.3006775896828
 31
0.0
  0
LINE
  5
2E9
330
1F
100
AcDbEntity
  8
0
  6
CONTINUOUS
 62
     7
100
AcDbLine
 10
868.3501277630075
 20
159.3007453324658
 30
0.0
 11
864.8501276373879
 21
159.3007453327867
 31
0.0
  0
LINE
  5
2EA
330
1F
100
AcDbEntity
  8
0
  6
CONTINUOUS
 62
     7
100
AcDbLine
 10
878.0999999984648
 20
159.3008259152043
 30
0.0
 11
874.8500043700591
 21
159.3008259155826
 31
0.0
  0
LINE
  5
2EB
330
1F
100
AcDbEntity
  8
0
  6
CONTINUOUS
 62
     7
100
AcDbLine
 10
908.349688548077
 20
159.3010675974676
 30
0.0
 11
907.7342928084125
 21
159.3010675975658
 31
0.0
  0
LINE
  5
2EC
330
1F
100
AcDbEntity
  8
0
  6
CONTINUOUS
 62
     7
100
AcDbLine
 10
909.8507123471818
 20
70.30118869340372
 30
0.0
 11
913.3507124725279
 21
70.30118869385096
 31
0.0
  0
LINE
  5
2ED
330
1F
100
AcDbEntity
  8
0
  6
CONTINUOUS
 62
     7
100
AcDbLine
 10
869.8499933855962
 20
70.30149434842141
 30
0.0
 11
873.3499935115531
 21
70.30149434903645
 31
0.0
  0
LINE
  5
2EE
330
1F
100
AcDbEntity
  8
0
  6
CONTINUOUS
 62
     7
100
AcDbLine
 10
859.8500977096244
 20
70.30156971638549
 30
0.0
 11
863.3500978351448
 21
70.30156971692888
 31
0.0
  0
LINE
  5
2EF
330
1F
100
AcDbEntity
  8
0
  6
CONTINUOUS
 62
     7
100
AcDbLine
 10
849.8500847162081
 20
70.30163052644112
 30
0.0
 11
853.3500848403975
 21
70.30163052688147
 31
0.0
  0
LINE
  5
2F0
330
1F
100
AcDbEntity
  8
0
  6
CONTINUOUS
 62
     7
100
AcDbLine
 10
839.8499721820237
 20
70.30167309779699
 30
0.0
 11
843.3499723078313
 21
70.3016730981258
 31
0.0
  0
LINE
  5
2F1
330
1F
100
AcDbEntity
  8
0
  6
CONTINUOUS
 62
     7
100
AcDbLine
 10
829.8500297991504
 20
70.30169527646781
 30
0.0
 11
833.3500299248915
 21
70.3016952766658
 31
0.0
  0
LINE
  5
2F2
330
1F
100
AcDbEntity
  8
0
  6
CONTINUOUS
 62
     7
100
AcDbLine
 10
819.8499999740332
 20
70.30169525248093
 30
0.0
 11
823.3500000998984
 21
70.30169525254439
 31
0.0
  0
LINE
  5
2F3
330
1F
100
AcDbEntity
  8
0
  6
CONTINUOUS
 62
     7
100
AcDbLine
 10
809.8499531388975
 20
70.30167322566881
 30
0.0
 11
813.3499532644728
 21
70.30167322560249
 31
0.0
  0
LINE
  5
2F4
330
1F
100
AcDbEntity
  8
0
  6
CONTINUOUS
 62
     7
100
AcDbLine
 10
799.8502742273738
 20
70.30163022566148
 30
0.0
 11
803.3502743520019
 21
70.30163022547256
 31
0.0
  0
LINE
  5
2F5
330
1F
100
AcDbEntity
  8
0
  6
CONTINUOUS
 62
     7
100
AcDbLine
 10
789.8493026940022
 20
70.3015758515002
 30
0.0
 11
793.3493028191302
 21
70.30157585122866
 31
0.0
  0
LINE
  5
2F6
330
1F
100
AcDbEntity
  8
0
  6
CONTINUOUS
 62
     7
100
AcDbLine
 10
779.8498612600955
 20
70.30149506814668
 30
0.0
 11
783.3498613857894
 21
70.30149506779462
 31
0.0
  0
LINE
  5
2F7
330
1F
100
AcDbEntity
  8
0
  6
CONTINUOUS
 62
     7
100
AcDbLine
 10
769.8502565357093
 20
70.30141035660542
 30
0.0
 11
773.3502566616531
 21
70.3014103562202
 31
0.0
  0
LINE
  5
2F8
330
1F
100
AcDbEntity
  8
0
  6
CONTINUOUS
 62
     7
100
AcDbLine
 10
774.5315718988558
 20
158.4134453095238
 30
0.0
 11
774.2412526048871
 21
156.800985327361
 31
0.0
  0
LINE
  5
2F9
330
1F
100
AcDbEntity
  8
0
  6
CONTINUOUS
 62
     7
100
AcDbLine
 10
784.5314128854171
 20
158.4125354007215
 30
0.0
 11
784.2412601983771
 21
156.8009852414277
 31
0.0
  0
LINE
  5
2FA
330
1F
100
AcDbEntity
  8
0
  6
CONTINUOUS
 62
     7
100
AcDbLine
 10
794.5319472495764
 20
158.4154506297456
 30
0.0
 11
794.2412712104967
 21
156.8009845561848
 31
0.0
  0
LINE
  5
2FB
330
1F
100
AcDbEntity
  8
0
  6
CONTINUOUS
 62
     7
100
AcDbLine
 10
804.5316974570649
 20
158.4139899162275
 30
0.0
 11
804.2412850334642
 21
156.8009846191878
 31
0.0
  0
LINE
  5
2FC
330
1F
100
AcDbEntity
  8
0
  6
CONTINUOUS
 62
     7
100
AcDbLine
 10
814.5315462694001
 20
158.4130672736217
 30
0.0
 11
814.2413263210076
 21
156.8011335119895
 31
0.0
  0
LINE
  5
2FD
330
1F
100
AcDbEntity
  8
0
  6
CONTINUOUS
 62
     7
100
AcDbLine
 10
824.5323551627455
 20
158.4174770497707
 30
0.0
 11
824.2413132515225
 21
156.8009837741233
 31
0.0
  0
LINE
  5
2FE
330
1F
100
AcDbEntity
  8
0
  6
CONTINUOUS
 62
     7
100
AcDbLine
 10
834.5316756133528
 20
158.4136265692782
 30
0.0
 11
834.2413257789327
 21
156.8009844080656
 31
0.0
  0
LINE
  5
2FF
330
1F
100
AcDbEntity
  8
0
  6
CONTINUOUS
 62
     7
100
AcDbLine
 10
844.5316002583966
 20
158.4131425730641
 30
0.0
 11
844.2413356527815
 21
156.8009844831398
 31
0.0
  0
LINE
  5
300
330
1F
100
AcDbEntity
  8
0
  6
CONTINUOUS
 62
     7
100
AcDbLine
 10
854.5316348426009
 20
158.4132859443688
 30
0.0
 11
854.2413423162657
 21
156.8009844301397
 31
0.0
  0
LINE
  5
301
330
1F
100
AcDbEntity
  8
0
  6
CONTINUOUS
 62
     7
100
AcDbLine
 10
864.5315446552843
 20
158.4127552841449
 30
0.0
 11
864.2413454661947
 21
156.8009845625425
 31
0.0
  0
LINE
  5
302
330
1F
100
AcDbEntity
  8
0
  6
CONTINUOUS
 62
     7
100
AcDbLine
 10
874.5314943369709
 20
158.412467574682
 30
0.0
 11
874.2413448108623
 21
156.8009846585639
 31
0.0
  0
LINE
  5
303
330
1F
100
AcDbEntity
  8
0
  6
CONTINUOUS
 62
     7
100
AcDbLine
 10
909.0721544874232
 20
73.73964785329672
 30
0.0
 11
909.5313555191431
 21
71.19044725931845
 31
0.0
  0
LINE
  5
304
330
1F
100
AcDbEntity
  8
0
  6
CONTINUOUS
 62
     7
100
AcDbLine
 10
869.0722414411463
 20
73.73935288325677
 30
0.0
 11
869.5315215488289
 21
71.1896591321993
 31
0.0
  0
LINE
  5
305
330
1F
100
AcDbEntity
  8
0
  6
CONTINUOUS
 62
     7
100
AcDbLine
 10
859.0730962935772
 20
73.73461834223556
 30
0.0
 11
859.5327008590388
 21
71.18309637079692
 31
0.0
  0
LINE
  5
306
330
1F
100
AcDbEntity
  8
0
  6
CONTINUOUS
 62
     7
100
AcDbLine
 10
849.0722509861196
 20
73.73927993373476
 30
0.0
 11
849.5315183201047
 21
71.18961886462883
 31
0.0
  0
LINE
  5
307
330
1F
100
AcDbEntity
  8
0
  6
CONTINUOUS
 62
     7
100
AcDbLine
 10
839.072405737561
 20
73.73838236918037
 30
0.0
 11
839.5316669531126
 21
71.18873514955814
 31
0.0
  0
LINE
  5
308
330
1F
100
AcDbEntity
  8
0
  6
CONTINUOUS
 62
     7
100
AcDbLine
 10
829.0724068573109
 20
73.7383201606209
 30
0.0
 11
829.5316138066472
 21
71.18895894592943
 31
0.0
  0
LINE
  5
309
330
1F
100
AcDbEntity
  8
0
  6
CONTINUOUS
 62
     7
100
AcDbLine
 10
819.072385618265
 20
73.73836915634472
 30
0.0
 11
819.531669863851
 21
71.1885665782227
 31
0.0
  0
LINE
  5
30A
330
1F
100
AcDbEntity
  8
0
  6
CONTINUOUS
 62
     7
100
AcDbLine
 10
809.0724882342708
 20
73.73772343033572
 30
0.0
 11
809.5316940708794
 21
71.18834856136098
 31
0.0
  0
LINE
  5
30B
330
1F
100
AcDbEntity
  8
0
  6
CONTINUOUS
 62
     7
100
AcDbLine
 10
799.072348840628
 20
73.73841810426082
 30
0.0
 11
799.5315363096397
 21
71.18914705179868
 31
0.0
  0
LINE
  5
30C
330
1F
100
AcDbEntity
  8
0
  6
CONTINUOUS
 62
     7
100
AcDbLine
 10
789.0723440782323
 20
73.73837160981445
 30
0.0
 11
789.531665766603
 21
71.18836229064156
 31
0.0
  0
LINE
  5
30D
330
1F
100
AcDbEntity
  8
0
  6
CONTINUOUS
 62
     7
100
AcDbLine
 10
779.0724477674356
 20
73.73773760809463
 30
0.0
 11
779.5316038030372
 21
71.18866516623191
 31
0.0
  0
LINE
  5
30E
330
1F
100
AcDbEntity
  8
0
  6
CONTINUOUS
 62
     7
100
AcDbLine
 10
769.0721846503593
 20
73.73916099708472
 30
0.0
 11
769.5313553717859
 21
71.19003887562624
 31
0.0
  0
LINE
  5
30F
330
1F
100
AcDbEntity
  8
0
  6
CONTINUOUS
 62
     7
100
AcDbLine
 10
769.1278053255448
 20
155.8627054082004
 30
0.0
 11
768.6681661023455
 21
158.4143673445227
 31
0.0
  0
LINE
  5
310
330
1F
100
AcDbEntity
  8
0
  6
CONTINUOUS
 62
     7
100
AcDbLine
 10
779.1277729911208
 20
155.8628541373623
 30
0.0
 11
778.6685129971693
 21
158.4124267974706
 31
0.0
  0
LINE
  5
311
330
1F
100
AcDbEntity
  8
0
  6
CONTINUOUS
 62
     7
100
AcDbLine
 10
789.127729911233
 20
155.8630825030008
 30
0.0
 11
788.668450756293
 21
158.4127807742487
 31
0.0
  0
LINE
  5
312
330
1F
100
AcDbEntity
  8
0
  6
CONTINUOUS
 62
     7
100
AcDbLine
 10
799.1276369670534
 20
155.8636079807747
 30
0.0
 11
798.6683328904176
 21
158.4134652501213
 31
0.0
  0
LINE
  5
313
330
1F
100
AcDbEntity
  8
0
  6
CONTINUOUS
 62
     7
100
AcDbLine
 10
809.1276604455408
 20
155.8635078958465
 30
0.0
 11
808.6684293574143
 21
158.4129779182012
 31
0.0
  0
LINE
  5
314
330
1F
100
AcDbEntity
  8
0
  6
CONTINUOUS
 62
     7
100
AcDbLine
 10
819.1275773608962
 20
155.864016707461
 30
0.0
 11
818.6683092302568
 21
158.4137108025742
 31
0.0
  0
LINE
  5
315
330
1F
100
AcDbEntity
  8
0
  6
CONTINUOUS
 62
     7
100
AcDbLine
 10
829.126819982072
 20
155.8682750251851
 30
0.0
 11
828.6672126096304
 21
158.419873084676
 31
0.0
  0
LINE
  5
316
330
1F
100
AcDbEntity
  8
0
  6
CONTINUOUS
 62
     7
100
AcDbLine
 10
839.1276808115617
 20
155.8635792766094
 30
0.0
 11
838.6684579108461
 21
158.413044016854
 31
0.0
  0
LINE
  5
317
330
1F
100
AcDbEntity
  8
0
  6
CONTINUOUS
 62
     7
100
AcDbLine
 10
849.1275102854039
 20
155.8646034077023
 30
0.0
 11
848.66827590652
 21
158.4141379585596
 31
0.0
  0
LINE
  5
318
330
1F
100
AcDbEntity
  8
0
  6
CONTINUOUS
 62
     7
100
AcDbLine
 10
859.1272963459335
 20
155.8658658428198
 30
0.0
 11
858.6684499943617
 21
158.4132431691253
 31
0.0
  0
LINE
  5
319
330
1F
100
AcDbEntity
  8
0
  6
CONTINUOUS
 62
     7
100
AcDbLine
 10
869.1277447330049
 20
155.8634467951285
 30
0.0
 11
868.6685127557154
 21
158.412948901038
 31
0.0
  0
LINE
  5
31A
330
1F
100
AcDbEntity
  8
0
  6
CONTINUOUS
 62
     7
100
AcDbLine
 10
909.1277671704464
 20
155.8633276476631
 30
0.0
 11
908.6685483496598
 21
158.4126482340883
 31
0.0
  0
LINE
  5
31B
330
1F
100
AcDbEntity
  8
0
  6
CONTINUOUS
 62
     7
100
AcDbLine
 10
913.6687080893305
 20
71.19055827005928
 30
0.0
 11
913.9587273243651
 21
72.80129373457137
 31
0.0
  0
LINE
  5
31C
330
1F
100
AcDbEntity
  8
0
  6
CONTINUOUS
 62
     7
100
AcDbLine
 10
873.6685484487011
 20
71.18951149222778
 30
0.0
 11
873.9587206706516
 21
72.80116264056744
 31
0.0
  0
LINE
  5
31D
330
1F
100
AcDbEntity
  8
0
  6
CONTINUOUS
 62
     7
100
AcDbLine
 10
863.6677457763536
 20
71.18509469671118
 30
0.0
 11
863.9587349226964
 21
72.80129492172217
 31
0.0
  0
LINE
  5
31E
330
1F
100
AcDbEntity
  8
0
  6
CONTINUOUS
 62
     7
100
AcDbLine
 10
853.6683956597593
 20
71.18876875235934
 30
0.0
 11
853.9587219087826
 21
72.80129444795392
 31
0.0
  0
LINE
  5
31F
330
1F
100
AcDbEntity
  8
0
  6
CONTINUOUS
 62
     7
100
AcDbLine
 10
843.6683772674664
 20
71.18874512549152
 30
0.0
 11
843.9587077069586
 21
72.80129454843753
 31
0.0
  0
LINE
  5
320
330
1F
100
AcDbEntity
  8
0
  6
CONTINUOUS
 62
     7
100
AcDbLine
 10
833.6682503101928
 20
71.1881228469496
 30
0.0
 11
833.9586934260101
 21
72.80129481328046
 31
0.0
  0
LINE
  5
321
330
1F
100
AcDbEntity
  8
0
  6
CONTINUOUS
 62
     7
100
AcDbLine
 10
823.6683561402092
 20
71.18879183896432
 30
0.0
 11
823.9586800912471
 21
72.80129476265965
 31
0.0
  0
LINE
  5
322
330
1F
100
AcDbEntity
  8
0
  6
CONTINUOUS
 62
     7
100
AcDbLine
 10
813.6683539373886
 20
71.18885124136959
 30
0.0
 11
813.9586689391881
 21
72.80129477482582
 31
0.0
  0
LINE
  5
323
330
1F
100
AcDbEntity
  8
0
  6
CONTINUOUS
 62
     7
100
AcDbLine
 10
803.66840894836
 20
71.18921449133089
 30
0.0
 11
803.9586605433614
 21
72.80129477368446
 31
0.0
  0
LINE
  5
324
330
1F
100
AcDbEntity
  8
0
  6
CONTINUOUS
 62
     7
100
AcDbLine
 10
793.6684446031021
 20
71.18945210641384
 30
0.0
 11
793.9588705570311
 21
72.80248731193167
 31
0.0
  0
LINE
  5
325
330
1F
100
AcDbEntity
  8
0
  6
CONTINUOUS
 62
     7
100
AcDbLine
 10
783.6684794213187
 20
71.1896644949613
 30
0.0
 11
783.9586543866197
 21
72.8012946111375
 31
0.0
  0
LINE
  5
326
330
1F
100
AcDbEntity
  8
0
  6
CONTINUOUS
 62
     7
100
AcDbLine
 10
773.6685483980182
 20
71.19004493523245
 30
0.0
 11
773.9586569259654
 21
72.80129448479644
 31
0.0
  0
LINE
  5
327
330
1F
100
AcDbEntity
  8
0
  6
CONTINUOUS
 62
     7
100
AcDbLine
 10
914.100000002369
 20
70.30113961159294
 30
0.0
 11
916.7905106065992
 21
70.30113961169351
 31
0.0
  0
LINE
  5
328
330
1F
100
AcDbEntity
  8
0
  6
CONTINUOUS
 62
     7
100
AcDbLine
 10
767.0999999991367
 20
156.8011396060849
 30
0.0
 11
759.1000000007161
 21
156.8011396057859
 31
0.0
  0
LINE
  5
329
330
1F
100
AcDbEntity
  8
0
  6
CONTINUOUS
 62
     7
100
AcDbLine
 10
774.4091824640242
 20
156.8011396063581
 30
0.0
 11
768.9586597540828
 21
156.8011396061544
 31
0.0
  0
LINE
  5
32A
330
1F
100
AcDbEntity
  8
0
  6
CONTINUOUS
 62
     7
100
AcDbLine
 10
784.4091813996434
 20
156.8011396067319
 30
0.0
 11
778.9586683036989
 21
156.8011396065282
 31
0.0
  0
LINE
  5
32B
330
1F
100
AcDbEntity
  8
0
  6
CONTINUOUS
 62
     7
100
AcDbLine
 10
794.4091811262655
 20
156.8011396071057
 30
0.0
 11
788.958654534336
 21
156.801139606902
 31
0.0
  0
LINE
  5
32C
330
1F
100
AcDbEntity
  8
0
  6
CONTINUOUS
 62
     7
100
AcDbLine
 10
804.4091829962227
 20
156.8011396074795
 30
0.0
 11
798.9586577093073
 21
156.8011396072758
 31
0.0
  0
LINE
  5
32D
330
1F
100
AcDbEntity
  8
0
  6
CONTINUOUS
 62
     7
100
AcDbLine
 10
814.4091815326833
 20
156.8011396078533
 30
0.0
 11
808.9586643190737
 21
156.8011396076496
 31
0.0
  0
LINE
  5
32E
330
1F
100
AcDbEntity
  8
0
  6
CONTINUOUS
 62
     7
100
AcDbLine
 10
824.4091824640439
 20
156.8011396082272
 30
0.0
 11
818.9586742358927
 21
156.8011396080234
 31
0.0
  0
LINE
  5
32F
330
1F
100
AcDbEntity
  8
0
  6
CONTINUOUS
 62
     7
100
AcDbLine
 10
834.4091833953709
 20
156.801139608601
 30
0.0
 11
828.9586862901111
 21
156.8011396083972
 31
0.0
  0
LINE
  5
330
330
1F
100
AcDbEntity
  8
0
  6
CONTINUOUS
 62
     7
100
AcDbLine
 10
844.4091839795555
 20
156.8011396089748
 30
0.0
 11
838.9587003349627
 21
156.801139608771
 31
0.0
  0
LINE
  5
331
330
1F
100
AcDbEntity
  8
0
  6
CONTINUOUS
 62
     7
100
AcDbLine
 10
854.4091816657509
 20
156.8011396093486
 30
0.0
 11
848.9587149958516
 21
156.8011396091448
 31
0.0
  0
LINE
  5
332
330
1F
100
AcDbEntity
  8
0
  6
CONTINUOUS
 62
     7
100
AcDbLine
 10
864.4091835284187
 20
156.8011396097224
 30
0.0
 11
858.958728646638
 21
156.8011396095186
 31
0.0
  0
LINE
  5
333
330
1F
100
AcDbEntity
  8
0
  6
CONTINUOUS
 62
     7
100
AcDbLine
 10
874.4091824640235
 20
156.8011396100962
 30
0.0
 11
868.9587398535318
 21
156.8011396098924
 31
0.0
  0
LINE
  5
334
330
1F
100
AcDbEntity
  8
0
  6
CONTINUOUS
 62
     7
100
AcDbLine
 10
913.6639637402843
 20
156.8011396115635
 30
0.0
 11
908.9587337198888
 21
156.8011396113877
 31
0.0
  0
LINE
  5
335
330
1F
100
AcDbEntity
  8
0
  6
CONTINUOUS
 62
     7
100
AcDbLine
 10
913.7908045038265
 20
72.80113961158101
 30
0.0
 11
914.1000000022755
 21
72.80113961159256
 31
0.0
  0
LINE
  5
336
330
1F
100
AcDbEntity
  8
0
  6
CONTINUOUS
 62
     7
100
AcDbLine
 10
907.7342928141841
 20
72.80113961135461
 30
0.0
 11
909.2413060372379
 21
72.80113961141095
 31
0.0
  0
LINE
  5
337
330
1F
100
AcDbEntity
  8
0
  6
CONTINUOUS
 62
     7
100
AcDbLine
 10
873.7908182941384
 20
72.8011396100858
 30
0.0
 11
878.1000000014834
 21
72.80113961024688
 31
0.0
  0
LINE
  5
338
330
1F
100
AcDbEntity
  8
0
  6
CONTINUOUS
 62
     7
100
AcDbLine
 10
863.7908166861021
 20
72.801139609712
 30
0.0
 11
869.2413456174957
 21
72.80113960991572
 31
0.0
  0
LINE
  5
339
330
1F
100
AcDbEntity
  8
0
  6
CONTINUOUS
 62
     7
100
AcDbLine
 10
853.7908164979733
 20
72.80113960933818
 30
0.0
 11
859.2413447835498
 21
72.80113960954192
 31
0.0
  0
LINE
  5
33A
330
1F
100
AcDbEntity
  8
0
  6
CONTINUOUS
 62
     7
100
AcDbLine
 10
843.7908178118369
 20
72.80113960896438
 30
0.0
 11
849.2413395121082
 21
72.80113960916812
 31
0.0
  0
LINE
  5
33B
330
1F
100
AcDbEntity
  8
0
  6
CONTINUOUS
 62
     7
100
AcDbLine
 10
833.7908185269575
 20
72.80113960859057
 30
0.0
 11
839.2413310520451
 21
72.80113960879432
 31
0.0
  0
LINE
  5
33C
330
1F
100
AcDbEntity
  8
0
  6
CONTINUOUS
 62
     7
100
AcDbLine
 10
823.7908165478677
 20
72.80113960821677
 30
0.0
 11
829.2413067443935
 21
72.80113960842051
 31
0.0
  0
LINE
  5
33D
330
1F
100
AcDbEntity
  8
0
  6
CONTINUOUS
 62
     7
100
AcDbLine
 10
813.7908172630075
 20
72.80113960784296
 30
0.0
 11
819.2413066496799
 21
72.8011396080467
 31
0.0
  0
LINE
  5
33E
330
1F
100
AcDbEntity
  8
0
  6
CONTINUOUS
 62
     7
100
AcDbLine
 10
803.7908185768616
 20
72.80113960746915
 30
0.0
 11
809.2412922425602
 21
72.8011396076729
 31
0.0
  0
LINE
  5
33F
330
1F
100
AcDbEntity
  8
0
  6
CONTINUOUS
 62
     7
100
AcDbLine
 10
793.7908183887084
 20
72.80113960709537
 30
0.0
 11
799.2412781506368
 21
72.8011396072991
 31
0.0
  0
LINE
  5
340
330
1F
100
AcDbEntity
  8
0
  6
CONTINUOUS
 62
     7
100
AcDbLine
 10
783.7908167807028
 20
72.80113960672155
 30
0.0
 11
789.2412653116814
 21
72.80113960692529
 31
0.0
  0
LINE
  5
341
330
1F
100
AcDbEntity
  8
0
  6
CONTINUOUS
 62
     7
100
AcDbLine
 10
773.7908190529398
 20
72.80113960634773
 30
0.0
 11
779.2412556579002
 21
72.80113960655147
 31
0.0
  0
LINE
  5
342
330
1F
100
AcDbEntity
  8
0
  6
CONTINUOUS
 62
     7
100
AcDbLine
 10
759.1000000007161
 20
72.8011396057986
 30
0.0
 11
769.2412511579427
 21
72.80113960617767
 31
0.0
  0
ARC
  5
343
330
1F
100
AcDbEntity
  8
0
  6
CONTINUOUS
 62
     7
100
AcDbCircle
 10
933.100000002724
 20
60.80113961231241
 30
0.0
 40
1.000000000000001
100
AcDbArc
 50
270.000000002142
 51
0.0000000016951844
  0
ARC
  5
344
330
1F
100
AcDbEntity
  8
0
  6
CONTINUOUS
 62
     7
100
AcDbCircle
 10
688.6000000007137
 20
65.80113960311954
 30
0.0
 40
1.000000000000001
100
AcDbArc
 50
90.00000000000006
 51
180.0000000000004
  0
ARC
  5
345
330
1F
100
AcDbEntity
  8
0
  6
CONTINUOUS
 62
     7
100
AcDbCircle
 10
688.6000000007137
 20
163.8011396031195
 30
0.0
 40
1.000000000000001
100
AcDbArc
 50
179.9999999999995
 51
270.0
  0
LINE
  5
346
330
1F
100
AcDbEntity
  8
0
  6
CONTINUOUS
 62
     7
100
AcDbLine
 10
759.1000000007137
 20
162.8011396031195
 30
0.0
 11
688.6000000007137
 21
162.8011396031195
 31
0.0
  0
LINE
  5
347
330
1F
100
AcDbEntity
  8
0
  6
CONTINUOUS
 62
     7
100
AcDbLine
 10
688.6000000007137
 20
66.80113960311954
 30
0.0
 11
759.1000000007137
 21
66.80113960311954
 31
0.0
  0
POINT
  5
348
330
1F
100
AcDbEntity
  8
0
 62
     1
100
AcDbPoint
 10
1035.0
 20
115.0
 30
0.0
  0
POINT
  5
349
330
1F
100
AcDbEntity
  8
0
 62
     1
100
AcDbPoint
 10
760.0
 20
115.0
 30
0.0
  0
POINT
  5
34A
330
1F
100
AcDbEntity
  8
0
 62
     1
100
AcDbPoint
 10
475.0
 20
115.0
 30
0.0
  0
POINT
  5
34B
330
1F
100
AcDbEntity
  8
0
 62
     1
100
AcDbPoint
 10
1035.0
 20
115.0
 30
0.0
  0
POINT
  5
34C
330
1F
100
AcDbEntity
  8
0
 62
     1
100
AcDbPoint
 10
475.0
 20
115.0
 30
0.0
  0
LINE
  5
34D
330
1F
100
AcDbEntity
  8
0
  6
CENTER
 62
     1
100
AcDbLine
 10
582.6000000007136
 20
115.0
 30
0.0
 11
937.3999999991946
 21
115.0
 31
0.0
  0
LINE
  5
34F
330
1F
100
AcDbEntity
  8
0
  6
CENTER
 62
     1
100
AcDbLine
 10
973.7694918844569
 20
115.0
 30
0.0
 11
1096.220438495175
 21
115.0
 31
0.0
  0
LINE
  5
350
330
1F
100
AcDbEntity
  8
0
  6
CENTER
 62
     1
100
AcDbLine
 10
413.7901286578151
 20
115.0
 30
0.0
 11
536.2309963579626
 21
115.0
 31
0.0
  0
LINE
  5
351
330
1F
100
AcDbEntity
  8
0
  6
CENTER
 62
     1
100
AcDbLine
 10
475.0
 20
54.09843286115397
 30
0.0
 11
475.0
 21
176.5535801366493
 31
0.0
  0
LINE
  5
352
330
1F
100
AcDbEntity
  8
0
  6
CENTER
 62
     1
100
AcDbLine
 10
1035.0
 20
54.09698642934
 30
0.0
 11
1035.0
 21
176.5479330400577
 31
0.0
  0
ENDSEC
  0
SECTION
  2
OBJECTS
  0
DICTIONARY
  5
C
330
0
100
AcDbDictionary
  3
ACAD_GROUP
350
D
  3
ACAD_LAYOUT
350
1A
  3
ACAD_MATERIAL
350
43
  3
ACAD_MLEADERSTYLE
350
6B
  3
ACAD_MLINESTYLE
350
17
  3
ACAD_PLOTSETTINGS
350
19
  3
ACAD_SCALELIST
350
47
  3
ACAD_VISUALSTYLE
350
2A
  3
ACDBHEADERROUNDTRIPXREC
350
353
  3
ACDBVARIABLEDICTIONARY
350
374
  0
DICTIONARY
  5
37B
330
8
100
AcDbDictionary
280
     1
  3
ACAD_XREC_ROUNDTRIP
360
37C
  0
DICTIONARY
  5
D
102
{ACAD_REACTORS
330
C
102
}
330
C
100
AcDbDictionary
  0
DICTIONARY
  5
1A
102
{ACAD_REACTORS
330
C
102
}
330
C
100
AcDbDictionary
  0
DICTIONARY
  5
43
102
{ACAD_REACTORS
330
C
102
}
330
C
100
AcDbDictionary
  3
BYBLOCK
350
45
  3
BYLAYER
350
44
  3
GLOBAL
350
46
  0
DICTIONARY
  5
6B
102
{ACAD_REACTORS
330
C
102
}
330
C
100
AcDbDictionary
  3
STANDARD
350
6C
  0
DICTIONARY
  5
17
102
{ACAD_REACTORS
330
C
102
}
330
C
100
AcDbDictionary
  3
STANDARD
350
18
  0
DICTIONARY
  5
19
102
{ACAD_REACTORS
330
C
102
}
330
C
100
AcDbDictionary
  0
DICTIONARY
  5
47
102
{ACAD_REACTORS
330
C
102
}
330
C
100
AcDbDictionary
  3
A0
350
48
  3
A1
350
49
  3
A2
350
4A
  3
A3
350
4B
  3
A4
350
4C
  3
A5
350
4D
  3
A6
350
4E
  3
A7
350
4F
  3
A8
350
50
  3
A9
350
51
  3
B0
350
52
  3
B1
350
53
  3
B2
350
54
  3
B3
350
55
  3
B4
350
56
  3
B5
350
57
  3
B6
350
58
  3
B7
350
59
  3
B8
350
5A
  3
B9
350
5B
  3
C0
350
5C
  3
C1
350
5D
  3
C2
350
5E
  3
C3
350
5F
  3
C4
350
60
  3
C5
350
61
  3
C6
350
62
  3
C7
350
63
  3
C8
350
64
  3
C9
350
65
  3
D0
350
66
  3
D1
350
67
  3
D2
350
68
  0
DICTIONARY
  5
2A
102
{ACAD_REACTORS
330
C
102
}
330
C
100
AcDbDictionary
  3
2DWIREFRAME
350
2F
  3
BASIC
350
32
  3
BRIGHTEN
350
36
  3
COLORCHANGE
350
3A
  3
CONCEPTUAL
350
34
  3
DIM
350
35
  3
EDGECOLOROFF
350
3D
  3
FACEPATTERN
350
39
  3
FLAT
350
2B
  3
FLATWITHEDGES
350
2C
  3
GOURAUD
350
2D
  3
GOURAUDWITHEDGES
350
2E
  3
HIDDEN
350
31
  3
JITTEROFF
350
3B
  3
LINEPATTERN
350
38
  3
OVERHANGOFF
350
3C
  3
REALISTIC
350
33
  3
SHADED
350
42
  3
SHADED_WITH_EDGES
350
41
  3
SHADES_OF_GRAY
350
3E
  3
SKETCHY
350
3F
  3
THICKEN
350
37
  3
WIREFRAME
350
30
  3
X-RAY
350
40
  0
DICTIONARY
  5
353
102
{ACAD_REACTORS
330
C
102
}
330
C
100
AcDbDictionary
  3
CEPSNID
350
35D
  3
CEPSNTYPE
350
35C
  3
DIMSTYLEDATA
350
373
  3
FINGERPRINTGUID
350
35E
  3
HYPERLINKBASE
350
356
  3
INSUNITS
350
35B
  3
LAYOUTDICT
350
358
  3
LWETCUNION
350
35A
  3
PLOTSETDICT
350
359
  3
PSVPSCALE
350
360
  3
PUCSBASE
350
363
  3
PUCSORGBACK
350
369
  3
PUCSORGBOTTOM
350
365
  3
PUCSORGFRONT
350
368
  3
PUCSORGLEFT
350
366
  3
PUCSORGRIGHT
350
367
  3
PUCSORGTOP
350
364
  3
PUCSORTHOREF
350
361
  3
PUCSORTHOVIEW
350
362
  3
STYLESHEET
350
357
  3
TSTACKALIGN
350
354
  3
TSTACKSIZE
350
355
  3
UCSBASE
350
36C
  3
UCSORGBACK
350
372
  3
UCSORGBOTTOM
350
36E
  3
UCSORGFRONT
350
371
  3
UCSORGLEFT
350
36F
  3
UCSORGRIGHT
350
370
  3
UCSORGTOP
350
36D
  3
UCSORTHOREF
350
36A
  3
UCSORTHOVIEW
350
36B
  3
VERSIONGUID
350
35F
  0
DICTIONARY
  5
374
102
{ACAD_REACTORS
330
C
102
}
330
C
100
AcDbDictionary
  3
CANNOSCALE
350
37D
  3
CMLEADERSTYLE
350
376
  3
CTABLESTYLE
350
375
  3
DIMASSOC
350
379
  3
HIDETEXT
350
37A
  3
MSLTSCALE
350
37E
  0
XRECORD
  5
37C
102
{ACAD_REACTORS
330
37B
102
}
330
37B
100
AcDbXrecord
102
VTR_0.000_0.000_1.000_1.000_VISUALSTYLE
340
2F
102
VTR_0.000_0.000_1.000_1.000_GRIDDISPLAY
 70
     3
102
VTR_0.000_0.000_1.000_1.000_GRIDMAJOR
 70
     5
102
VTR_0.000_0.000_1.000_1.000_DEFAULTLIGHTING
280
     1
102
VTR_0.000_0.000_1.000_1.000_DEFAULTLIGHTINGTYPE
 70
     1
102
VTR_0.000_0.000_1.000_1.000_BRIGHTNESS
141
0.0
102
VTR_0.000_0.000_1.000_1.000_CONTRAST
142
0.0
  0
MATERIAL
  5
45
102
{ACAD_REACTORS
330
43
102
}
102
{ACAD_XDICTIONARY
360
381
102
}
330
43
100
AcDbMaterial
  1
BYBLOCK
  0
MATERIAL
  5
44
102
{ACAD_REACTORS
330
43
102
}
102
{ACAD_XDICTIONARY
360
37F
102
}
330
43
100
AcDbMaterial
  1
BYLAYER
  0
MATERIAL
  5
46
102
{ACAD_REACTORS
330
43
102
}
102
{ACAD_XDICTIONARY
360
383
102
}
330
43
100
AcDbMaterial
  1
GLOBAL
  0
ACAD_PROXY_OBJECT
  5
6C
102
{ACAD_REACTORS
330
6B
102
}
330
6B
100
AcDbProxyObject
 90
      499
 91
      505
 93
      610
310
40901902A4063FBFFFFFE056BD1B81E855B9FC0AD7A3703D0AD73F4214DD185B99185C9900AD7A3703D0AC73F90141901A02B5E8DC0F42B1CFC02B5E8DC0F42B1CFE5764000000000000300FC0
340
14
340
0
340
11
340
0
 94
        0
1001
ACAD_MLEADERVER
1070
     2
  0
MLINESTYLE
  5
18
102
{ACAD_REACTORS
330
17
102
}
330
17
100
AcDbMlineStyle
  2
Standard
 70
     0
  3

 62
   256
 51
90.0
 52
90.0
 71
     2
 49
0.5
 62
   256
  6
BYLAYER
 49
-0.5
 62
   256
  6
BYLAYER
  0
ACAD_PROXY_OBJECT
  5
48
102
{ACAD_REACTORS
330
47
102
}
330
47
100
AcDbProxyObject
 90
      499
 91
      503
 93
       41
310
903313A31580
  0
ACAD_PROXY_OBJECT
  5
49
102
{ACAD_REACTORS
330
47
102
}
330
47
100
AcDbProxyObject
 90
      499
 91
      503
 93
      105
310
903313A324000000000000004000
  0
ACAD_PROXY_OBJECT
  5
4A
102
{ACAD_REACTORS
330
47
102
}
330
47
100
AcDbProxyObject
 90
      499
 91
      503
 93
      105
310
903313A344000000000000104000
  0
ACAD_PROXY_OBJECT
  5
4B
102
{ACAD_REACTORS
330
47
102
}
330
47
100
AcDbProxyObject
 90
      499
 91
      503
 93
      105
310
903313A354000000000000144000
  0
ACAD_PROXY_OBJECT
  5
4C
102
{ACAD_REACTORS
330
47
102
}
330
47
100
AcDbProxyObject
 90
      499
 91
      503
 93
      105
310
903313A384000000000000204000
  0
ACAD_PROXY_OBJECT
  5
4D
102
{ACAD_REACTORS
330
47
102
}
330
47
100
AcDbProxyObject
 90
      499
 91
      503
 93
      113
310
904313A31304000000000000244000
  0
ACAD_PROXY_OBJECT
  5
4E
102
{ACAD_REACTORS
330
47
102
}
330
47
100
AcDbProxyObject
 90
      499
 91
      503
 93
      113
310
904313A31364000000000000304000
  0
ACAD_PROXY_OBJECT
  5
4F
102
{ACAD_REACTORS
330
47
102
}
330
47
100
AcDbProxyObject
 90
      499
 91
      503
 93
      113
310
904313A32304000000000000344000
  0
ACAD_PROXY_OBJECT
  5
50
102
{ACAD_REACTORS
330
47
102
}
330
47
100
AcDbProxyObject
 90
      499
 91
      503
 93
      113
310
904313A333040000000000003E4000
  0
ACAD_PROXY_OBJECT
  5
51
102
{ACAD_REACTORS
330
47
102
}
330
47
100
AcDbProxyObject
 90
      499
 91
      503
 93
      113
310
904313A34304000000000000444000
  0
ACAD_PROXY_OBJECT
  5
52
102
{ACAD_REACTORS
330
47
102
}
330
47
100
AcDbProxyObject
 90
      499
 91
      503
 93
      113
310
904313A35304000000000000494000
  0
ACAD_PROXY_OBJECT
  5
53
102
{ACAD_REACTORS
330
47
102
}
330
47
100
AcDbProxyObject
 90
      499
 91
      503
 93
      121
310
905313A3130304000000000000594000
  0
ACAD_PROXY_OBJECT
  5
54
102
{ACAD_REACTORS
330
47
102
}
330
47
100
AcDbProxyObject
 90
      499
 91
      503
 93
      105
310
903323A310000000000000010100
  0
ACAD_PROXY_OBJECT
  5
55
102
{ACAD_REACTORS
330
47
102
}
330
47
100
AcDbProxyObject
 90
      499
 91
      503
 93
      105
310
903343A310000000000000410100
  0
ACAD_PROXY_OBJECT
  5
56
102
{ACAD_REACTORS
330
47
102
}
330
47
100
AcDbProxyObject
 90
      499
 91
      503
 93
      105
310
903383A310000000000000810100
  0
ACAD_PROXY_OBJECT
  5
57
102
{ACAD_REACTORS
330
47
102
}
330
47
100
AcDbProxyObject
 90
      499
 91
      503
 93
      113
310
90431303A310000000000000910100
  0
ACAD_PROXY_OBJECT
  5
58
102
{ACAD_REACTORS
330
47
102
}
330
47
100
AcDbProxyObject
 90
      499
 91
      503
 93
      121
310
9053130303A310000000000001650100
  0
ACAD_PROXY_OBJECT
  5
59
102
{ACAD_REACTORS
330
47
102
}
330
47
100
AcDbProxyObject
 90
      499
 91
      503
 93
      257
310
90E312F31323822203D2031272D3022000000000000200FC000000000000284000
  0
ACAD_PROXY_OBJECT
  5
5A
102
{ACAD_REACTORS
330
47
102
}
330
47
100
AcDbProxyObject
 90
      499
 91
      503
 93
      249
310
90D312F363422203D2031272D3022000000000000240FC000000000000284000
  0
ACAD_PROXY_OBJECT
  5
5B
102
{ACAD_REACTORS
330
47
102
}
330
47
100
AcDbProxyObject
 90
      499
 91
      503
 93
      249
310
90D312F333222203D2031272D3022000000000000280FC000000000000284000
  0
ACAD_PROXY_OBJECT
  5
5C
102
{ACAD_REACTORS
330
47
102
}
330
47
100
AcDbProxyObject
 90
      499
 91
      503
 93
      249
310
90D312F313622203D2031272D30220000000000002C0FC000000000000284000
  0
ACAD_PROXY_OBJECT
  5
5D
102
{ACAD_REACTORS
330
47
102
}
330
47
100
AcDbProxyObject
 90
      499
 91
      503
 93
      249
310
90D332F333222203D2031272D30220000000000002E0FC000000000000284000
  0
ACAD_PROXY_OBJECT
  5
5E
102
{ACAD_REACTORS
330
47
102
}
330
47
100
AcDbProxyObject
 90
      499
 91
      503
 93
      241
310
90C312F3822203D2031272D3022000000000000300FC000000000000284000
  0
ACAD_PROXY_OBJECT
  5
5F
102
{ACAD_REACTORS
330
47
102
}
330
47
100
AcDbProxyObject
 90
      499
 91
      503
 93
      249
310
90D332F313622203D2031272D3022000000000000320FC000000000000284000
  0
ACAD_PROXY_OBJECT
  5
60
102
{ACAD_REACTORS
330
47
102
}
330
47
100
AcDbProxyObject
 90
      499
 91
      503
 93
      241
310
90C312F3422203D2031272D3022000000000000340FC000000000000284000
  0
ACAD_PROXY_OBJECT
  5
61
102
{ACAD_REACTORS
330
47
102
}
330
47
100
AcDbProxyObject
 90
      499
 91
      503
 93
      241
310
90C332F3822203D2031272D3022000000000000360FC000000000000284000
  0
ACAD_PROXY_OBJECT
  5
62
102
{ACAD_REACTORS
330
47
102
}
330
47
100
AcDbProxyObject
 90
      499
 91
      503
 93
      241
310
90C312F3222203D2031272D3022000000000000380FC000000000000284000
  0
ACAD_PROXY_OBJECT
  5
63
102
{ACAD_REACTORS
330
47
102
}
330
47
100
AcDbProxyObject
 90
      499
 91
      503
 93
      241
310
90C332F3422203D2031272D30220000000000003A0FC000000000000284000
  0
ACAD_PROXY_OBJECT
  5
64
102
{ACAD_REACTORS
330
47
102
}
330
47
100
AcDbProxyObject
 90
      499
 91
      503
 93
      161
310
90A3122203D2031272D30224000000000000284000
  0
ACAD_PROXY_OBJECT
  5
65
102
{ACAD_REACTORS
330
47
102
}
330
47
100
AcDbProxyObject
 90
      499
 91
      503
 93
      257
310
90E312D312F3222203D2031272D30220000000000003E0FC000000000000284000
  0
ACAD_PROXY_OBJECT
  5
66
102
{ACAD_REACTORS
330
47
102
}
330
47
100
AcDbProxyObject
 90
      499
 91
      503
 93
      225
310
90A3322203D2031272D302200000000000002100000000000000284000
  0
ACAD_PROXY_OBJECT
  5
67
102
{ACAD_REACTORS
330
47
102
}
330
47
100
AcDbProxyObject
 90
      499
 91
      503
 93
      225
310
90A3622203D2031272D302200000000000006100000000000000284000
  0
ACAD_PROXY_OBJECT
  5
68
102
{ACAD_REACTORS
330
47
102
}
330
47
100
AcDbProxyObject
 90
      499
 91
      503
 93
      249
310
90D31272D3022203D2031272D30220000000000000A100000000000000284000
  0
ACAD_PROXY_OBJECT
  5
2F
102
{ACAD_REACTORS
330
2A
102
}
330
2A
100
AcDbProxyObject
 90
      499
 91
      501
 93
      436
310
42CC9915DA5C99599C985B595049028333333333333E33F0000000000000F90107901411070040501600405405064090741402480A0340
1001
ACAD
1000
AcDbSavedByObjectVersion
1070
     0
  0
ACAD_PROXY_OBJECT
  5
32
102
{ACAD_REACTORS
330
2A
102
}
330
2A
100
AcDbProxyObject
 90
      499
 91
      501
 93
      388
310
4150985CDA58D07406404333333333333E33F0000000000000F90107A41107004050150841D405064090741402480A0350
1001
ACAD
1000
AcDbSavedByObjectVersion
1070
     0
  0
ACAD_PROXY_OBJECT
  5
36
102
{ACAD_REACTORS
330
2A
102
}
330
2A
100
AcDbProxyObject
 90
      499
 91
      501
 93
      428
310
42109C9A59DA1D195B90C409028333333333333E33F0000000000000F9010790141107004050150841D405064090741402480A029950
1001
ACAD
1000
AcDbSavedByObjectVersion
1070
     0
  0
ACAD_PROXY_OBJECT
  5
3A
102
{ACAD_REACTORS
330
2A
102
}
330
2A
100
AcDbProxyObject
 90
      499
 91
      501
 93
      452
310
42D0DBDB1BDC90DA185B99D95104090240C333333333333E33F0000000000000F90108901411070040501508421405064090741402480A0350
1001
ACAD
1000
AcDbSavedByObjectVersion
1070
     0
  0
ACAD_PROXY_OBJECT
  5
34
102
{ACAD_REACTORS
330
2A
102
}
330
2A
100
AcDbProxyObject
 90
      499
 91
      501
 93
      500
310
4290DBDB98D95C1D1D585B10940D028333333333333E33F0000000000000F90107902409070040501000000000018199010841D405064090740C02480A0340
1001
ACAD
1000
AcDbSavedByObjectVersion
1070
     0
  0
ACAD_PROXY_OBJECT
  5
35
102
{ACAD_REACTORS
330
2A
102
}
330
2A
100
AcDbProxyObject
 90
      499
 91
      501
 93
      412
310
40D11A5B50B409028333333333333E33F0000000000000F9010790141107004050150841D405064090741402480A02677FFFFFD0
1001
ACAD
1000
AcDbSavedByObjectVersion
1070
     0
  0
ACAD_PROXY_OBJECT
  5
3D
102
{ACAD_REACTORS
330
2A
102
}
330
2A
100
AcDbProxyObject
 90
      499
 91
      501
 93
      452
310
43115919D950DBDB1BDC93D999916409028333333333333E33F0000000000000F9010790141107004050150841D405064090741402480A0350
1001
ACAD
1000
AcDbSavedByObjectVersion
1070
     0
  0
ACAD_PROXY_OBJECT
  5
39
102
{ACAD_REACTORS
330
2A
102
}
330
2A
100
AcDbProxyObject
 90
      499
 91
      501
 93
      444
310
42D19858D95C185D1D195C9B90F409028333333333333E33F0000000000000F9010790141107004050150841D405064090741402480A0350
1001
ACAD
1000
AcDbSavedByObjectVersion
1070
     0
  0
ACAD_PROXY_OBJECT
  5
2B
102
{ACAD_REACTORS
330
2A
102
}
330
2A
100
AcDbProxyObject
 90
      499
 91
      501
 93
      380
310
41119B185D240901404333333333333E33F0000000000000F9010740A907004050150841D405064090741402480A1B50
1001
ACAD
1000
AcDbSavedByObjectVersion
1070
     0
  0
ACAD_PROXY_OBJECT
  5
2C
102
{ACAD_REACTORS
330
2A
102
}
330
2A
100
AcDbProxyObject
 90
      499
 91
      501
 93
      468
310
43519B185D15DA5D1A115919D95CD0140901404333333333333E33F0000000000000F90107409019070040501600405405064090741402480A1B50
1001
ACAD
1000
AcDbSavedByObjectVersion
1070
     0
  0
ACAD_PROXY_OBJECT
  5
2D
102
{ACAD_REACTORS
330
2A
102
}
330
2A
100
AcDbProxyObject
 90
      499
 91
      501
 93
      404
310
41D1DBDD5C985D5910240902404333333333333E33F0000000000000F9010740A9070040501641D405064090741402480A1B50
1001
ACAD
1000
AcDbSavedByObjectVersion
1070
     0
  0
ACAD_PROXY_OBJECT
  5
2E
102
{ACAD_REACTORS
330
2A
102
}
330
2A
100
AcDbProxyObject
 90
      499
 91
      501
 93
      492
310
4411DBDD5C985D5915DA5D1A115919D95CD0340902404333333333333E33F0000000000000F90107409019070040501600405405064090741402480A1B50
1001
ACAD
1000
AcDbSavedByObjectVersion
1070
     0
  0
ACAD_PROXY_OBJECT
  5
31
102
{ACAD_REACTORS
330
2A
102
}
330
2A
100
AcDbProxyObject
 90
      499
 91
      501
 93
      476
310
41921A5919195B90640502408333333333333E33F0000000000000F901079024090700405020000000000001110200405405064090740C02480A0340
1001
ACAD
1000
AcDbSavedByObjectVersion
1070
     0
  0
ACAD_PROXY_OBJECT
  5
3B
102
{ACAD_REACTORS
330
2A
102
}
330
2A
100
AcDbProxyObject
 90
      499
 91
      501
 93
      428
310
42529A5D1D195C93D999914409028333333333333E33F0000000000000F9010790141107004050150A41D405064090741402480A0350
1001
ACAD
1000
AcDbSavedByObjectVersion
1070
     0
  0
ACAD_PROXY_OBJECT
  5
38
102
{ACAD_REACTORS
330
2A
102
}
330
2A
100
AcDbProxyObject
 90
      499
 91
      501
 93
      444
310
42D31A5B995C185D1D195C9B90E409028333333333333E33F0000000000000F9010790141107004050750841D405064090741402483A0350
1001
ACAD
1000
AcDbSavedByObjectVersion
1070
     0
  0
ACAD_PROXY_OBJECT
  5
3C
102
{ACAD_REACTORS
330
2A
102
}
330
2A
100
AcDbProxyObject
 90
      499
 91
      501
 93
      444
310
42D3DD995C9A185B99D3D999915409028333333333333E33F0000000000000F9010790141107004050150941D405064090741402480A0350
1001
ACAD
1000
AcDbSavedByObjectVersion
1070
     0
  0
ACAD_PROXY_OBJECT
  5
33
102
{ACAD_REACTORS
330
2A
102
}
330
2A
100
AcDbProxyObject
 90
      499
 91
      501
 93
      428
310
425499585B1A5CDD1A58D08409038333333333333E33F0000000000000F9010740A907004050150800405405064090740C02480A1B40
1001
ACAD
1000
AcDbSavedByObjectVersion
1070
     0
  0
ACAD_PROXY_OBJECT
  5
42
102
{ACAD_REACTORS
330
2A
102
}
330
2A
100
AcDbProxyObject
 90
      499
 91
      501
 93
      420
310
4194DA1859195911B40902404333333333333E33F0000000000000F9010740A41107004050150800405405064090840C02480A0B40
1001
ACAD
1000
AcDbSavedByObjectVersion
1070
     0
  0
ACAD_PROXY_OBJECT
  5
41
102
{ACAD_REACTORS
330
2A
102
}
330
2A
100
AcDbProxyObject
 90
      499
 91
      501
 93
      516
310
4454DA18591959081DDA5D1A08195919D95CD1A40902404333333333333E33F0000000000000F901074090142907004050250800405405064090740C02480A0B40
1001
ACAD
1000
AcDbSavedByObjectVersion
1070
     0
  0
ACAD_PROXY_OBJECT
  5
3E
102
{ACAD_REACTORS
330
2A
102
}
330
2A
100
AcDbProxyObject
 90
      499
 91
      501
 93
      532
310
4394DA1859195CC81BD98811DC985E5174090240C333333333333E33F0000000000000F901079024090741D01000000000000111010841D405064090740C02480A0340
1001
ACAD
1000
AcDbSavedByObjectVersion
1070
     0
  0
ACAD_PROXY_OBJECT
  5
3F
102
{ACAD_REACTORS
330
2A
102
}
330
2A
100
AcDbProxyObject
 90
      499
 91
      501
 93
      476
310
41D4DAD95D18DA1E51840502408333333333333E33F0000000000000F901079024090741D01000000000000111010B41D405064090741802480A0340
1001
ACAD
1000
AcDbSavedByObjectVersion
1070
     0
  0
ACAD_PROXY_OBJECT
  5
37
102
{ACAD_REACTORS
330
2A
102
}
330
2A
100
AcDbProxyObject
 90
      499
 91
      501
 93
      412
310
41D51A1A58DAD95B90D409028333333333333E33F0000000000000F9010790141107004050150C41D405064090741402480A0350
1001
ACAD
1000
AcDbSavedByObjectVersion
1070
     0
  0
ACAD_PROXY_OBJECT
  5
30
102
{ACAD_REACTORS
330
2A
102
}
330
2A
100
AcDbProxyObject
 90
      499
 91
      501
 93
      420
310
4255DA5C99599C985B595059028333333333333E33F0000000000000F90107901411070040501600405405064090740C02480A0340
1001
ACAD
1000
AcDbSavedByObjectVersion
1070
     0
  0
ACAD_PROXY_OBJECT
  5
40
102
{ACAD_REACTORS
330
2A
102
}
330
2A
100
AcDbProxyObject
 90
      499
 91
      501
 93
      404
310
41560B54985E51940902404000000000000E03F0000000000000F9010740501907004050150841D405064090740C02480A1B40
1001
ACAD
1000
AcDbSavedByObjectVersion
1070
     0
  0
XRECORD
  5
35D
102
{ACAD_REACTORS
330
353
102
}
330
353
100
AcDbXrecord
340
0
  0
XRECORD
  5
35C
102
{ACAD_REACTORS
330
353
102
}
330
353
100
AcDbXrecord
 90
        0
  0
XRECORD
  5
373
102
{ACAD_REACTORS
330
353
102
}
330
353
100
AcDbXrecord
1000
DSTYLE
1002
{
1070
   179
 70
     2
1070
   171
 70
     2
1070
   143
 40
25.4
1070
   274
 70
     2
1070
    41
 40
3.0
1070
   141
 40
0.09
1070
    43
 40
0.38
1070
   278
 70
    46
1070
    44
 40
1.5
1070
    42
 40
0.0625
1070
   147
 40
1.5
1070
   272
 70
     4
1070
    73
 70
     1
1070
   172
 70
     0
1070
    74
 70
     1
1070
   283
 70
     1
1070
   340
340
6E
1070
   140
 40
3.0
1070
   284
 70
     0
1070
    78
 70
     0
1002
}
  0
XRECORD
  5
35E
102
{ACAD_REACTORS
330
353
102
}
330
353
100
AcDbXrecord
  1
{2B784272-E54E-4389-A55D-F2F39CE78CDB}
  0
XRECORD
  5
356
102
{ACAD_REACTORS
330
353
102
}
330
353
100
AcDbXrecord
  1

  0
XRECORD
  5
35B
102
{ACAD_REACTORS
330
353
102
}
330
353
100
AcDbXrecord
 90
        4
  0
XRECORD
  5
358
102
{ACAD_REACTORS
330
353
102
}
330
353
100
AcDbXrecord
340
1A
  0
XRECORD
  5
35A
102
{ACAD_REACTORS
330
353
102
}
330
353
100
AcDbXrecord
 90
    10269
  0
XRECORD
  5
359
102
{ACAD_REACTORS
330
353
102
}
330
353
100
AcDbXrecord
340
19
  0
XRECORD
  5
360
102
{ACAD_REACTORS
330
353
102
}
330
353
100
AcDbXrecord
 40
0.0
  0
XRECORD
  5
363
102
{ACAD_REACTORS
330
353
102
}
330
353
100
AcDbXrecord
340
0
  0
XRECORD
  5
369
102
{ACAD_REACTORS
330
353
102
}
330
353
100
AcDbXrecord
 10
0.0
 20
0.0
 30
0.0
  0
XRECORD
  5
365
102
{ACAD_REACTORS
330
353
102
}
330
353
100
AcDbXrecord
 10
0.0
 20
0.0
 30
0.0
  0
XRECORD
  5
368
102
{ACAD_REACTORS
330
353
102
}
330
353
100
AcDbXrecord
 10
0.0
 20
0.0
 30
0.0
  0
XRECORD
  5
366
102
{ACAD_REACTORS
330
353
102
}
330
353
100
AcDbXrecord
 10
0.0
 20
0.0
 30
0.0
  0
XRECORD
  5
367
102
{ACAD_REACTORS
330
353
102
}
330
353
100
AcDbXrecord
 10
0.0
 20
0.0
 30
0.0
  0
XRECORD
  5
364
102
{ACAD_REACTORS
330
353
102
}
330
353
100
AcDbXrecord
 10
0.0
 20
0.0
 30
0.0
  0
XRECORD
  5
361
102
{ACAD_REACTORS
330
353
102
}
330
353
100
AcDbXrecord
340
0
  0
XRECORD
  5
362
102
{ACAD_REACTORS
330
353
102
}
330
353
100
AcDbXrecord
 70
     0
  0
XRECORD
  5
357
102
{ACAD_REACTORS
330
353
102
}
330
353
100
AcDbXrecord
  1

  0
XRECORD
  5
354
102
{ACAD_REACTORS
330
353
102
}
330
353
100
AcDbXrecord
 90
        1
  0
XRECORD
  5
355
102
{ACAD_REACTORS
330
353
102
}
330
353
100
AcDbXrecord
 90
       70
  0
XRECORD
  5
36C
102
{ACAD_REACTORS
330
353
102
}
330
353
100
AcDbXrecord
340
0
  0
XRECORD
  5
372
102
{ACAD_REACTORS
330
353
102
}
330
353
100
AcDbXrecord
 10
0.0
 20
0.0
 30
0.0
  0
XRECORD
  5
36E
102
{ACAD_REACTORS
330
353
102
}
330
353
100
AcDbXrecord
 10
0.0
 20
0.0
 30
0.0
  0
XRECORD
  5
371
102
{ACAD_REACTORS
330
353
102
}
330
353
100
AcDbXrecord
 10
0.0
 20
0.0
 30
0.0
  0
XRECORD
  5
36F
102
{ACAD_REACTORS
330
353
102
}
330
353
100
AcDbXrecord
 10
0.0
 20
0.0
 30
0.0
  0
XRECORD
  5
370
102
{ACAD_REACTORS
330
353
102
}
330
353
100
AcDbXrecord
 10
0.0
 20
0.0
 30
0.0
  0
XRECORD
  5
36D
102
{ACAD_REACTORS
330
353
102
}
330
353
100
AcDbXrecord
 10
0.0
 20
0.0
 30
0.0
  0
XRECORD
  5
36A
102
{ACAD_REACTORS
330
353
102
}
330
353
100
AcDbXrecord
340
0
  0
XRECORD
  5
36B
102
{ACAD_REACTORS
330
353
102
}
330
353
100
AcDbXrecord
 70
     0
  0
XRECORD
  5
35F
102
{ACAD_REACTORS
330
353
102
}
330
353
100
AcDbXrecord
  1
{FAEB1C32-E019-11D5-929B-00C0DF256EC4}
  0
DICTIONARYVAR
  5
37D
102
{ACAD_REACTORS
330
374
102
}
330
374
100
DictionaryVariables
280
     0
  1
1:1
  0
DICTIONARYVAR
  5
376
102
{ACAD_REACTORS
330
374
102
}
330
374
100
DictionaryVariables
280
     0
  1
Standard
  0
DICTIONARYVAR
  5
375
102
{ACAD_REACTORS
330
374
102
}
330
374
100
DictionaryVariables
280
     0
  1
Standard
  0
DICTIONARYVAR
  5
379
102
{ACAD_REACTORS
330
374
102
}
330
374
100
DictionaryVariables
280
     0
  1
2
  0
DICTIONARYVAR
  5
37A
102
{ACAD_REACTORS
330
374
102
}
330
374
100
DictionaryVariables
280
     0
  1
1
  0
DICTIONARYVAR
  5
37E
102
{ACAD_REACTORS
330
374
102
}
330
374
100
DictionaryVariables
280
     0
  1
1
  0
DICTIONARY
  5
381
330
45
100
AcDbDictionary
280
     1
  3
ACAD_XREC_ROUNDTRIP
360
382
  0
DICTIONARY
  5
37F
330
44
100
AcDbDictionary
280
     1
  3
ACAD_XREC_ROUNDTRIP
360
380
  0
DICTIONARY
  5
383
330
46
100
AcDbDictionary
280
     1
  3
ACAD_XREC_ROUNDTRIP
360
384
  0
XRECORD
  5
382
102
{ACAD_REACTORS
330
381
102
}
330
381
100
AcDbXrecord
102
MATERIAL
148
0.0
149
0.0
149
0.0
 93
        0
 94
      127
282
     0
 72
     1
 77
     1
171
     1
175
     1
179
     1
273
     0
  0
XRECORD
  5
380
102
{ACAD_REACTORS
330
37F
102
}
330
37F
100
AcDbXrecord
102
MATERIAL
148
0.0
149
0.0
149
0.0
 93
        0
 94
      127
282
     0
 72
     1
 77
     1
171
     1
175
     1
179
     1
273
     0
  0
XRECORD
  5
384
102
{ACAD_REACTORS
330
383
102
}
330
383
100
AcDbXrecord
102
MATERIAL
148
0.0
149
0.0
149
0.0
 93
        0
 94
      127
282
     0
 72
     1
 77
     1
171
     1
175
     1
179
     1
273
     0
  0
ENDSEC
  0
EOF
