  0
SECTION
  2
HEADER
  9
$ACADVER
  1
AC1006
  9
$DWGCODEPAGE
  3
ansi_932
  9
$INSBASE
 10
0.0
 20
0.0
 30
0.0
  9
$EXTMIN
 10
0.0
 20
-103.7134984545454
  9
$EXTMAX
 10
6065.623528
 20
297.0
  9
$LIMMIN
 10
0.0
 20
0.0
  9
$LIMMAX
 10
12.0
 20
9.0
  9
$ORTHOMODE
 70
     0
  9
$REGENMODE
 70
     1
  9
$FILLMODE
 70
     1
  9
$QTEXTMODE
 70
     0
  9
$MIRRTEXT
 70
     1
  9
$DRAGMODE
 70
     2
  9
$LTSCALE
 40
1.0
  9
$OSMODE
 70
    37
  9
$ATTMODE
 70
     1
  9
$TEXTSIZE
 40
0.2
  9
$TRACEWID
 40
0.05
  9
$TEXTSTYLE
  7
STANDARD
  9
$CLAYER
  8
0
  9
$CELTYPE
  6
BYLAYER
  9
$CECOLOR
 62
   256
  9
$DIMSCALE
 40
1.0
  9
$DIMASZ
 40
1.2
  9
$DIMEXO
 40
0.0625
  9
$DIMDLI
 40
0.38
  9
$DIMRND
 40
0.0
  9
$DIMDLE
 40
0.0
  9
$DIMEXE
 40
0.6
  9
$DIMTP
 40
0.0
  9
$DIMTM
 40
0.0
  9
$DIMTXT
 40
3.0
  9
$DIMCEN
 40
0.09
  9
$DIMTSZ
 40
0.0
  9
$DIMTOL
 70
     0
  9
$DIMLIM
 70
     0
  9
$DIMTIH
 70
     1
  9
$DIMTOH
 70
     1
  9
$DIMSE1
 70
     0
  9
$DIMSE2
 70
     0
  9
$DIMTAD
 70
     1
  9
$DIMZIN
 70
     0
  9
$DIMBLK
  1

  9
$DIMASO
 70
     1
  9
$DIMSHO
 70
     1
  9
$DIMPOST
  1

  9
$DIMAPOST
  1

  9
$DIMALT
 70
     0
  9
$DIMALTD
 70
     2
  9
$DIMALTF
 40
25.4
  9
$DIMLFAC
 40
1.0
  9
$DIMTOFL
 70
     0
  9
$DIMTVP
 40
0.0
  9
$DIMTIX
 70
     0
  9
$DIMSOXD
 70
     0
  9
$DIMSAH
 70
     0
  9
$DIMBLK1
  1

  9
$DIMBLK2
  1

  9
$LUNITS
 70
     2
  9
$LUPREC
 70
     4
  9
$SKETCHINC
 40
0.1
  9
$FILLETRAD
 40
0.5
  9
$AUNITS
 70
     0
  9
$AUPREC
 70
     0
  9
$MENU
  1
.
  9
$ELEVATION
 40
0.0
  9
$THICKNESS
 40
0.0
  9
$LIMCHECK
 70
     0
  9
$CHAMFERA
 40
0.0
  9
$CHAMFERB
 40
0.0
  9
$SKPOLY
 70
     0
  9
$TDCREATE
 40
2459989.365091817
  9
$TDUPDATE
 40
2459989.365092315
  9
$TDINDWG
 40
0.0000000116
  9
$TDUSRTIMER
 40
0.0000000116
  9
$USRTIMER
 70
     1
  9
$ANGBASE
 50
0.0
  9
$ANGDIR
 70
     0
  9
$PDMODE
 70
     0
  9
$PDSIZE
 40
0.0
  9
$PLINEWID
 40
0.0
  9
$COORDS
 70
     1
  9
$SPLFRAME
 70
     0
  9
$SPLINETYPE
 70
     6
  9
$SPLINESEGS
 70
     8
  9
$ATTDIA
 70
     0
  9
$ATTREQ
 70
     1
  9
$HANDLING
 70
     1
  9
$HANDSEED
  5
367
  9
$SURFTAB1
 70
     6
  9
$SURFTAB2
 70
     6
  9
$SURFTYPE
 70
     6
  9
$SURFU
 70
     6
  9
$SURFV
 70
     6
  9
$UCSNAME
  2

  9
$UCSORG
 10
0.0
 20
0.0
 30
0.0
  9
$UCSXDIR
 10
1.0
 20
0.0
 30
0.0
  9
$UCSYDIR
 10
0.0
 20
1.0
 30
0.0
  9
$USERI1
 70
     0
  9
$USERI2
 70
     0
  9
$USERI3
 70
     0
  9
$USERI4
 70
     0
  9
$USERI5
 70
     0
  9
$USERR1
 40
0.0
  9
$USERR2
 40
0.0
  9
$USERR3
 40
0.0
  9
$USERR4
 40
0.0
  9
$USERR5
 40
0.0
  9
$WORLDVIEW
 70
     1
  0
ENDSEC
  0
SECTION
  2
TABLES
  0
TABLE
  2
VPORT
 70
     1
  0
VPORT
  2
*ACTIVE
 70
     0
 10
0.0
 20
0.0
 11
1.0
 21
1.0
 12
3032.811764
 22
96.6432507727273
 13
0.0
 23
0.0
 14
0.5
 24
0.5
 15
0.5
 25
0.5
 16
0.0
 26
0.0
 36
1.0
 17
0.0
 27
0.0
 37
0.0
 40
400.7134984545454
 41
1.6
 42
50.0
 43
0.0
 44
0.0
 50
0.0
 51
0.0
 71
     0
 72
   100
 73
     1
 74
     3
 75
     0
 76
     0
 77
     0
 78
     0
  0
ENDTAB
  0
TABLE
  2
LTYPE
 70
     2
  0
LTYPE
  2
CONTINUOUS
 70
     0
  3
Solid line
 72
    65
 73
     0
 40
0.0
  0
LTYPE
  2
CENTER
 70
     0
  3

 72
    65
 73
     0
 40
0.0
  0
ENDTAB
  0
TABLE
  2
LAYER
 70
     1
  0
LAYER
  2
0
 70
     0
 62
     7
  6
CONTINUOUS
  0
ENDTAB
  0
TABLE
  2
STYLE
 70
     2
  0
STYLE
  2
STANDARD
 70
     0
 40
0.0
 41
1.0
 50
0.0
 71
     0
 42
0.2
  3
txt
  4

  0
STYLE
  2
ＭＳ_ゴシック
 70
     0
 40
0.0
 41
1.0
 50
0.0
 71
     0
 42
0.2
  3
ＭＳ ゴシック.shx
  4

  0
ENDTAB
  0
TABLE
  2
VIEW
 70
     0
  0
ENDTAB
  0
TABLE
  2
UCS
 70
     0
  0
ENDTAB
  0
ENDSEC
  0
SECTION
  2
BLOCKS
  0
BLOCK
  8
0
  2
D_FRAME_DRAWING_21
 70
     0
 10
0.0
 20
0.0
 30
0.0
  0
LINE
  5
71
  8
0
  6
CONTINUOUS
 62
     7
 10
0.0
 20
0.0
 30
0.0
 11
420.0
 21
0.0
 31
0.0
  0
LINE
  5
72
  8
0
  6
CONTINUOUS
 62
     7
 10
420.0
 20
0.0
 30
0.0
 11
420.0
 21
297.0
 31
0.0
  0
LINE
  5
73
  8
0
  6
CONTINUOUS
 62
     7
 10
420.0
 20
297.0
 30
0.0
 11
0.0
 21
297.0
 31
0.0
  0
LINE
  5
74
  8
0
  6
CONTINUOUS
 62
     7
 10
0.0
 20
297.0
 30
0.0
 11
0.0
 21
0.0
 31
0.0
  0
LINE
  5
75
  8
0
  6
CONTINUOUS
 62
     7
 10
10.0
 20
10.0
 30
0.0
 11
409.9999999999999
 21
10.0
 31
0.0
  0
LINE
  5
76
  8
0
  6
CONTINUOUS
 62
     7
 10
409.9999999999999
 20
10.0
 30
0.0
 11
409.9999999999999
 21
286.9999999999999
 31
0.0
  0
LINE
  5
77
  8
0
  6
CONTINUOUS
 62
     7
 10
409.9999999999999
 20
286.9999999999999
 30
0.0
 11
10.00000000000006
 21
286.9999999999999
 31
0.0
  0
LINE
  5
78
  8
0
  6
CONTINUOUS
 62
     7
 10
10.0
 20
286.9999999999999
 30
0.0
 11
10.0
 21
10.00000000000001
 31
0.0
  0
LINE
  5
79
  8
0
  6
CONTINUOUS
 62
     7
 10
210.0
 20
0.0
 30
0.0
 11
210.0
 21
10.0
 31
0.0
  0
LINE
  5
7A
  8
0
  6
CONTINUOUS
 62
     7
 10
420.0
 20
148.5
 30
0.0
 11
409.9999999999999
 21
148.5
 31
0.0
  0
LINE
  5
7B
  8
0
  6
CONTINUOUS
 62
     7
 10
210.0
 20
297.0
 30
0.0
 11
210.0
 21
286.9999999999999
 31
0.0
  0
LINE
  5
7C
  8
0
  6
CONTINUOUS
 62
     7
 10
0.0
 20
148.5
 30
0.0
 11
10.0
 21
148.5
 31
0.0
  0
POLYLINE
  5
7D
  8
0
  6
CONTINUOUS
 62
     7
 66
     1
 10
0.0
 20
0.0
 30
0.0
 70
     1
  0
VERTEX
  5
2EC
  8
0
  6
CONTINUOUS
 62
     7
 10
11.0
 20
152.5
 30
0.0
  0
VERTEX
  5
2ED
  8
0
  6
CONTINUOUS
 62
     7
 10
0.0
 20
148.5
 30
0.0
  0
VERTEX
  5
2EE
  8
0
  6
CONTINUOUS
 62
     7
 10
11.0
 20
144.5
 30
0.0
  0
VERTEX
  5
2EF
  8
0
  6
CONTINUOUS
 62
     7
 10
11.0
 20
152.5
 30
0.0
  0
SEQEND
  5
365
  8
0
  6
CONTINUOUS
 62
     7
  0
INSERT
  5
7E
  8
0
 62
     7
  2
*U40
 10
0.0
 20
0.0
 30
0.0
  0
POLYLINE
  5
7F
  8
0
  6
CONTINUOUS
 62
     7
 66
     1
 10
0.0
 20
0.0
 30
0.0
 70
     1
  0
VERTEX
  5
2F2
  8
0
  6
CONTINUOUS
 62
     7
 10
206.0
 20
11.0
 30
0.0
  0
VERTEX
  5
2F3
  8
0
  6
CONTINUOUS
 62
     7
 10
210.0
 20
0.0
 30
0.0
  0
VERTEX
  5
2F4
  8
0
  6
CONTINUOUS
 62
     7
 10
214.0
 20
11.0
 30
0.0
  0
VERTEX
  5
2F5
  8
0
  6
CONTINUOUS
 62
     7
 10
206.0
 20
11.0
 30
0.0
  0
SEQEND
  5
366
  8
0
  6
CONTINUOUS
 62
     7
  0
INSERT
  5
80
  8
0
 62
     7
  2
*U41
 10
0.0
 20
0.0
 30
0.0
  0
LINE
  5
81
  8
0
  6
CONTINUOUS
 62
     7
 10
367.5
 20
286.9999999999999
 30
0.0
 11
367.5
 21
292.0
 31
0.0
  0
TEXT
  5
82
  8
0
  6
CONTINUOUS
 62
     7
 10
391.6340909090909
 20
291.8324293485057
 30
0.0
 40
3.5
  1
A
 50
270.0
  0
LINE
  5
83
  8
0
  6
CONTINUOUS
 62
     7
 10
367.5
 20
10.0
 30
0.0
 11
367.5
 21
5.0
 31
0.0
  0
TEXT
  5
84
  8
0
  6
CONTINUOUS
 62
     7
 10
392.9868888333125
 20
4.602272727272727
 30
0.0
 40
3.5
  1
A
  0
LINE
  5
85
  8
0
  6
CONTINUOUS
 62
     7
 10
315.0
 20
286.9999999999999
 30
0.0
 11
315.0
 21
292.0
 31
0.0
  0
TEXT
  5
86
  8
0
  6
CONTINUOUS
 62
     7
 10
339.1340909090909
 20
291.9745607727899
 30
0.0
 40
3.5
  1
B
 50
270.0
  0
LINE
  5
87
  8
0
  6
CONTINUOUS
 62
     7
 10
315.0
 20
10.0
 30
0.0
 11
315.0
 21
5.0
 31
0.0
  0
TEXT
  5
88
  8
0
  6
CONTINUOUS
 62
     7
 10
340.3447574090284
 20
4.602272727272727
 30
0.0
 40
3.5
  1
B
  0
LINE
  5
89
  8
0
  6
CONTINUOUS
 62
     7
 10
262.5
 20
286.9999999999999
 30
0.0
 11
262.5
 21
292.0
 31
0.0
  0
TEXT
  5
8A
  8
0
  6
CONTINUOUS
 62
     7
 10
286.6327779167187
 20
291.9399305989747
 30
0.0
 40
3.5
  1
C
 50
270.0
  0
LINE
  5
8B
  8
0
  6
CONTINUOUS
 62
     7
 10
262.5
 20
10.0
 30
0.0
 11
262.5
 21
5.0
 31
0.0
  0
TEXT
  5
8C
  8
0
  6
CONTINUOUS
 62
     7
 10
287.8793875828435
 20
4.600959734900587
 30
0.0
 40
3.5
  1
C
  0
LINE
  5
8D
  8
0
  6
CONTINUOUS
 62
     7
 10
210.0
 20
286.9999999999999
 30
0.0
 11
210.0
 21
292.0
 31
0.0
  0
TEXT
  5
8E
  8
0
  6
CONTINUOUS
 62
     7
 10
234.1340909090909
 20
291.9745607727898
 30
0.0
 40
3.5
  1
D
 50
270.0
  0
LINE
  5
8F
  8
0
  6
CONTINUOUS
 62
     7
 10
157.5
 20
286.9999999999999
 30
0.0
 11
157.5
 21
292.0
 31
0.0
  0
TEXT
  5
90
  8
0
  6
CONTINUOUS
 62
     7
 10
181.6327779167188
 20
292.027463423784
 30
0.0
 40
3.5
  1
E
 50
270.0
  0
LINE
  5
91
  8
0
  6
CONTINUOUS
 62
     7
 10
157.5
 20
10.0
 30
0.0
 11
157.5
 21
5.0
 31
0.0
  0
LINE
  5
92
  8
0
  6
CONTINUOUS
 62
     7
 10
105.0
 20
286.9999999999999
 30
0.0
 11
105.0
 21
292.0
 31
0.0
  0
TEXT
  5
93
  8
0
  6
CONTINUOUS
 62
     7
 10
129.1327779167188
 20
291.9924502938602
 30
0.0
 40
3.5
  1
F
 50
270.0
  0
LINE
  5
94
  8
0
  6
CONTINUOUS
 62
     7
 10
105.0
 20
10.0
 30
0.0
 11
105.0
 21
5.0
 31
0.0
  0
TEXT
  5
95
  8
0
  6
CONTINUOUS
 62
     7
 10
130.326867887958
 20
4.600959734900587
 30
0.0
 40
3.5
  1
F
  0
LINE
  5
96
  8
0
  6
CONTINUOUS
 62
     7
 10
52.50000000000004
 20
286.9999999999999
 30
0.0
 11
52.50000000000004
 21
292.0
 31
0.0
  0
TEXT
  5
97
  8
0
  6
CONTINUOUS
 62
     7
 10
76.6327779167188
 20
291.9399305989746
 30
0.0
 40
3.5
  1
G
 50
270.0
  0
LINE
  5
98
  8
0
  6
CONTINUOUS
 62
     7
 10
52.50000000000004
 20
10.0
 30
0.0
 11
52.50000000000004
 21
5.0
 31
0.0
  0
TEXT
  5
99
  8
0
  6
CONTINUOUS
 62
     7
 10
77.8793875828436
 20
4.600959734900587
 30
0.0
 40
3.5
  1
G
  0
TEXT
  5
9A
  8
0
  6
CONTINUOUS
 62
     7
 10
24.13277791671879
 20
291.9749437288983
 30
0.0
 40
3.5
  1
H
 50
270.0
  0
TEXT
  5
9B
  8
0
  6
CONTINUOUS
 62
     7
 10
25.34437445291988
 20
4.600959734900587
 30
0.0
 40
3.5
  1
H
  0
LINE
  5
9C
  8
0
  6
CONTINUOUS
 62
     7
 10
409.9999999999999
 20
74.25
 30
0.0
 11
414.9999999999999
 21
74.25
 31
0.0
  0
TEXT
  5
9D
  8
0
  6
CONTINUOUS
 62
     7
 10
412.9326059772414
 20
35.00777791671877
 30
0.0
 40
3.5
  1
1
  0
LINE
  5
9E
  8
0
  6
CONTINUOUS
 62
     7
 10
10.0
 20
74.25
 30
0.0
 11
5.0
 21
74.25
 31
0.0
  0
TEXT
  5
9F
  8
0
  6
CONTINUOUS
 62
     7
 10
4.600959734900584
 20
38.26171220457671
 30
0.0
 40
3.5
  1
1
 50
270.0
  0
LINE
  5
A0
  8
0
  6
CONTINUOUS
 62
     7
 10
409.9999999999999
 20
148.5
 30
0.0
 11
414.9999999999999
 21
148.5
 31
0.0
  0
TEXT
  5
A1
  8
0
  6
CONTINUOUS
 62
     7
 10
413.163692634738
 20
109.2577779167188
 30
0.0
 40
3.5
  1
2
  0
LINE
  5
A2
  8
0
  6
CONTINUOUS
 62
     7
 10
10.0
 20
148.5
 30
0.0
 11
5.0
 21
148.5
 31
0.0
  0
TEXT
  5
A3
  8
0
  6
CONTINUOUS
 62
     7
 10
4.600959734900599
 20
112.2806255470802
 30
0.0
 40
3.5
  1
2
 50
270.0
  0
LINE
  5
A4
  8
0
  6
CONTINUOUS
 62
     7
 10
409.9999999999999
 20
222.75
 30
0.0
 11
414.9999999999999
 21
222.75
 31
0.0
  0
TEXT
  5
A5
  8
0
  6
CONTINUOUS
 62
     7
 10
413.1811991996998
 20
183.5077779167188
 30
0.0
 40
3.5
  1
3
  0
LINE
  5
A6
  8
0
  6
CONTINUOUS
 62
     7
 10
10.0
 20
222.75
 30
0.0
 11
5.0
 21
222.75
 31
0.0
  0
TEXT
  5
A7
  8
0
  6
CONTINUOUS
 62
     7
 10
4.600959734900584
 20
186.5131189821183
 30
0.0
 40
3.5
  1
3
 50
270.0
  0
TEXT
  5
A8
  8
0
  6
CONTINUOUS
 62
     7
 10
413.2351413029886
 20
257.7590909090909
 30
0.0
 40
3.5
  1
4
  0
TEXT
  5
A9
  8
0
  6
CONTINUOUS
 62
     7
 10
4.60227272727272
 20
260.7091768788295
 30
0.0
 40
3.5
  1
4
 50
270.0
  0
LINE
  5
AA
  8
0
  6
CONTINUOUS
 62
     7
 10
220.0
 20
10.0
 30
0.0
 11
220.0
 21
7.0
 31
0.0
  0
LINE
  5
AB
  8
0
  6
CONTINUOUS
 62
     7
 10
200.0
 20
10.0
 30
0.0
 11
200.0
 21
7.0
 31
0.0
  0
LINE
  5
AC
  8
0
  6
CONTINUOUS
 62
     7
 10
230.0
 20
10.0
 30
0.0
 11
230.0
 21
7.0
 31
0.0
  0
LINE
  5
AD
  8
0
  6
CONTINUOUS
 62
     7
 10
190.0
 20
10.0
 30
0.0
 11
190.0
 21
7.0
 31
0.0
  0
LINE
  5
AE
  8
0
  6
CONTINUOUS
 62
     7
 10
240.0
 20
10.0
 30
0.0
 11
240.0
 21
7.0
 31
0.0
  0
LINE
  5
AF
  8
0
  6
CONTINUOUS
 62
     7
 10
180.0
 20
10.0
 30
0.0
 11
180.0
 21
7.0
 31
0.0
  0
LINE
  5
B0
  8
0
  6
CONTINUOUS
 62
     7
 10
250.0
 20
10.0
 30
0.0
 11
250.0
 21
7.0
 31
0.0
  0
LINE
  5
B1
  8
0
  6
CONTINUOUS
 62
     7
 10
170.0
 20
10.0
 30
0.0
 11
170.0
 21
7.0
 31
0.0
  0
LINE
  5
B2
  8
0
  6
CONTINUOUS
 62
     7
 10
260.0
 20
10.0
 30
0.0
 11
260.0
 21
5.0
 31
0.0
  0
LINE
  5
B3
  8
0
  6
CONTINUOUS
 62
     7
 10
160.0
 20
10.0
 30
0.0
 11
160.0
 21
5.0
 31
0.0
  0
LINE
  5
B4
  8
0
  6
CONTINUOUS
 62
     7
 10
260.0
 20
10.0
 30
0.0
 11
160.0
 21
10.0
 31
0.0
  0
LINE
  5
B5
  8
0
  6
CONTINUOUS
 62
     7
 10
260.0
 20
7.0
 30
0.0
 11
160.0
 21
7.0
 31
0.0
  0
INSERT
  5
B6
  8
0
 62
     7
  2
*U42
 10
0.0
 20
0.0
 30
0.0
  0
INSERT
  5
B7
  8
0
 62
     7
  2
*U43
 10
0.0
 20
0.0
 30
0.0
  0
INSERT
  5
B8
  8
0
 62
     7
  2
*U44
 10
0.0
 20
0.0
 30
0.0
  0
INSERT
  5
B9
  8
0
 62
     7
  2
*U45
 10
0.0
 20
0.0
 30
0.0
  0
ENDBLK
  8
0
  0
BLOCK
  8
0
  2
*U2
 70
     1
 10
0.0
 20
0.0
 30
0.0
  0
SOLID
  5
29F
  8
0
  6
CONTINUOUS
 62
     7
 10
11.0
 20
144.5
 30
0.0
 11
6.999999999999999
 21
148.5
 31
0.0
 12
11.0
 22
152.5
 32
0.0
 13
11.0
 23
152.5
 33
0.0
  0
ENDBLK
  8
0
  0
BLOCK
  8
0
  2
*U3
 70
     1
 10
0.0
 20
0.0
 30
0.0
  0
SOLID
  5
2A1
  8
0
  6
CONTINUOUS
 62
     7
 10
2.0
 20
0.0
 30
0.0
 11
0.0
 21
10.0
 31
0.0
 12
2.0
 22
10.0
 32
0.0
 13
2.0
 23
10.0
 33
0.0
  0
ENDBLK
  8
0
  0
BLOCK
  8
0
  2
*U4
 70
     1
 10
0.0
 20
0.0
 30
0.0
  0
SOLID
  5
2A3
  8
0
  6
CONTINUOUS
 62
     7
 10
210.0
 20
6.999999999999999
 30
0.0
 11
210.0
 21
11.0
 31
0.0
 12
214.0
 22
11.0
 32
0.0
 13
214.0
 23
11.0
 33
0.0
  0
ENDBLK
  8
0
  0
BLOCK
  8
0
  2
*U5
 70
     1
 10
0.0
 20
0.0
 30
0.0
  0
SOLID
  5
2A5
  8
0
  6
CONTINUOUS
 62
     7
 10
409.9999999999999
 20
0.0
 30
0.0
 11
409.9999999999999
 21
2.0
 31
0.0
 12
418.0
 22
0.0
 32
0.0
 13
418.0
 23
0.0
 33
0.0
  0
ENDBLK
  8
0
  0
BLOCK
  8
0
  2
*U6
 70
     1
 10
0.0
 20
0.0
 30
0.0
  0
SOLID
  5
2A7
  8
0
  6
CONTINUOUS
 62
     7
 10
418.0
 20
286.9999999999999
 30
0.0
 11
418.0
 21
297.0
 31
0.0
 12
420.0
 22
286.9999999999999
 32
0.0
 13
420.0
 23
286.9999999999999
 33
0.0
  0
ENDBLK
  8
0
  0
BLOCK
  8
0
  2
*U7
 70
     1
 10
0.0
 20
0.0
 30
0.0
  0
SOLID
  5
2A9
  8
0
  6
CONTINUOUS
 62
     7
 10
11.0
 20
144.5
 30
0.0
 11
6.999999999999999
 21
148.5
 31
0.0
 12
11.0
 22
152.5
 32
0.0
 13
11.0
 23
152.5
 33
0.0
  0
ENDBLK
  8
0
  0
BLOCK
  8
0
  2
*U8
 70
     1
 10
0.0
 20
0.0
 30
0.0
  0
SOLID
  5
2AB
  8
0
  6
CONTINUOUS
 62
     7
 10
210.0
 20
6.999999999999999
 30
0.0
 11
206.0
 21
11.0
 31
0.0
 12
210.0
 22
11.0
 32
0.0
 13
210.0
 23
11.0
 33
0.0
  0
ENDBLK
  8
0
  0
BLOCK
  8
0
  2
*U9
 70
     1
 10
0.0
 20
0.0
 30
0.0
  0
SOLID
  5
2AD
  8
0
  6
CONTINUOUS
 62
     7
 10
210.0
 20
6.999999999999999
 30
0.0
 11
210.0
 21
11.0
 31
0.0
 12
214.0
 22
11.0
 32
0.0
 13
214.0
 23
11.0
 33
0.0
  0
ENDBLK
  8
0
  0
BLOCK
  8
0
  2
*U10
 70
     1
 10
0.0
 20
0.0
 30
0.0
  0
SOLID
  5
2AF
  8
0
  6
CONTINUOUS
 62
     7
 10
0.0
 20
0.0
 30
0.0
 11
0.0
 21
10.0
 31
0.0
 12
2.0
 22
0.0
 32
0.0
 13
2.0
 23
0.0
 33
0.0
  0
ENDBLK
  8
0
  0
BLOCK
  8
0
  2
*U11
 70
     1
 10
0.0
 20
0.0
 30
0.0
  0
SOLID
  5
2B1
  8
0
  6
CONTINUOUS
 62
     7
 10
2.0
 20
0.0
 30
0.0
 11
0.0
 21
10.0
 31
0.0
 12
2.0
 22
10.0
 32
0.0
 13
2.0
 23
10.0
 33
0.0
  0
ENDBLK
  8
0
  0
BLOCK
  8
0
  2
*U12
 70
     1
 10
0.0
 20
0.0
 30
0.0
  0
SOLID
  5
2B3
  8
0
  6
CONTINUOUS
 62
     7
 10
2.0
 20
0.0
 30
0.0
 11
2.0
 21
2.0
 31
0.0
 12
10.0
 22
0.0
 32
0.0
 13
10.0
 23
0.0
 33
0.0
  0
ENDBLK
  8
0
  0
BLOCK
  8
0
  2
*U13
 70
     1
 10
0.0
 20
0.0
 30
0.0
  0
SOLID
  5
2B5
  8
0
  6
CONTINUOUS
 62
     7
 10
10.0
 20
0.0
 30
0.0
 11
2.0
 21
2.0
 31
0.0
 12
10.0
 22
2.0
 32
0.0
 13
10.0
 23
2.0
 33
0.0
  0
ENDBLK
  8
0
  0
BLOCK
  8
0
  2
*U14
 70
     1
 10
0.0
 20
0.0
 30
0.0
  0
SOLID
  5
2B7
  8
0
  6
CONTINUOUS
 62
     7
 10
409.9999999999999
 20
0.0
 30
0.0
 11
409.9999999999999
 21
2.0
 31
0.0
 12
418.0
 22
0.0
 32
0.0
 13
418.0
 23
0.0
 33
0.0
  0
ENDBLK
  8
0
  0
BLOCK
  8
0
  2
*U15
 70
     1
 10
0.0
 20
0.0
 30
0.0
  0
SOLID
  5
2B9
  8
0
  6
CONTINUOUS
 62
     7
 10
418.0
 20
0.0
 30
0.0
 11
409.9999999999999
 21
2.0
 31
0.0
 12
418.0
 22
2.0
 32
0.0
 13
418.0
 23
2.0
 33
0.0
  0
ENDBLK
  8
0
  0
BLOCK
  8
0
  2
*U16
 70
     1
 10
0.0
 20
0.0
 30
0.0
  0
SOLID
  5
2BB
  8
0
  6
CONTINUOUS
 62
     7
 10
418.0
 20
0.0
 30
0.0
 11
418.0
 21
10.0
 31
0.0
 12
420.0
 22
0.0
 32
0.0
 13
420.0
 23
0.0
 33
0.0
  0
ENDBLK
  8
0
  0
BLOCK
  8
0
  2
*U17
 70
     1
 10
0.0
 20
0.0
 30
0.0
  0
SOLID
  5
2BD
  8
0
  6
CONTINUOUS
 62
     7
 10
420.0
 20
0.0
 30
0.0
 11
418.0
 21
10.0
 31
0.0
 12
420.0
 22
10.0
 32
0.0
 13
420.0
 23
10.0
 33
0.0
  0
ENDBLK
  8
0
  0
BLOCK
  8
0
  2
*U18
 70
     1
 10
0.0
 20
0.0
 30
0.0
  0
SOLID
  5
2BF
  8
0
  6
CONTINUOUS
 62
     7
 10
409.9999999999999
 20
295.0
 30
0.0
 11
409.9999999999999
 21
297.0
 31
0.0
 12
418.0
 22
295.0
 32
0.0
 13
418.0
 23
295.0
 33
0.0
  0
ENDBLK
  8
0
  0
BLOCK
  8
0
  2
*U19
 70
     1
 10
0.0
 20
0.0
 30
0.0
  0
SOLID
  5
2C1
  8
0
  6
CONTINUOUS
 62
     7
 10
418.0
 20
295.0
 30
0.0
 11
409.9999999999999
 21
297.0
 31
0.0
 12
418.0
 22
297.0
 32
0.0
 13
418.0
 23
297.0
 33
0.0
  0
ENDBLK
  8
0
  0
BLOCK
  8
0
  2
*U20
 70
     1
 10
0.0
 20
0.0
 30
0.0
  0
SOLID
  5
2C3
  8
0
  6
CONTINUOUS
 62
     7
 10
418.0
 20
286.9999999999999
 30
0.0
 11
418.0
 21
297.0
 31
0.0
 12
420.0
 22
286.9999999999999
 32
0.0
 13
420.0
 23
286.9999999999999
 33
0.0
  0
ENDBLK
  8
0
  0
BLOCK
  8
0
  2
*U21
 70
     1
 10
0.0
 20
0.0
 30
0.0
  0
SOLID
  5
2C5
  8
0
  6
CONTINUOUS
 62
     7
 10
420.0
 20
286.9999999999999
 30
0.0
 11
418.0
 21
297.0
 31
0.0
 12
420.0
 22
297.0
 32
0.0
 13
420.0
 23
297.0
 33
0.0
  0
ENDBLK
  8
0
  0
BLOCK
  8
0
  2
*U22
 70
     1
 10
0.0
 20
0.0
 30
0.0
  0
SOLID
  5
2C7
  8
0
  6
CONTINUOUS
 62
     7
 10
0.0
 20
286.9999999999999
 30
0.0
 11
0.0
 21
297.0
 31
0.0
 12
2.0
 22
286.9999999999999
 32
0.0
 13
2.0
 23
286.9999999999999
 33
0.0
  0
ENDBLK
  8
0
  0
BLOCK
  8
0
  2
*U23
 70
     1
 10
0.0
 20
0.0
 30
0.0
  0
SOLID
  5
2C9
  8
0
  6
CONTINUOUS
 62
     7
 10
2.0
 20
286.9999999999999
 30
0.0
 11
0.0
 21
297.0
 31
0.0
 12
2.0
 22
297.0
 32
0.0
 13
2.0
 23
297.0
 33
0.0
  0
ENDBLK
  8
0
  0
BLOCK
  8
0
  2
*U24
 70
     1
 10
0.0
 20
0.0
 30
0.0
  0
SOLID
  5
2CB
  8
0
  6
CONTINUOUS
 62
     7
 10
2.0
 20
295.0
 30
0.0
 11
2.0
 21
297.0
 31
0.0
 12
10.0
 22
295.0
 32
0.0
 13
10.0
 23
295.0
 33
0.0
  0
ENDBLK
  8
0
  0
BLOCK
  8
0
  2
*U25
 70
     1
 10
0.0
 20
0.0
 30
0.0
  0
SOLID
  5
2CD
  8
0
  6
CONTINUOUS
 62
     7
 10
10.0
 20
295.0
 30
0.0
 11
2.0
 21
297.0
 31
0.0
 12
10.0
 22
297.0
 32
0.0
 13
10.0
 23
297.0
 33
0.0
  0
ENDBLK
  8
0
  0
BLOCK
  8
0
  2
*U26
 70
     1
 10
0.0
 20
0.0
 30
0.0
  0
SOLID
  5
2CF
  8
0
  6
CONTINUOUS
 62
     7
 10
0.0
 20
0.0
 30
0.0
 11
0.0
 21
10.0
 31
0.0
 12
2.0
 22
0.0
 32
0.0
 13
2.0
 23
0.0
 33
0.0
  0
ENDBLK
  8
0
  0
BLOCK
  8
0
  2
*U27
 70
     1
 10
0.0
 20
0.0
 30
0.0
  0
SOLID
  5
2D1
  8
0
  6
CONTINUOUS
 62
     7
 10
2.0
 20
0.0
 30
0.0
 11
2.0
 21
2.0
 31
0.0
 12
10.0
 22
0.0
 32
0.0
 13
10.0
 23
0.0
 33
0.0
  0
ENDBLK
  8
0
  0
BLOCK
  8
0
  2
*U28
 70
     1
 10
0.0
 20
0.0
 30
0.0
  0
SOLID
  5
2D3
  8
0
  6
CONTINUOUS
 62
     7
 10
210.0
 20
6.999999999999999
 30
0.0
 11
206.0
 21
11.0
 31
0.0
 12
210.0
 22
11.0
 32
0.0
 13
210.0
 23
11.0
 33
0.0
  0
ENDBLK
  8
0
  0
BLOCK
  8
0
  2
*U29
 70
     1
 10
0.0
 20
0.0
 30
0.0
  0
SOLID
  5
2D5
  8
0
  6
CONTINUOUS
 62
     7
 10
10.0
 20
0.0
 30
0.0
 11
2.0
 21
2.0
 31
0.0
 12
10.0
 22
2.0
 32
0.0
 13
10.0
 23
2.0
 33
0.0
  0
ENDBLK
  8
0
  0
BLOCK
  8
0
  2
*U30
 70
     1
 10
0.0
 20
0.0
 30
0.0
  0
SOLID
  5
2D7
  8
0
  6
CONTINUOUS
 62
     7
 10
418.0
 20
0.0
 30
0.0
 11
409.9999999999999
 21
2.0
 31
0.0
 12
418.0
 22
2.0
 32
0.0
 13
418.0
 23
2.0
 33
0.0
  0
ENDBLK
  8
0
  0
BLOCK
  8
0
  2
*U31
 70
     1
 10
0.0
 20
0.0
 30
0.0
  0
SOLID
  5
2D9
  8
0
  6
CONTINUOUS
 62
     7
 10
418.0
 20
0.0
 30
0.0
 11
418.0
 21
10.0
 31
0.0
 12
420.0
 22
0.0
 32
0.0
 13
420.0
 23
0.0
 33
0.0
  0
ENDBLK
  8
0
  0
BLOCK
  8
0
  2
*U32
 70
     1
 10
0.0
 20
0.0
 30
0.0
  0
SOLID
  5
2DB
  8
0
  6
CONTINUOUS
 62
     7
 10
420.0
 20
0.0
 30
0.0
 11
418.0
 21
10.0
 31
0.0
 12
420.0
 22
10.0
 32
0.0
 13
420.0
 23
10.0
 33
0.0
  0
ENDBLK
  8
0
  0
BLOCK
  8
0
  2
*U33
 70
     1
 10
0.0
 20
0.0
 30
0.0
  0
SOLID
  5
2DD
  8
0
  6
CONTINUOUS
 62
     7
 10
409.9999999999999
 20
295.0
 30
0.0
 11
409.9999999999999
 21
297.0
 31
0.0
 12
418.0
 22
295.0
 32
0.0
 13
418.0
 23
295.0
 33
0.0
  0
ENDBLK
  8
0
  0
BLOCK
  8
0
  2
*U34
 70
     1
 10
0.0
 20
0.0
 30
0.0
  0
SOLID
  5
2DF
  8
0
  6
CONTINUOUS
 62
     7
 10
418.0
 20
295.0
 30
0.0
 11
409.9999999999999
 21
297.0
 31
0.0
 12
418.0
 22
297.0
 32
0.0
 13
418.0
 23
297.0
 33
0.0
  0
ENDBLK
  8
0
  0
BLOCK
  8
0
  2
*U35
 70
     1
 10
0.0
 20
0.0
 30
0.0
  0
SOLID
  5
2E1
  8
0
  6
CONTINUOUS
 62
     7
 10
420.0
 20
286.9999999999999
 30
0.0
 11
418.0
 21
297.0
 31
0.0
 12
420.0
 22
297.0
 32
0.0
 13
420.0
 23
297.0
 33
0.0
  0
ENDBLK
  8
0
  0
BLOCK
  8
0
  2
*U36
 70
     1
 10
0.0
 20
0.0
 30
0.0
  0
SOLID
  5
2E3
  8
0
  6
CONTINUOUS
 62
     7
 10
10.0
 20
295.0
 30
0.0
 11
2.0
 21
297.0
 31
0.0
 12
10.0
 22
297.0
 32
0.0
 13
10.0
 23
297.0
 33
0.0
  0
ENDBLK
  8
0
  0
BLOCK
  8
0
  2
*U37
 70
     1
 10
0.0
 20
0.0
 30
0.0
  0
SOLID
  5
2E5
  8
0
  6
CONTINUOUS
 62
     7
 10
0.0
 20
286.9999999999999
 30
0.0
 11
0.0
 21
297.0
 31
0.0
 12
2.0
 22
286.9999999999999
 32
0.0
 13
2.0
 23
286.9999999999999
 33
0.0
  0
ENDBLK
  8
0
  0
BLOCK
  8
0
  2
*U38
 70
     1
 10
0.0
 20
0.0
 30
0.0
  0
SOLID
  5
2E7
  8
0
  6
CONTINUOUS
 62
     7
 10
2.0
 20
286.9999999999999
 30
0.0
 11
0.0
 21
297.0
 31
0.0
 12
2.0
 22
297.0
 32
0.0
 13
2.0
 23
297.0
 33
0.0
  0
ENDBLK
  8
0
  0
BLOCK
  8
0
  2
*U39
 70
     1
 10
0.0
 20
0.0
 30
0.0
  0
SOLID
  5
2E9
  8
0
  6
CONTINUOUS
 62
     7
 10
2.0
 20
295.0
 30
0.0
 11
2.0
 21
297.0
 31
0.0
 12
10.0
 22
295.0
 32
0.0
 13
10.0
 23
295.0
 33
0.0
  0
ENDBLK
  8
0
  0
BLOCK
  8
0
  2
*U40
 70
     1
 10
0.0
 20
0.0
 30
0.0
  0
SOLID
  5
2F1
  8
0
  6
CONTINUOUS
 62
     7
 10
11.0
 20
144.5
 30
0.0
 11
6.999999999999999
 21
148.5
 31
0.0
 12
11.0
 22
152.5
 32
0.0
 13
11.0
 23
152.5
 33
0.0
  0
ENDBLK
  8
0
  0
BLOCK
  8
0
  2
*U41
 70
     1
 10
0.0
 20
0.0
 30
0.0
  0
SOLID
  5
2F7
  8
0
  6
CONTINUOUS
 62
     7
 10
210.0
 20
6.999999999999999
 30
0.0
 11
206.0
 21
11.0
 31
0.0
 12
210.0
 22
11.0
 32
0.0
 13
210.0
 23
11.0
 33
0.0
  0
SOLID
  5
2F8
  8
0
  6
CONTINUOUS
 62
     7
 10
210.0
 20
6.999999999999999
 30
0.0
 11
210.0
 21
11.0
 31
0.0
 12
214.0
 22
11.0
 32
0.0
 13
214.0
 23
11.0
 33
0.0
  0
ENDBLK
  8
0
  0
BLOCK
  8
0
  2
*U42
 70
     1
 10
0.0
 20
0.0
 30
0.0
  0
SOLID
  5
2FA
  8
0
  6
CONTINUOUS
 62
     7
 10
0.0
 20
0.0
 30
0.0
 11
0.0
 21
10.0
 31
0.0
 12
2.0
 22
0.0
 32
0.0
 13
2.0
 23
0.0
 33
0.0
  0
SOLID
  5
2FB
  8
0
  6
CONTINUOUS
 62
     7
 10
2.0
 20
0.0
 30
0.0
 11
0.0
 21
10.0
 31
0.0
 12
2.0
 22
10.0
 32
0.0
 13
2.0
 23
10.0
 33
0.0
  0
SOLID
  5
2FC
  8
0
  6
CONTINUOUS
 62
     7
 10
2.0
 20
0.0
 30
0.0
 11
2.0
 21
2.0
 31
0.0
 12
10.0
 22
0.0
 32
0.0
 13
10.0
 23
0.0
 33
0.0
  0
SOLID
  5
2FD
  8
0
  6
CONTINUOUS
 62
     7
 10
10.0
 20
0.0
 30
0.0
 11
2.0
 21
2.0
 31
0.0
 12
10.0
 22
2.0
 32
0.0
 13
10.0
 23
2.0
 33
0.0
  0
ENDBLK
  8
0
  0
BLOCK
  8
0
  2
*U43
 70
     1
 10
0.0
 20
0.0
 30
0.0
  0
SOLID
  5
2FF
  8
0
  6
CONTINUOUS
 62
     7
 10
409.9999999999999
 20
0.0
 30
0.0
 11
409.9999999999999
 21
2.0
 31
0.0
 12
418.0
 22
0.0
 32
0.0
 13
418.0
 23
0.0
 33
0.0
  0
SOLID
  5
300
  8
0
  6
CONTINUOUS
 62
     7
 10
418.0
 20
0.0
 30
0.0
 11
409.9999999999999
 21
2.0
 31
0.0
 12
418.0
 22
2.0
 32
0.0
 13
418.0
 23
2.0
 33
0.0
  0
SOLID
  5
301
  8
0
  6
CONTINUOUS
 62
     7
 10
418.0
 20
0.0
 30
0.0
 11
418.0
 21
10.0
 31
0.0
 12
420.0
 22
0.0
 32
0.0
 13
420.0
 23
0.0
 33
0.0
  0
SOLID
  5
302
  8
0
  6
CONTINUOUS
 62
     7
 10
420.0
 20
0.0
 30
0.0
 11
418.0
 21
10.0
 31
0.0
 12
420.0
 22
10.0
 32
0.0
 13
420.0
 23
10.0
 33
0.0
  0
ENDBLK
  8
0
  0
BLOCK
  8
0
  2
*U44
 70
     1
 10
0.0
 20
0.0
 30
0.0
  0
SOLID
  5
304
  8
0
  6
CONTINUOUS
 62
     7
 10
409.9999999999999
 20
295.0
 30
0.0
 11
409.9999999999999
 21
297.0
 31
0.0
 12
418.0
 22
295.0
 32
0.0
 13
418.0
 23
295.0
 33
0.0
  0
SOLID
  5
305
  8
0
  6
CONTINUOUS
 62
     7
 10
418.0
 20
295.0
 30
0.0
 11
409.9999999999999
 21
297.0
 31
0.0
 12
418.0
 22
297.0
 32
0.0
 13
418.0
 23
297.0
 33
0.0
  0
SOLID
  5
306
  8
0
  6
CONTINUOUS
 62
     7
 10
418.0
 20
286.9999999999999
 30
0.0
 11
418.0
 21
297.0
 31
0.0
 12
420.0
 22
286.9999999999999
 32
0.0
 13
420.0
 23
286.9999999999999
 33
0.0
  0
SOLID
  5
307
  8
0
  6
CONTINUOUS
 62
     7
 10
420.0
 20
286.9999999999999
 30
0.0
 11
418.0
 21
297.0
 31
0.0
 12
420.0
 22
297.0
 32
0.0
 13
420.0
 23
297.0
 33
0.0
  0
ENDBLK
  8
0
  0
BLOCK
  8
0
  2
*U45
 70
     1
 10
0.0
 20
0.0
 30
0.0
  0
SOLID
  5
309
  8
0
  6
CONTINUOUS
 62
     7
 10
0.0
 20
286.9999999999999
 30
0.0
 11
0.0
 21
297.0
 31
0.0
 12
2.0
 22
286.9999999999999
 32
0.0
 13
2.0
 23
286.9999999999999
 33
0.0
  0
SOLID
  5
30A
  8
0
  6
CONTINUOUS
 62
     7
 10
2.0
 20
286.9999999999999
 30
0.0
 11
0.0
 21
297.0
 31
0.0
 12
2.0
 22
297.0
 32
0.0
 13
2.0
 23
297.0
 33
0.0
  0
SOLID
  5
30B
  8
0
  6
CONTINUOUS
 62
     7
 10
2.0
 20
295.0
 30
0.0
 11
2.0
 21
297.0
 31
0.0
 12
10.0
 22
295.0
 32
0.0
 13
10.0
 23
295.0
 33
0.0
  0
SOLID
  5
30C
  8
0
  6
CONTINUOUS
 62
     7
 10
10.0
 20
295.0
 30
0.0
 11
2.0
 21
297.0
 31
0.0
 12
10.0
 22
297.0
 32
0.0
 13
10.0
 23
297.0
 33
0.0
  0
ENDBLK
  8
0
  0
ENDSEC
  0
SECTION
  2
ENTITIES
  0
INSERT
  5
70
  8
0
 62
     7
  2
D_FRAME_DRAWING_21
 10
0.0
 20
0.0
 30
0.0
  0
POINT
  5
BA
  8
0
 62
     1
 10
5735.723155000001
 20
-11.817203
 30
0.0
  0
LINE
  5
BB
  8
0
  6
CONTINUOUS
 62
     7
 10
5716.473022
 20
-61.317085
 30
0.0
 11
5721.473537006181
 21
37.68272422090146
 31
0.0
  0
LINE
  5
BC
  8
0
  6
CONTINUOUS
 62
     7
 10
5727.223155
 20
22.82672483209704
 30
0.0
 11
5722.973022
 21
-61.31709300000001
 31
0.0
  0
LINE
  5
BD
  8
0
  6
CONTINUOUS
 62
     7
 10
5717.973537000001
 20
37.682732
 30
0.0
 11
5721.473537006181
 21
37.68272422090148
 31
0.0
  0
LINE
  5
BE
  8
0
  6
CONTINUOUS
 62
     7
 10
5721.914038
 20
35.182797
 30
0.0
 11
5727.223155
 21
35.182797
 31
0.0
  0
LINE
  5
BF
  8
0
  6
CONTINUOUS
 62
     7
 10
5722.532491000001
 20
-58.817203
 30
0.0
 11
5716.599292000001
 21
-58.817203
 31
0.0
  0
LINE
  5
C0
  8
0
  6
CONTINUOUS
 62
     7
 10
5726.473022
 20
-61.317085
 30
0.0
 11
5727.223155
 21
-46.46600990104036
 31
0.0
  0
LINE
  5
C1
  8
0
  6
CONTINUOUS
 62
     7
 10
5834.973537
 20
37.682732
 30
0.0
 11
5838.473537
 21
37.682724
 31
0.0
  0
LINE
  5
C2
  8
0
  6
CONTINUOUS
 62
     7
 10
5819.532491
 20
-58.817203
 30
0.0
 11
5813.599292
 21
-58.817203
 31
0.0
  0
LINE
  5
C3
  8
0
  6
CONTINUOUS
 62
     7
 10
5794.973537
 20
37.682732
 30
0.0
 11
5798.473537
 21
37.682724
 31
0.0
  0
LINE
  5
C4
  8
0
  6
CONTINUOUS
 62
     7
 10
5819.973022
 20
-61.317093
 30
0.0
 11
5819.532491
 21
-58.817203
 31
0.0
  0
LINE
  5
C5
  8
0
  6
CONTINUOUS
 62
     7
 10
5788.914038
 20
35.182797
 30
0.0
 11
5794.847265
 21
35.182797
 31
0.0
  0
LINE
  5
C6
  8
0
  6
CONTINUOUS
 62
     7
 10
5828.914067
 20
35.182797
 30
0.0
 11
5834.381993
 21
35.182797
 31
0.0
  0
LINE
  5
C7
  8
0
  6
CONTINUOUS
 62
     7
 10
5804.973537
 20
37.682732
 30
0.0
 11
5808.473537
 21
37.682724
 31
0.0
  0
LINE
  5
C8
  8
0
  6
CONTINUOUS
 62
     7
 10
5758.914067
 20
35.182797
 30
0.0
 11
5758.473537
 21
37.682724
 31
0.0
  0
LINE
  5
C9
  8
0
  6
CONTINUOUS
 62
     7
 10
5824.973537
 20
37.682732
 30
0.0
 11
5828.473537
 21
37.682724
 31
0.0
  0
ARC
  5
CA
  8
0
  6
CONTINUOUS
 62
     7
 10
5730.000350000001
 20
-54.095221
 30
0.0
 40
2.854850000000297
 50
194.901489
 51
274.476166
  0
ARC
  5
CB
  8
0
  6
CONTINUOUS
 62
     7
 10
5741.222472000001
 20
41.554691
 30
0.0
 40
0.9987510000000199
 50
94.966917
 51
116.557041
  0
LINE
  5
CC
  8
0
  6
CONTINUOUS
 62
     7
 10
5752.723155
 20
-56.941364
 30
0.0
 11
5730.223155
 21
-56.941364
 31
0.0
  0
LINE
  5
CD
  8
0
  6
CONTINUOUS
 62
     7
 10
5818.914038
 20
35.182797
 30
0.0
 11
5824.847265
 21
35.182797
 31
0.0
  0
LINE
  5
CE
  8
0
  6
CONTINUOUS
 62
     7
 10
5759.973022
 20
-61.317093
 30
0.0
 11
5759.532491000001
 21
-58.817203
 31
0.0
  0
ARC
  5
CF
  8
0
  6
CONTINUOUS
 62
     7
 10
5741.221708
 20
41.554324
 30
0.0
 40
0.9986719999997007
 50
134.958761
 51
153.401653
  0
LINE
  5
D0
  8
0
  6
CONTINUOUS
 62
     7
 10
5793.473022
 20
-61.317085
 30
0.0
 11
5789.973022
 21
-61.317093
 31
0.0
  0
LINE
  5
D1
  8
0
  6
CONTINUOUS
 62
     7
 10
5740.223155
 20
33.306959
 30
0.0
 11
5740.223155
 21
41.554862
 31
0.0
  0
LINE
  5
D2
  8
0
  6
CONTINUOUS
 62
     7
 10
5716.473022
 20
-61.317085
 30
0.0
 11
5712.973022000001
 21
-61.317093
 31
0.0
  0
LINE
  5
D3
  8
0
  6
CONTINUOUS
 62
     7
 10
5798.914038
 20
35.182797
 30
0.0
 11
5804.847265
 21
35.182797
 31
0.0
  0
LINE
  5
D4
  8
0
  6
CONTINUOUS
 62
     7
 10
5828.914067
 20
35.182797
 30
0.0
 11
5828.473537
 21
37.682724
 31
0.0
  0
LINE
  5
D5
  8
0
  6
CONTINUOUS
 62
     7
 10
5829.973022
 20
-61.317093
 30
0.0
 11
5829.532491
 21
-58.817203
 31
0.0
  0
ARC
  5
D6
  8
0
  6
CONTINUOUS
 62
     7
 10
5730.223155
 20
-69.817203
 30
0.0
 40
3.000000000000114
 50
180.0
 51
270.0
  0
LINE
  5
D7
  8
0
  6
CONTINUOUS
 62
     7
 10
5730.223155
 20
49.182797
 30
0.0
 11
5756.944937000001
 21
49.182797
 31
0.0
  0
LINE
  5
D8
  8
0
  6
CONTINUOUS
 62
     7
 10
5814.973537
 20
37.682732
 30
0.0
 11
5809.973022
 21
-61.31709300000001
 31
0.0
  0
ARC
  5
D9
  8
0
  6
CONTINUOUS
 62
     7
 10
5729.92232
 20
-31.919989
 30
0.0
 40
23.2647220000004
 50
89.25909
 51
95.475414
  0
LINE
  5
DA
  8
0
  6
CONTINUOUS
 62
     7
 10
5793.473022
 20
-61.317085
 30
0.0
 11
5798.473537
 21
37.68272399999999
 31
0.0
  0
LINE
  5
DB
  8
0
  6
CONTINUOUS
 62
     7
 10
5836.723155
 20
-58.817203
 30
0.0
 11
5833.599292
 21
-58.817203
 31
0.0
  0
LINE
  5
DC
  8
0
  6
CONTINUOUS
 62
     7
 10
5823.473022
 20
-61.317085
 30
0.0
 11
5819.973022
 21
-61.317093
 31
0.0
  0
ARC
  5
DD
  8
0
  6
CONTINUOUS
 62
     7
 10
5729.902493
 20
7.075011
 30
0.0
 40
22.05453499999965
 50
264.2002219999999
 51
270.833084
  0
LINE
  5
DE
  8
0
  6
CONTINUOUS
 62
     7
 10
5829.532491
 20
-58.817203
 30
0.0
 11
5823.599292
 21
-58.817203
 31
0.0
  0
LINE
  5
DF
  8
0
  6
CONTINUOUS
 62
     7
 10
5756.944937000001
 20
-72.817203
 30
0.0
 11
5730.223155
 21
-72.817203
 31
0.0
  0
LINE
  5
E0
  8
0
  6
CONTINUOUS
 62
     7
 10
5783.473022
 20
-61.317085
 30
0.0
 11
5788.473537
 21
37.68272399999999
 31
0.0
  0
ARC
  5
E1
  8
0
  6
CONTINUOUS
 62
     7
 10
5882.255478
 20
-50.37582
 30
0.0
 40
0.467757
 50
320.726145
 51
358.9416719999999
  0
LINE
  5
E2
  8
0
  6
CONTINUOUS
 62
     7
 10
5798.914067
 20
35.182797
 30
0.0
 11
5798.473537
 21
37.682724
 31
0.0
  0
LINE
  5
E3
  8
0
  6
CONTINUOUS
 62
     7
 10
5803.473022
 20
-61.317085
 30
0.0
 11
5808.473537
 21
37.68272399999999
 31
0.0
  0
ARC
  5
E4
  8
0
  6
CONTINUOUS
 62
     7
 10
5741.222618
 20
-65.187818
 30
0.0
 40
0.9999609999997716
 50
225.0412369999999
 51
243.468214
  0
LINE
  5
E5
  8
0
  6
CONTINUOUS
 62
     7
 10
5824.973537
 20
37.682732
 30
0.0
 11
5819.973022
 21
-61.31709300000001
 31
0.0
  0
LINE
  5
E6
  8
0
  6
CONTINUOUS
 62
     7
 10
5783.473022
 20
-61.317085
 30
0.0
 11
5779.973022
 21
-61.317093
 31
0.0
  0
LINE
  5
E7
  8
0
  6
CONTINUOUS
 62
     7
 10
5818.914067
 20
35.182797
 30
0.0
 11
5818.473537
 21
37.682724
 31
0.0
  0
LINE
  5
E8
  8
0
  6
CONTINUOUS
 62
     7
 10
5836.723155
 20
-61.317203
 30
0.0
 11
5836.723155
 21
3.028797
 31
0.0
  0
ARC
  5
E9
  8
0
  6
CONTINUOUS
 62
     7
 10
5741.222618
 20
41.553412
 30
0.0
 40
0.9999609999997716
 50
116.531786
 51
134.958763
  0
ARC
  5
EA
  8
0
  6
CONTINUOUS
 62
     7
 10
5741.221708
 20
-65.188729
 30
0.0
 40
0.9986719999997007
 50
206.598347
 51
225.041239
  0
LINE
  5
EB
  8
0
  6
CONTINUOUS
 62
     7
 10
5784.973537
 20
37.682732
 30
0.0
 11
5788.473537
 21
37.682724
 31
0.0
  0
LINE
  5
EC
  8
0
  6
CONTINUOUS
 62
     7
 10
5794.973537
 20
37.682732
 30
0.0
 11
5789.973022
 21
-61.31709300000001
 31
0.0
  0
ARC
  5
ED
  8
0
  6
CONTINUOUS
 62
     7
 10
5741.220667000001
 20
-65.189242
 30
0.0
 40
0.9975109999995624
 50
180.001426
 51
206.598775
  0
ARC
  5
EE
  8
0
  6
CONTINUOUS
 62
     7
 10
5730.223155
 20
46.182797
 30
0.0
 40
3.000000000000114
 50
90.0
 51
180.0
  0
LINE
  5
EF
  8
0
  6
CONTINUOUS
 62
     7
 10
5789.532491
 20
-58.817203
 30
0.0
 11
5783.599292
 21
-58.817203
 31
0.0
  0
ARC
  5
F0
  8
0
  6
CONTINUOUS
 62
     7
 10
5741.220667000001
 20
41.554837
 30
0.0
 40
0.9975109999995624
 50
153.401225
 51
179.998574
  0
LINE
  5
F1
  8
0
  6
CONTINUOUS
 62
     7
 10
5759.532491000001
 20
-58.817203
 30
0.0
 11
5756.944937000001
 21
-58.817203
 31
0.0
  0
LINE
  5
F2
  8
0
  6
CONTINUOUS
 62
     7
 10
5833.473022
 20
-61.317085
 30
0.0
 11
5829.973022
 21
-61.317093
 31
0.0
  0
LINE
  5
F3
  8
0
  6
CONTINUOUS
 62
     7
 10
5730.223155
 20
-8.6503
 30
0.0
 11
5752.723155
 21
-8.6503
 31
0.0
  0
LINE
  5
F4
  8
0
  6
CONTINUOUS
 62
     7
 10
5809.532491
 20
-58.817203
 30
0.0
 11
5803.599292
 21
-58.817203
 31
0.0
  0
LINE
  5
F5
  8
0
  6
CONTINUOUS
 62
     7
 10
5834.973537
 20
37.682732
 30
0.0
 11
5829.973022
 21
-61.31709300000001
 31
0.0
  0
LINE
  5
F6
  8
0
  6
CONTINUOUS
 62
     7
 10
5717.973537000001
 20
37.682732
 30
0.0
 11
5712.973022000001
 21
-61.31709300000001
 31
0.0
  0
LINE
  5
F7
  8
0
  6
CONTINUOUS
 62
     7
 10
5784.973537
 20
37.682732
 30
0.0
 11
5779.973022
 21
-61.31709300000001
 31
0.0
  0
LINE
  5
F8
  8
0
  6
CONTINUOUS
 62
     7
 10
5756.944937000001
 20
37.682727
 30
0.0
 11
5758.473537
 21
37.682724
 31
0.0
  0
ARC
  5
F9
  8
0
  6
CONTINUOUS
 62
     7
 10
5881.763501
 20
41.52078
 30
0.0
 40
1.005358
 50
48.45503899999999
 51
66.127713
  0
LINE
  5
FA
  8
0
  6
CONTINUOUS
 62
     7
 10
5752.723155
 20
-14.984105
 30
0.0
 11
5730.223155
 21
-14.984105
 31
0.0
  0
LINE
  5
FB
  8
0
  6
CONTINUOUS
 62
     7
 10
5730.223155
 20
33.306959
 30
0.0
 11
5752.723155
 21
33.306959
 31
0.0
  0
LINE
  5
FC
  8
0
  6
CONTINUOUS
 62
     7
 10
5804.973537
 20
37.682732
 30
0.0
 11
5799.973022
 21
-61.31709300000001
 31
0.0
  0
LINE
  5
FD
  8
0
  6
CONTINUOUS
 62
     7
 10
5808.914038
 20
35.182797
 30
0.0
 11
5814.847265
 21
35.182797
 31
0.0
  0
LINE
  5
FE
  8
0
  6
CONTINUOUS
 62
     7
 10
5707.973537000001
 20
37.682732
 30
0.0
 11
5702.973022000001
 21
-61.31709300000001
 31
0.0
  0
LINE
  5
FF
  8
0
  6
CONTINUOUS
 62
     7
 10
5814.973537
 20
37.682732
 30
0.0
 11
5818.473537
 21
37.682724
 31
0.0
  0
LINE
  5
100
  8
0
  6
CONTINUOUS
 62
     7
 10
5813.473022
 20
-61.317085
 30
0.0
 11
5809.973022
 21
-61.317093
 31
0.0
  0
LINE
  5
101
  8
0
  6
CONTINUOUS
 62
     7
 10
5813.473022
 20
-61.317085
 30
0.0
 11
5818.473537
 21
37.68272399999999
 31
0.0
  0
LINE
  5
102
  8
0
  6
CONTINUOUS
 62
     7
 10
5778.914038
 20
35.182797
 30
0.0
 11
5784.847265
 21
35.182797
 31
0.0
  0
LINE
  5
103
  8
0
  6
CONTINUOUS
 62
     7
 10
5799.973022
 20
-61.317093
 30
0.0
 11
5799.532491
 21
-58.817203
 31
0.0
  0
ARC
  5
104
  8
0
  6
CONTINUOUS
 62
     7
 10
5730.004442000001
 20
30.45504
 30
0.0
 40
2.860293000000347
 50
85.614581
 51
165.007764
  0
LINE
  5
105
  8
0
  6
CONTINUOUS
 62
     7
 10
5833.473022
 20
-61.317085
 30
0.0
 11
5836.723155
 21
3.028797000000007
 31
0.0
  0
LINE
  5
106
  8
0
  6
CONTINUOUS
 62
     7
 10
5756.944937000001
 20
7.419619
 30
0.0
 11
5758.473537
 21
37.682724
 31
0.0
  0
LINE
  5
107
  8
0
  6
CONTINUOUS
 62
     7
 10
5788.914067
 20
35.182797
 30
0.0
 11
5788.473537
 21
37.682724
 31
0.0
  0
LINE
  5
108
  8
0
  6
CONTINUOUS
 62
     7
 10
5711.914038000001
 20
35.182797
 30
0.0
 11
5717.847265000001
 21
35.182797
 31
0.0
  0
LINE
  5
109
  8
0
  6
CONTINUOUS
 62
     7
 10
5803.473022
 20
-61.317085
 30
0.0
 11
5799.973022
 21
-61.317093
 31
0.0
  0
LINE
  5
10A
  8
0
  6
CONTINUOUS
 62
     7
 10
5823.473022
 20
-61.317085
 30
0.0
 11
5828.473537
 21
37.68272399999999
 31
0.0
  0
LINE
  5
10B
  8
0
  6
CONTINUOUS
 62
     7
 10
5712.532491000001
 20
-58.817203
 30
0.0
 11
5706.599292000001
 21
-58.817203
 31
0.0
  0
LINE
  5
10C
  8
0
  6
CONTINUOUS
 62
     7
 10
5808.914067
 20
35.182797
 30
0.0
 11
5808.473537
 21
37.682724
 31
0.0
  0
LINE
  5
10D
  8
0
  6
CONTINUOUS
 62
     7
 10
5809.973022
 20
-61.317093
 30
0.0
 11
5809.532491
 21
-58.817203
 31
0.0
  0
LINE
  5
10E
  8
0
  6
CONTINUOUS
 62
     7
 10
5799.532491
 20
-58.817203
 30
0.0
 11
5793.599292
 21
-58.817203
 31
0.0
  0
LINE
  5
10F
  8
0
  6
CONTINUOUS
 62
     7
 10
5789.973022
 20
-61.317093
 30
0.0
 11
5789.532491
 21
-58.817203
 31
0.0
  0
LINE
  5
110
  8
0
  6
CONTINUOUS
 62
     7
 10
5707.973537000001
 20
37.682732
 30
0.0
 11
5711.473537000001
 21
37.682724
 31
0.0
  0
LINE
  5
111
  8
0
  6
CONTINUOUS
 62
     7
 10
5706.473022000001
 20
-61.317085
 30
0.0
 11
5702.973022000001
 21
-61.317093
 31
0.0
  0
ARC
  5
112
  8
0
  6
CONTINUOUS
 62
     7
 10
5741.171494
 20
-65.369707
 30
0.0
 40
0.8151630000003962
 50
240.97163
 51
267.504412
  0
LINE
  5
113
  8
0
  6
CONTINUOUS
 62
     7
 10
5712.973022000001
 20
-61.317093
 30
0.0
 11
5712.532491000001
 21
-58.817203
 31
0.0
  0
LINE
  5
114
  8
0
  6
CONTINUOUS
 62
     7
 10
0.0
 20
297.0
 30
0.0
 11
0.0
 21
0.0
 31
0.0
  0
LINE
  5
115
  8
0
  6
CONTINUOUS
 62
     7
 10
315.0
 20
10.0
 30
0.0
 11
315.0
 21
5.0
 31
0.0
  0
LINE
  5
116
  8
0
  6
CONTINUOUS
 62
     7
 10
262.5
 20
10.0
 30
0.0
 11
262.5
 21
5.0
 31
0.0
  0
LINE
  5
117
  8
0
  6
CONTINUOUS
 62
     7
 10
367.5
 20
10.0
 30
0.0
 11
367.5
 21
5.0
 31
0.0
  0
LINE
  5
118
  8
0
  6
CONTINUOUS
 62
     7
 10
157.5
 20
10.0
 30
0.0
 11
157.5
 21
5.0
 31
0.0
  0
LINE
  5
119
  8
0
  6
CONTINUOUS
 62
     7
 10
409.9999999999999
 20
74.25
 30
0.0
 11
414.9999999999999
 21
74.25
 31
0.0
  0
LINE
  5
11A
  8
0
  6
CONTINUOUS
 62
     7
 10
160.0
 20
10.0
 30
0.0
 11
160.0
 21
5.0
 31
0.0
  0
LINE
  5
11B
  8
0
  6
CONTINUOUS
 62
     7
 10
420.0
 20
148.5
 30
0.0
 11
409.9999999999999
 21
148.5
 31
0.0
  0
LINE
  5
11C
  8
0
  6
CONTINUOUS
 62
     7
 10
214.0
 20
11.0
 30
0.0
 11
206.0
 21
11.0
 31
0.0
  0
LINE
  5
11D
  8
0
  6
CONTINUOUS
 62
     7
 10
409.9999999999999
 20
222.75
 30
0.0
 11
414.9999999999999
 21
222.75
 31
0.0
  0
LINE
  5
11E
  8
0
  6
CONTINUOUS
 62
     7
 10
200.0
 20
10.0
 30
0.0
 11
200.0
 21
7.0
 31
0.0
  0
LINE
  5
11F
  8
0
  6
CONTINUOUS
 62
     7
 10
409.9999999999999
 20
10.0
 30
0.0
 11
409.9999999999999
 21
286.9999999999999
 31
0.0
  0
LINE
  5
120
  8
0
  6
CONTINUOUS
 62
     7
 10
190.0
 20
10.0
 30
0.0
 11
190.0
 21
7.0
 31
0.0
  0
LINE
  5
121
  8
0
  6
CONTINUOUS
 62
     7
 10
260.0
 20
10.0
 30
0.0
 11
160.0
 21
10.0
 31
0.0
  0
LINE
  5
122
  8
0
  6
CONTINUOUS
 62
     7
 10
260.0
 20
7.0
 30
0.0
 11
160.0
 21
7.0
 31
0.0
  0
LINE
  5
123
  8
0
  6
CONTINUOUS
 62
     7
 10
0.0
 20
148.5
 30
0.0
 11
10.0
 21
148.5
 31
0.0
  0
LINE
  5
124
  8
0
  6
CONTINUOUS
 62
     7
 10
0.0
 20
148.5
 30
0.0
 11
11.0
 21
144.5
 31
0.0
  0
LINE
  5
125
  8
0
  6
CONTINUOUS
 62
     7
 10
52.50000000000004
 20
286.9999999999999
 30
0.0
 11
52.50000000000004
 21
292.0
 31
0.0
  0
LINE
  5
126
  8
0
  6
CONTINUOUS
 62
     7
 10
420.0
 20
297.0
 30
0.0
 11
0.0
 21
297.0
 31
0.0
  0
LINE
  5
127
  8
0
  6
CONTINUOUS
 62
     7
 10
210.0
 20
0.0
 30
0.0
 11
210.0
 21
10.0
 31
0.0
  0
LINE
  5
128
  8
0
  6
CONTINUOUS
 62
     7
 10
11.0
 20
152.5
 30
0.0
 11
0.0000000000000017
 21
148.5
 31
0.0
  0
LINE
  5
129
  8
0
  6
CONTINUOUS
 62
     7
 10
210.0
 20
0.0
 30
0.0
 11
214.0
 21
11.0
 31
0.0
  0
LINE
  5
12A
  8
0
  6
CONTINUOUS
 62
     7
 10
157.5
 20
286.9999999999999
 30
0.0
 11
157.5
 21
292.0
 31
0.0
  0
LINE
  5
12B
  8
0
  6
CONTINUOUS
 62
     7
 10
420.0
 20
0.0
 30
0.0
 11
420.0
 21
297.0
 31
0.0
  0
LINE
  5
12C
  8
0
  6
CONTINUOUS
 62
     7
 10
10.0
 20
286.9999999999999
 30
0.0
 11
10.0
 21
10.00000000000001
 31
0.0
  0
LINE
  5
12D
  8
0
  6
CONTINUOUS
 62
     7
 10
180.0
 20
10.0
 30
0.0
 11
180.0
 21
7.0
 31
0.0
  0
LINE
  5
12E
  8
0
  6
CONTINUOUS
 62
     7
 10
206.0
 20
11.0
 30
0.0
 11
210.0
 21
-0.0000000000000017
 31
0.0
  0
LINE
  5
12F
  8
0
  6
CONTINUOUS
 62
     7
 10
315.0
 20
286.9999999999999
 30
0.0
 11
315.0
 21
292.0
 31
0.0
  0
LINE
  5
130
  8
0
  6
CONTINUOUS
 62
     7
 10
0.0
 20
0.0
 30
0.0
 11
420.0
 21
0.0
 31
0.0
  0
LINE
  5
131
  8
0
  6
CONTINUOUS
 62
     7
 10
10.0
 20
10.0
 30
0.0
 11
409.9999999999999
 21
10.0
 31
0.0
  0
LINE
  5
132
  8
0
  6
CONTINUOUS
 62
     7
 10
262.5
 20
286.9999999999999
 30
0.0
 11
262.5
 21
292.0
 31
0.0
  0
LINE
  5
133
  8
0
  6
CONTINUOUS
 62
     7
 10
210.0
 20
286.9999999999999
 30
0.0
 11
210.0
 21
292.0
 31
0.0
  0
LINE
  5
134
  8
0
  6
CONTINUOUS
 62
     7
 10
105.0
 20
286.9999999999999
 30
0.0
 11
105.0
 21
292.0
 31
0.0
  0
LINE
  5
135
  8
0
  6
CONTINUOUS
 62
     7
 10
105.0
 20
10.0
 30
0.0
 11
105.0
 21
5.0
 31
0.0
  0
LINE
  5
136
  8
0
  6
CONTINUOUS
 62
     7
 10
52.50000000000004
 20
10.0
 30
0.0
 11
52.50000000000004
 21
5.0
 31
0.0
  0
LINE
  5
137
  8
0
  6
CONTINUOUS
 62
     7
 10
409.9999999999999
 20
148.5
 30
0.0
 11
414.9999999999999
 21
148.5
 31
0.0
  0
LINE
  5
138
  8
0
  6
CONTINUOUS
 62
     7
 10
10.0
 20
148.5
 30
0.0
 11
5.0
 21
148.5
 31
0.0
  0
LINE
  5
139
  8
0
  6
CONTINUOUS
 62
     7
 10
10.0
 20
222.75
 30
0.0
 11
5.0
 21
222.75
 31
0.0
  0
LINE
  5
13A
  8
0
  6
CONTINUOUS
 62
     7
 10
230.0
 20
10.0
 30
0.0
 11
230.0
 21
7.0
 31
0.0
  0
LINE
  5
13B
  8
0
  6
CONTINUOUS
 62
     7
 10
11.0
 20
144.5
 30
0.0
 11
11.0
 21
152.5
 31
0.0
  0
LINE
  5
13C
  8
0
  6
CONTINUOUS
 62
     7
 10
250.0
 20
10.0
 30
0.0
 11
250.0
 21
7.0
 31
0.0
  0
LINE
  5
13D
  8
0
  6
CONTINUOUS
 62
     7
 10
10.0
 20
74.25
 30
0.0
 11
5.0
 21
74.25
 31
0.0
  0
LINE
  5
13E
  8
0
  6
CONTINUOUS
 62
     7
 10
220.0
 20
10.0
 30
0.0
 11
220.0
 21
7.0
 31
0.0
  0
LINE
  5
13F
  8
0
  6
CONTINUOUS
 62
     7
 10
240.0
 20
10.0
 30
0.0
 11
240.0
 21
7.0
 31
0.0
  0
LINE
  5
140
  8
0
  6
CONTINUOUS
 62
     7
 10
170.0
 20
10.0
 30
0.0
 11
170.0
 21
7.0
 31
0.0
  0
LINE
  5
141
  8
0
  6
CONTINUOUS
 62
     7
 10
260.0
 20
10.0
 30
0.0
 11
260.0
 21
5.0
 31
0.0
  0
LINE
  5
142
  8
0
  6
CONTINUOUS
 62
     7
 10
210.0
 20
297.0
 30
0.0
 11
210.0
 21
286.9999999999999
 31
0.0
  0
LINE
  5
143
  8
0
  6
CONTINUOUS
 62
     7
 10
409.9999999999999
 20
286.9999999999999
 30
0.0
 11
10.00000000000006
 21
286.9999999999999
 31
0.0
  0
LINE
  5
144
  8
0
  6
CONTINUOUS
 62
     7
 10
367.5
 20
286.9999999999999
 30
0.0
 11
367.5
 21
292.0
 31
0.0
  0
LINE
  5
145
  8
0
  6
CONTINUOUS
 62
     7
 10
6049.352239
 20
27.392841
 30
0.0
 11
6044.749004
 21
23.530275
 31
0.0
  0
LINE
  5
146
  8
0
  6
CONTINUOUS
 62
     7
 10
5955.894816
 20
27.392841
 30
0.0
 11
5960.498051
 21
23.530275
 31
0.0
  0
LINE
  5
147
  8
0
  6
CONTINUOUS
 62
     7
 10
5552.852507000001
 20
-47.985853
 30
0.0
 11
5556.999549000001
 21
-49.097049
 31
0.0
  0
LINE
  5
148
  8
0
  6
CONTINUOUS
 62
     7
 10
5711.914067000001
 20
35.182797
 30
0.0
 11
5711.473537000001
 21
37.682724
 31
0.0
  0
LINE
  5
149
  8
0
  6
CONTINUOUS
 62
     7
 10
5559.223092000001
 20
28.360425
 30
0.0
 11
5559.223059000001
 21
49.182797
 31
0.0
  0
LINE
  5
14A
  8
0
  6
CONTINUOUS
 62
     7
 10
5768.914067
 20
35.182797
 30
0.0
 11
5768.473537
 21
37.682724
 31
0.0
  0
ARC
  5
14B
  8
0
  6
CONTINUOUS
 62
     7
 10
5844.223155
 20
35.182797
 30
0.0
 40
0.5
 50
270.0
 51
0.0
  0
LINE
  5
14C
  8
0
  6
CONTINUOUS
 62
     7
 10
5702.973022000001
 20
-61.317093
 30
0.0
 11
5702.723155
 21
-59.899168
 31
0.0
  0
LINE
  5
14D
  8
0
  6
CONTINUOUS
 62
     7
 10
6027.588876
 20
37.180055
 30
0.0
 11
6030.316948
 21
42.534195
 31
0.0
  0
LINE
  5
14E
  8
0
  6
CONTINUOUS
 62
     7
 10
5764.973537
 20
37.682732
 30
0.0
 11
5768.473537
 21
37.682724
 31
0.0
  0
LINE
  5
14F
  8
0
  6
CONTINUOUS
 62
     7
 10
5836.716572
 20
37.682797
 30
0.0
 11
5841.723155
 21
37.682797
 31
0.0
  0
LINE
  5
150
  8
0
  6
CONTINUOUS
 62
     7
 10
5977.658179
 20
37.180055
 30
0.0
 11
5974.930107
 21
42.534195
 31
0.0
  0
LINE
  5
151
  8
0
  6
CONTINUOUS
 62
     7
 10
5758.914038
 20
35.182797
 30
0.0
 11
5764.847265000001
 21
35.182797
 31
0.0
  0
LINE
  5
152
  8
0
  6
CONTINUOUS
 62
     7
 10
5559.223067
 20
-67.617204
 30
0.0
 11
5552.223067
 21
-67.66387
 31
0.0
  0
LINE
  5
153
  8
0
  6
CONTINUOUS
 62
     7
 10
5779.532491
 20
-58.817203
 30
0.0
 11
5773.599292
 21
-58.817203
 31
0.0
  0
LINE
  5
154
  8
0
  6
CONTINUOUS
 62
     7
 10
5942.623528
 20
-10.567203
 30
0.0
 11
5941.636336
 21
-10.567203
 31
0.0
  0
LINE
  5
155
  8
0
  6
CONTINUOUS
 62
     7
 10
5779.973022000001
 20
-61.317093
 30
0.0
 11
5779.532491
 21
-58.817203
 31
0.0
  0
LINE
  5
156
  8
0
  6
CONTINUOUS
 62
     7
 10
5763.473022
 20
-61.317085
 30
0.0
 11
5759.973022
 21
-61.317093
 31
0.0
  0
LINE
  5
157
  8
0
  6
CONTINUOUS
 62
     7
 10
5769.973022
 20
-61.317093
 30
0.0
 11
5769.532491000001
 21
-58.817203
 31
0.0
  0
LINE
  5
158
  8
0
  6
CONTINUOUS
 62
     7
 10
5773.473022000001
 20
-61.317085
 30
0.0
 11
5778.473537
 21
37.68272399999999
 31
0.0
  0
LINE
  5
159
  8
0
  6
CONTINUOUS
 62
     7
 10
5769.532491000001
 20
-58.817203
 30
0.0
 11
5763.599292
 21
-58.817203
 31
0.0
  0
LINE
  5
15A
  8
0
  6
CONTINUOUS
 62
     7
 10
6049.352239
 20
-51.027247
 30
0.0
 11
6044.749005
 21
-47.164681
 31
0.0
  0
LINE
  5
15B
  8
0
  6
CONTINUOUS
 62
     7
 10
5559.223067
 20
43.982797
 30
0.0
 11
5552.223067
 21
44.029464
 31
0.0
  0
ARC
  5
15C
  8
0
  6
CONTINUOUS
 62
     7
 10
6045.391795
 20
-46.398633
 30
0.0
 40
1.0
 50
141.041799
 51
230.0
  0
ARC
  5
15D
  8
0
  6
CONTINUOUS
 62
     7
 10
6037.204958
 20
-54.58547
 30
0.0
 40
1.0
 50
40.0
 51
128.958201
  0
LINE
  5
15E
  8
0
  6
CONTINUOUS
 62
     7
 10
5768.914038
 20
35.182797
 30
0.0
 11
5774.847265
 21
35.182797
 31
0.0
  0
ARC
  5
15F
  8
0
  6
CONTINUOUS
 62
     7
 10
6051.166795
 20
-37.67356
 30
0.0
 40
1.0
 50
62.99999999999999
 51
151.958201
  0
LINE
  5
160
  8
0
  6
CONTINUOUS
 62
     7
 10
5702.723155
 20
-62.317203
 30
0.0
 11
5631.223155000001
 21
-62.317203
 31
0.0
  0
ARC
  5
161
  8
0
  6
CONTINUOUS
 62
     7
 10
6037.204958
 20
30.951064
 30
0.0
 40
1.0
 50
231.041799
 51
320.0
  0
LINE
  5
162
  8
0
  6
CENTER
 62
     5
 10
5897.715358
 20
-11.817203
 30
0.0
 11
5522.5
 21
-11.817203
 31
0.0
  0
LINE
  5
164
  8
0
  6
CONTINUOUS
 62
     7
 10
5764.973537
 20
37.682732
 30
0.0
 11
5759.973022
 21
-61.31709300000001
 31
0.0
  0
LINE
  5
165
  8
0
  6
CONTINUOUS
 62
     7
 10
5955.894816
 20
-51.027247
 30
0.0
 11
5960.498051
 21
-47.164681
 31
0.0
  0
ARC
  5
166
  8
0
  6
CONTINUOUS
 62
     7
 10
5552.723097000001
 20
24.834409
 30
0.0
 40
0.4999999999997229
 50
180.0000910000001
 51
285.0
  0
LINE
  5
167
  8
0
  6
CONTINUOUS
 62
     7
 10
5774.973537
 20
37.682732
 30
0.0
 11
5778.473537
 21
37.682724
 31
0.0
  0
LINE
  5
168
  8
0
  6
CONTINUOUS
 62
     7
 10
5774.973537
 20
37.682732
 30
0.0
 11
5769.973022
 21
-61.31709300000001
 31
0.0
  0
LINE
  5
169
  8
0
  6
CONTINUOUS
 62
     7
 10
5773.473022000001
 20
-61.317085
 30
0.0
 11
5769.973022
 21
-61.317093
 31
0.0
  0
LINE
  5
16A
  8
0
  6
CONTINUOUS
 62
     7
 10
5778.914067000001
 20
35.182797
 30
0.0
 11
5778.473537
 21
37.682724
 31
0.0
  0
LINE
  5
16B
  8
0
  6
CONTINUOUS
 62
     7
 10
5941.636336
 20
-13.067203
 30
0.0
 11
5942.623528
 21
-13.067203
 31
0.0
  0
LINE
  5
16C
  8
0
  6
CONTINUOUS
 62
     7
 10
5552.223059000001
 20
-72.817203
 30
0.0
 11
5552.223097
 21
-48.468815
 31
0.0
  0
ARC
  5
16D
  8
0
  6
CONTINUOUS
 62
     7
 10
6002.623528
 20
-11.817203
 30
0.0
 40
54.0
 50
321.041799
 51
331.958201
  0
LINE
  5
16E
  8
0
  6
CONTINUOUS
 62
     7
 10
5977.658181
 20
-60.814463
 30
0.0
 11
5974.930107
 21
-66.168601
 31
0.0
  0
ARC
  5
16F
  8
0
  6
CONTINUOUS
 62
     7
 10
5844.223155
 20
-58.817203
 30
0.0
 40
0.5
 50
0.0
 51
90.0
  0
ARC
  5
170
  8
0
  6
CONTINUOUS
 62
     7
 10
5556.223092
 20
-51.994827
 30
0.0
 40
3.000000000000114
 50
0.0
 51
75.0
  0
LINE
  5
171
  8
0
  6
CONTINUOUS
 62
     7
 10
5841.723155
 20
-61.317203
 30
0.0
 11
5841.723155
 21
37.682797
 31
0.0
  0
ARC
  5
172
  8
0
  6
CONTINUOUS
 62
     7
 10
5556.223092
 20
28.36042
 30
0.0
 40
3.000000000000114
 50
285.0
 51
0.0000909999999976
  0
LINE
  5
173
  8
0
  6
CONTINUOUS
 62
     7
 10
5841.723155
 20
-61.317203
 30
0.0
 11
5836.723155
 21
-61.317203
 31
0.0
  0
ARC
  5
174
  8
0
  6
CONTINUOUS
 62
     7
 10
6028.479884
 20
36.726065
 30
0.0
 40
1.0
 50
153.0
 51
241.958201
  0
ARC
  5
175
  8
0
  6
CONTINUOUS
 62
     7
 10
6002.623528
 20
-11.817203
 30
0.0
 40
54.0
 50
208.041799
 51
218.958201
  0
ARC
  5
176
  8
0
  6
CONTINUOUS
 62
     7
 10
5842.223155
 20
35.182797
 30
0.0
 40
0.5
 50
180.0
 51
270.0
  0
ARC
  5
177
  8
0
  6
CONTINUOUS
 62
     7
 10
6002.623528
 20
-11.817203
 30
0.0
 40
54.0
 50
231.041799
 51
241.958201
  0
LINE
  5
178
  8
0
  6
CONTINUOUS
 62
     7
 10
5702.723155
 20
38.682797
 30
0.0
 11
5631.223155000001
 21
38.682797
 31
0.0
  0
ARC
  5
179
  8
0
  6
CONTINUOUS
 62
     7
 10
6002.623528
 20
-11.817203
 30
0.0
 40
54.0
 50
51.041799
 51
61.958201
  0
LINE
  5
17A
  8
0
  6
CONTINUOUS
 62
     7
 10
5763.473022
 20
-61.317085
 30
0.0
 11
5768.473537
 21
37.68272399999999
 31
0.0
  0
LINE
  5
17B
  8
0
  6
CONTINUOUS
 62
     7
 10
5702.723155
 20
38.682797
 30
0.0
 11
5702.723155
 21
-62.317203
 31
0.0
  0
ARC
  5
17C
  8
0
  6
CONTINUOUS
 62
     7
 10
6002.623528
 20
-11.817203
 30
0.0
 40
54.0
 50
298.041799
 51
308.958201
  0
ARC
  5
17D
  8
0
  6
CONTINUOUS
 62
     7
 10
5860.223155
 20
35.182797
 30
0.0
 40
0.5
 50
180.0
 51
270.0
  0
LINE
  5
17E
  8
0
  6
CONTINUOUS
 62
     7
 10
5942.623528
 20
-13.067203
 30
0.0
 11
5942.623528
 21
-10.567203
 31
0.0
  0
LINE
  5
17F
  8
0
  6
CONTINUOUS
 62
     7
 10
5859.723155
 20
-60.317203
 30
0.0
 11
5859.723155
 21
36.68279699999999
 31
0.0
  0
ARC
  5
180
  8
0
  6
CONTINUOUS
 62
     7
 10
5552.723097000001
 20
-48.468816
 30
0.0
 40
0.4999999999997229
 50
75.0
 51
179.999909
  0
LINE
  5
181
  8
0
  6
CONTINUOUS
 62
     7
 10
5850.723155
 20
-60.317203
 30
0.0
 11
5850.723155
 21
36.68279699999999
 31
0.0
  0
ARC
  5
182
  8
0
  6
CONTINUOUS
 62
     7
 10
6045.391795
 20
22.764227
 30
0.0
 40
1.0
 50
130.0
 51
218.958201
  0
LINE
  5
183
  8
0
  6
CONTINUOUS
 62
     7
 10
5953.62627
 20
13.148148
 30
0.0
 11
5948.27213
 21
15.876217
 31
0.0
  0
LINE
  5
184
  8
0
  6
CONTINUOUS
 62
     7
 10
5844.223155
 20
-58.317203
 30
0.0
 11
5842.223155
 21
-58.317203
 31
0.0
  0
LINE
  5
185
  8
0
  6
CONTINUOUS
 62
     7
 10
6051.620786
 20
13.148148
 30
0.0
 11
6056.974925
 21
15.876217
 31
0.0
  0
LINE
  5
186
  8
0
  6
CONTINUOUS
 62
     7
 10
6041.833572
 20
-58.545914
 30
0.0
 11
6037.971
 21
-53.942685
 31
0.0
  0
LINE
  5
187
  8
0
  6
CONTINUOUS
 62
     7
 10
5847.723155
 20
-60.317203
 30
0.0
 11
5847.723155
 21
36.68279699999999
 31
0.0
  0
LINE
  5
188
  8
0
  6
CONTINUOUS
 62
     7
 10
5874.723155
 20
-58.317203
 30
0.0
 11
5860.223155
 21
-58.317203
 31
0.0
  0
LINE
  5
189
  8
0
  6
CONTINUOUS
 62
     7
 10
5963.413483
 20
34.911508
 30
0.0
 11
5967.276055
 21
30.308279
 31
0.0
  0
ARC
  5
18A
  8
0
  6
CONTINUOUS
 62
     7
 10
5860.223155
 20
-58.817203
 30
0.0
 40
0.5
 50
90.0
 51
180.0
  0
ARC
  5
18B
  8
0
  6
CONTINUOUS
 62
     7
 10
5848.223155
 20
-58.817203
 30
0.0
 40
0.5
 50
90.0
 51
180.0
  0
LINE
  5
18C
  8
0
  6
CENTER
 62
     1
 10
6065.623528
 20
-11.817203
 30
0.0
 11
5939.623528
 21
-11.817203
 31
0.0
  0
LINE
  5
18D
  8
0
  6
CONTINUOUS
 62
     7
 10
5842.223155
 20
34.682797
 30
0.0
 11
5844.223155
 21
34.682797
 31
0.0
  0
ARC
  5
18E
  8
0
  6
CONTINUOUS
 62
     7
 10
5881.910409
 20
-65.275482
 30
0.0
 40
0.812749
 50
330.470348
 51
359.851057
  0
ARC
  5
18F
  8
0
  6
CONTINUOUS
 62
     7
 10
6002.623528
 20
-11.817203
 30
0.0
 40
54.0
 50
141.041799
 51
151.958201
  0
ARC
  5
190
  8
0
  6
CONTINUOUS
 62
     7
 10
5954.08026
 20
-37.67356
 30
0.0
 40
1.0
 50
28.041799
 51
117.0
  0
LINE
  5
191
  8
0
  6
CONTINUOUS
 62
     7
 10
5881.723155
 20
-66.168601
 30
0.0
 11
5878.723155
 21
-66.168601
 31
0.0
  0
ARC
  5
192
  8
0
  6
CONTINUOUS
 62
     7
 10
5959.85526
 20
22.764227
 30
0.0
 40
1.0
 50
321.041799
 51
50.0
  0
LINE
  5
193
  8
0
  6
CONTINUOUS
 62
     7
 10
5963.413483
 20
-58.545914
 30
0.0
 11
5967.276055
 21
-53.942685
 31
0.0
  0
LINE
  5
194
  8
0
  6
CONTINUOUS
 62
     7
 10
6041.833572
 20
34.911508
 30
0.0
 11
6037.971
 21
30.308279
 31
0.0
  0
ARC
  5
195
  8
0
  6
CONTINUOUS
 62
     7
 10
5874.723155
 20
-60.317203
 30
0.0
 40
2.0
 50
0.0
 51
90.0
  0
LINE
  5
196
  8
0
  6
CONTINUOUS
 62
     7
 10
5856.723155
 20
-60.317203
 30
0.0
 11
5856.723155
 21
36.68279699999999
 31
0.0
  0
ARC
  5
197
  8
0
  6
CONTINUOUS
 62
     7
 10
6002.623528
 20
-11.817203
 30
0.0
 40
61.0
 50
181.174176
 51
178.825824
  0
LINE
  5
198
  8
0
  6
CONTINUOUS
 62
     7
 10
5706.473022000001
 20
-61.317085
 30
0.0
 11
5711.473537000001
 21
37.68272399999999
 31
0.0
  0
LINE
  5
199
  8
0
  6
CONTINUOUS
 62
     7
 10
5552.852507000001
 20
24.351446
 30
0.0
 11
5556.999549000001
 21
25.462643
 31
0.0
  0
LINE
  5
19A
  8
0
  6
CONTINUOUS
 62
     7
 10
5881.723155
 20
-72.817203
 30
0.0
 11
5876.723155
 21
-72.817203
 31
0.0
  0
ARC
  5
19B
  8
0
  6
CONTINUOUS
 62
     7
 10
5959.85526
 20
-46.398633
 30
0.0
 40
1.0
 50
310.0
 51
38.95820100000003
  0
CIRCLE
  5
19C
  8
0
  6
CONTINUOUS
 62
     7
 10
6002.623528
 20
-11.817203
 30
0.0
 40
32.5
  0
ARC
  5
19D
  8
0
  6
CONTINUOUS
 62
     7
 10
5881.877395
 20
-38.127701
 30
0.0
 40
1.366763
 50
282.377732
 51
293.860307
  0
ARC
  5
19E
  8
0
  6
CONTINUOUS
 62
     7
 10
5854.223155
 20
35.182797
 30
0.0
 40
0.5
 50
180.0
 51
270.0
  0
ARC
  5
19F
  8
0
  6
CONTINUOUS
 62
     7
 10
5976.767171
 20
-60.360471
 30
0.0
 40
1.0
 50
333.0
 51
61.95820099999998
  0
LINE
  5
1A0
  8
0
  6
CONTINUOUS
 62
     7
 10
5529.223155000001
 20
49.182797
 30
0.0
 11
5529.223155000001
 21
-72.817203
 31
0.0
  0
LINE
  5
1A1
  8
0
  6
CONTINUOUS
 62
     7
 10
5850.223155
 20
-58.317203
 30
0.0
 11
5848.223155
 21
-58.317203
 31
0.0
  0
LINE
  5
1A2
  8
0
  6
CONTINUOUS
 62
     7
 10
6051.620788
 20
-36.78255
 30
0.0
 11
6056.974925
 21
-39.510624
 31
0.0
  0
LINE
  5
1A3
  8
0
  6
CONTINUOUS
 62
     7
 10
5953.626268
 20
-36.78255
 30
0.0
 11
5948.27213
 21
-39.510624
 31
0.0
  0
ARC
  5
1A4
  8
0
  6
CONTINUOUS
 62
     7
 10
5882.139745
 20
-38.708735
 30
0.0
 40
0.729282
 50
293.475755
 51
310.936106
  0
LINE
  5
1A5
  8
0
  6
CONTINUOUS
 62
     7
 10
5629.723155000001
 20
-72.817203
 30
0.0
 11
5629.723155000001
 21
49.182797
 31
0.0
  0
LINE
  5
1A6
  8
0
  6
CONTINUOUS
 62
     7
 10
5860.223155
 20
34.682797
 30
0.0
 11
5874.723155
 21
34.682797
 31
0.0
  0
ARC
  5
1A7
  8
0
  6
CONTINUOUS
 62
     7
 10
5856.223155
 20
-58.817203
 30
0.0
 40
0.5
 50
0.0
 51
90.0
  0
ARC
  5
1A8
  8
0
  6
CONTINUOUS
 62
     7
 10
5842.223155
 20
-58.817203
 30
0.0
 40
0.5
 50
90.0
 51
180.0
  0
LINE
  5
1A9
  8
0
  6
CONTINUOUS
 62
     7
 10
5856.223155
 20
-58.317203
 30
0.0
 11
5854.223155
 21
-58.317203
 31
0.0
  0
LINE
  5
1AA
  8
0
  6
CONTINUOUS
 62
     7
 10
5856.723155
 20
36.682797
 30
0.0
 11
5859.723155
 21
36.682797
 31
0.0
  0
LINE
  5
1AB
  8
0
  6
CONTINUOUS
 62
     7
 10
5552.223059000001
 20
49.182797
 30
0.0
 11
5552.223097
 21
24.834408
 31
0.0
  0
ARC
  5
1AC
  8
0
  6
CONTINUOUS
 62
     7
 10
5882.441342
 20
-39.039058
 30
0.0
 40
0.282361
 50
308.621135
 51
356.431409
  0
LINE
  5
1AD
  8
0
  6
CONTINUOUS
 62
     7
 10
5629.723155000001
 20
49.182797
 30
0.0
 11
5631.223155000001
 21
38.682797
 31
0.0
  0
ARC
  5
1AE
  8
0
  6
CONTINUOUS
 62
     7
 10
5968.042097
 20
-54.58547
 30
0.0
 40
1.0
 50
51.041799
 51
140.0
  0
ARC
  5
1AF
  8
0
  6
CONTINUOUS
 62
     7
 10
5881.831999
 20
-65.232132
 30
0.0
 40
0.90234
 50
311.530078
 51
330.529262
  0
ARC
  5
1B0
  8
0
  6
CONTINUOUS
 62
     7
 10
5881.763501
 20
-65.155186
 30
0.0
 40
1.005358
 50
293.872287
 51
311.544961
  0
LINE
  5
1B1
  8
0
  6
CONTINUOUS
 62
     7
 10
5559.223092000001
 20
-51.994831
 30
0.0
 11
5559.223059000001
 21
-72.817203
 31
0.0
  0
ARC
  5
1B2
  8
0
  6
CONTINUOUS
 62
     7
 10
6028.479884
 20
-60.360471
 30
0.0
 40
1.0
 50
118.041799
 51
207.0
  0
ARC
  5
1B3
  8
0
  6
CONTINUOUS
 62
     7
 10
5856.223155
 20
35.182797
 30
0.0
 40
0.5
 50
270.0
 51
0.0
  0
ARC
  5
1B4
  8
0
  6
CONTINUOUS
 62
     7
 10
6051.166795
 20
14.039153
 30
0.0
 40
1.0
 50
208.041799
 51
297.0
  0
ARC
  5
1B5
  8
0
  6
CONTINUOUS
 62
     7
 10
5854.223155
 20
-58.817203
 30
0.0
 40
0.5
 50
90.0
 51
180.0
  0
ARC
  5
1B6
  8
0
  6
CONTINUOUS
 62
     7
 10
5881.72836
 20
-49.554014
 30
0.0
 40
1.473242
 50
269.797581
 51
287.459078
  0
LINE
  5
1B7
  8
0
  6
CONTINUOUS
 62
     7
 10
5854.223155
 20
34.682797
 30
0.0
 11
5856.223155
 21
34.682797
 31
0.0
  0
LINE
  5
1B8
  8
0
  6
CONTINUOUS
 62
     7
 10
6027.588874
 20
-60.814463
 30
0.0
 11
6030.316948
 21
-66.168601
 31
0.0
  0
LINE
  5
1B9
  8
0
  6
CONTINUOUS
 62
     7
 10
5881.723155
 20
-39.510624
 30
0.0
 11
5878.723155
 21
-39.510624
 31
0.0
  0
ARC
  5
1BA
  8
0
  6
CONTINUOUS
 62
     7
 10
6002.623528
 20
-11.817203
 30
0.0
 40
54.0
 50
28.041799
 51
38.958201
  0
LINE
  5
1BB
  8
0
  6
CONTINUOUS
 62
     7
 10
5878.723155
 20
-58.545914
 30
0.0
 11
5881.723155
 21
-58.545914
 31
0.0
  0
ARC
  5
1BC
  8
0
  6
CONTINUOUS
 62
     7
 10
5740.932329
 20
-47.416005
 30
0.0
 40
0.7603209999995642
 50
217.450718
 51
236.803891
  0
LINE
  5
1BD
  8
0
  6
CONTINUOUS
 62
     7
 10
5529.223155000001
 20
49.182797
 30
0.0
 11
5629.723155000001
 21
49.182797
 31
0.0
  0
LINE
  5
1BE
  8
0
  6
CONTINUOUS
 62
     7
 10
5844.723155
 20
36.682797
 30
0.0
 11
5847.723155
 21
36.682797
 31
0.0
  0
ARC
  5
1BF
  8
0
  6
CONTINUOUS
 62
     7
 10
5881.72836
 20
25.919608
 30
0.0
 40
1.473242
 50
72.54092200000001
 51
90.20241900000002
  0
LINE
  5
1C0
  8
0
  6
CONTINUOUS
 62
     7
 10
5878.723155
 20
42.534195
 30
0.0
 11
5878.723155
 21
34.911508
 31
0.0
  0
ARC
  5
1C1
  8
0
  6
CONTINUOUS
 62
     7
 10
5881.723155
 20
-71.817203
 30
0.0
 40
1.0
 50
270.0
 51
0.0
  0
LINE
  5
1C2
  8
0
  6
CONTINUOUS
 62
     7
 10
5752.723155
 20
-53.007419
 30
0.0
 11
5752.723155
 21
-14.506145
 31
0.0
  0
LINE
  5
1C3
  8
0
  6
CONTINUOUS
 62
     7
 10
5631.223155000001
 20
38.682797
 30
0.0
 11
5631.223155000001
 21
-62.317203
 31
0.0
  0
ARC
  5
1C4
  8
0
  6
CONTINUOUS
 62
     7
 10
5881.910409
 20
41.641076
 30
0.0
 40
0.812749
 50
0.148943
 51
29.529652
  0
LINE
  5
1C5
  8
0
  6
CONTINUOUS
 62
     7
 10
5878.723155
 20
-39.510624
 30
0.0
 11
5878.723155
 21
-51.027247
 31
0.0
  0
ARC
  5
1C6
  8
0
  6
CONTINUOUS
 62
     7
 10
5881.726843
 20
33.654964
 30
0.0
 40
1.256549
 50
69.33083799999999
 51
90.168152
  0
ARC
  5
1C7
  8
0
  6
CONTINUOUS
 62
     7
 10
5882.441342
 20
15.404652
 30
0.0
 40
0.282361
 50
3.568591
 51
51.378865
  0
LINE
  5
1C8
  8
0
  6
CONTINUOUS
 62
     7
 10
5706.473283000001
 20
-61.316333
 30
0.0
 11
5702.973283000001
 21
-61.316341
 31
0.0
  0
ARC
  5
1C9
  8
0
  6
CONTINUOUS
 62
     7
 10
5954.08026
 20
14.039153
 30
0.0
 40
1.0
 50
243.0000000000001
 51
331.958201
  0
LINE
  5
1CA
  8
0
  6
CONTINUOUS
 62
     7
 10
5850.723155
 20
36.682797
 30
0.0
 11
5853.723155
 21
36.682797
 31
0.0
  0
LINE
  5
1CB
  8
0
  6
CONTINUOUS
 62
     7
 10
5878.723155
 20
27.392841
 30
0.0
 11
5881.723155
 21
27.392841
 31
0.0
  0
LINE
  5
1CC
  8
0
  6
CONTINUOUS
 62
     7
 10
5848.223155
 20
34.682797
 30
0.0
 11
5850.223155
 21
34.682797
 31
0.0
  0
ARC
  5
1CD
  8
0
  6
CONTINUOUS
 62
     7
 10
5968.042097
 20
30.951064
 30
0.0
 40
1.0
 50
220.0
 51
308.958201
  0
ARC
  5
1CE
  8
0
  6
CONTINUOUS
 62
     7
 10
5882.032059
 20
-50.203924
 30
0.0
 40
0.749574
 50
302.089215
 51
321.365231
  0
ARC
  5
1CF
  8
0
  6
CONTINUOUS
 62
     7
 10
5848.223155
 20
35.182797
 30
0.0
 40
0.5
 50
180.0
 51
270.0
  0
LINE
  5
1D0
  8
0
  6
CONTINUOUS
 62
     7
 10
5740.223155
 20
-8.650985
 30
0.0
 11
5740.223155
 21
23.94469
 31
0.0
  0
LINE
  5
1D1
  8
0
  6
CONTINUOUS
 62
     7
 10
5752.723155
 20
-9.12826
 30
0.0
 11
5752.723155
 21
29.373014
 31
0.0
  0
ARC
  5
1D2
  8
0
  6
CONTINUOUS
 62
     7
 10
5881.837518
 20
-49.900257
 30
0.0
 40
1.110201
 50
287.446283
 51
302.269833
  0
ARC
  5
1D3
  8
0
  6
CONTINUOUS
 62
     7
 10
5881.730143
 20
13.831034
 30
0.0
 40
2.045196
 50
77.569869
 51
90.195753
  0
LINE
  5
1D4
  8
0
  6
CONTINUOUS
 62
     7
 10
5853.723155
 20
-60.317203
 30
0.0
 11
5850.723155
 21
-60.317203
 31
0.0
  0
ARC
  5
1D5
  8
0
  6
CONTINUOUS
 62
     7
 10
5882.255478
 20
26.741414
 30
0.0
 40
0.467757
 50
1.058328
 51
39.273855
  0
ARC
  5
1D6
  8
0
  6
CONTINUOUS
 62
     7
 10
5881.831999
 20
41.597726
 30
0.0
 40
0.90234
 50
29.470738
 51
48.469922
  0
LINE
  5
1D7
  8
0
  6
CONTINUOUS
 62
     7
 10
5878.723155
 20
-66.168601
 30
0.0
 11
5878.723155
 21
-58.545914
 31
0.0
  0
LINE
  5
1D8
  8
0
  6
CONTINUOUS
 62
     7
 10
5752.723155
 20
-67.196452
 30
0.0
 11
5741.136
 21
-66.184097
 31
0.0
  0
LINE
  5
1D9
  8
0
  6
CONTINUOUS
 62
     7
 10
5859.723155
 20
-60.317203
 30
0.0
 11
5856.723155
 21
-60.317203
 31
0.0
  0
LINE
  5
1DA
  8
0
  6
CONTINUOUS
 62
     7
 10
5529.223155000001
 20
-72.817203
 30
0.0
 11
5629.723155000001
 21
-72.817203
 31
0.0
  0
CIRCLE
  5
1DB
  8
0
  6
CONTINUOUS
 62
     7
 10
6002.623528
 20
-11.817203
 30
0.0
 40
41.912083
  0
ARC
  5
1DC
  8
0
  6
CONTINUOUS
 62
     7
 10
5741.076691000001
 20
23.938918
 30
0.0
 40
0.6749680000002201
 50
84.95895100000003
 51
116.460148
  0
ARC
  5
1DD
  8
0
  6
CONTINUOUS
 62
     7
 10
5882.032059
 20
26.569518
 30
0.0
 40
0.749574
 50
38.634769
 51
57.910785
  0
ARC
  5
1DE
  8
0
  6
CONTINUOUS
 62
     7
 10
5881.726843
 20
-57.28937
 30
0.0
 40
1.256549
 50
269.831848
 51
290.669162
  0
LINE
  5
1DF
  8
0
  6
CONTINUOUS
 62
     7
 10
5847.723155
 20
-60.317203
 30
0.0
 11
5844.723155
 21
-60.317203
 31
0.0
  0
ARC
  5
1E0
  8
0
  6
CONTINUOUS
 62
     7
 10
5740.722064
 20
-47.571326
 30
0.0
 40
0.4989689999996827
 50
180.892113
 51
217.973351
  0
LINE
  5
1E1
  8
0
  6
CONTINUOUS
 62
     7
 10
5629.723155000001
 20
-72.817203
 30
0.0
 11
5631.223155000001
 21
-62.317203
 31
0.0
  0
LINE
  5
1E2
  8
0
  6
CONTINUOUS
 62
     7
 10
5876.723155
 20
-72.817203
 30
0.0
 11
5876.723155
 21
49.169988
 31
0.0
  0
ARC
  5
1E3
  8
0
  6
CONTINUOUS
 62
     7
 10
5881.941029
 20
-57.673565
 30
0.0
 40
0.811928
 50
307.0532650000002
 51
326.435898
  0
LINE
  5
1E4
  8
0
  6
CONTINUOUS
 62
     7
 10
5882.723155
 20
-71.817203
 30
0.0
 11
5882.723155
 21
48.18279699999999
 31
0.0
  0
ARC
  5
1E5
  8
0
  6
CONTINUOUS
 62
     7
 10
5850.223155
 20
35.182797
 30
0.0
 40
0.5
 50
270.0
 51
0.0
  0
LINE
  5
1E6
  8
0
  6
CONTINUOUS
 62
     7
 10
5730.223155
 20
-8.657212
 30
0.0
 11
5730.223155
 21
-8.6503
 31
0.0
  0
ARC
  5
1E7
  8
0
  6
CONTINUOUS
 62
     7
 10
5881.803854
 20
-57.494123
 30
0.0
 40
1.037793
 50
290.6812009999999
 51
307.127927
  0
ARC
  5
1E8
  8
0
  6
CONTINUOUS
 62
     7
 10
5741.166790000001
 20
-47.09692
 30
0.0
 40
1.149171999999865
 50
250.116245
 51
268.464656
  0
ARC
  5
1E9
  8
0
  6
CONTINUOUS
 62
     7
 10
5881.941029
 20
34.039159
 30
0.0
 40
0.811928
 50
33.564102
 51
52.946735
  0
ARC
  5
1EA
  8
0
  6
CONTINUOUS
 62
     7
 10
6002.623528
 20
-11.817203
 30
0.0
 40
54.0
 50
118.041799
 51
128.958201
  0
LINE
  5
1EB
  8
0
  6
CONTINUOUS
 62
     7
 10
5752.723155
 20
25.289602
 30
0.0
 11
5741.136
 21
24.611274
 31
0.0
  0
LINE
  5
1EC
  8
0
  6
CONTINUOUS
 62
     7
 10
5878.723155
 20
-51.027247
 30
0.0
 11
5881.723155
 21
-51.027247
 31
0.0
  0
ARC
  5
1ED
  8
0
  6
CONTINUOUS
 62
     7
 10
5881.877395
 20
14.493295
 30
0.0
 40
1.366763
 50
66.13969300000001
 51
77.622268
  0
LINE
  5
1EE
  8
0
  6
CONTINUOUS
 62
     7
 10
5844.723155
 20
-60.317203
 30
0.0
 11
5844.723155
 21
36.68279699999999
 31
0.0
  0
ARC
  5
1EF
  8
0
  6
CONTINUOUS
 62
     7
 10
5976.767171
 20
36.726065
 30
0.0
 40
1.0
 50
298.041799
 51
27.0
  0
ARC
  5
1F0
  8
0
  6
CONTINUOUS
 62
     7
 10
5741.115478
 20
23.507047
 30
0.0
 40
1.090345999999798
 50
108.143769
 51
123.350615
  0
LINE
  5
1F1
  8
0
  6
CENTER
 62
     1
 10
6002.623528
 20
51.182797
 30
0.0
 11
6002.623528
 21
-74.81720299999999
 31
0.0
  0
ARC
  5
1F2
  8
0
  6
CONTINUOUS
 62
     7
 10
5881.725008
 20
-65.067295
 30
0.0
 40
1.101307
 50
269.903593
 51
293.85307
  0
LINE
  5
1F3
  8
0
  6
CONTINUOUS
 62
     7
 10
5881.723155
 20
15.876217
 30
0.0
 11
5878.723155
 21
15.876217
 31
0.0
  0
LINE
  5
1F4
  8
0
  6
CONTINUOUS
 62
     7
 10
5881.723155
 20
42.534195
 30
0.0
 11
5878.723155
 21
42.534195
 31
0.0
  0
ARC
  5
1F5
  8
0
  6
CONTINUOUS
 62
     7
 10
5741.115478
 20
-47.141452
 30
0.0
 40
1.090345999999798
 50
236.649385
 51
251.856231
  0
LINE
  5
1F6
  8
0
  6
CONTINUOUS
 62
     7
 10
5756.944937000001
 20
-72.817203
 30
0.0
 11
5756.944937000001
 21
49.182797
 31
0.0
  0
LINE
  5
1F7
  8
0
  6
CONTINUOUS
 62
     7
 10
5740.223155
 20
-65.189267
 30
0.0
 11
5740.223155
 21
-56.941364
 31
0.0
  0
ARC
  5
1F8
  8
0
  6
CONTINUOUS
 62
     7
 10
5881.725008
 20
41.432889
 30
0.0
 40
1.101307
 50
66.14693
 51
90.09640699999999
  0
ARC
  5
1F9
  8
0
  6
CONTINUOUS
 62
     7
 10
5882.139745
 20
15.074329
 30
0.0
 40
0.729282
 50
49.063894
 51
66.524245
  0
ARC
  5
1FA
  8
0
  6
CONTINUOUS
 62
     7
 10
5740.932329
 20
23.781599
 30
0.0
 40
0.7603209999995642
 50
123.196109
 51
142.549282
  0
LINE
  5
1FB
  8
0
  6
CONTINUOUS
 62
     7
 10
5702.723155
 20
35.182797
 30
0.0
 11
5707.381886000001
 21
35.182797
 31
0.0
  0
ARC
  5
1FC
  8
0
  6
CONTINUOUS
 62
     7
 10
5881.723155
 20
48.182797
 30
0.0
 40
1.0
 50
0.0
 51
90.0
  0
LINE
  5
1FD
  8
0
  6
CONTINUOUS
 62
     7
 10
5878.723155
 20
15.876217
 30
0.0
 11
5878.723155
 21
27.392841
 31
0.0
  0
LINE
  5
1FE
  8
0
  6
CONTINUOUS
 62
     7
 10
5853.723155
 20
-60.317203
 30
0.0
 11
5853.723155
 21
36.68279699999999
 31
0.0
  0
ARC
  5
1FF
  8
0
  6
CONTINUOUS
 62
     7
 10
5881.803854
 20
33.859717
 30
0.0
 40
1.037793
 50
52.87207300000001
 51
69.318799
  0
ARC
  5
200
  8
0
  6
CONTINUOUS
 62
     7
 10
5882.098307
 20
34.140467
 30
0.0
 40
0.624869
 50
0.458169
 51
33.796749
  0
LINE
  5
201
  8
0
  6
CONTINUOUS
 62
     7
 10
5752.723155
 20
-48.924007
 30
0.0
 11
5741.136
 21
-48.245679
 31
0.0
  0
ARC
  5
202
  8
0
  6
CONTINUOUS
 62
     7
 10
5881.730143
 20
-37.46544
 30
0.0
 40
2.045196
 50
269.804247
 51
282.430131
  0
ARC
  5
203
  8
0
  6
CONTINUOUS
 62
     7
 10
5874.723155
 20
36.682797
 30
0.0
 40
2.0
 50
270.0
 51
0.0
  0
ARC
  5
204
  8
0
  6
CONTINUOUS
 62
     7
 10
5740.722064
 20
23.936921
 30
0.0
 40
0.4989689999996827
 50
142.026649
 51
179.107887
  0
LINE
  5
205
  8
0
  6
CONTINUOUS
 62
     7
 10
5878.723155
 20
34.911508
 30
0.0
 11
5881.723155
 21
34.911508
 31
0.0
  0
LINE
  5
206
  8
0
  6
CONTINUOUS
 62
     7
 10
5727.223155
 20
-69.817203
 30
0.0
 11
5727.223155
 21
46.18279700000001
 31
0.0
  0
LINE
  5
207
  8
0
  6
CONTINUOUS
 62
     7
 10
5881.723155
 20
49.182797
 30
0.0
 11
5876.723155
 21
49.182797
 31
0.0
  0
LINE
  5
208
  8
0
  6
CONTINUOUS
 62
     7
 10
5740.223155
 20
-47.579095
 30
0.0
 11
5740.223155
 21
-14.98342
 31
0.0
  0
LINE
  5
209
  8
0
  6
CONTINUOUS
 62
     7
 10
5730.223155
 20
-14.984105
 30
0.0
 11
5730.223155
 21
-14.977193
 31
0.0
  0
ARC
  5
20A
  8
0
  6
CONTINUOUS
 62
     7
 10
5881.837518
 20
26.265851
 30
0.0
 40
1.110201
 50
57.73016699999999
 51
72.553717
  0
LINE
  5
20B
  8
0
  6
CONTINUOUS
 62
     7
 10
5752.723155
 20
43.562047
 30
0.0
 11
5741.136
 21
42.549692
 31
0.0
  0
LINE
  5
20C
  8
0
  6
CONTINUOUS
 62
     7
 10
5752.723155
 20
33.175753
 30
0.0
 11
5752.723155
 21
49.123503
 31
0.0
  0
ARC
  5
20D
  8
0
  6
CONTINUOUS
 62
     7
 10
5882.098307
 20
-57.774873
 30
0.0
 40
0.624869
 50
326.203251
 51
359.541831
  0
ARC
  5
20E
  8
0
  6
CONTINUOUS
 62
     7
 10
5850.223155
 20
-58.817203
 30
0.0
 40
0.5
 50
0.0
 51
90.0
  0
LINE
  5
20F
  8
0
  6
CONTINUOUS
 62
     7
 10
5752.723155
 20
-72.757908
 30
0.0
 11
5752.723155
 21
-56.810158
 31
0.0
  0
TEXT
  5
210
  8
0
  6
CONTINUOUS
 62
     7
 10
3.870454545454521
 20
260.516167000125
 30
0.0
 40
3.5
  1
4
 50
270.0
  0
TEXT
  5
211
  8
0
  6
CONTINUOUS
 62
     7
 10
413.4281511816932
 20
257.0272727272726
 30
0.0
 40
3.5
  1
4
  0
LINE
  5
212
  8
0
  6
CONTINUOUS
 62
     7
 10
5726.473022
 20
-61.317085
 30
0.0
 11
5722.973022
 21
-61.317093
 31
0.0
  0
LINE
  5
213
  8
0
  6
CONTINUOUS
 62
     7
 10
5722.973022
 20
-61.317093
 30
0.0
 11
5722.532491000001
 21
-58.817203
 31
0.0
  0
LINE
  5
214
  8
0
  6
CONTINUOUS
 62
     7
 10
5721.914067
 20
35.182797
 30
0.0
 11
5721.473537000001
 21
37.682724
 31
0.0
  0
INSERT
  5
215
  8
0
 62
     7
  2
*U2
 10
0.0
 20
0.0
 30
0.0
  0
INSERT
  5
216
  8
0
 62
     7
  2
*U3
 10
0.0
 20
0.0
 30
0.0
  0
INSERT
  5
217
  8
0
 62
     7
  2
*U4
 10
0.0
 20
0.0
 30
0.0
  0
INSERT
  5
218
  8
0
 62
     7
  2
*U5
 10
0.0
 20
0.0
 30
0.0
  0
INSERT
  5
219
  8
0
 62
     7
  2
*U6
 10
0.0
 20
0.0
 30
0.0
  0
LINE
  5
21A
  8
0
  6
CONTINUOUS
 62
     7
 10
0.0
 20
0.0
 30
0.0
 11
420.0
 21
0.0
 31
0.0
  0
LINE
  5
21B
  8
0
  6
CONTINUOUS
 62
     7
 10
420.0
 20
0.0
 30
0.0
 11
420.0
 21
297.0
 31
0.0
  0
LINE
  5
21C
  8
0
  6
CONTINUOUS
 62
     7
 10
420.0
 20
297.0
 30
0.0
 11
0.0
 21
297.0
 31
0.0
  0
LINE
  5
21D
  8
0
  6
CONTINUOUS
 62
     7
 10
0.0
 20
297.0
 30
0.0
 11
0.0
 21
0.0
 31
0.0
  0
LINE
  5
21E
  8
0
  6
CONTINUOUS
 62
     7
 10
10.0
 20
10.0
 30
0.0
 11
409.9999999999999
 21
10.0
 31
0.0
  0
LINE
  5
21F
  8
0
  6
CONTINUOUS
 62
     7
 10
409.9999999999999
 20
10.0
 30
0.0
 11
409.9999999999999
 21
286.9999999999999
 31
0.0
  0
LINE
  5
220
  8
0
  6
CONTINUOUS
 62
     7
 10
409.9999999999999
 20
286.9999999999999
 30
0.0
 11
10.00000000000006
 21
286.9999999999999
 31
0.0
  0
LINE
  5
221
  8
0
  6
CONTINUOUS
 62
     7
 10
10.0
 20
286.9999999999999
 30
0.0
 11
10.0
 21
10.00000000000001
 31
0.0
  0
LINE
  5
222
  8
0
  6
CONTINUOUS
 62
     7
 10
210.0
 20
0.0
 30
0.0
 11
210.0
 21
10.0
 31
0.0
  0
LINE
  5
223
  8
0
  6
CONTINUOUS
 62
     7
 10
420.0
 20
148.5
 30
0.0
 11
409.9999999999999
 21
148.5
 31
0.0
  0
LINE
  5
224
  8
0
  6
CONTINUOUS
 62
     7
 10
210.0
 20
297.0
 30
0.0
 11
210.0
 21
286.9999999999999
 31
0.0
  0
LINE
  5
225
  8
0
  6
CONTINUOUS
 62
     7
 10
0.0
 20
148.5
 30
0.0
 11
10.0
 21
148.5
 31
0.0
  0
LINE
  5
226
  8
0
  6
CONTINUOUS
 62
     7
 10
11.0
 20
152.5
 30
0.0
 11
0.0000000000000017
 21
148.5
 31
0.0
  0
LINE
  5
227
  8
0
  6
CONTINUOUS
 62
     7
 10
0.0
 20
148.5
 30
0.0
 11
11.0
 21
144.5
 31
0.0
  0
LINE
  5
228
  8
0
  6
CONTINUOUS
 62
     7
 10
11.0
 20
144.5
 30
0.0
 11
11.0
 21
152.5
 31
0.0
  0
INSERT
  5
229
  8
0
 62
     7
  2
*U7
 10
0.0
 20
0.0
 30
0.0
  0
LINE
  5
22A
  8
0
  6
CONTINUOUS
 62
     7
 10
206.0
 20
11.0
 30
0.0
 11
210.0
 21
-0.0000000000000017
 31
0.0
  0
LINE
  5
22B
  8
0
  6
CONTINUOUS
 62
     7
 10
210.0
 20
0.0
 30
0.0
 11
214.0
 21
11.0
 31
0.0
  0
LINE
  5
22C
  8
0
  6
CONTINUOUS
 62
     7
 10
214.0
 20
11.0
 30
0.0
 11
206.0
 21
11.0
 31
0.0
  0
INSERT
  5
22D
  8
0
 62
     7
  2
*U8
 10
0.0
 20
0.0
 30
0.0
  0
INSERT
  5
22E
  8
0
 62
     7
  2
*U9
 10
0.0
 20
0.0
 30
0.0
  0
LINE
  5
22F
  8
0
  6
CONTINUOUS
 62
     7
 10
367.5
 20
286.9999999999999
 30
0.0
 11
367.5
 21
292.0
 31
0.0
  0
TEXT
  5
230
  8
0
  6
CONTINUOUS
 62
     7
 10
391.2681818181818
 20
291.6648586970114
 30
0.0
 40
3.5
  1
A
 50
270.0
  0
LINE
  5
231
  8
0
  6
CONTINUOUS
 62
     7
 10
367.5
 20
10.0
 30
0.0
 11
367.5
 21
5.0
 31
0.0
  0
TEXT
  5
232
  8
0
  6
CONTINUOUS
 62
     7
 10
393.1544594848068
 20
4.236363636363635
 30
0.0
 40
3.5
  1
A
  0
LINE
  5
233
  8
0
  6
CONTINUOUS
 62
     7
 10
315.0
 20
286.9999999999999
 30
0.0
 11
315.0
 21
292.0
 31
0.0
  0
TEXT
  5
234
  8
0
  6
CONTINUOUS
 62
     7
 10
338.7681818181818
 20
291.9491215455798
 30
0.0
 40
3.5
  1
B
 50
270.0
  0
LINE
  5
235
  8
0
  6
CONTINUOUS
 62
     7
 10
315.0
 20
10.0
 30
0.0
 11
315.0
 21
5.0
 31
0.0
  0
TEXT
  5
236
  8
0
  6
CONTINUOUS
 62
     7
 10
340.3701966362385
 20
4.236363636363635
 30
0.0
 40
3.5
  1
B
  0
LINE
  5
237
  8
0
  6
CONTINUOUS
 62
     7
 10
262.5
 20
286.9999999999999
 30
0.0
 11
262.5
 21
292.0
 31
0.0
  0
TEXT
  5
238
  8
0
  6
CONTINUOUS
 62
     7
 10
286.2655558334374
 20
291.8798611979494
 30
0.0
 40
3.5
  1
C
 50
270.0
  0
LINE
  5
239
  8
0
  6
CONTINUOUS
 62
     7
 10
262.5
 20
10.0
 30
0.0
 11
262.5
 21
5.0
 31
0.0
  0
TEXT
  5
23A
  8
0
  6
CONTINUOUS
 62
     7
 10
287.9394569838688
 20
4.233737651619357
 30
0.0
 40
3.5
  1
C
  0
LINE
  5
23B
  8
0
  6
CONTINUOUS
 62
     7
 10
210.0
 20
286.9999999999999
 30
0.0
 11
210.0
 21
292.0
 31
0.0
  0
TEXT
  5
23C
  8
0
  6
CONTINUOUS
 62
     7
 10
233.7681818181818
 20
291.9491215455796
 30
0.0
 40
3.5
  1
D
 50
270.0
  0
LINE
  5
23D
  8
0
  6
CONTINUOUS
 62
     7
 10
157.5
 20
286.9999999999999
 30
0.0
 11
157.5
 21
292.0
 31
0.0
  0
TEXT
  5
23E
  8
0
  6
CONTINUOUS
 62
     7
 10
181.2655558334376
 20
292.0549268475679
 30
0.0
 40
3.5
  1
E
 50
270.0
  0
LINE
  5
23F
  8
0
  6
CONTINUOUS
 62
     7
 10
157.5
 20
10.0
 30
0.0
 11
157.5
 21
5.0
 31
0.0
  0
LINE
  5
240
  8
0
  6
CONTINUOUS
 62
     7
 10
105.0
 20
286.9999999999999
 30
0.0
 11
105.0
 21
292.0
 31
0.0
  0
TEXT
  5
241
  8
0
  6
CONTINUOUS
 62
     7
 10
128.7655558334375
 20
291.9849005877204
 30
0.0
 40
3.5
  1
F
 50
270.0
  0
LINE
  5
242
  8
0
  6
CONTINUOUS
 62
     7
 10
105.0
 20
10.0
 30
0.0
 11
105.0
 21
5.0
 31
0.0
  0
TEXT
  5
243
  8
0
  6
CONTINUOUS
 62
     7
 10
130.3344175940978
 20
4.233737651619357
 30
0.0
 40
3.5
  1
F
  0
LINE
  5
244
  8
0
  6
CONTINUOUS
 62
     7
 10
52.50000000000004
 20
286.9999999999999
 30
0.0
 11
52.50000000000004
 21
292.0
 31
0.0
  0
TEXT
  5
245
  8
0
  6
CONTINUOUS
 62
     7
 10
76.26555583343753
 20
291.8798611979493
 30
0.0
 40
3.5
  1
G
 50
270.0
  0
LINE
  5
246
  8
0
  6
CONTINUOUS
 62
     7
 10
52.50000000000004
 20
10.0
 30
0.0
 11
52.50000000000004
 21
5.0
 31
0.0
  0
TEXT
  5
247
  8
0
  6
CONTINUOUS
 62
     7
 10
77.93945698386898
 20
4.233737651619357
 30
0.0
 40
3.5
  1
G
  0
TEXT
  5
248
  8
0
  6
CONTINUOUS
 62
     7
 10
23.76555583343753
 20
291.9498874577966
 30
0.0
 40
3.5
  1
H
 50
270.0
  0
TEXT
  5
249
  8
0
  6
CONTINUOUS
 62
     7
 10
25.36943072402154
 20
4.233737651619357
 30
0.0
 40
3.5
  1
H
  0
LINE
  5
24A
  8
0
  6
CONTINUOUS
 62
     7
 10
409.9999999999999
 20
74.25
 30
0.0
 11
414.9999999999999
 21
74.25
 31
0.0
  0
TEXT
  5
24B
  8
0
  6
CONTINUOUS
 62
     7
 10
412.7265755908465
 20
34.64055583343754
 30
0.0
 40
3.5
  1
1
  0
LINE
  5
24C
  8
0
  6
CONTINUOUS
 62
     7
 10
10.0
 20
74.25
 30
0.0
 11
5.0
 21
74.25
 31
0.0
  0
TEXT
  5
24D
  8
0
  6
CONTINUOUS
 62
     7
 10
4.23373765161935
 20
38.46774259097161
 30
0.0
 40
3.5
  1
1
 50
270.0
  0
LINE
  5
24E
  8
0
  6
CONTINUOUS
 62
     7
 10
409.9999999999999
 20
148.5
 30
0.0
 11
414.9999999999999
 21
148.5
 31
0.0
  0
TEXT
  5
24F
  8
0
  6
CONTINUOUS
 62
     7
 10
413.1887489058396
 20
108.8905558334376
 30
0.0
 40
3.5
  1
2
  0
LINE
  5
250
  8
0
  6
CONTINUOUS
 62
     7
 10
10.0
 20
148.5
 30
0.0
 11
5.0
 21
148.5
 31
0.0
  0
TEXT
  5
251
  8
0
  6
CONTINUOUS
 62
     7
 10
4.233737651619379
 20
112.2555692759785
 30
0.0
 40
3.5
  1
2
 50
270.0
  0
LINE
  5
252
  8
0
  6
CONTINUOUS
 62
     7
 10
409.9999999999999
 20
222.75
 30
0.0
 11
414.9999999999999
 21
222.75
 31
0.0
  0
TEXT
  5
253
  8
0
  6
CONTINUOUS
 62
     7
 10
413.2237620357633
 20
183.1405558334376
 30
0.0
 40
3.5
  1
3
  0
LINE
  5
254
  8
0
  6
CONTINUOUS
 62
     7
 10
10.0
 20
222.75
 30
0.0
 11
5.0
 21
222.75
 31
0.0
  0
TEXT
  5
255
  8
0
  6
CONTINUOUS
 62
     7
 10
4.23373765161935
 20
186.4705561460548
 30
0.0
 40
3.5
  1
3
 50
270.0
  0
TEXT
  5
256
  8
0
  6
CONTINUOUS
 62
     7
 10
413.3316462423409
 20
257.3931818181817
 30
0.0
 40
3.5
  1
4
  0
TEXT
  5
257
  8
0
  6
CONTINUOUS
 62
     7
 10
4.23636363636362
 20
260.6126719394773
 30
0.0
 40
3.5
  1
4
 50
270.0
  0
LINE
  5
258
  8
0
  6
CONTINUOUS
 62
     7
 10
220.0
 20
10.0
 30
0.0
 11
220.0
 21
7.0
 31
0.0
  0
LINE
  5
259
  8
0
  6
CONTINUOUS
 62
     7
 10
200.0
 20
10.0
 30
0.0
 11
200.0
 21
7.0
 31
0.0
  0
LINE
  5
25A
  8
0
  6
CONTINUOUS
 62
     7
 10
230.0
 20
10.0
 30
0.0
 11
230.0
 21
7.0
 31
0.0
  0
LINE
  5
25B
  8
0
  6
CONTINUOUS
 62
     7
 10
190.0
 20
10.0
 30
0.0
 11
190.0
 21
7.0
 31
0.0
  0
LINE
  5
25C
  8
0
  6
CONTINUOUS
 62
     7
 10
240.0
 20
10.0
 30
0.0
 11
240.0
 21
7.0
 31
0.0
  0
LINE
  5
25D
  8
0
  6
CONTINUOUS
 62
     7
 10
180.0
 20
10.0
 30
0.0
 11
180.0
 21
7.0
 31
0.0
  0
LINE
  5
25E
  8
0
  6
CONTINUOUS
 62
     7
 10
250.0
 20
10.0
 30
0.0
 11
250.0
 21
7.0
 31
0.0
  0
LINE
  5
25F
  8
0
  6
CONTINUOUS
 62
     7
 10
170.0
 20
10.0
 30
0.0
 11
170.0
 21
7.0
 31
0.0
  0
LINE
  5
260
  8
0
  6
CONTINUOUS
 62
     7
 10
260.0
 20
10.0
 30
0.0
 11
260.0
 21
5.0
 31
0.0
  0
LINE
  5
261
  8
0
  6
CONTINUOUS
 62
     7
 10
160.0
 20
10.0
 30
0.0
 11
160.0
 21
5.0
 31
0.0
  0
LINE
  5
262
  8
0
  6
CONTINUOUS
 62
     7
 10
260.0
 20
10.0
 30
0.0
 11
160.0
 21
10.0
 31
0.0
  0
LINE
  5
263
  8
0
  6
CONTINUOUS
 62
     7
 10
260.0
 20
7.0
 30
0.0
 11
160.0
 21
7.0
 31
0.0
  0
INSERT
  5
264
  8
0
 62
     7
  2
*U10
 10
0.0
 20
0.0
 30
0.0
  0
INSERT
  5
265
  8
0
 62
     7
  2
*U11
 10
0.0
 20
0.0
 30
0.0
  0
INSERT
  5
266
  8
0
 62
     7
  2
*U12
 10
0.0
 20
0.0
 30
0.0
  0
INSERT
  5
267
  8
0
 62
     7
  2
*U13
 10
0.0
 20
0.0
 30
0.0
  0
INSERT
  5
268
  8
0
 62
     7
  2
*U14
 10
0.0
 20
0.0
 30
0.0
  0
INSERT
  5
269
  8
0
 62
     7
  2
*U15
 10
0.0
 20
0.0
 30
0.0
  0
INSERT
  5
26A
  8
0
 62
     7
  2
*U16
 10
0.0
 20
0.0
 30
0.0
  0
INSERT
  5
26B
  8
0
 62
     7
  2
*U17
 10
0.0
 20
0.0
 30
0.0
  0
INSERT
  5
26C
  8
0
 62
     7
  2
*U18
 10
0.0
 20
0.0
 30
0.0
  0
INSERT
  5
26D
  8
0
 62
     7
  2
*U19
 10
0.0
 20
0.0
 30
0.0
  0
INSERT
  5
26E
  8
0
 62
     7
  2
*U20
 10
0.0
 20
0.0
 30
0.0
  0
INSERT
  5
26F
  8
0
 62
     7
  2
*U21
 10
0.0
 20
0.0
 30
0.0
  0
INSERT
  5
270
  8
0
 62
     7
  2
*U22
 10
0.0
 20
0.0
 30
0.0
  0
INSERT
  5
271
  8
0
 62
     7
  2
*U23
 10
0.0
 20
0.0
 30
0.0
  0
INSERT
  5
272
  8
0
 62
     7
  2
*U24
 10
0.0
 20
0.0
 30
0.0
  0
INSERT
  5
273
  8
0
 62
     7
  2
*U25
 10
0.0
 20
0.0
 30
0.0
  0
INSERT
  5
274
  8
0
 62
     7
  2
*U26
 10
0.0
 20
0.0
 30
0.0
  0
INSERT
  5
275
  8
0
 62
     7
  2
*U27
 10
0.0
 20
0.0
 30
0.0
  0
INSERT
  5
276
  8
0
 62
     7
  2
*U28
 10
0.0
 20
0.0
 30
0.0
  0
INSERT
  5
277
  8
0
 62
     7
  2
*U29
 10
0.0
 20
0.0
 30
0.0
  0
INSERT
  5
278
  8
0
 62
     7
  2
*U30
 10
0.0
 20
0.0
 30
0.0
  0
INSERT
  5
279
  8
0
 62
     7
  2
*U31
 10
0.0
 20
0.0
 30
0.0
  0
INSERT
  5
27A
  8
0
 62
     7
  2
*U32
 10
0.0
 20
0.0
 30
0.0
  0
INSERT
  5
27B
  8
0
 62
     7
  2
*U33
 10
0.0
 20
0.0
 30
0.0
  0
INSERT
  5
27C
  8
0
 62
     7
  2
*U34
 10
0.0
 20
0.0
 30
0.0
  0
INSERT
  5
27D
  8
0
 62
     7
  2
*U35
 10
0.0
 20
0.0
 30
0.0
  0
INSERT
  5
27E
  8
0
 62
     7
  2
*U36
 10
0.0
 20
0.0
 30
0.0
  0
INSERT
  5
27F
  8
0
 62
     7
  2
*U37
 10
0.0
 20
0.0
 30
0.0
  0
INSERT
  5
280
  8
0
 62
     7
  2
*U38
 10
0.0
 20
0.0
 30
0.0
  0
INSERT
  5
281
  8
0
 62
     7
  2
*U39
 10
0.0
 20
0.0
 30
0.0
  0
TEXT
  5
282
  8
0
  6
CONTINUOUS
 62
     7
 10
77.99952638489437
 20
3.866515568338126
 30
0.0
 40
3.5
  1
G
  0
TEXT
  5
283
  8
0
  6
CONTINUOUS
 62
     7
 10
5868.90227872896
 20
-104.3407711818181
 30
0.0
 40
6.0
  1
ＫＦＥＫＨ－８１
 41
1.008343
  0
TEXT
  5
284
  8
0
  6
CONTINUOUS
 62
     7
 10
390.9022727272727
 20
291.4972880455171
 30
0.0
 40
3.5
  1
A
 50
270.0
  0
TEXT
  5
285
  8
0
  6
CONTINUOUS
 62
     7
 10
393.3220301363011
 20
3.870454545454544
 30
0.0
 40
3.5
  1
A
  0
TEXT
  5
286
  8
0
  6
CONTINUOUS
 62
     7
 10
338.4022727272727
 20
291.9236823183697
 30
0.0
 40
3.5
  1
B
 50
270.0
  0
TEXT
  5
287
  8
0
  6
CONTINUOUS
 62
     7
 10
287.9995263848941
 20
3.866515568338126
 30
0.0
 40
3.5
  1
C
  0
TEXT
  5
288
  8
0
  6
CONTINUOUS
 62
     7
 10
233.4022727272727
 20
291.9236823183694
 30
0.0
 40
3.5
  1
D
 50
270.0
  0
TEXT
  5
289
  8
0
  6
CONTINUOUS
 62
     7
 10
180.8983337501564
 20
292.0823902713519
 30
0.0
 40
3.5
  1
E
 50
270.0
  0
TEXT
  5
28A
  8
0
  6
CONTINUOUS
 62
     7
 10
340.3956358634487
 20
3.870454545454544
 30
0.0
 40
3.5
  1
B
  0
TEXT
  5
28B
  8
0
  6
CONTINUOUS
 62
     7
 10
285.8983337501562
 20
291.8197917969241
 30
0.0
 40
3.5
  1
C
 50
270.0
  0
TEXT
  5
28C
  8
0
  6
CONTINUOUS
 62
     7
 10
128.3983337501563
 20
291.9773508815806
 30
0.0
 40
3.5
  1
F
 50
270.0
  0
TEXT
  5
28D
  8
0
  6
CONTINUOUS
 62
     7
 10
130.3419673002376
 20
3.866515568338126
 30
0.0
 40
3.5
  1
F
  0
TEXT
  5
28E
  8
0
  6
CONTINUOUS
 62
     7
 10
75.89833375015627
 20
291.8197917969239
 30
0.0
 40
3.5
  1
G
 50
270.0
  0
TEXT
  5
28F
  8
0
  6
CONTINUOUS
 62
     7
 10
3.866515568338116
 20
186.4279933099913
 30
0.0
 40
3.5
  1
3
 50
270.0
  0
TEXT
  5
290
  8
0
  6
CONTINUOUS
 62
     7
 10
23.39833375015627
 20
291.9248311866949
 30
0.0
 40
3.5
  1
H
 50
270.0
  0
TEXT
  5
291
  8
0
  6
CONTINUOUS
 62
     7
 10
25.39448699512321
 20
3.866515568338126
 30
0.0
 40
3.5
  1
H
  0
TEXT
  5
292
  8
0
  6
CONTINUOUS
 62
     7
 10
413.2138051769413
 20
108.5233337501564
 30
0.0
 40
3.5
  1
2
  0
TEXT
  5
293
  8
0
  6
CONTINUOUS
 62
     7
 10
412.5205452044516
 20
34.2733337501563
 30
0.0
 40
3.5
  1
1
  0
TEXT
  5
294
  8
0
  6
CONTINUOUS
 62
     7
 10
3.866515568338158
 20
112.2305130048768
 30
0.0
 40
3.5
  1
2
 50
270.0
  0
TEXT
  5
295
  8
0
  6
CONTINUOUS
 62
     7
 10
3.866515568338116
 20
38.6737729773665
 30
0.0
 40
3.5
  1
1
 50
270.0
  0
TEXT
  5
296
  8
0
  6
CONTINUOUS
 62
     7
 10
413.2663248718268
 20
182.7733337501564
 30
0.0
 40
3.5
  1
3
  0
ENDSEC
  0
EOF
