  0
SECTION
  2
HEADER
  9
$ACADVER
  1
AC1006
  9
$DWGCODEPAGE
  3
ansi_932
  9
$INSBASE
 10
0.0
 20
0.0
 30
0.0
  9
$EXTMIN
 10
0.0
 20
-0.0000000000000017
  9
$EXTMAX
 10
558.213348
 20
1338.234963
  9
$LIMMIN
 10
0.0
 20
0.0
  9
$LIMMAX
 10
12.0
 20
9.0
  9
$ORTHOMODE
 70
     0
  9
$REGENMODE
 70
     1
  9
$FILLMODE
 70
     1
  9
$QTEXTMODE
 70
     0
  9
$MIRRTEXT
 70
     1
  9
$DRAGMODE
 70
     2
  9
$LTSCALE
 40
1.0
  9
$OSMODE
 70
    37
  9
$ATTMODE
 70
     1
  9
$TEXTSIZE
 40
0.2
  9
$TRACEWID
 40
0.05
  9
$TEXTSTYLE
  7
STANDARD
  9
$CLAYER
  8
0
  9
$CELTYPE
  6
BYLAYER
  9
$CECOLOR
 62
   256
  9
$DIMSCALE
 40
1.0
  9
$DIMASZ
 40
1.4
  9
$DIMEXO
 40
0.0625
  9
$DIMDLI
 40
0.38
  9
$DIMRND
 40
0.0
  9
$DIMDLE
 40
0.0
  9
$DIMEXE
 40
0.7
  9
$DIMTP
 40
0.0
  9
$DIMTM
 40
0.0
  9
$DIMTXT
 40
3.5
  9
$DIMCEN
 40
0.09
  9
$DIMTSZ
 40
0.0
  9
$DIMTOL
 70
     0
  9
$DIMLIM
 70
     0
  9
$DIMTIH
 70
     1
  9
$DIMTOH
 70
     1
  9
$DIMSE1
 70
     0
  9
$DIMSE2
 70
     0
  9
$DIMTAD
 70
     1
  9
$DIMZIN
 70
     0
  9
$DIMBLK
  1

  9
$DIMASO
 70
     1
  9
$DIMSHO
 70
     1
  9
$DIMPOST
  1

  9
$DIMAPOST
  1

  9
$DIMALT
 70
     0
  9
$DIMALTD
 70
     2
  9
$DIMALTF
 40
25.4
  9
$DIMLFAC
 40
1.0
  9
$DIMTOFL
 70
     0
  9
$DIMTVP
 40
0.0
  9
$DIMTIX
 70
     0
  9
$DIMSOXD
 70
     0
  9
$DIMSAH
 70
     0
  9
$DIMBLK1
  1

  9
$DIMBLK2
  1

  9
$LUNITS
 70
     2
  9
$LUPREC
 70
     4
  9
$SKETCHINC
 40
0.1
  9
$FILLETRAD
 40
0.5
  9
$AUNITS
 70
     0
  9
$AUPREC
 70
     0
  9
$MENU
  1
.
  9
$ELEVATION
 40
0.0
  9
$THICKNESS
 40
0.0
  9
$LIMCHECK
 70
     0
  9
$CHAMFERA
 40
0.0
  9
$CHAMFERB
 40
0.0
  9
$SKPOLY
 70
     0
  9
$TDCREATE
 40
2459989.366472581
  9
$TDUPDATE
 40
2459989.366473009
  9
$TDINDWG
 40
0.0000000116
  9
$TDUSRTIMER
 40
0.0000000116
  9
$USRTIMER
 70
     1
  9
$ANGBASE
 50
0.0
  9
$ANGDIR
 70
     0
  9
$PDMODE
 70
     0
  9
$PDSIZE
 40
0.0
  9
$PLINEWID
 40
0.0
  9
$COORDS
 70
     1
  9
$SPLFRAME
 70
     0
  9
$SPLINETYPE
 70
     6
  9
$SPLINESEGS
 70
     8
  9
$ATTDIA
 70
     0
  9
$ATTREQ
 70
     1
  9
$HANDLING
 70
     1
  9
$HANDSEED
  5
2C3
  9
$SURFTAB1
 70
     6
  9
$SURFTAB2
 70
     6
  9
$SURFTYPE
 70
     6
  9
$SURFU
 70
     6
  9
$SURFV
 70
     6
  9
$UCSNAME
  2

  9
$UCSORG
 10
0.0
 20
0.0
 30
0.0
  9
$UCSXDIR
 10
1.0
 20
0.0
 30
0.0
  9
$UCSYDIR
 10
0.0
 20
1.0
 30
0.0
  9
$USERI1
 70
     0
  9
$USERI2
 70
     0
  9
$USERI3
 70
     0
  9
$USERI4
 70
     0
  9
$USERI5
 70
     0
  9
$USERR1
 40
0.0
  9
$USERR2
 40
0.0
  9
$USERR3
 40
0.0
  9
$USERR4
 40
0.0
  9
$USERR5
 40
0.0
  9
$WORLDVIEW
 70
     1
  0
ENDSEC
  0
SECTION
  2
TABLES
  0
TABLE
  2
VPORT
 70
     1
  0
VPORT
  2
*ACTIVE
 70
     0
 10
0.0
 20
0.0
 11
1.0
 21
1.0
 12
279.106674
 22
669.1174815
 13
0.0
 23
0.0
 14
0.5
 24
0.5
 15
0.5
 25
0.5
 16
0.0
 26
0.0
 36
1.0
 17
0.0
 27
0.0
 37
0.0
 40
1338.234963
 41
1.6
 42
50.0
 43
0.0
 44
0.0
 50
0.0
 51
0.0
 71
     0
 72
   100
 73
     1
 74
     3
 75
     0
 76
     0
 77
     0
 78
     0
  0
ENDTAB
  0
TABLE
  2
LTYPE
 70
     2
  0
LTYPE
  2
CONTINUOUS
 70
     0
  3
Solid line
 72
    65
 73
     0
 40
0.0
  0
LTYPE
  2
CENTER
 70
     0
  3

 72
    65
 73
     0
 40
0.0
  0
ENDTAB
  0
TABLE
  2
LAYER
 70
     1
  0
LAYER
  2
0
 70
     0
 62
     7
  6
CONTINUOUS
  0
ENDTAB
  0
TABLE
  2
STYLE
 70
     2
  0
STYLE
  2
STANDARD
 70
     0
 40
0.0
 41
1.0
 50
0.0
 71
     0
 42
0.2
  3
txt
  4

  0
STYLE
  2
ＭＳ_ゴシック
 70
     0
 40
0.0
 41
1.0
 50
0.0
 71
     0
 42
0.2
  3
ＭＳ ゴシック.shx
  4

  0
ENDTAB
  0
TABLE
  2
VIEW
 70
     0
  0
ENDTAB
  0
TABLE
  2
UCS
 70
     0
  0
ENDTAB
  0
ENDSEC
  0
SECTION
  2
BLOCKS
  0
BLOCK
  8
0
  2
D_FRAME_DRAWING_21
 70
     0
 10
0.0
 20
0.0
 30
0.0
  0
LINE
  5
71
  8
0
  6
CONTINUOUS
 62
     7
 10
0.0
 20
0.0
 30
0.0
 11
420.0
 21
0.0
 31
0.0
  0
LINE
  5
72
  8
0
  6
CONTINUOUS
 62
     7
 10
420.0
 20
0.0
 30
0.0
 11
420.0
 21
297.0
 31
0.0
  0
LINE
  5
73
  8
0
  6
CONTINUOUS
 62
     7
 10
420.0
 20
297.0
 30
0.0
 11
0.0
 21
297.0
 31
0.0
  0
LINE
  5
74
  8
0
  6
CONTINUOUS
 62
     7
 10
0.0
 20
297.0
 30
0.0
 11
0.0
 21
0.0
 31
0.0
  0
LINE
  5
75
  8
0
  6
CONTINUOUS
 62
     7
 10
10.0
 20
10.0
 30
0.0
 11
409.9999999999999
 21
10.0
 31
0.0
  0
LINE
  5
76
  8
0
  6
CONTINUOUS
 62
     7
 10
409.9999999999999
 20
10.0
 30
0.0
 11
409.9999999999999
 21
286.9999999999999
 31
0.0
  0
LINE
  5
77
  8
0
  6
CONTINUOUS
 62
     7
 10
409.9999999999999
 20
286.9999999999999
 30
0.0
 11
10.00000000000006
 21
286.9999999999999
 31
0.0
  0
LINE
  5
78
  8
0
  6
CONTINUOUS
 62
     7
 10
10.0
 20
286.9999999999999
 30
0.0
 11
10.0
 21
10.00000000000001
 31
0.0
  0
LINE
  5
79
  8
0
  6
CONTINUOUS
 62
     7
 10
210.0
 20
0.0
 30
0.0
 11
210.0
 21
10.0
 31
0.0
  0
LINE
  5
7A
  8
0
  6
CONTINUOUS
 62
     7
 10
420.0
 20
148.5
 30
0.0
 11
409.9999999999999
 21
148.5
 31
0.0
  0
LINE
  5
7B
  8
0
  6
CONTINUOUS
 62
     7
 10
210.0
 20
297.0
 30
0.0
 11
210.0
 21
286.9999999999999
 31
0.0
  0
LINE
  5
7C
  8
0
  6
CONTINUOUS
 62
     7
 10
0.0
 20
148.5
 30
0.0
 11
10.0
 21
148.5
 31
0.0
  0
POLYLINE
  5
7D
  8
0
  6
CONTINUOUS
 62
     7
 66
     1
 10
0.0
 20
0.0
 30
0.0
 70
     1
  0
VERTEX
  5
26E
  8
0
  6
CONTINUOUS
 62
     7
 10
11.0
 20
152.5
 30
0.0
  0
VERTEX
  5
26F
  8
0
  6
CONTINUOUS
 62
     7
 10
0.0
 20
148.5
 30
0.0
  0
VERTEX
  5
270
  8
0
  6
CONTINUOUS
 62
     7
 10
11.0
 20
144.5
 30
0.0
  0
VERTEX
  5
271
  8
0
  6
CONTINUOUS
 62
     7
 10
11.0
 20
152.5
 30
0.0
  0
SEQEND
  5
2C1
  8
0
  6
CONTINUOUS
 62
     7
  0
INSERT
  5
7E
  8
0
 62
     7
  2
*U21
 10
0.0
 20
0.0
 30
0.0
  0
POLYLINE
  5
7F
  8
0
  6
CONTINUOUS
 62
     7
 66
     1
 10
0.0
 20
0.0
 30
0.0
 70
     1
  0
VERTEX
  5
274
  8
0
  6
CONTINUOUS
 62
     7
 10
206.0
 20
11.0
 30
0.0
  0
VERTEX
  5
275
  8
0
  6
CONTINUOUS
 62
     7
 10
210.0
 20
0.0
 30
0.0
  0
VERTEX
  5
276
  8
0
  6
CONTINUOUS
 62
     7
 10
214.0
 20
11.0
 30
0.0
  0
VERTEX
  5
277
  8
0
  6
CONTINUOUS
 62
     7
 10
206.0
 20
11.0
 30
0.0
  0
SEQEND
  5
2C2
  8
0
  6
CONTINUOUS
 62
     7
  0
INSERT
  5
80
  8
0
 62
     7
  2
*U22
 10
0.0
 20
0.0
 30
0.0
  0
LINE
  5
81
  8
0
  6
CONTINUOUS
 62
     7
 10
367.5
 20
286.9999999999999
 30
0.0
 11
367.5
 21
292.0
 31
0.0
  0
TEXT
  5
82
  8
0
  6
CONTINUOUS
 62
     7
 10
391.6340909090909
 20
291.8324293485057
 30
0.0
 40
3.5
  1
A
 50
270.0
  0
LINE
  5
83
  8
0
  6
CONTINUOUS
 62
     7
 10
367.5
 20
10.0
 30
0.0
 11
367.5
 21
5.0
 31
0.0
  0
TEXT
  5
84
  8
0
  6
CONTINUOUS
 62
     7
 10
392.9868888333125
 20
4.602272727272727
 30
0.0
 40
3.5
  1
A
  0
LINE
  5
85
  8
0
  6
CONTINUOUS
 62
     7
 10
315.0
 20
286.9999999999999
 30
0.0
 11
315.0
 21
292.0
 31
0.0
  0
TEXT
  5
86
  8
0
  6
CONTINUOUS
 62
     7
 10
339.1340909090909
 20
291.9745607727899
 30
0.0
 40
3.5
  1
B
 50
270.0
  0
LINE
  5
87
  8
0
  6
CONTINUOUS
 62
     7
 10
315.0
 20
10.0
 30
0.0
 11
315.0
 21
5.0
 31
0.0
  0
TEXT
  5
88
  8
0
  6
CONTINUOUS
 62
     7
 10
340.3447574090284
 20
4.602272727272727
 30
0.0
 40
3.5
  1
B
  0
LINE
  5
89
  8
0
  6
CONTINUOUS
 62
     7
 10
262.5
 20
286.9999999999999
 30
0.0
 11
262.5
 21
292.0
 31
0.0
  0
TEXT
  5
8A
  8
0
  6
CONTINUOUS
 62
     7
 10
286.6327779167187
 20
291.9399305989747
 30
0.0
 40
3.5
  1
C
 50
270.0
  0
LINE
  5
8B
  8
0
  6
CONTINUOUS
 62
     7
 10
262.5
 20
10.0
 30
0.0
 11
262.5
 21
5.0
 31
0.0
  0
TEXT
  5
8C
  8
0
  6
CONTINUOUS
 62
     7
 10
287.8793875828435
 20
4.600959734900587
 30
0.0
 40
3.5
  1
C
  0
LINE
  5
8D
  8
0
  6
CONTINUOUS
 62
     7
 10
210.0
 20
286.9999999999999
 30
0.0
 11
210.0
 21
292.0
 31
0.0
  0
TEXT
  5
8E
  8
0
  6
CONTINUOUS
 62
     7
 10
234.1340909090909
 20
291.9745607727898
 30
0.0
 40
3.5
  1
D
 50
270.0
  0
LINE
  5
8F
  8
0
  6
CONTINUOUS
 62
     7
 10
157.5
 20
286.9999999999999
 30
0.0
 11
157.5
 21
292.0
 31
0.0
  0
TEXT
  5
90
  8
0
  6
CONTINUOUS
 62
     7
 10
181.6327779167188
 20
292.027463423784
 30
0.0
 40
3.5
  1
E
 50
270.0
  0
LINE
  5
91
  8
0
  6
CONTINUOUS
 62
     7
 10
157.5
 20
10.0
 30
0.0
 11
157.5
 21
5.0
 31
0.0
  0
LINE
  5
92
  8
0
  6
CONTINUOUS
 62
     7
 10
105.0
 20
286.9999999999999
 30
0.0
 11
105.0
 21
292.0
 31
0.0
  0
TEXT
  5
93
  8
0
  6
CONTINUOUS
 62
     7
 10
129.1327779167188
 20
291.9924502938602
 30
0.0
 40
3.5
  1
F
 50
270.0
  0
LINE
  5
94
  8
0
  6
CONTINUOUS
 62
     7
 10
105.0
 20
10.0
 30
0.0
 11
105.0
 21
5.0
 31
0.0
  0
TEXT
  5
95
  8
0
  6
CONTINUOUS
 62
     7
 10
130.326867887958
 20
4.600959734900587
 30
0.0
 40
3.5
  1
F
  0
LINE
  5
96
  8
0
  6
CONTINUOUS
 62
     7
 10
52.50000000000004
 20
286.9999999999999
 30
0.0
 11
52.50000000000004
 21
292.0
 31
0.0
  0
TEXT
  5
97
  8
0
  6
CONTINUOUS
 62
     7
 10
76.6327779167188
 20
291.9399305989746
 30
0.0
 40
3.5
  1
G
 50
270.0
  0
LINE
  5
98
  8
0
  6
CONTINUOUS
 62
     7
 10
52.50000000000004
 20
10.0
 30
0.0
 11
52.50000000000004
 21
5.0
 31
0.0
  0
TEXT
  5
99
  8
0
  6
CONTINUOUS
 62
     7
 10
77.8793875828436
 20
4.600959734900587
 30
0.0
 40
3.5
  1
G
  0
TEXT
  5
9A
  8
0
  6
CONTINUOUS
 62
     7
 10
24.13277791671879
 20
291.9749437288983
 30
0.0
 40
3.5
  1
H
 50
270.0
  0
TEXT
  5
9B
  8
0
  6
CONTINUOUS
 62
     7
 10
25.34437445291988
 20
4.600959734900587
 30
0.0
 40
3.5
  1
H
  0
LINE
  5
9C
  8
0
  6
CONTINUOUS
 62
     7
 10
409.9999999999999
 20
74.25
 30
0.0
 11
414.9999999999999
 21
74.25
 31
0.0
  0
TEXT
  5
9D
  8
0
  6
CONTINUOUS
 62
     7
 10
412.9326059772414
 20
35.00777791671877
 30
0.0
 40
3.5
  1
1
  0
LINE
  5
9E
  8
0
  6
CONTINUOUS
 62
     7
 10
10.0
 20
74.25
 30
0.0
 11
5.0
 21
74.25
 31
0.0
  0
TEXT
  5
9F
  8
0
  6
CONTINUOUS
 62
     7
 10
4.600959734900584
 20
38.26171220457671
 30
0.0
 40
3.5
  1
1
 50
270.0
  0
LINE
  5
A0
  8
0
  6
CONTINUOUS
 62
     7
 10
409.9999999999999
 20
148.5
 30
0.0
 11
414.9999999999999
 21
148.5
 31
0.0
  0
TEXT
  5
A1
  8
0
  6
CONTINUOUS
 62
     7
 10
413.163692634738
 20
109.2577779167188
 30
0.0
 40
3.5
  1
2
  0
LINE
  5
A2
  8
0
  6
CONTINUOUS
 62
     7
 10
10.0
 20
148.5
 30
0.0
 11
5.0
 21
148.5
 31
0.0
  0
TEXT
  5
A3
  8
0
  6
CONTINUOUS
 62
     7
 10
4.600959734900599
 20
112.2806255470802
 30
0.0
 40
3.5
  1
2
 50
270.0
  0
LINE
  5
A4
  8
0
  6
CONTINUOUS
 62
     7
 10
409.9999999999999
 20
222.75
 30
0.0
 11
414.9999999999999
 21
222.75
 31
0.0
  0
TEXT
  5
A5
  8
0
  6
CONTINUOUS
 62
     7
 10
413.1811991996998
 20
183.5077779167188
 30
0.0
 40
3.5
  1
3
  0
LINE
  5
A6
  8
0
  6
CONTINUOUS
 62
     7
 10
10.0
 20
222.75
 30
0.0
 11
5.0
 21
222.75
 31
0.0
  0
TEXT
  5
A7
  8
0
  6
CONTINUOUS
 62
     7
 10
4.600959734900584
 20
186.5131189821183
 30
0.0
 40
3.5
  1
3
 50
270.0
  0
TEXT
  5
A8
  8
0
  6
CONTINUOUS
 62
     7
 10
413.2351413029886
 20
257.7590909090909
 30
0.0
 40
3.5
  1
4
  0
TEXT
  5
A9
  8
0
  6
CONTINUOUS
 62
     7
 10
4.60227272727272
 20
260.7091768788295
 30
0.0
 40
3.5
  1
4
 50
270.0
  0
LINE
  5
AA
  8
0
  6
CONTINUOUS
 62
     7
 10
220.0
 20
10.0
 30
0.0
 11
220.0
 21
7.0
 31
0.0
  0
LINE
  5
AB
  8
0
  6
CONTINUOUS
 62
     7
 10
200.0
 20
10.0
 30
0.0
 11
200.0
 21
7.0
 31
0.0
  0
LINE
  5
AC
  8
0
  6
CONTINUOUS
 62
     7
 10
230.0
 20
10.0
 30
0.0
 11
230.0
 21
7.0
 31
0.0
  0
LINE
  5
AD
  8
0
  6
CONTINUOUS
 62
     7
 10
190.0
 20
10.0
 30
0.0
 11
190.0
 21
7.0
 31
0.0
  0
LINE
  5
AE
  8
0
  6
CONTINUOUS
 62
     7
 10
240.0
 20
10.0
 30
0.0
 11
240.0
 21
7.0
 31
0.0
  0
LINE
  5
AF
  8
0
  6
CONTINUOUS
 62
     7
 10
180.0
 20
10.0
 30
0.0
 11
180.0
 21
7.0
 31
0.0
  0
LINE
  5
B0
  8
0
  6
CONTINUOUS
 62
     7
 10
250.0
 20
10.0
 30
0.0
 11
250.0
 21
7.0
 31
0.0
  0
LINE
  5
B1
  8
0
  6
CONTINUOUS
 62
     7
 10
170.0
 20
10.0
 30
0.0
 11
170.0
 21
7.0
 31
0.0
  0
LINE
  5
B2
  8
0
  6
CONTINUOUS
 62
     7
 10
260.0
 20
10.0
 30
0.0
 11
260.0
 21
5.0
 31
0.0
  0
LINE
  5
B3
  8
0
  6
CONTINUOUS
 62
     7
 10
160.0
 20
10.0
 30
0.0
 11
160.0
 21
5.0
 31
0.0
  0
LINE
  5
B4
  8
0
  6
CONTINUOUS
 62
     7
 10
260.0
 20
10.0
 30
0.0
 11
160.0
 21
10.0
 31
0.0
  0
LINE
  5
B5
  8
0
  6
CONTINUOUS
 62
     7
 10
260.0
 20
7.0
 30
0.0
 11
160.0
 21
7.0
 31
0.0
  0
INSERT
  5
B6
  8
0
 62
     7
  2
*U23
 10
0.0
 20
0.0
 30
0.0
  0
INSERT
  5
B7
  8
0
 62
     7
  2
*U24
 10
0.0
 20
0.0
 30
0.0
  0
INSERT
  5
B8
  8
0
 62
     7
  2
*U25
 10
0.0
 20
0.0
 30
0.0
  0
INSERT
  5
B9
  8
0
 62
     7
  2
*U26
 10
0.0
 20
0.0
 30
0.0
  0
ENDBLK
  8
0
  0
BLOCK
  8
0
  2
*U2
 70
     1
 10
0.0
 20
0.0
 30
0.0
  0
SOLID
  5
247
  8
0
  6
CONTINUOUS
 62
     7
 10
11.0
 20
144.5
 30
0.0
 11
6.999999999999999
 21
148.5
 31
0.0
 12
11.0
 22
152.5
 32
0.0
 13
11.0
 23
152.5
 33
0.0
  0
ENDBLK
  8
0
  0
BLOCK
  8
0
  2
*U3
 70
     1
 10
0.0
 20
0.0
 30
0.0
  0
SOLID
  5
249
  8
0
  6
CONTINUOUS
 62
     7
 10
210.0
 20
6.999999999999999
 30
0.0
 11
206.0
 21
11.0
 31
0.0
 12
210.0
 22
11.0
 32
0.0
 13
210.0
 23
11.0
 33
0.0
  0
ENDBLK
  8
0
  0
BLOCK
  8
0
  2
*U4
 70
     1
 10
0.0
 20
0.0
 30
0.0
  0
SOLID
  5
24B
  8
0
  6
CONTINUOUS
 62
     7
 10
210.0
 20
6.999999999999999
 30
0.0
 11
210.0
 21
11.0
 31
0.0
 12
214.0
 22
11.0
 32
0.0
 13
214.0
 23
11.0
 33
0.0
  0
ENDBLK
  8
0
  0
BLOCK
  8
0
  2
*U5
 70
     1
 10
0.0
 20
0.0
 30
0.0
  0
SOLID
  5
24D
  8
0
  6
CONTINUOUS
 62
     7
 10
0.0
 20
0.0
 30
0.0
 11
0.0
 21
10.0
 31
0.0
 12
2.0
 22
0.0
 32
0.0
 13
2.0
 23
0.0
 33
0.0
  0
ENDBLK
  8
0
  0
BLOCK
  8
0
  2
*U6
 70
     1
 10
0.0
 20
0.0
 30
0.0
  0
SOLID
  5
24F
  8
0
  6
CONTINUOUS
 62
     7
 10
2.0
 20
0.0
 30
0.0
 11
0.0
 21
10.0
 31
0.0
 12
2.0
 22
10.0
 32
0.0
 13
2.0
 23
10.0
 33
0.0
  0
ENDBLK
  8
0
  0
BLOCK
  8
0
  2
*U7
 70
     1
 10
0.0
 20
0.0
 30
0.0
  0
SOLID
  5
251
  8
0
  6
CONTINUOUS
 62
     7
 10
2.0
 20
0.0
 30
0.0
 11
2.0
 21
2.0
 31
0.0
 12
10.0
 22
0.0
 32
0.0
 13
10.0
 23
0.0
 33
0.0
  0
ENDBLK
  8
0
  0
BLOCK
  8
0
  2
*U8
 70
     1
 10
0.0
 20
0.0
 30
0.0
  0
SOLID
  5
253
  8
0
  6
CONTINUOUS
 62
     7
 10
10.0
 20
0.0
 30
0.0
 11
2.0
 21
2.0
 31
0.0
 12
10.0
 22
2.0
 32
0.0
 13
10.0
 23
2.0
 33
0.0
  0
ENDBLK
  8
0
  0
BLOCK
  8
0
  2
*U9
 70
     1
 10
0.0
 20
0.0
 30
0.0
  0
SOLID
  5
255
  8
0
  6
CONTINUOUS
 62
     7
 10
409.9999999999999
 20
0.0
 30
0.0
 11
409.9999999999999
 21
2.0
 31
0.0
 12
418.0
 22
0.0
 32
0.0
 13
418.0
 23
0.0
 33
0.0
  0
ENDBLK
  8
0
  0
BLOCK
  8
0
  2
*U10
 70
     1
 10
0.0
 20
0.0
 30
0.0
  0
SOLID
  5
257
  8
0
  6
CONTINUOUS
 62
     7
 10
418.0
 20
0.0
 30
0.0
 11
409.9999999999999
 21
2.0
 31
0.0
 12
418.0
 22
2.0
 32
0.0
 13
418.0
 23
2.0
 33
0.0
  0
ENDBLK
  8
0
  0
BLOCK
  8
0
  2
*U11
 70
     1
 10
0.0
 20
0.0
 30
0.0
  0
SOLID
  5
259
  8
0
  6
CONTINUOUS
 62
     7
 10
418.0
 20
0.0
 30
0.0
 11
418.0
 21
10.0
 31
0.0
 12
420.0
 22
0.0
 32
0.0
 13
420.0
 23
0.0
 33
0.0
  0
ENDBLK
  8
0
  0
BLOCK
  8
0
  2
*U12
 70
     1
 10
0.0
 20
0.0
 30
0.0
  0
SOLID
  5
25B
  8
0
  6
CONTINUOUS
 62
     7
 10
420.0
 20
0.0
 30
0.0
 11
418.0
 21
10.0
 31
0.0
 12
420.0
 22
10.0
 32
0.0
 13
420.0
 23
10.0
 33
0.0
  0
ENDBLK
  8
0
  0
BLOCK
  8
0
  2
*U13
 70
     1
 10
0.0
 20
0.0
 30
0.0
  0
SOLID
  5
25D
  8
0
  6
CONTINUOUS
 62
     7
 10
409.9999999999999
 20
295.0
 30
0.0
 11
409.9999999999999
 21
297.0
 31
0.0
 12
418.0
 22
295.0
 32
0.0
 13
418.0
 23
295.0
 33
0.0
  0
ENDBLK
  8
0
  0
BLOCK
  8
0
  2
*U14
 70
     1
 10
0.0
 20
0.0
 30
0.0
  0
SOLID
  5
25F
  8
0
  6
CONTINUOUS
 62
     7
 10
418.0
 20
295.0
 30
0.0
 11
409.9999999999999
 21
297.0
 31
0.0
 12
418.0
 22
297.0
 32
0.0
 13
418.0
 23
297.0
 33
0.0
  0
ENDBLK
  8
0
  0
BLOCK
  8
0
  2
*U15
 70
     1
 10
0.0
 20
0.0
 30
0.0
  0
SOLID
  5
261
  8
0
  6
CONTINUOUS
 62
     7
 10
418.0
 20
286.9999999999999
 30
0.0
 11
418.0
 21
297.0
 31
0.0
 12
420.0
 22
286.9999999999999
 32
0.0
 13
420.0
 23
286.9999999999999
 33
0.0
  0
ENDBLK
  8
0
  0
BLOCK
  8
0
  2
*U16
 70
     1
 10
0.0
 20
0.0
 30
0.0
  0
SOLID
  5
263
  8
0
  6
CONTINUOUS
 62
     7
 10
420.0
 20
286.9999999999999
 30
0.0
 11
418.0
 21
297.0
 31
0.0
 12
420.0
 22
297.0
 32
0.0
 13
420.0
 23
297.0
 33
0.0
  0
ENDBLK
  8
0
  0
BLOCK
  8
0
  2
*U17
 70
     1
 10
0.0
 20
0.0
 30
0.0
  0
SOLID
  5
265
  8
0
  6
CONTINUOUS
 62
     7
 10
0.0
 20
286.9999999999999
 30
0.0
 11
0.0
 21
297.0
 31
0.0
 12
2.0
 22
286.9999999999999
 32
0.0
 13
2.0
 23
286.9999999999999
 33
0.0
  0
ENDBLK
  8
0
  0
BLOCK
  8
0
  2
*U18
 70
     1
 10
0.0
 20
0.0
 30
0.0
  0
SOLID
  5
267
  8
0
  6
CONTINUOUS
 62
     7
 10
2.0
 20
286.9999999999999
 30
0.0
 11
0.0
 21
297.0
 31
0.0
 12
2.0
 22
297.0
 32
0.0
 13
2.0
 23
297.0
 33
0.0
  0
ENDBLK
  8
0
  0
BLOCK
  8
0
  2
*U19
 70
     1
 10
0.0
 20
0.0
 30
0.0
  0
SOLID
  5
269
  8
0
  6
CONTINUOUS
 62
     7
 10
2.0
 20
295.0
 30
0.0
 11
2.0
 21
297.0
 31
0.0
 12
10.0
 22
295.0
 32
0.0
 13
10.0
 23
295.0
 33
0.0
  0
ENDBLK
  8
0
  0
BLOCK
  8
0
  2
*U20
 70
     1
 10
0.0
 20
0.0
 30
0.0
  0
SOLID
  5
26B
  8
0
  6
CONTINUOUS
 62
     7
 10
10.0
 20
295.0
 30
0.0
 11
2.0
 21
297.0
 31
0.0
 12
10.0
 22
297.0
 32
0.0
 13
10.0
 23
297.0
 33
0.0
  0
ENDBLK
  8
0
  0
BLOCK
  8
0
  2
*U21
 70
     1
 10
0.0
 20
0.0
 30
0.0
  0
SOLID
  5
273
  8
0
  6
CONTINUOUS
 62
     7
 10
11.0
 20
144.5
 30
0.0
 11
6.999999999999999
 21
148.5
 31
0.0
 12
11.0
 22
152.5
 32
0.0
 13
11.0
 23
152.5
 33
0.0
  0
ENDBLK
  8
0
  0
BLOCK
  8
0
  2
*U22
 70
     1
 10
0.0
 20
0.0
 30
0.0
  0
SOLID
  5
279
  8
0
  6
CONTINUOUS
 62
     7
 10
210.0
 20
6.999999999999999
 30
0.0
 11
206.0
 21
11.0
 31
0.0
 12
210.0
 22
11.0
 32
0.0
 13
210.0
 23
11.0
 33
0.0
  0
SOLID
  5
27A
  8
0
  6
CONTINUOUS
 62
     7
 10
210.0
 20
6.999999999999999
 30
0.0
 11
210.0
 21
11.0
 31
0.0
 12
214.0
 22
11.0
 32
0.0
 13
214.0
 23
11.0
 33
0.0
  0
ENDBLK
  8
0
  0
BLOCK
  8
0
  2
*U23
 70
     1
 10
0.0
 20
0.0
 30
0.0
  0
SOLID
  5
27C
  8
0
  6
CONTINUOUS
 62
     7
 10
0.0
 20
0.0
 30
0.0
 11
0.0
 21
10.0
 31
0.0
 12
2.0
 22
0.0
 32
0.0
 13
2.0
 23
0.0
 33
0.0
  0
SOLID
  5
27D
  8
0
  6
CONTINUOUS
 62
     7
 10
2.0
 20
0.0
 30
0.0
 11
0.0
 21
10.0
 31
0.0
 12
2.0
 22
10.0
 32
0.0
 13
2.0
 23
10.0
 33
0.0
  0
SOLID
  5
27E
  8
0
  6
CONTINUOUS
 62
     7
 10
2.0
 20
0.0
 30
0.0
 11
2.0
 21
2.0
 31
0.0
 12
10.0
 22
0.0
 32
0.0
 13
10.0
 23
0.0
 33
0.0
  0
SOLID
  5
27F
  8
0
  6
CONTINUOUS
 62
     7
 10
10.0
 20
0.0
 30
0.0
 11
2.0
 21
2.0
 31
0.0
 12
10.0
 22
2.0
 32
0.0
 13
10.0
 23
2.0
 33
0.0
  0
ENDBLK
  8
0
  0
BLOCK
  8
0
  2
*U24
 70
     1
 10
0.0
 20
0.0
 30
0.0
  0
SOLID
  5
281
  8
0
  6
CONTINUOUS
 62
     7
 10
409.9999999999999
 20
0.0
 30
0.0
 11
409.9999999999999
 21
2.0
 31
0.0
 12
418.0
 22
0.0
 32
0.0
 13
418.0
 23
0.0
 33
0.0
  0
SOLID
  5
282
  8
0
  6
CONTINUOUS
 62
     7
 10
418.0
 20
0.0
 30
0.0
 11
409.9999999999999
 21
2.0
 31
0.0
 12
418.0
 22
2.0
 32
0.0
 13
418.0
 23
2.0
 33
0.0
  0
SOLID
  5
283
  8
0
  6
CONTINUOUS
 62
     7
 10
418.0
 20
0.0
 30
0.0
 11
418.0
 21
10.0
 31
0.0
 12
420.0
 22
0.0
 32
0.0
 13
420.0
 23
0.0
 33
0.0
  0
SOLID
  5
284
  8
0
  6
CONTINUOUS
 62
     7
 10
420.0
 20
0.0
 30
0.0
 11
418.0
 21
10.0
 31
0.0
 12
420.0
 22
10.0
 32
0.0
 13
420.0
 23
10.0
 33
0.0
  0
ENDBLK
  8
0
  0
BLOCK
  8
0
  2
*U25
 70
     1
 10
0.0
 20
0.0
 30
0.0
  0
SOLID
  5
286
  8
0
  6
CONTINUOUS
 62
     7
 10
409.9999999999999
 20
295.0
 30
0.0
 11
409.9999999999999
 21
297.0
 31
0.0
 12
418.0
 22
295.0
 32
0.0
 13
418.0
 23
295.0
 33
0.0
  0
SOLID
  5
287
  8
0
  6
CONTINUOUS
 62
     7
 10
418.0
 20
295.0
 30
0.0
 11
409.9999999999999
 21
297.0
 31
0.0
 12
418.0
 22
297.0
 32
0.0
 13
418.0
 23
297.0
 33
0.0
  0
SOLID
  5
288
  8
0
  6
CONTINUOUS
 62
     7
 10
418.0
 20
286.9999999999999
 30
0.0
 11
418.0
 21
297.0
 31
0.0
 12
420.0
 22
286.9999999999999
 32
0.0
 13
420.0
 23
286.9999999999999
 33
0.0
  0
SOLID
  5
289
  8
0
  6
CONTINUOUS
 62
     7
 10
420.0
 20
286.9999999999999
 30
0.0
 11
418.0
 21
297.0
 31
0.0
 12
420.0
 22
297.0
 32
0.0
 13
420.0
 23
297.0
 33
0.0
  0
ENDBLK
  8
0
  0
BLOCK
  8
0
  2
*U26
 70
     1
 10
0.0
 20
0.0
 30
0.0
  0
SOLID
  5
28B
  8
0
  6
CONTINUOUS
 62
     7
 10
0.0
 20
286.9999999999999
 30
0.0
 11
0.0
 21
297.0
 31
0.0
 12
2.0
 22
286.9999999999999
 32
0.0
 13
2.0
 23
286.9999999999999
 33
0.0
  0
SOLID
  5
28C
  8
0
  6
CONTINUOUS
 62
     7
 10
2.0
 20
286.9999999999999
 30
0.0
 11
0.0
 21
297.0
 31
0.0
 12
2.0
 22
297.0
 32
0.0
 13
2.0
 23
297.0
 33
0.0
  0
SOLID
  5
28D
  8
0
  6
CONTINUOUS
 62
     7
 10
2.0
 20
295.0
 30
0.0
 11
2.0
 21
297.0
 31
0.0
 12
10.0
 22
295.0
 32
0.0
 13
10.0
 23
295.0
 33
0.0
  0
SOLID
  5
28E
  8
0
  6
CONTINUOUS
 62
     7
 10
10.0
 20
295.0
 30
0.0
 11
2.0
 21
297.0
 31
0.0
 12
10.0
 22
297.0
 32
0.0
 13
10.0
 23
297.0
 33
0.0
  0
ENDBLK
  8
0
  0
ENDSEC
  0
SECTION
  2
ENTITIES
  0
INSERT
  5
70
  8
0
 62
     7
  2
D_FRAME_DRAWING_21
 10
0.0
 20
0.0
 30
0.0
  0
TEXT
  5
BA
  8
0
  6
CONTINUOUS
 62
     7
 10
381.7387472430912
 20
1166.84123190909
 30
0.0
 40
10.0
  1
ＫＦＥＫＨ－８１Ｐ
 41
0.850394
  0
LINE
  5
BB
  8
0
  6
CONTINUOUS
 62
     7
 10
196.062842
 20
1225.074009
 30
0.0
 11
195.312975
 21
1225.074007286018
 31
0.0
  0
LINE
  5
BC
  8
0
  6
CONTINUOUS
 62
     7
 10
197.563357
 20
1324.073826
 30
0.0
 11
195.312975
 21
1279.520930111647
 31
0.0
  0
LINE
  5
BD
  8
0
  6
CONTINUOUS
 62
     7
 10
195.312975
 20
1321.573891
 30
0.0
 11
197.4370844286442
 21
1321.573891
 31
0.0
  0
LINE
  5
BE
  8
0
  6
CONTINUOUS
 62
     7
 10
252.562842
 20
1225.074001
 30
0.0
 11
252.122311
 21
1227.573891
 31
0.0
  0
LINE
  5
BF
  8
0
  6
CONTINUOUS
 62
     7
 10
271.503858
 20
1321.573891
 30
0.0
 11
277.437084
 21
1321.573891
 31
0.0
  0
LINE
  5
C0
  8
0
  6
CONTINUOUS
 62
     7
 10
252.122311
 20
1227.573891
 30
0.0
 11
249.534757
 21
1227.573891
 31
0.0
  0
LINE
  5
C1
  8
0
  6
CONTINUOUS
 62
     7
 10
282.562842
 20
1225.074001
 30
0.0
 11
282.122311
 21
1227.573891
 31
0.0
  0
LINE
  5
C2
  8
0
  6
CONTINUOUS
 62
     7
 10
272.122311
 20
1227.573891
 30
0.0
 11
266.189112
 21
1227.573891
 31
0.0
  0
LINE
  5
C3
  8
0
  6
CONTINUOUS
 62
     7
 10
287.563357
 20
1324.073826
 30
0.0
 11
282.562842
 21
1225.074001
 31
0.0
  0
LINE
  5
C4
  8
0
  6
CONTINUOUS
 62
     7
 10
281.503858
 20
1321.573891
 30
0.0
 11
287.437084
 21
1321.573891
 31
0.0
  0
LINE
  5
C5
  8
0
  6
CONTINUOUS
 62
     7
 10
251.503887
 20
1321.573891
 30
0.0
 11
251.063357
 21
1324.073818
 31
0.0
  0
LINE
  5
C6
  8
0
  6
CONTINUOUS
 62
     7
 10
272.562842
 20
1225.074001
 30
0.0
 11
272.122311
 21
1227.573891
 31
0.0
  0
LINE
  5
C7
  8
0
  6
CONTINUOUS
 62
     7
 10
281.503887
 20
1321.573891
 30
0.0
 11
281.063357
 21
1324.073818
 31
0.0
  0
LINE
  5
C8
  8
0
  6
CONTINUOUS
 62
     7
 10
369.312975
 20
1335.573891
 30
0.0
 11
356.370464
 21
1338.234963
 31
0.0
  0
LINE
  5
C9
  8
0
  6
CONTINUOUS
 62
     7
 10
206.062842
 20
1225.074009
 30
0.0
 11
202.562842
 21
1225.074001
 31
0.0
  0
LINE
  5
CA
  8
0
  6
CONTINUOUS
 62
     7
 10
291.503858
 20
1321.573891
 30
0.0
 11
297.437084
 21
1321.573891
 31
0.0
  0
ARC
  5
CB
  8
0
  6
CONTINUOUS
 62
     7
 10
48.81291099999999
 20
1314.751515
 30
0.0
 40
3.000000000000003
 50
285.0
 51
0.0000909999999976
  0
LINE
  5
CC
  8
0
  6
CONTINUOUS
 62
     7
 10
51.81288600000001
 20
1330.373891
 30
0.0
 11
44.812886
 21
1330.420558
 31
0.0
  0
LINE
  5
CD
  8
0
  6
CONTINUOUS
 62
     7
 10
216.062842
 20
1225.074009
 30
0.0
 11
219.812975
 21
1299.318852
 31
0.0
  0
LINE
  5
CE
  8
0
  6
CONTINUOUS
 62
     7
 10
207.563357
 20
1324.073826
 30
0.0
 11
211.063357
 21
1324.073818
 31
0.0
  0
LINE
  5
CF
  8
0
  6
CONTINUOUS
 62
     7
 10
267.563357
 20
1324.073826
 30
0.0
 11
262.5628419999999
 21
1225.074001
 31
0.0
  0
LINE
  5
D0
  8
0
  6
CONTINUOUS
 62
     7
 10
267.563357
 20
1324.073826
 30
0.0
 11
271.063357
 21
1324.073818
 31
0.0
  0
LINE
  5
D1
  8
0
  6
CONTINUOUS
 62
     7
 10
257.563357
 20
1324.073826
 30
0.0
 11
252.562842
 21
1225.074001
 31
0.0
  0
LINE
  5
D2
  8
0
  6
CONTINUOUS
 62
     7
 10
45.44232599999999
 20
1238.405242
 30
0.0
 11
49.58936799999999
 21
1237.294045
 31
0.0
  0
LINE
  5
D3
  8
0
  6
CONTINUOUS
 62
     7
 10
276.062842
 20
1225.074009
 30
0.0
 11
272.562842
 21
1225.074001
 31
0.0
  0
ARC
  5
D4
  8
0
  6
CONTINUOUS
 62
     7
 10
45.312917
 20
1237.922279
 30
0.0
 40
0.5000000000000004
 50
75.0
 51
179.999909
  0
LINE
  5
D5
  8
0
  6
CONTINUOUS
 62
     7
 10
291.503887
 20
1321.573891
 30
0.0
 11
291.063357
 21
1324.073818
 31
0.0
  0
LINE
  5
D6
  8
0
  6
CONTINUOUS
 62
     7
 10
271.503887
 20
1321.573891
 30
0.0
 11
271.063357
 21
1324.073818
 31
0.0
  0
LINE
  5
D7
  8
0
  6
CONTINUOUS
 62
     7
 10
277.563357
 20
1324.073826
 30
0.0
 11
272.562842
 21
1225.074001
 31
0.0
  0
LINE
  5
D8
  8
0
  6
CONTINUOUS
 62
     7
 10
44.81287799999999
 20
1335.573891
 30
0.0
 11
44.812917
 21
1311.225503
 31
0.0
  0
LINE
  5
D9
  8
0
  6
CONTINUOUS
 62
     7
 10
277.563357
 20
1324.073826
 30
0.0
 11
281.063357
 21
1324.073818
 31
0.0
  0
LINE
  5
DA
  8
0
  6
CONTINUOUS
 62
     7
 10
217.563357
 20
1324.073826
 30
0.0
 11
219.812975
 21
1324.073821
 31
0.0
  0
LINE
  5
DB
  8
0
  6
CONTINUOUS
 62
     7
 10
44.81287799999999
 20
1213.573891
 30
0.0
 11
44.812917
 21
1237.92228
 31
0.0
  0
LINE
  5
DC
  8
0
  6
CONTINUOUS
 62
     7
 10
212.122311
 20
1227.573891
 30
0.0
 11
206.189112
 21
1227.573891
 31
0.0
  0
LINE
  5
DD
  8
0
  6
CONTINUOUS
 62
     7
 10
326.062842
 20
1225.074009
 30
0.0
 11
322.562842
 21
1225.074001
 31
0.0
  0
ARC
  5
DE
  8
0
  6
CONTINUOUS
 62
     7
 10
45.312917
 20
1311.225504
 30
0.0
 40
0.5000000000000004
 50
180.0000910000001
 51
285.0
  0
LINE
  5
DF
  8
0
  6
CONTINUOUS
 62
     7
 10
327.563357
 20
1324.073826
 30
0.0
 11
322.562842
 21
1225.074001
 31
0.0
  0
LINE
  5
E0
  8
0
  6
CONTINUOUS
 62
     7
 10
327.563357
 20
1324.073826
 30
0.0
 11
331.063357
 21
1324.073818
 31
0.0
  0
LINE
  5
E1
  8
0
  6
CONTINUOUS
 62
     7
 10
216.062842
 20
1225.074009
 30
0.0
 11
212.562842
 21
1225.074001
 31
0.0
  0
LINE
  5
E2
  8
0
  6
CONTINUOUS
 62
     7
 10
287.563357
 20
1324.073826
 30
0.0
 11
291.063357
 21
1324.073818
 31
0.0
  0
LINE
  5
E3
  8
0
  6
CONTINUOUS
 62
     7
 10
217.563357
 20
1324.073826
 30
0.0
 11
212.562842
 21
1225.074001
 31
0.0
  0
LINE
  5
E4
  8
0
  6
CONTINUOUS
 62
     7
 10
211.503887
 20
1321.573891
 30
0.0
 11
211.063357
 21
1324.073818
 31
0.0
  0
LINE
  5
E5
  8
0
  6
CONTINUOUS
 62
     7
 10
219.812975
 20
1227.573891
 30
0.0
 11
216.189112
 21
1227.573891
 31
0.0
  0
LINE
  5
E6
  8
0
  6
CONTINUOUS
 62
     7
 10
249.534757
 20
1293.810714
 30
0.0
 11
251.063357
 21
1324.073818
 31
0.0
  0
LINE
  5
E7
  8
0
  6
CONTINUOUS
 62
     7
 10
301.503887
 20
1321.573891
 30
0.0
 11
301.063357
 21
1324.073818
 31
0.0
  0
LINE
  5
E8
  8
0
  6
CONTINUOUS
 62
     7
 10
51.81291099999999
 20
1234.396263
 30
0.0
 11
51.812878
 21
1213.573891
 31
0.0
  0
ARC
  5
E9
  8
0
  6
CONTINUOUS
 62
     7
 10
48.81291099999999
 20
1234.396268
 30
0.0
 40
3.000000000000003
 50
0.0
 51
75.0
  0
LINE
  5
EA
  8
0
  6
CONTINUOUS
 62
     7
 10
249.534757
 20
1324.073822
 30
0.0
 11
251.063357
 21
1324.073818
 31
0.0
  0
LINE
  5
EB
  8
0
  6
CONTINUOUS
 62
     7
 10
329.312975
 20
1227.573891
 30
0.0
 11
326.189112
 21
1227.573891
 31
0.0
  0
LINE
  5
EC
  8
0
  6
CONTINUOUS
 62
     7
 10
276.062842
 20
1225.074009
 30
0.0
 11
281.063357
 21
1324.073818
 31
0.0
  0
LINE
  5
ED
  8
0
  6
CONTINUOUS
 62
     7
 10
262.5628419999999
 20
1225.074001
 30
0.0
 11
262.122311
 21
1227.573891
 31
0.0
  0
LINE
  5
EE
  8
0
  6
CONTINUOUS
 62
     7
 10
266.0628419999999
 20
1225.074009
 30
0.0
 11
262.5628419999999
 21
1225.074001
 31
0.0
  0
LINE
  5
EF
  8
0
  6
CONTINUOUS
 62
     7
 10
257.563357
 20
1324.073826
 30
0.0
 11
261.063357
 21
1324.073818
 31
0.0
  0
LINE
  5
F0
  8
0
  6
CONTINUOUS
 62
     7
 10
262.122311
 20
1227.573891
 30
0.0
 11
256.189112
 21
1227.573891
 31
0.0
  0
LINE
  5
F1
  8
0
  6
CONTINUOUS
 62
     7
 10
326.062842
 20
1225.074009
 30
0.0
 11
329.312975
 21
1289.419891
 31
0.0
  0
LINE
  5
F2
  8
0
  6
CONTINUOUS
 62
     7
 10
292.122311
 20
1227.573891
 30
0.0
 11
286.189112
 21
1227.573891
 31
0.0
  0
LINE
  5
F3
  8
0
  6
CONTINUOUS
 62
     7
 10
266.0628419999999
 20
1225.074009
 30
0.0
 11
271.063357
 21
1324.073818
 31
0.0
  0
LINE
  5
F4
  8
0
  6
CONTINUOUS
 62
     7
 10
322.122311
 20
1227.573891
 30
0.0
 11
316.189112
 21
1227.573891
 31
0.0
  0
LINE
  5
F5
  8
0
  6
CONTINUOUS
 62
     7
 10
322.562842
 20
1225.074001
 30
0.0
 11
322.122311
 21
1227.573891
 31
0.0
  0
LINE
  5
F6
  8
0
  6
CONTINUOUS
 62
     7
 10
212.562842
 20
1225.074001
 30
0.0
 11
212.122311
 21
1227.573891
 31
0.0
  0
LINE
  5
F7
  8
0
  6
CONTINUOUS
 62
     7
 10
261.503858
 20
1321.573891
 30
0.0
 11
267.437084
 21
1321.573891
 31
0.0
  0
LINE
  5
F8
  8
0
  6
CONTINUOUS
 62
     7
 10
256.0628419999999
 20
1225.074009
 30
0.0
 11
252.562842
 21
1225.074001
 31
0.0
  0
LINE
  5
F9
  8
0
  6
CONTINUOUS
 62
     7
 10
369.312975
 20
1213.573891
 30
0.0
 11
356.370464
 21
1210.912819
 31
0.0
  0
LINE
  5
FA
  8
0
  6
CONTINUOUS
 62
     7
 10
256.0628419999999
 20
1225.074009
 30
0.0
 11
261.063357
 21
1324.073818
 31
0.0
  0
LINE
  5
FB
  8
0
  6
CONTINUOUS
 62
     7
 10
261.503887
 20
1321.573891
 30
0.0
 11
261.063357
 21
1324.073818
 31
0.0
  0
LINE
  5
FC
  8
0
  6
CONTINUOUS
 62
     7
 10
251.503858
 20
1321.573891
 30
0.0
 11
257.437084
 21
1321.573891
 31
0.0
  0
LINE
  5
FD
  8
0
  6
CONTINUOUS
 62
     7
 10
544.210605
 20
1299.539242
 30
0.0
 11
549.564745
 21
1302.267311
 31
0.0
  0
LINE
  5
FE
  8
0
  6
CONTINUOUS
 62
     7
 10
296.062842
 20
1225.074009
 30
0.0
 11
301.063357
 21
1324.073818
 31
0.0
  0
LINE
  5
FF
  8
0
  6
CONTINUOUS
 62
     7
 10
286.062842
 20
1225.074009
 30
0.0
 11
282.562842
 21
1225.074001
 31
0.0
  0
LINE
  5
100
  8
0
  6
CONTINUOUS
 62
     7
 10
448.484636
 20
1313.783935
 30
0.0
 11
453.087871
 21
1309.921369
 31
0.0
  0
LINE
  5
101
  8
0
  6
CONTINUOUS
 62
     7
 10
446.216087
 20
1249.608544
 30
0.0
 11
440.86195
 21
1246.88047
 31
0.0
  0
LINE
  5
102
  8
0
  6
CONTINUOUS
 62
     7
 10
534.423392
 20
1227.84518
 30
0.0
 11
530.560819
 21
1232.448409
 31
0.0
  0
LINE
  5
103
  8
0
  6
CONTINUOUS
 62
     7
 10
456.003303
 20
1321.302602
 30
0.0
 11
459.865875
 21
1316.699373
 31
0.0
  0
LINE
  5
104
  8
0
  6
CONTINUOUS
 62
     7
 10
534.423392
 20
1321.302602
 30
0.0
 11
530.560819
 21
1316.699373
 31
0.0
  0
ARC
  5
105
  8
0
  6
CONTINUOUS
 62
     7
 10
336.812975
 20
1321.573891
 30
0.0
 40
0.5
 50
270.0
 51
0.0
  0
LINE
  5
106
  8
0
  6
CONTINUOUS
 62
     7
 10
329.306392
 20
1324.073891
 30
0.0
 11
334.312975
 21
1324.073891
 31
0.0
  0
LINE
  5
107
  8
0
  6
CONTINUOUS
 62
     7
 10
211.503858
 20
1321.573891
 30
0.0
 11
217.437084
 21
1321.573891
 31
0.0
  0
ARC
  5
108
  8
0
  6
CONTINUOUS
 62
     7
 10
334.812975
 20
1227.573891
 30
0.0
 40
0.5
 50
90.0
 51
180.0
  0
LINE
  5
109
  8
0
  6
CONTINUOUS
 62
     7
 10
195.312975
 20
1325.073891
 30
0.0
 11
195.312975
 21
1224.073891
 31
0.0
  0
ARC
  5
10A
  8
0
  6
CONTINUOUS
 62
     7
 10
336.812975
 20
1227.573891
 30
0.0
 40
0.5
 50
0.0
 51
90.0
  0
LINE
  5
10B
  8
0
  6
CONTINUOUS
 62
     7
 10
470.247998
 20
1323.57115
 30
0.0
 11
467.519927
 21
1328.925289
 31
0.0
  0
LINE
  5
10C
  8
0
  6
CONTINUOUS
 62
     7
 10
334.312975
 20
1225.073891
 30
0.0
 11
334.312975
 21
1324.073891
 31
0.0
  0
LINE
  5
10D
  8
0
  6
CONTINUOUS
 62
     7
 10
272.122311
 20
1227.573891
 30
0.0
 11
269.534757
 21
1227.573891
 31
0.0
  0
LINE
  5
10E
  8
0
  6
CONTINUOUS
 62
     7
 10
207.563357
 20
1324.073826
 30
0.0
 11
202.562842
 21
1225.074001
 31
0.0
  0
LINE
  5
10F
  8
0
  6
CONTINUOUS
 62
     7
 10
292.562842
 20
1225.074001
 30
0.0
 11
292.122311
 21
1227.573891
 31
0.0
  0
LINE
  5
110
  8
0
  6
CONTINUOUS
 62
     7
 10
470.248001
 20
1225.576632
 30
0.0
 11
467.519927
 21
1220.222493
 31
0.0
  0
ARC
  5
111
  8
0
  6
CONTINUOUS
 62
     7
 10
460.631917
 20
1231.805624
 30
0.0
 40
1.0
 50
51.041799
 51
140.0
  0
LINE
  5
112
  8
0
  6
CONTINUOUS
 62
     7
 10
448.484636
 20
1235.363847
 30
0.0
 11
453.08787
 21
1239.226413
 31
0.0
  0
ARC
  5
113
  8
0
  6
CONTINUOUS
 62
     7
 10
334.812975
 20
1321.573891
 30
0.0
 40
0.5
 50
180.0
 51
270.0
  0
ARC
  5
114
  8
0
  6
CONTINUOUS
 62
     7
 10
495.213348
 20
1274.573891
 30
0.0
 40
54.0
 50
231.041799
 51
241.958201
  0
ARC
  5
115
  8
0
  6
CONTINUOUS
 62
     7
 10
469.356991
 20
1226.030623
 30
0.0
 40
1.0
 50
333.0
 51
61.95820099999998
  0
LINE
  5
116
  8
0
  6
CONTINUOUS
 62
     7
 10
297.563357
 20
1324.073826
 30
0.0
 11
292.562842
 21
1225.074001
 31
0.0
  0
LINE
  5
117
  8
0
  6
CONTINUOUS
 62
     7
 10
195.312975
 20
1224.073891
 30
0.0
 11
123.812975
 21
1224.073891
 31
0.0
  0
LINE
  5
118
  8
0
  6
CONTINUOUS
 62
     7
 10
51.81288600000001
 20
1218.773891
 30
0.0
 11
44.812886
 21
1218.727224
 31
0.0
  0
LINE
  5
119
  8
0
  6
CONTINUOUS
 62
     7
 10
45.44232599999999
 20
1310.742541
 30
0.0
 11
49.58936799999999
 21
1311.853737
 31
0.0
  0
LINE
  5
11A
  8
0
  6
CONTINUOUS
 62
     7
 10
434.226156
 20
1273.323891
 30
0.0
 11
435.213348
 21
1273.323891
 31
0.0
  0
ARC
  5
11B
  8
0
  6
CONTINUOUS
 62
     7
 10
521.069704
 20
1226.030623
 30
0.0
 40
1.0
 50
118.041799
 51
207.0
  0
LINE
  5
11C
  8
0
  6
CONTINUOUS
 62
     7
 10
195.312975
 20
1325.073891
 30
0.0
 11
123.812975
 21
1325.073891
 31
0.0
  0
LINE
  5
11D
  8
0
  6
CONTINUOUS
 62
     7
 10
334.812975
 20
1321.073891
 30
0.0
 11
336.812975
 21
1321.073891
 31
0.0
  0
LINE
  5
11E
  8
0
  6
CONTINUOUS
 62
     7
 10
336.812975
 20
1228.073891
 30
0.0
 11
334.812975
 21
1228.073891
 31
0.0
  0
LINE
  5
11F
  8
0
  6
CONTINUOUS
 62
     7
 10
520.178696
 20
1323.57115
 30
0.0
 11
522.906768
 21
1328.925289
 31
0.0
  0
LINE
  5
120
  8
0
  6
CONTINUOUS
 62
     7
 10
544.210607
 20
1249.608544
 30
0.0
 11
549.564745
 21
1246.88047
 31
0.0
  0
LINE
  5
121
  8
0
  6
CONTINUOUS
 62
     7
 10
541.942059
 20
1235.363847
 30
0.0
 11
537.338824
 21
1239.226413
 31
0.0
  0
ARC
  5
122
  8
0
  6
CONTINUOUS
 62
     7
 10
495.213348
 20
1274.573891
 30
0.0
 40
54.0
 50
298.041799
 51
308.958201
  0
ARC
  5
123
  8
0
  6
CONTINUOUS
 62
     7
 10
495.213348
 20
1274.573891
 30
0.0
 40
54.0
 50
208.041799
 51
218.958201
  0
ARC
  5
124
  8
0
  6
CONTINUOUS
 62
     7
 10
529.794778
 20
1231.805624
 30
0.0
 40
1.0
 50
40.0
 51
128.958201
  0
ARC
  5
125
  8
0
  6
CONTINUOUS
 62
     7
 10
537.981615
 20
1239.992461
 30
0.0
 40
1.0
 50
141.041799
 51
230.0
  0
LINE
  5
126
  8
0
  6
CONTINUOUS
 62
     7
 10
456.003303
 20
1227.84518
 30
0.0
 11
459.865875
 21
1232.448409
 31
0.0
  0
ARC
  5
127
  8
0
  6
CONTINUOUS
 62
     7
 10
452.44508
 20
1239.992461
 30
0.0
 40
1.0
 50
310.0
 51
38.95820100000003
  0
LINE
  5
128
  8
0
  6
CONTINUOUS
 62
     7
 10
356.370464
 20
1210.912819
 30
0.0
 11
356.370464
 21
1338.234963
 31
0.0
  0
LINE
  5
129
  8
0
  6
CONTINUOUS
 62
     7
 10
286.062842
 20
1225.074009
 30
0.0
 11
291.063357
 21
1324.073818
 31
0.0
  0
LINE
  5
12A
  8
0
  6
CONTINUOUS
 62
     7
 10
334.312975
 20
1225.073891
 30
0.0
 11
329.312975
 21
1225.073891
 31
0.0
  0
LINE
  5
12B
  8
0
  6
CONTINUOUS
 62
     7
 10
51.81291099999999
 20
1314.75152
 30
0.0
 11
51.812878
 21
1335.573891
 31
0.0
  0
LINE
  5
12C
  8
0
  6
CONTINUOUS
 62
     7
 10
282.122311
 20
1227.573891
 30
0.0
 11
276.189112
 21
1227.573891
 31
0.0
  0
ARC
  5
12D
  8
0
  6
CONTINUOUS
 62
     7
 10
446.67008
 20
1248.717534
 30
0.0
 40
1.0
 50
28.041799
 51
117.0
  0
ARC
  5
12E
  8
0
  6
CONTINUOUS
 62
     7
 10
495.213348
 20
1274.573891
 30
0.0
 40
61.0
 50
181.174176
 51
178.825824
  0
LINE
  5
12F
  8
0
  6
CONTINUOUS
 62
     7
 10
206.062842
 20
1225.074009
 30
0.0
 11
211.063357
 21
1324.073818
 31
0.0
  0
LINE
  5
130
  8
0
  6
CONTINUOUS
 62
     7
 10
520.178693
 20
1225.576632
 30
0.0
 11
522.906768
 21
1220.222493
 31
0.0
  0
ARC
  5
131
  8
0
  6
CONTINUOUS
 62
     7
 10
537.981615
 20
1309.155321
 30
0.0
 40
1.0
 50
130.0
 51
218.958201
  0
ARC
  5
132
  8
0
  6
CONTINUOUS
 62
     7
 10
374.421818
 20
1327.98882
 30
0.0
 40
0.90234
 50
29.470738
 51
48.469922
  0
ARC
  5
133
  8
0
  6
CONTINUOUS
 62
     7
 10
374.353321
 20
1327.911874
 30
0.0
 40
1.005358
 50
48.45503899999999
 51
66.127713
  0
ARC
  5
134
  8
0
  6
CONTINUOUS
 62
     7
 10
374.314828
 20
1327.823984
 30
0.0
 40
1.101307
 50
66.14693
 51
90.09640699999999
  0
ARC
  5
135
  8
0
  6
CONTINUOUS
 62
     7
 10
374.500228
 20
1221.115613
 30
0.0
 40
0.812749
 50
330.470348
 51
359.851057
  0
LINE
  5
136
  8
0
  6
CONTINUOUS
 62
     7
 10
343.312975
 20
1226.073891
 30
0.0
 11
343.312975
 21
1323.073891
 31
0.0
  0
ARC
  5
137
  8
0
  6
CONTINUOUS
 62
     7
 10
452.44508
 20
1309.155321
 30
0.0
 40
1.0
 50
321.041799
 51
50.0
  0
ARC
  5
138
  8
0
  6
CONTINUOUS
 62
     7
 10
374.621879
 20
1236.18717
 30
0.0
 40
0.749574
 50
302.089215
 51
321.365231
  0
ARC
  5
139
  8
0
  6
CONTINUOUS
 62
     7
 10
340.812975
 20
1321.573891
 30
0.0
 40
0.5
 50
180.0
 51
270.0
  0
ARC
  5
13A
  8
0
  6
CONTINUOUS
 62
     7
 10
346.812975
 20
1227.573891
 30
0.0
 40
0.5
 50
90.0
 51
180.0
  0
LINE
  5
13B
  8
0
  6
CONTINUOUS
 62
     7
 10
352.312975
 20
1226.073891
 30
0.0
 11
349.312975
 21
1226.073891
 31
0.0
  0
CIRCLE
  5
13C
  8
0
  6
CONTINUOUS
 62
     7
 10
495.213348
 20
1274.573891
 30
0.0
 40
32.5
  0
ARC
  5
13D
  8
0
  6
CONTINUOUS
 62
     7
 10
374.530848
 20
1228.71753
 30
0.0
 40
0.811928
 50
307.0532650000002
 51
326.435898
  0
ARC
  5
13E
  8
0
  6
CONTINUOUS
 62
     7
 10
495.213348
 20
1274.573891
 30
0.0
 40
54.0
 50
51.041799
 51
61.958201
  0
LINE
  5
13F
  8
0
  6
CONTINUOUS
 62
     7
 10
346.812975
 20
1321.073891
 30
0.0
 11
348.812975
 21
1321.073891
 31
0.0
  0
ARC
  5
140
  8
0
  6
CONTINUOUS
 62
     7
 10
495.213348
 20
1274.573891
 30
0.0
 40
54.0
 50
141.041799
 51
151.958201
  0
LINE
  5
141
  8
0
  6
CONTINUOUS
 62
     7
 10
21.812975
 20
1213.573891
 30
0.0
 11
122.312975
 21
1213.573891
 31
0.0
  0
ARC
  5
142
  8
0
  6
CONTINUOUS
 62
     7
 10
374.393673
 20
1228.896971
 30
0.0
 40
1.037793
 50
290.6812009999999
 51
307.127927
  0
LINE
  5
143
  8
0
  6
CONTINUOUS
 62
     7
 10
346.312975
 20
1226.073891
 30
0.0
 11
343.312975
 21
1226.073891
 31
0.0
  0
ARC
  5
144
  8
0
  6
CONTINUOUS
 62
     7
 10
495.213348
 20
1274.573891
 30
0.0
 40
54.0
 50
321.041799
 51
331.958201
  0
ARC
  5
145
  8
0
  6
CONTINUOUS
 62
     7
 10
521.069704
 20
1323.117159
 30
0.0
 40
1.0
 50
153.0
 51
241.958201
  0
LINE
  5
146
  8
0
  6
CONTINUOUS
 62
     7
 10
435.213348
 20
1275.823891
 30
0.0
 11
434.226156
 21
1275.823891
 31
0.0
  0
ARC
  5
147
  8
0
  6
CONTINUOUS
 62
     7
 10
469.356991
 20
1323.117159
 30
0.0
 40
1.0
 50
298.041799
 51
27.0
  0
LINE
  5
148
  8
0
  6
CONTINUOUS
 62
     7
 10
375.312975
 20
1214.573891
 30
0.0
 11
375.312975
 21
1334.573891
 31
0.0
  0
LINE
  5
149
  8
0
  6
CONTINUOUS
 62
     7
 10
337.312975
 20
1323.073891
 30
0.0
 11
340.312975
 21
1323.073891
 31
0.0
  0
LINE
  5
14A
  8
0
  6
CONTINUOUS
 62
     7
 10
340.812975
 20
1321.073891
 30
0.0
 11
342.812975
 21
1321.073891
 31
0.0
  0
ARC
  5
14B
  8
0
  6
CONTINUOUS
 62
     7
 10
543.756615
 20
1248.717534
 30
0.0
 40
1.0
 50
62.99999999999999
 51
151.958201
  0
LINE
  5
14C
  8
0
  6
CONTINUOUS
 62
     7
 10
337.312975
 20
1226.073891
 30
0.0
 11
337.312975
 21
1323.073891
 31
0.0
  0
ARC
  5
14D
  8
0
  6
CONTINUOUS
 62
     7
 10
342.812975
 20
1321.573891
 30
0.0
 40
0.5
 50
270.0
 51
0.0
  0
LINE
  5
14E
  8
0
  6
CENTER
 62
     5
 10
495.213348
 20
1337.573891
 30
0.0
 11
495.213348
 21
1211.573891
 31
0.0
  0
LINE
  5
150
  8
0
  6
CONTINUOUS
 62
     7
 10
446.216089
 20
1299.539242
 30
0.0
 11
440.86195
 21
1302.267311
 31
0.0
  0
ARC
  5
151
  8
0
  6
CONTINUOUS
 62
     7
 10
342.812975
 20
1227.573891
 30
0.0
 40
0.5
 50
0.0
 51
90.0
  0
ARC
  5
152
  8
0
  6
CONTINUOUS
 62
     7
 10
529.794778
 20
1317.342158
 30
0.0
 40
1.0
 50
231.041799
 51
320.0
  0
ARC
  5
153
  8
0
  6
CONTINUOUS
 62
     7
 10
374.688126
 20
1228.616221
 30
0.0
 40
0.624869
 50
326.203251
 51
359.541831
  0
ARC
  5
154
  8
0
  6
CONTINUOUS
 62
     7
 10
446.67008
 20
1300.430247
 30
0.0
 40
1.0
 50
243.0000000000001
 51
331.958201
  0
ARC
  5
155
  8
0
  6
CONTINUOUS
 62
     7
 10
374.729564
 20
1301.465423
 30
0.0
 40
0.729282
 50
49.063894
 51
66.524245
  0
ARC
  5
156
  8
0
  6
CONTINUOUS
 62
     7
 10
374.319962
 20
1248.925654
 30
0.0
 40
2.045196
 50
269.804247
 51
282.430131
  0
ARC
  5
157
  8
0
  6
CONTINUOUS
 62
     7
 10
374.467215
 20
1248.263393
 30
0.0
 40
1.366763
 50
282.377732
 51
293.860307
  0
LINE
  5
158
  8
0
  6
CONTINUOUS
 62
     7
 10
374.312975
 20
1246.880471
 30
0.0
 11
371.312975
 21
1246.880471
 31
0.0
  0
LINE
  5
159
  8
0
  6
CONTINUOUS
 62
     7
 10
340.312975
 20
1226.073891
 30
0.0
 11
337.312975
 21
1226.073891
 31
0.0
  0
LINE
  5
15A
  8
0
  6
CONTINUOUS
 62
     7
 10
371.312975
 20
1235.363847
 30
0.0
 11
374.312975
 21
1235.363847
 31
0.0
  0
ARC
  5
15B
  8
0
  6
CONTINUOUS
 62
     7
 10
340.812975
 20
1227.573891
 30
0.0
 40
0.5
 50
90.0
 51
180.0
  0
ARC
  5
15C
  8
0
  6
CONTINUOUS
 62
     7
 10
543.756615
 20
1300.430247
 30
0.0
 40
1.0
 50
208.041799
 51
297.0
  0
ARC
  5
15D
  8
0
  6
CONTINUOUS
 62
     7
 10
374.316662
 20
1229.101724
 30
0.0
 40
1.256549
 50
269.831848
 51
290.669162
  0
ARC
  5
15E
  8
0
  6
CONTINUOUS
 62
     7
 10
460.631917
 20
1317.342158
 30
0.0
 40
1.0
 50
220.0
 51
308.958201
  0
LINE
  5
15F
  8
0
  6
CONTINUOUS
 62
     7
 10
21.812975
 20
1335.573891
 30
0.0
 11
21.812975
 21
1213.573891
 31
0.0
  0
LINE
  5
160
  8
0
  6
CONTINUOUS
 62
     7
 10
343.312975
 20
1323.073891
 30
0.0
 11
346.312975
 21
1323.073891
 31
0.0
  0
LINE
  5
161
  8
0
  6
CONTINUOUS
 62
     7
 10
340.312975
 20
1226.073891
 30
0.0
 11
340.312975
 21
1323.073891
 31
0.0
  0
LINE
  5
162
  8
0
  6
CONTINUOUS
 62
     7
 10
374.312975
 20
1220.222493
 30
0.0
 11
371.312975
 21
1220.222493
 31
0.0
  0
CIRCLE
  5
163
  8
0
  6
CONTINUOUS
 62
     7
 10
495.213348
 20
1274.573891
 30
0.0
 40
41.912083
  0
LINE
  5
164
  8
0
  6
CENTER
 62
     5
 10
558.213348
 20
1274.573891
 30
0.0
 11
432.213348
 21
1274.573891
 31
0.0
  0
LINE
  5
165
  8
0
  6
CONTINUOUS
 62
     7
 10
342.812975
 20
1228.073891
 30
0.0
 11
340.812975
 21
1228.073891
 31
0.0
  0
LINE
  5
166
  8
0
  6
CONTINUOUS
 62
     7
 10
122.312975
 20
1213.573891
 30
0.0
 11
123.812975
 21
1224.073891
 31
0.0
  0
ARC
  5
167
  8
0
  6
CONTINUOUS
 62
     7
 10
374.319962
 20
1300.222128
 30
0.0
 40
2.045196
 50
77.569869
 51
90.195753
  0
LINE
  5
168
  8
0
  6
CONTINUOUS
 62
     7
 10
435.213348
 20
1273.323891
 30
0.0
 11
435.213348
 21
1275.823891
 31
0.0
  0
ARC
  5
169
  8
0
  6
CONTINUOUS
 62
     7
 10
348.812975
 20
1227.573891
 30
0.0
 40
0.5
 50
0.0
 51
90.0
  0
ARC
  5
16A
  8
0
  6
CONTINUOUS
 62
     7
 10
352.812975
 20
1321.573891
 30
0.0
 40
0.5
 50
180.0
 51
270.0
  0
LINE
  5
16B
  8
0
  6
CONTINUOUS
 62
     7
 10
541.942059
 20
1313.783935
 30
0.0
 11
537.338823
 21
1309.921369
 31
0.0
  0
LINE
  5
16C
  8
0
  6
CONTINUOUS
 62
     7
 10
374.312975
 20
1328.925289
 30
0.0
 11
371.312975
 21
1328.925289
 31
0.0
  0
ARC
  5
16D
  8
0
  6
CONTINUOUS
 62
     7
 10
374.500228
 20
1328.03217
 30
0.0
 40
0.812749
 50
0.148943
 51
29.529652
  0
ARC
  5
16E
  8
0
  6
CONTINUOUS
 62
     7
 10
495.213348
 20
1274.573891
 30
0.0
 40
54.0
 50
118.041799
 51
128.958201
  0
ARC
  5
16F
  8
0
  6
CONTINUOUS
 62
     7
 10
495.213348
 20
1274.573891
 30
0.0
 40
54.0
 50
28.041799
 51
38.958201
  0
LINE
  5
170
  8
0
  6
CONTINUOUS
 62
     7
 10
21.812975
 20
1335.573891
 30
0.0
 11
122.312975
 21
1335.573891
 31
0.0
  0
ARC
  5
171
  8
0
  6
CONTINUOUS
 62
     7
 10
374.318179
 20
1236.83708
 30
0.0
 40
1.473242
 50
269.797581
 51
287.459078
  0
ARC
  5
172
  8
0
  6
CONTINUOUS
 62
     7
 10
352.812975
 20
1227.573891
 30
0.0
 40
0.5
 50
90.0
 51
180.0
  0
LINE
  5
173
  8
0
  6
CONTINUOUS
 62
     7
 10
371.312975
 20
1227.84518
 30
0.0
 11
374.312975
 21
1227.84518
 31
0.0
  0
LINE
  5
174
  8
0
  6
CONTINUOUS
 62
     7
 10
346.312975
 20
1226.073891
 30
0.0
 11
346.312975
 21
1323.073891
 31
0.0
  0
LINE
  5
175
  8
0
  6
CONTINUOUS
 62
     7
 10
371.312975
 20
1313.783935
 30
0.0
 11
374.312975
 21
1313.783935
 31
0.0
  0
LINE
  5
176
  8
0
  6
CONTINUOUS
 62
     7
 10
356.370464
 20
1228.073891
 30
0.0
 11
352.812975
 21
1228.073891
 31
0.0
  0
LINE
  5
177
  8
0
  6
CONTINUOUS
 62
     7
 10
371.312975
 20
1321.302602
 30
0.0
 11
374.312975
 21
1321.302602
 31
0.0
  0
LINE
  5
178
  8
0
  6
CONTINUOUS
 62
     7
 10
374.312975
 20
1302.267312
 30
0.0
 11
371.312975
 21
1302.267312
 31
0.0
  0
LINE
  5
179
  8
0
  6
CONTINUOUS
 62
     7
 10
245.312975
 20
1237.467087
 30
0.0
 11
233.72582
 21
1238.145415
 31
0.0
  0
ARC
  5
17A
  8
0
  6
CONTINUOUS
 62
     7
 10
233.66651
 20
1310.330012
 30
0.0
 40
0.674967999999998
 50
84.95895100000003
 51
116.460148
  0
ARC
  5
17B
  8
0
  6
CONTINUOUS
 62
     7
 10
374.318179
 20
1312.310702
 30
0.0
 40
1.473242
 50
72.54092200000001
 51
90.20241900000002
  0
ARC
  5
17C
  8
0
  6
CONTINUOUS
 62
     7
 10
233.522148
 20
1238.97509
 30
0.0
 40
0.7603210000000082
 50
217.450718
 51
236.803891
  0
LINE
  5
17D
  8
0
  6
CONTINUOUS
 62
     7
 10
348.812975
 20
1228.073891
 30
0.0
 11
346.812975
 21
1228.073891
 31
0.0
  0
ARC
  5
17E
  8
0
  6
CONTINUOUS
 62
     7
 10
374.427337
 20
1312.656945
 30
0.0
 40
1.110201
 50
57.73016699999999
 51
72.553717
  0
LINE
  5
17F
  8
0
  6
CONTINUOUS
 62
     7
 10
122.312975
 20
1335.573891
 30
0.0
 11
123.812975
 21
1325.073891
 31
0.0
  0
ARC
  5
180
  8
0
  6
CONTINUOUS
 62
     7
 10
374.688126
 20
1320.531561
 30
0.0
 40
0.624869
 50
0.458169
 51
33.796749
  0
LINE
  5
181
  8
0
  6
CONTINUOUS
 62
     7
 10
371.312975
 20
1302.267312
 30
0.0
 11
371.312975
 21
1313.783935
 31
0.0
  0
LINE
  5
182
  8
0
  6
CONTINUOUS
 62
     7
 10
374.312975
 20
1213.573891
 30
0.0
 11
369.312975
 21
1213.573891
 31
0.0
  0
LINE
  5
183
  8
0
  6
CONTINUOUS
 62
     7
 10
369.312975
 20
1213.573891
 30
0.0
 11
369.312975
 21
1335.561083
 31
0.0
  0
LINE
  5
184
  8
0
  6
CONTINUOUS
 62
     7
 10
122.312975
 20
1213.573891
 30
0.0
 11
122.312975
 21
1335.573891
 31
0.0
  0
LINE
  5
185
  8
0
  6
CONTINUOUS
 62
     7
 10
206.063103
 20
1225.074761
 30
0.0
 11
202.563103
 21
1225.074753
 31
0.0
  0
LINE
  5
186
  8
0
  6
CONTINUOUS
 62
     7
 10
371.312975
 20
1220.222493
 30
0.0
 11
371.312975
 21
1227.84518
 31
0.0
  0
ARC
  5
187
  8
0
  6
CONTINUOUS
 62
     7
 10
233.705297
 20
1309.898141
 30
0.0
 40
1.09034600000002
 50
108.143769
 51
123.350615
  0
ARC
  5
188
  8
0
  6
CONTINUOUS
 62
     7
 10
374.845298
 20
1236.015274
 30
0.0
 40
0.467757
 50
320.726145
 51
358.9416719999999
  0
LINE
  5
189
  8
0
  6
CONTINUOUS
 62
     7
 10
312.562842
 20
1225.074001
 30
0.0
 11
312.122311
 21
1227.573891
 31
0.0
  0
LINE
  5
18A
  8
0
  6
CONTINUOUS
 62
     7
 10
245.312975
 20
1319.566847
 30
0.0
 11
245.312975
 21
1335.514597
 31
0.0
  0
ARC
  5
18B
  8
0
  6
CONTINUOUS
 62
     7
 10
374.621879
 20
1312.960612
 30
0.0
 40
0.749574
 50
38.634769
 51
57.910785
  0
ARC
  5
18C
  8
0
  6
CONTINUOUS
 62
     7
 10
374.427337
 20
1236.490838
 30
0.0
 40
1.110201
 50
287.446283
 51
302.269833
  0
ARC
  5
18D
  8
0
  6
CONTINUOUS
 62
     7
 10
374.467215
 20
1300.88439
 30
0.0
 40
1.366763
 50
66.13969300000001
 51
77.622268
  0
ARC
  5
18E
  8
0
  6
CONTINUOUS
 62
     7
 10
374.421818
 20
1221.158962
 30
0.0
 40
0.90234
 50
311.530078
 51
330.529262
  0
ARC
  5
18F
  8
0
  6
CONTINUOUS
 62
     7
 10
222.51214
 20
1254.471105
 30
0.0
 40
23.26472200000001
 50
89.25909
 51
95.475414
  0
LINE
  5
190
  8
0
  6
CONTINUOUS
 62
     7
 10
245.312975
 20
1213.633186
 30
0.0
 11
245.312975
 21
1229.580936
 31
0.0
  0
ARC
  5
191
  8
0
  6
CONTINUOUS
 62
     7
 10
374.353321
 20
1221.235908
 30
0.0
 40
1.005358
 50
293.872287
 51
311.544961
  0
ARC
  5
192
  8
0
  6
CONTINUOUS
 62
     7
 10
233.812291
 20
1327.945785
 30
0.0
 40
0.9987510000000199
 50
94.966917
 51
116.557041
  0
LINE
  5
193
  8
0
  6
CONTINUOUS
 62
     7
 10
123.812975
 20
1325.073891
 30
0.0
 11
123.812975
 21
1224.073891
 31
0.0
  0
ARC
  5
194
  8
0
  6
CONTINUOUS
 62
     7
 10
375.031161
 20
1301.795746
 30
0.0
 40
0.282361
 50
3.568591
 51
51.378865
  0
ARC
  5
195
  8
0
  6
CONTINUOUS
 62
     7
 10
374.729564
 20
1247.68236
 30
0.0
 40
0.729282
 50
293.475755
 51
310.936106
  0
ARC
  5
196
  8
0
  6
CONTINUOUS
 62
     7
 10
233.756609
 20
1239.294174
 30
0.0
 40
1.149171999999976
 50
250.116245
 51
268.464656
  0
ARC
  5
197
  8
0
  6
CONTINUOUS
 62
     7
 10
374.845298
 20
1313.132508
 30
0.0
 40
0.467757
 50
1.058328
 51
39.273855
  0
ARC
  5
198
  8
0
  6
CONTINUOUS
 62
     7
 10
374.312975
 20
1214.573891
 30
0.0
 40
1.0
 50
270.0
 51
0.0
  0
ARC
  5
199
  8
0
  6
CONTINUOUS
 62
     7
 10
222.59017
 20
1232.295873
 30
0.0
 40
2.854849999999992
 50
194.901489
 51
274.476166
  0
ARC
  5
19A
  8
0
  6
CONTINUOUS
 62
     7
 10
374.530848
 20
1320.430253
 30
0.0
 40
0.811928
 50
33.564102
 51
52.946735
  0
LINE
  5
19B
  8
0
  6
CONTINUOUS
 62
     7
 10
374.312975
 20
1335.573891
 30
0.0
 11
369.312975
 21
1335.573891
 31
0.0
  0
LINE
  5
19C
  8
0
  6
CONTINUOUS
 62
     7
 10
349.312975
 20
1226.073891
 30
0.0
 11
349.312975
 21
1323.073891
 31
0.0
  0
LINE
  5
19D
  8
0
  6
CONTINUOUS
 62
     7
 10
352.812975
 20
1321.073891
 30
0.0
 11
356.370464
 21
1321.073891
 31
0.0
  0
ARC
  5
19E
  8
0
  6
CONTINUOUS
 62
     7
 10
348.812975
 20
1321.573891
 30
0.0
 40
0.5
 50
270.0
 51
0.0
  0
LINE
  5
19F
  8
0
  6
CONTINUOUS
 62
     7
 10
352.312975
 20
1226.073891
 30
0.0
 11
352.312975
 21
1323.073891
 31
0.0
  0
ARC
  5
1A0
  8
0
  6
CONTINUOUS
 62
     7
 10
374.314828
 20
1221.323799
 30
0.0
 40
1.101307
 50
269.903593
 51
293.85307
  0
ARC
  5
1A1
  8
0
  6
CONTINUOUS
 62
     7
 10
375.031161
 20
1247.352036
 30
0.0
 40
0.282361
 50
308.621135
 51
356.431409
  0
ARC
  5
1A2
  8
0
  6
CONTINUOUS
 62
     7
 10
374.393673
 20
1320.250811
 30
0.0
 40
1.037793
 50
52.87207300000001
 51
69.318799
  0
LINE
  5
1A3
  8
0
  6
CONTINUOUS
 62
     7
 10
371.312975
 20
1246.880471
 30
0.0
 11
371.312975
 21
1235.363847
 31
0.0
  0
LINE
  5
1A4
  8
0
  6
CONTINUOUS
 62
     7
 10
349.312975
 20
1323.073891
 30
0.0
 11
352.312975
 21
1323.073891
 31
0.0
  0
LINE
  5
1A5
  8
0
  6
CONTINUOUS
 62
     7
 10
371.312975
 20
1328.925289
 30
0.0
 11
371.312975
 21
1321.302602
 31
0.0
  0
ARC
  5
1A6
  8
0
  6
CONTINUOUS
 62
     7
 10
346.812975
 20
1321.573891
 30
0.0
 40
0.5
 50
180.0
 51
270.0
  0
LINE
  5
1A7
  8
0
  6
CONTINUOUS
 62
     7
 10
232.812975
 20
1319.698053
 30
0.0
 11
232.812975
 21
1327.945956
 31
0.0
  0
LINE
  5
1A8
  8
0
  6
CONTINUOUS
 62
     7
 10
245.312975
 20
1329.953141
 30
0.0
 11
233.72582
 21
1328.940786
 31
0.0
  0
ARC
  5
1A9
  8
0
  6
CONTINUOUS
 62
     7
 10
374.316662
 20
1320.046058
 30
0.0
 40
1.256549
 50
69.33083799999999
 51
90.168152
  0
LINE
  5
1AA
  8
0
  6
CONTINUOUS
 62
     7
 10
232.812975
 20
1221.201827
 30
0.0
 11
232.812975
 21
1229.44973
 31
0.0
  0
ARC
  5
1AB
  8
0
  6
CONTINUOUS
 62
     7
 10
222.812975
 20
1332.573891
 30
0.0
 40
3.000000000000003
 50
90.0
 51
180.0
  0
ARC
  5
1AC
  8
0
  6
CONTINUOUS
 62
     7
 10
233.311884
 20
1310.328015
 30
0.0
 40
0.4989690000000159
 50
142.026649
 51
179.107887
  0
ARC
  5
1AD
  8
0
  6
CONTINUOUS
 62
     7
 10
233.812438
 20
1221.203277
 30
0.0
 40
0.9999609999999937
 50
225.0412369999999
 51
243.468214
  0
LINE
  5
1AE
  8
0
  6
CONTINUOUS
 62
     7
 10
232.812975
 20
1277.740109
 30
0.0
 11
232.812975
 21
1310.335784
 31
0.0
  0
LINE
  5
1AF
  8
0
  6
CONTINUOUS
 62
     7
 10
245.312975
 20
1233.383675
 30
0.0
 11
245.312975
 21
1271.884949
 31
0.0
  0
LINE
  5
1B0
  8
0
  6
CONTINUOUS
 62
     7
 10
245.312975
 20
1219.194642
 30
0.0
 11
233.72582
 21
1220.206997
 31
0.0
  0
LINE
  5
1B1
  8
0
  6
CONTINUOUS
 62
     7
 10
222.812975
 20
1335.573891
 30
0.0
 11
249.534757
 21
1335.573891
 31
0.0
  0
LINE
  5
1B2
  8
0
  6
CONTINUOUS
 62
     7
 10
317.563357
 20
1324.073826
 30
0.0
 11
321.063357
 21
1324.073818
 31
0.0
  0
ARC
  5
1B3
  8
0
  6
CONTINUOUS
 62
     7
 10
222.594262
 20
1316.846134
 30
0.0
 40
2.860293000000014
 50
85.614581
 51
165.007764
  0
LINE
  5
1B4
  8
0
  6
CONTINUOUS
 62
     7
 10
321.503887
 20
1321.573891
 30
0.0
 11
326.971813
 21
1321.573891
 31
0.0
  0
ARC
  5
1B5
  8
0
  6
CONTINUOUS
 62
     7
 10
233.311884
 20
1238.819768
 30
0.0
 40
0.4989690000000159
 50
180.892113
 51
217.973351
  0
LINE
  5
1B6
  8
0
  6
CONTINUOUS
 62
     7
 10
222.812975
 20
1271.406989
 30
0.0
 11
222.812975
 21
1271.413901
 31
0.0
  0
LINE
  5
1B7
  8
0
  6
CONTINUOUS
 62
     7
 10
222.812975
 20
1319.698053
 30
0.0
 11
245.312975
 21
1319.698053
 31
0.0
  0
LINE
  5
1B8
  8
0
  6
CONTINUOUS
 62
     7
 10
311.503858
 20
1321.573891
 30
0.0
 11
317.437084
 21
1321.573891
 31
0.0
  0
LINE
  5
1B9
  8
0
  6
CONTINUOUS
 62
     7
 10
219.812975
 20
1216.573891
 30
0.0
 11
219.812975
 21
1332.573891
 31
0.0
  0
LINE
  5
1BA
  8
0
  6
CONTINUOUS
 62
     7
 10
249.534757
 20
1213.573891
 30
0.0
 11
222.812975
 21
1213.573891
 31
0.0
  0
LINE
  5
1BB
  8
0
  6
CONTINUOUS
 62
     7
 10
316.062842
 20
1225.074009
 30
0.0
 11
321.063357
 21
1324.073818
 31
0.0
  0
LINE
  5
1BC
  8
0
  6
CONTINUOUS
 62
     7
 10
306.062842
 20
1225.074009
 30
0.0
 11
302.562842
 21
1225.074001
 31
0.0
  0
LINE
  5
1BD
  8
0
  6
CONTINUOUS
 62
     7
 10
307.563357
 20
1324.073826
 30
0.0
 11
302.562842
 21
1225.074001
 31
0.0
  0
LINE
  5
1BE
  8
0
  6
CONTINUOUS
 62
     7
 10
245.312975
 20
1229.44973
 30
0.0
 11
222.812975
 21
1229.44973
 31
0.0
  0
ARC
  5
1BF
  8
0
  6
CONTINUOUS
 62
     7
 10
233.811527
 20
1221.202365
 30
0.0
 40
0.9986719999999782
 50
206.598347
 51
225.041239
  0
LINE
  5
1C0
  8
0
  6
CONTINUOUS
 62
     7
 10
316.062842
 20
1225.074009
 30
0.0
 11
312.562842
 21
1225.074001
 31
0.0
  0
ARC
  5
1C1
  8
0
  6
CONTINUOUS
 62
     7
 10
222.812975
 20
1216.573891
 30
0.0
 40
3.000000000000003
 50
180.0
 51
270.0
  0
LINE
  5
1C2
  8
0
  6
CONTINUOUS
 62
     7
 10
302.122311
 20
1227.573891
 30
0.0
 11
296.189112
 21
1227.573891
 31
0.0
  0
LINE
  5
1C3
  8
0
  6
CONTINUOUS
 62
     7
 10
296.062842
 20
1225.074009
 30
0.0
 11
292.562842
 21
1225.074001
 31
0.0
  0
LINE
  5
1C4
  8
0
  6
CONTINUOUS
 62
     7
 10
306.062842
 20
1225.074009
 30
0.0
 11
311.063357
 21
1324.073818
 31
0.0
  0
LINE
  5
1C5
  8
0
  6
CONTINUOUS
 62
     7
 10
302.562842
 20
1225.074001
 30
0.0
 11
302.122311
 21
1227.573891
 31
0.0
  0
LINE
  5
1C6
  8
0
  6
CONTINUOUS
 62
     7
 10
307.563357
 20
1324.073826
 30
0.0
 11
311.063357
 21
1324.073818
 31
0.0
  0
LINE
  5
1C7
  8
0
  6
CONTINUOUS
 62
     7
 10
311.503887
 20
1321.573891
 30
0.0
 11
311.063357
 21
1324.073818
 31
0.0
  0
LINE
  5
1C8
  8
0
  6
CONTINUOUS
 62
     7
 10
301.503858
 20
1321.573891
 30
0.0
 11
307.437084
 21
1321.573891
 31
0.0
  0
LINE
  5
1C9
  8
0
  6
CONTINUOUS
 62
     7
 10
232.812975
 20
1238.811999
 30
0.0
 11
232.812975
 21
1271.407674
 31
0.0
  0
LINE
  5
1CA
  8
0
  6
CONTINUOUS
 62
     7
 10
297.563357
 20
1324.073826
 30
0.0
 11
301.063357
 21
1324.073818
 31
0.0
  0
LINE
  5
1CB
  8
0
  6
CONTINUOUS
 62
     7
 10
317.563357
 20
1324.073826
 30
0.0
 11
312.562842
 21
1225.074001
 31
0.0
  0
ARC
  5
1CC
  8
0
  6
CONTINUOUS
 62
     7
 10
233.761313
 20
1221.021388
 30
0.0
 40
0.8151630000000076
 50
240.97163
 51
267.504412
  0
ARC
  5
1CD
  8
0
  6
CONTINUOUS
 62
     7
 10
233.705297
 20
1239.249642
 30
0.0
 40
1.09034600000002
 50
236.649385
 51
251.856231
  0
LINE
  5
1CE
  8
0
  6
CONTINUOUS
 62
     7
 10
321.503887
 20
1321.573891
 30
0.0
 11
321.063357
 21
1324.073818
 31
0.0
  0
ARC
  5
1CF
  8
0
  6
CONTINUOUS
 62
     7
 10
233.812438
 20
1327.944507
 30
0.0
 40
0.9999609999999937
 50
116.531786
 51
134.958763
  0
ARC
  5
1D0
  8
0
  6
CONTINUOUS
 62
     7
 10
233.810486
 20
1221.201852
 30
0.0
 40
0.9975110000000065
 50
180.001426
 51
206.598775
  0
LINE
  5
1D1
  8
0
  6
CONTINUOUS
 62
     7
 10
245.312975
 20
1271.406989
 30
0.0
 11
222.812975
 21
1271.406989
 31
0.0
  0
ARC
  5
1D2
  8
0
  6
CONTINUOUS
 62
     7
 10
233.522148
 20
1310.172694
 30
0.0
 40
0.7603210000000082
 50
123.196109
 51
142.549282
  0
LINE
  5
1D3
  8
0
  6
CONTINUOUS
 62
     7
 10
222.812975
 20
1277.733882
 30
0.0
 11
222.812975
 21
1277.740794
 31
0.0
  0
ARC
  5
1D4
  8
0
  6
CONTINUOUS
 62
     7
 10
233.810486
 20
1327.945931
 30
0.0
 40
0.9975110000000065
 50
153.401225
 51
179.998574
  0
LINE
  5
1D5
  8
0
  6
CONTINUOUS
 62
     7
 10
312.122311
 20
1227.573891
 30
0.0
 11
306.189112
 21
1227.573891
 31
0.0
  0
LINE
  5
1D6
  8
0
  6
CONTINUOUS
 62
     7
 10
222.812975
 20
1277.740794
 30
0.0
 11
245.312975
 21
1277.740794
 31
0.0
  0
ARC
  5
1D7
  8
0
  6
CONTINUOUS
 62
     7
 10
222.492313
 20
1293.466105
 30
0.0
 40
22.05453500000001
 50
264.2002219999999
 51
270.833084
  0
LINE
  5
1D8
  8
0
  6
CONTINUOUS
 62
     7
 10
329.312975
 20
1225.073891
 30
0.0
 11
329.312975
 21
1289.419891
 31
0.0
  0
LINE
  5
1D9
  8
0
  6
CONTINUOUS
 62
     7
 10
249.534757
 20
1213.573891
 30
0.0
 11
249.534757
 21
1335.573891
 31
0.0
  0
LINE
  5
1DA
  8
0
  6
CONTINUOUS
 62
     7
 10
245.312975
 20
1311.680696
 30
0.0
 11
233.72582
 21
1311.002368
 31
0.0
  0
ARC
  5
1DB
  8
0
  6
CONTINUOUS
 62
     7
 10
374.312975
 20
1334.573891
 30
0.0
 40
1.0
 50
0.0
 51
90.0
  0
ARC
  5
1DC
  8
0
  6
CONTINUOUS
 62
     7
 10
233.811527
 20
1327.945418
 30
0.0
 40
0.9986719999999782
 50
134.958761
 51
153.401653
  0
LINE
  5
1DD
  8
0
  6
CONTINUOUS
 62
     7
 10
245.312975
 20
1277.262834
 30
0.0
 11
245.312975
 21
1315.764108
 31
0.0
  0
LINE
  5
1DE
  8
0
  6
CENTER
 62
     5
 10
390.305178
 20
1274.573891
 30
0.0
 11
15.00000000000007
 21
1274.573891
 31
0.0
  0
LINE
  5
1DF
  8
0
  6
CONTINUOUS
 62
     7
 10
197.563357
 20
1324.073826
 30
0.0
 11
201.063357
 21
1324.073818
 31
0.0
  0
LINE
  5
1E0
  8
0
  6
CONTINUOUS
 62
     7
 10
202.122311
 20
1227.573891
 30
0.0
 11
196.189112
 21
1227.573891
 31
0.0
  0
LINE
  5
1E1
  8
0
  6
CONTINUOUS
 62
     7
 10
201.503887
 20
1321.573891
 30
0.0
 11
201.063357
 21
1324.073818
 31
0.0
  0
LINE
  5
1E2
  8
0
  6
CONTINUOUS
 62
     7
 10
202.562842
 20
1225.074001
 30
0.0
 11
202.122311
 21
1227.573891
 31
0.0
  0
LINE
  5
1E3
  8
0
  6
CONTINUOUS
 62
     7
 10
196.062842
 20
1225.074009
 30
0.0
 11
201.063357
 21
1324.073818
 31
0.0
  0
LINE
  5
1E4
  8
0
  6
CONTINUOUS
 62
     7
 10
201.503858
 20
1321.573891
 30
0.0
 11
207.437084
 21
1321.573891
 31
0.0
  0
LINE
  5
1E5
  8
0
  6
CONTINUOUS
 62
     7
 10
0.0
 20
0.0
 30
0.0
 11
420.0
 21
0.0
 31
0.0
  0
LINE
  5
1E6
  8
0
  6
CONTINUOUS
 62
     7
 10
420.0
 20
0.0
 30
0.0
 11
420.0
 21
297.0
 31
0.0
  0
LINE
  5
1E7
  8
0
  6
CONTINUOUS
 62
     7
 10
420.0
 20
297.0
 30
0.0
 11
0.0
 21
297.0
 31
0.0
  0
LINE
  5
1E8
  8
0
  6
CONTINUOUS
 62
     7
 10
0.0
 20
297.0
 30
0.0
 11
0.0
 21
0.0
 31
0.0
  0
LINE
  5
1E9
  8
0
  6
CONTINUOUS
 62
     7
 10
10.0
 20
10.0
 30
0.0
 11
409.9999999999999
 21
10.0
 31
0.0
  0
LINE
  5
1EA
  8
0
  6
CONTINUOUS
 62
     7
 10
409.9999999999999
 20
10.0
 30
0.0
 11
409.9999999999999
 21
286.9999999999999
 31
0.0
  0
LINE
  5
1EB
  8
0
  6
CONTINUOUS
 62
     7
 10
409.9999999999999
 20
286.9999999999999
 30
0.0
 11
10.00000000000006
 21
286.9999999999999
 31
0.0
  0
LINE
  5
1EC
  8
0
  6
CONTINUOUS
 62
     7
 10
10.0
 20
286.9999999999999
 30
0.0
 11
10.0
 21
10.00000000000001
 31
0.0
  0
LINE
  5
1ED
  8
0
  6
CONTINUOUS
 62
     7
 10
210.0
 20
0.0
 30
0.0
 11
210.0
 21
10.0
 31
0.0
  0
LINE
  5
1EE
  8
0
  6
CONTINUOUS
 62
     7
 10
420.0
 20
148.5
 30
0.0
 11
409.9999999999999
 21
148.5
 31
0.0
  0
LINE
  5
1EF
  8
0
  6
CONTINUOUS
 62
     7
 10
210.0
 20
297.0
 30
0.0
 11
210.0
 21
286.9999999999999
 31
0.0
  0
LINE
  5
1F0
  8
0
  6
CONTINUOUS
 62
     7
 10
0.0
 20
148.5
 30
0.0
 11
10.0
 21
148.5
 31
0.0
  0
LINE
  5
1F1
  8
0
  6
CONTINUOUS
 62
     7
 10
11.0
 20
152.5
 30
0.0
 11
0.0000000000000017
 21
148.5
 31
0.0
  0
LINE
  5
1F2
  8
0
  6
CONTINUOUS
 62
     7
 10
0.0
 20
148.5
 30
0.0
 11
11.0
 21
144.5
 31
0.0
  0
LINE
  5
1F3
  8
0
  6
CONTINUOUS
 62
     7
 10
11.0
 20
144.5
 30
0.0
 11
11.0
 21
152.5
 31
0.0
  0
INSERT
  5
1F4
  8
0
 62
     7
  2
*U2
 10
0.0
 20
0.0
 30
0.0
  0
LINE
  5
1F5
  8
0
  6
CONTINUOUS
 62
     7
 10
206.0
 20
11.0
 30
0.0
 11
210.0
 21
-0.0000000000000017
 31
0.0
  0
LINE
  5
1F6
  8
0
  6
CONTINUOUS
 62
     7
 10
210.0
 20
0.0
 30
0.0
 11
214.0
 21
11.0
 31
0.0
  0
LINE
  5
1F7
  8
0
  6
CONTINUOUS
 62
     7
 10
214.0
 20
11.0
 30
0.0
 11
206.0
 21
11.0
 31
0.0
  0
INSERT
  5
1F8
  8
0
 62
     7
  2
*U3
 10
0.0
 20
0.0
 30
0.0
  0
INSERT
  5
1F9
  8
0
 62
     7
  2
*U4
 10
0.0
 20
0.0
 30
0.0
  0
LINE
  5
1FA
  8
0
  6
CONTINUOUS
 62
     7
 10
367.5
 20
286.9999999999999
 30
0.0
 11
367.5
 21
292.0
 31
0.0
  0
TEXT
  5
1FB
  8
0
  6
CONTINUOUS
 62
     7
 10
391.2681818181818
 20
291.6648586970114
 30
0.0
 40
3.5
  1
A
 50
270.0
  0
LINE
  5
1FC
  8
0
  6
CONTINUOUS
 62
     7
 10
367.5
 20
10.0
 30
0.0
 11
367.5
 21
5.0
 31
0.0
  0
TEXT
  5
1FD
  8
0
  6
CONTINUOUS
 62
     7
 10
393.1544594848068
 20
4.236363636363635
 30
0.0
 40
3.5
  1
A
  0
LINE
  5
1FE
  8
0
  6
CONTINUOUS
 62
     7
 10
315.0
 20
286.9999999999999
 30
0.0
 11
315.0
 21
292.0
 31
0.0
  0
TEXT
  5
1FF
  8
0
  6
CONTINUOUS
 62
     7
 10
338.7681818181818
 20
291.9491215455798
 30
0.0
 40
3.5
  1
B
 50
270.0
  0
LINE
  5
200
  8
0
  6
CONTINUOUS
 62
     7
 10
315.0
 20
10.0
 30
0.0
 11
315.0
 21
5.0
 31
0.0
  0
TEXT
  5
201
  8
0
  6
CONTINUOUS
 62
     7
 10
340.3701966362385
 20
4.236363636363635
 30
0.0
 40
3.5
  1
B
  0
LINE
  5
202
  8
0
  6
CONTINUOUS
 62
     7
 10
262.5
 20
286.9999999999999
 30
0.0
 11
262.5
 21
292.0
 31
0.0
  0
TEXT
  5
203
  8
0
  6
CONTINUOUS
 62
     7
 10
286.2655558334374
 20
291.8798611979494
 30
0.0
 40
3.5
  1
C
 50
270.0
  0
LINE
  5
204
  8
0
  6
CONTINUOUS
 62
     7
 10
262.5
 20
10.0
 30
0.0
 11
262.5
 21
5.0
 31
0.0
  0
TEXT
  5
205
  8
0
  6
CONTINUOUS
 62
     7
 10
287.9394569838688
 20
4.233737651619357
 30
0.0
 40
3.5
  1
C
  0
LINE
  5
206
  8
0
  6
CONTINUOUS
 62
     7
 10
210.0
 20
286.9999999999999
 30
0.0
 11
210.0
 21
292.0
 31
0.0
  0
TEXT
  5
207
  8
0
  6
CONTINUOUS
 62
     7
 10
233.7681818181818
 20
291.9491215455796
 30
0.0
 40
3.5
  1
D
 50
270.0
  0
LINE
  5
208
  8
0
  6
CONTINUOUS
 62
     7
 10
157.5
 20
286.9999999999999
 30
0.0
 11
157.5
 21
292.0
 31
0.0
  0
TEXT
  5
209
  8
0
  6
CONTINUOUS
 62
     7
 10
181.2655558334376
 20
292.0549268475679
 30
0.0
 40
3.5
  1
E
 50
270.0
  0
LINE
  5
20A
  8
0
  6
CONTINUOUS
 62
     7
 10
157.5
 20
10.0
 30
0.0
 11
157.5
 21
5.0
 31
0.0
  0
LINE
  5
20B
  8
0
  6
CONTINUOUS
 62
     7
 10
105.0
 20
286.9999999999999
 30
0.0
 11
105.0
 21
292.0
 31
0.0
  0
TEXT
  5
20C
  8
0
  6
CONTINUOUS
 62
     7
 10
128.7655558334375
 20
291.9849005877204
 30
0.0
 40
3.5
  1
F
 50
270.0
  0
LINE
  5
20D
  8
0
  6
CONTINUOUS
 62
     7
 10
105.0
 20
10.0
 30
0.0
 11
105.0
 21
5.0
 31
0.0
  0
TEXT
  5
20E
  8
0
  6
CONTINUOUS
 62
     7
 10
130.3344175940978
 20
4.233737651619357
 30
0.0
 40
3.5
  1
F
  0
LINE
  5
20F
  8
0
  6
CONTINUOUS
 62
     7
 10
52.50000000000004
 20
286.9999999999999
 30
0.0
 11
52.50000000000004
 21
292.0
 31
0.0
  0
TEXT
  5
210
  8
0
  6
CONTINUOUS
 62
     7
 10
76.26555583343753
 20
291.8798611979493
 30
0.0
 40
3.5
  1
G
 50
270.0
  0
LINE
  5
211
  8
0
  6
CONTINUOUS
 62
     7
 10
52.50000000000004
 20
10.0
 30
0.0
 11
52.50000000000004
 21
5.0
 31
0.0
  0
TEXT
  5
212
  8
0
  6
CONTINUOUS
 62
     7
 10
77.93945698386898
 20
4.233737651619357
 30
0.0
 40
3.5
  1
G
  0
TEXT
  5
213
  8
0
  6
CONTINUOUS
 62
     7
 10
23.76555583343753
 20
291.9498874577966
 30
0.0
 40
3.5
  1
H
 50
270.0
  0
TEXT
  5
214
  8
0
  6
CONTINUOUS
 62
     7
 10
25.36943072402154
 20
4.233737651619357
 30
0.0
 40
3.5
  1
H
  0
LINE
  5
215
  8
0
  6
CONTINUOUS
 62
     7
 10
409.9999999999999
 20
74.25
 30
0.0
 11
414.9999999999999
 21
74.25
 31
0.0
  0
TEXT
  5
216
  8
0
  6
CONTINUOUS
 62
     7
 10
412.7265755908465
 20
34.64055583343754
 30
0.0
 40
3.5
  1
1
  0
LINE
  5
217
  8
0
  6
CONTINUOUS
 62
     7
 10
10.0
 20
74.25
 30
0.0
 11
5.0
 21
74.25
 31
0.0
  0
TEXT
  5
218
  8
0
  6
CONTINUOUS
 62
     7
 10
4.23373765161935
 20
38.46774259097161
 30
0.0
 40
3.5
  1
1
 50
270.0
  0
LINE
  5
219
  8
0
  6
CONTINUOUS
 62
     7
 10
409.9999999999999
 20
148.5
 30
0.0
 11
414.9999999999999
 21
148.5
 31
0.0
  0
TEXT
  5
21A
  8
0
  6
CONTINUOUS
 62
     7
 10
413.1887489058396
 20
108.8905558334376
 30
0.0
 40
3.5
  1
2
  0
LINE
  5
21B
  8
0
  6
CONTINUOUS
 62
     7
 10
10.0
 20
148.5
 30
0.0
 11
5.0
 21
148.5
 31
0.0
  0
TEXT
  5
21C
  8
0
  6
CONTINUOUS
 62
     7
 10
4.233737651619379
 20
112.2555692759785
 30
0.0
 40
3.5
  1
2
 50
270.0
  0
LINE
  5
21D
  8
0
  6
CONTINUOUS
 62
     7
 10
409.9999999999999
 20
222.75
 30
0.0
 11
414.9999999999999
 21
222.75
 31
0.0
  0
TEXT
  5
21E
  8
0
  6
CONTINUOUS
 62
     7
 10
413.2237620357633
 20
183.1405558334376
 30
0.0
 40
3.5
  1
3
  0
LINE
  5
21F
  8
0
  6
CONTINUOUS
 62
     7
 10
10.0
 20
222.75
 30
0.0
 11
5.0
 21
222.75
 31
0.0
  0
TEXT
  5
220
  8
0
  6
CONTINUOUS
 62
     7
 10
4.23373765161935
 20
186.4705561460548
 30
0.0
 40
3.5
  1
3
 50
270.0
  0
TEXT
  5
221
  8
0
  6
CONTINUOUS
 62
     7
 10
413.3316462423409
 20
257.3931818181817
 30
0.0
 40
3.5
  1
4
  0
TEXT
  5
222
  8
0
  6
CONTINUOUS
 62
     7
 10
4.23636363636362
 20
260.6126719394773
 30
0.0
 40
3.5
  1
4
 50
270.0
  0
LINE
  5
223
  8
0
  6
CONTINUOUS
 62
     7
 10
220.0
 20
10.0
 30
0.0
 11
220.0
 21
7.0
 31
0.0
  0
LINE
  5
224
  8
0
  6
CONTINUOUS
 62
     7
 10
200.0
 20
10.0
 30
0.0
 11
200.0
 21
7.0
 31
0.0
  0
LINE
  5
225
  8
0
  6
CONTINUOUS
 62
     7
 10
230.0
 20
10.0
 30
0.0
 11
230.0
 21
7.0
 31
0.0
  0
LINE
  5
226
  8
0
  6
CONTINUOUS
 62
     7
 10
190.0
 20
10.0
 30
0.0
 11
190.0
 21
7.0
 31
0.0
  0
LINE
  5
227
  8
0
  6
CONTINUOUS
 62
     7
 10
240.0
 20
10.0
 30
0.0
 11
240.0
 21
7.0
 31
0.0
  0
LINE
  5
228
  8
0
  6
CONTINUOUS
 62
     7
 10
180.0
 20
10.0
 30
0.0
 11
180.0
 21
7.0
 31
0.0
  0
LINE
  5
229
  8
0
  6
CONTINUOUS
 62
     7
 10
250.0
 20
10.0
 30
0.0
 11
250.0
 21
7.0
 31
0.0
  0
LINE
  5
22A
  8
0
  6
CONTINUOUS
 62
     7
 10
170.0
 20
10.0
 30
0.0
 11
170.0
 21
7.0
 31
0.0
  0
LINE
  5
22B
  8
0
  6
CONTINUOUS
 62
     7
 10
260.0
 20
10.0
 30
0.0
 11
260.0
 21
5.0
 31
0.0
  0
LINE
  5
22C
  8
0
  6
CONTINUOUS
 62
     7
 10
160.0
 20
10.0
 30
0.0
 11
160.0
 21
5.0
 31
0.0
  0
LINE
  5
22D
  8
0
  6
CONTINUOUS
 62
     7
 10
260.0
 20
10.0
 30
0.0
 11
160.0
 21
10.0
 31
0.0
  0
LINE
  5
22E
  8
0
  6
CONTINUOUS
 62
     7
 10
260.0
 20
7.0
 30
0.0
 11
160.0
 21
7.0
 31
0.0
  0
INSERT
  5
22F
  8
0
 62
     7
  2
*U5
 10
0.0
 20
0.0
 30
0.0
  0
INSERT
  5
230
  8
0
 62
     7
  2
*U6
 10
0.0
 20
0.0
 30
0.0
  0
INSERT
  5
231
  8
0
 62
     7
  2
*U7
 10
0.0
 20
0.0
 30
0.0
  0
INSERT
  5
232
  8
0
 62
     7
  2
*U8
 10
0.0
 20
0.0
 30
0.0
  0
INSERT
  5
233
  8
0
 62
     7
  2
*U9
 10
0.0
 20
0.0
 30
0.0
  0
INSERT
  5
234
  8
0
 62
     7
  2
*U10
 10
0.0
 20
0.0
 30
0.0
  0
INSERT
  5
235
  8
0
 62
     7
  2
*U11
 10
0.0
 20
0.0
 30
0.0
  0
INSERT
  5
236
  8
0
 62
     7
  2
*U12
 10
0.0
 20
0.0
 30
0.0
  0
INSERT
  5
237
  8
0
 62
     7
  2
*U13
 10
0.0
 20
0.0
 30
0.0
  0
INSERT
  5
238
  8
0
 62
     7
  2
*U14
 10
0.0
 20
0.0
 30
0.0
  0
INSERT
  5
239
  8
0
 62
     7
  2
*U15
 10
0.0
 20
0.0
 30
0.0
  0
INSERT
  5
23A
  8
0
 62
     7
  2
*U16
 10
0.0
 20
0.0
 30
0.0
  0
INSERT
  5
23B
  8
0
 62
     7
  2
*U17
 10
0.0
 20
0.0
 30
0.0
  0
INSERT
  5
23C
  8
0
 62
     7
  2
*U18
 10
0.0
 20
0.0
 30
0.0
  0
INSERT
  5
23D
  8
0
 62
     7
  2
*U19
 10
0.0
 20
0.0
 30
0.0
  0
INSERT
  5
23E
  8
0
 62
     7
  2
*U20
 10
0.0
 20
0.0
 30
0.0
  0
ENDSEC
  0
EOF
