  0
SECTION
  2
HEADER
  9
$ACADVER
  1
AC1006
  9
$DWGCODEPAGE
  3
ansi_932
  9
$INSBASE
 10
0.0
 20
0.0
 30
0.0
  9
$EXTMIN
 10
155.0
 20
129.9409309743153
  9
$EXTMAX
 10
520.9374999999999
 20
271.0625000000001
  9
$LIMMIN
 10
0.0
 20
0.0
  9
$LIMMAX
 10
12.0
 20
9.0
  9
$ORTHOMODE
 70
     0
  9
$REGENMODE
 70
     1
  9
$FILLMODE
 70
     1
  9
$QTEXTMODE
 70
     0
  9
$MIRRTEXT
 70
     1
  9
$DRAGMODE
 70
     2
  9
$LTSCALE
 40
1.0
  9
$OSMODE
 70
    37
  9
$ATTMODE
 70
     1
  9
$TEXTSIZE
 40
0.2
  9
$TRACEWID
 40
0.05
  9
$TEXTSTYLE
  7
STANDARD
  9
$CLAYER
  8
0
  9
$CELTYPE
  6
BYLAYER
  9
$CECOLOR
 62
   256
  9
$DIMSCALE
 40
1.0
  9
$DIMASZ
 40
3.0
  9
$DIMEXO
 40
0.0625
  9
$DIMDLI
 40
0.38
  9
$DIMRND
 40
0.0
  9
$DIMDLE
 40
0.0
  9
$DIMEXE
 40
1.5
  9
$DIMTP
 40
0.0
  9
$DIMTM
 40
0.0
  9
$DIMTXT
 40
3.0
  9
$DIMCEN
 40
0.09
  9
$DIMTSZ
 40
0.0
  9
$DIMTOL
 70
     0
  9
$DIMLIM
 70
     0
  9
$DIMTIH
 70
     1
  9
$DIMTOH
 70
     1
  9
$DIMSE1
 70
     0
  9
$DIMSE2
 70
     0
  9
$DIMTAD
 70
     1
  9
$DIMZIN
 70
     0
  9
$DIMBLK
  1

  9
$DIMASO
 70
     1
  9
$DIMSHO
 70
     1
  9
$DIMPOST
  1

  9
$DIMAPOST
  1

  9
$DIMALT
 70
     0
  9
$DIMALTD
 70
     2
  9
$DIMALTF
 40
25.4
  9
$DIMLFAC
 40
1.0
  9
$DIMTOFL
 70
     0
  9
$DIMTVP
 40
0.0
  9
$DIMTIX
 70
     0
  9
$DIMSOXD
 70
     0
  9
$DIMSAH
 70
     0
  9
$DIMBLK1
  1

  9
$DIMBLK2
  1

  9
$LUNITS
 70
     2
  9
$LUPREC
 70
     4
  9
$SKETCHINC
 40
0.1
  9
$FILLETRAD
 40
0.5
  9
$AUNITS
 70
     0
  9
$AUPREC
 70
     0
  9
$MENU
  1
.
  9
$ELEVATION
 40
0.0
  9
$THICKNESS
 40
0.0
  9
$LIMCHECK
 70
     0
  9
$CHAMFERA
 40
0.0
  9
$CHAMFERB
 40
0.0
  9
$SKPOLY
 70
     0
  9
$TDCREATE
 40
2460445.713364074
  9
$TDUPDATE
 40
2460445.713364305
  9
$TDINDWG
 40
0.0000000116
  9
$TDUSRTIMER
 40
0.0000000116
  9
$USRTIMER
 70
     1
  9
$ANGBASE
 50
0.0
  9
$ANGDIR
 70
     0
  9
$PDMODE
 70
     0
  9
$PDSIZE
 40
0.0
  9
$PLINEWID
 40
0.0
  9
$COORDS
 70
     1
  9
$SPLFRAME
 70
     0
  9
$SPLINETYPE
 70
     6
  9
$SPLINESEGS
 70
     8
  9
$ATTDIA
 70
     0
  9
$ATTREQ
 70
     1
  9
$HANDLING
 70
     1
  9
$HANDSEED
  5
1EA
  9
$SURFTAB1
 70
     6
  9
$SURFTAB2
 70
     6
  9
$SURFTYPE
 70
     6
  9
$SURFU
 70
     6
  9
$SURFV
 70
     6
  9
$UCSNAME
  2

  9
$UCSORG
 10
0.0
 20
0.0
 30
0.0
  9
$UCSXDIR
 10
1.0
 20
0.0
 30
0.0
  9
$UCSYDIR
 10
0.0
 20
1.0
 30
0.0
  9
$USERI1
 70
     0
  9
$USERI2
 70
     0
  9
$USERI3
 70
     0
  9
$USERI4
 70
     0
  9
$USERI5
 70
     0
  9
$USERR1
 40
0.0
  9
$USERR2
 40
0.0
  9
$USERR3
 40
0.0
  9
$USERR4
 40
0.0
  9
$USERR5
 40
0.0
  9
$WORLDVIEW
 70
     1
  0
ENDSEC
  0
SECTION
  2
TABLES
  0
TABLE
  2
VPORT
 70
     1
  0
VPORT
  2
*ACTIVE
 70
     0
 10
0.0
 20
0.0
 11
1.0
 21
1.0
 12
337.9687499999999
 22
200.5017154871577
 13
0.0
 23
0.0
 14
0.5
 24
0.5
 15
0.5
 25
0.5
 16
0.0
 26
0.0
 36
1.0
 17
0.0
 27
0.0
 37
0.0
 40
141.1215690256848
 41
1.6
 42
50.0
 43
0.0
 44
0.0
 50
0.0
 51
0.0
 71
     0
 72
   100
 73
     1
 74
     3
 75
     0
 76
     0
 77
     0
 78
     0
  0
ENDTAB
  0
TABLE
  2
LTYPE
 70
     3
  0
LTYPE
  2
CONTINUOUS
 70
     0
  3
Solid line
 72
    65
 73
     0
 40
0.0
  0
LTYPE
  2
DOT
 70
     0
  3

 72
    65
 73
     0
 40
0.0
  0
LTYPE
  2
CENTER
 70
     0
  3

 72
    65
 73
     0
 40
0.0
  0
ENDTAB
  0
TABLE
  2
LAYER
 70
     1
  0
LAYER
  2
0
 70
     0
 62
     7
  6
CONTINUOUS
  0
ENDTAB
  0
TABLE
  2
STYLE
 70
     2
  0
STYLE
  2
STANDARD
 70
     0
 40
0.0
 41
1.0
 50
0.0
 71
     0
 42
0.2
  3
txt
  4

  0
STYLE
  2
ＭＳ_ゴシック
 70
     0
 40
0.0
 41
1.0
 50
0.0
 71
     0
 42
0.2
  3
ＭＳ ゴシック.shx
  4

  0
ENDTAB
  0
TABLE
  2
VIEW
 70
     0
  0
ENDTAB
  0
TABLE
  2
UCS
 70
     0
  0
ENDTAB
  0
ENDSEC
  0
SECTION
  2
BLOCKS
  0
ENDSEC
  0
SECTION
  2
ENTITIES
  0
TEXT
  5
6F
  8
0
  6
CONTINUOUS
 62
     7
 10
481.3970356928406
 20
129.598896461373
 30
0.0
 40
3.0
  1
KFERB-100DK-2
  0
LINE
  5
70
  8
0
  6
DOT
 62
     2
 10
164.75
 20
172.0908119694039
 30
0.0
 11
169.2499999999995
 21
172.090811969404
 31
0.0
  0
LINE
  5
72
  8
0
  6
DOT
 62
     2
 10
270.4999999999999
 20
195.498268490752
 30
0.0
 11
270.4999999999999
 21
194.4376083189722
 31
0.0
  0
ARC
  5
73
  8
0
  6
DOT
 62
     2
 10
237.4999999999999
 20
166.8125
 30
0.0
 40
0.7500000000000007
 50
179.9999999999996
 51
0.0000000000003979
  0
ARC
  5
74
  8
0
  6
DOT
 62
     2
 10
169.8839745962156
 20
255.3125000000001
 30
0.0
 40
1.499999999999992
 50
30.00000000000021
 51
90.0
  0
LINE
  5
75
  8
0
  6
DOT
 62
     2
 10
163.25
 20
176.0152192024311
 30
0.0
 11
163.25
 21
174.0947240735962
 31
0.0
  0
LINE
  5
76
  8
0
  6
DOT
 62
     2
 10
202.9999999999999
 20
168.3125
 30
0.0
 11
202.9999999999999
 21
255.3125000000001
 31
0.0
  0
ARC
  5
77
  8
0
  6
DOT
 62
     2
 10
244.9999999999999
 20
256.8125000000001
 30
0.0
 40
0.7500000000000284
 50
359.9999999999996
 51
180.0000000000004
  0
LINE
  5
78
  8
0
  6
DOT
 62
     2
 10
270.4999999999999
 20
194.4376083189722
 30
0.0
 11
266.7499999999999
 21
194.4376083189722
 31
0.0
  0
LINE
  5
79
  8
0
  6
DOT
 62
     2
 10
159.5
 20
195.498268490752
 30
0.0
 11
159.5
 21
211.0625
 31
0.0
  0
LINE
  5
7A
  8
0
  6
DOT
 62
     2
 10
163.25
 20
154.4375000000001
 30
0.0
 11
159.5
 21
154.4375000000001
 31
0.0
  0
LINE
  5
7B
  8
0
  6
DOT
 62
     2
 10
253.25
 20
166.8125
 30
0.0
 11
259.25
 21
166.8125
 31
0.0
  0
LINE
  5
7C
  8
0
  6
DOT
 62
     2
 10
266.7499999999999
 20
249.5302759264039
 30
0.0
 11
266.7499999999999
 21
267.6231601717798
 31
0.0
  0
LINE
  5
7D
  8
0
  6
DOT
 62
     2
 10
170.7499999999999
 20
172.0908119694039
 30
0.0
 11
173.7974348364022
 21
172.0908119694039
 31
0.0
  0
LINE
  5
7E
  8
0
  6
DOT
 62
     2
 10
163.25
 20
195.498268490752
 30
0.0
 11
163.25
 21
194.4376083189722
 31
0.0
  0
LINE
  5
7F
  8
0
  6
DOT
 62
     2
 10
173.7974348364022
 20
251.5341880305961
 30
0.0
 11
170.7499999999999
 21
251.5341880305961
 31
0.0
  0
LINE
  5
80
  8
0
  6
DOT
 62
     2
 10
169.2499999999999
 20
251.5341880305961
 30
0.0
 11
164.75
 21
251.5341880305961
 31
0.0
  0
LINE
  5
81
  8
0
  6
DOT
 62
     2
 10
259.25
 20
256.8125000000001
 30
0.0
 11
253.25
 21
256.8125000000001
 31
0.0
  0
LINE
  5
82
  8
0
  6
DOT
 62
     2
 10
236.7499999999999
 20
256.8125000000001
 30
0.0
 11
230.7499999999999
 21
256.8125000000001
 31
0.0
  0
LINE
  5
83
  8
0
  6
DOT
 62
     2
 10
266.7499999999999
 20
174.0947240735962
 30
0.0
 11
266.7499999999999
 21
176.0152192024311
 31
0.0
  0
LINE
  5
84
  8
0
  6
DOT
 62
     2
 10
223.2499999999999
 20
256.8125000000001
 30
0.0
 11
223.2499999999999
 21
166.8125
 31
0.0
  0
LINE
  5
85
  8
0
  6
DOT
 62
     2
 10
270.4999999999999
 20
229.1873916810279
 30
0.0
 11
266.7499999999999
 21
229.1873916810279
 31
0.0
  0
LINE
  5
86
  8
0
  6
DOT
 62
     2
 10
170.7499999999999
 20
213.3125
 30
0.0
 11
170.7499999999999
 21
251.5341880305961
 31
0.0
  0
LINE
  5
87
  8
0
  6
DOT
 62
     2
 10
266.7499999999999
 20
211.0625
 30
0.0
 11
266.7499999999999
 21
212.5625
 31
0.0
  0
LINE
  5
88
  8
0
  6
CONTINUOUS
 62
     7
 10
404.3124999999999
 20
268.0625000000001
 30
0.0
 11
291.8124999999999
 21
268.0625000000001
 31
0.0
  0
ARC
  5
89
  8
0
  6
DOT
 62
     2
 10
259.9999999999999
 20
166.8125
 30
0.0
 40
0.7499999999999729
 50
179.9999999999996
 51
0.0000000000003979
  0
LINE
  5
8A
  8
0
  6
DOT
 62
     2
 10
270.4999999999999
 20
194.4376083189722
 30
0.0
 11
270.4999999999999
 21
176.0152192024311
 31
0.0
  0
LINE
  5
8B
  8
0
  6
DOT
 62
     2
 10
159.5
 20
228.1267315092481
 30
0.0
 11
159.5
 21
229.1873916810279
 31
0.0
  0
LINE
  5
8C
  8
0
  6
DOT
 62
     2
 10
266.7499999999999
 20
247.609780797569
 30
0.0
 11
266.7499999999999
 21
249.5302759264039
 31
0.0
  0
LINE
  5
8D
  8
0
  6
DOT
 62
     2
 10
266.7499999999999
 20
194.4376083189722
 30
0.0
 11
266.7499999999999
 21
195.498268490752
 31
0.0
  0
LINE
  5
8E
  8
0
  6
DOT
 62
     2
 10
159.5
 20
211.0625000000001
 30
0.0
 11
159.5
 21
212.5625000000001
 31
0.0
  0
ARC
  5
8F
  8
0
  6
DOT
 62
     2
 10
252.4999999999999
 20
256.8125000000001
 30
0.0
 40
0.7500000000000284
 50
359.9999999999996
 51
180.0000000000004
  0
LINE
  5
90
  8
0
  6
DOT
 62
     2
 10
270.5
 20
174.0947240735962
 30
0.0
 11
270.4999999999999
 21
156.0018398282202
 31
0.0
  0
LINE
  5
91
  8
0
  6
DOT
 62
     2
 10
171.1830127018922
 20
213.3125
 30
0.0
 11
169.8839745962156
 21
213.3125
 31
0.0
  0
ARC
  5
92
  8
0
  6
DOT
 62
     2
 10
229.9999999999999
 20
166.8125
 30
0.0
 40
0.7500000000000007
 50
179.9999999999996
 51
0.0000000000003979
  0
LINE
  5
93
  8
0
  6
DOT
 62
     2
 10
169.8839745962156
 20
256.8125000000001
 30
0.0
 11
163.25
 21
256.8125000000001
 31
0.0
  0
LINE
  5
94
  8
0
  6
CONTINUOUS
 62
     7
 10
379.1626250051862
 20
241.5551490140589
 30
0.0
 11
377.8051490140589
 21
242.9126250051862
 31
0.0
  0
LINE
  5
95
  8
0
  6
DOT
 62
     2
 10
159.5
 20
176.0152192024311
 30
0.0
 11
159.5
 21
194.4376083189722
 31
0.0
  0
LINE
  5
96
  8
0
  6
DOT
 62
     2
 10
270.4999999999999
 20
212.5625
 30
0.0
 11
270.4999999999999
 21
211.0625
 31
0.0
  0
LINE
  5
97
  8
0
  6
DOT
 62
     2
 10
163.25
 20
194.4376083189722
 30
0.0
 11
159.5
 21
194.4376083189722
 31
0.0
  0
LINE
  5
98
  8
0
  6
DOT
 62
     2
 10
266.7499999999999
 20
195.498268490752
 30
0.0
 11
266.7499999999999
 21
211.0625
 31
0.0
  0
LINE
  5
99
  8
0
  6
DOT
 62
     2
 10
163.25
 20
229.1873916810279
 30
0.0
 11
163.25
 21
228.1267315092481
 31
0.0
  0
LINE
  5
9A
  8
0
  6
DOT
 62
     2
 10
251.75
 20
256.8125000000001
 30
0.0
 11
245.75
 21
256.8125000000001
 31
0.0
  0
LINE
  5
9B
  8
0
  6
CONTINUOUS
 62
     7
 10
316.9623749948138
 20
182.0698509859411
 30
0.0
 11
318.3198509859409
 21
180.7123749948139
 31
0.0
  0
ARC
  5
9C
  8
0
  6
DOT
 62
     2
 10
244.9999999999999
 20
166.8125
 30
0.0
 40
0.7499999999999729
 50
179.9999999999996
 51
0.0000000000003979
  0
LINE
  5
9D
  8
0
  6
DOT
 62
     2
 10
169.8839745962156
 20
210.3125
 30
0.0
 11
169.8839745962156
 21
213.3125
 31
0.0
  0
ARC
  5
9E
  8
0
  6
CONTINUOUS
 62
     7
 10
348.0624999999999
 20
211.8125
 30
0.0
 40
37.49999999999998
 50
270.0
 51
0.0
  0
LINE
  5
9F
  8
0
  6
DOT
 62
     2
 10
200.75
 20
172.0625
 30
0.0
 11
200.75
 21
251.5625
 31
0.0
  0
LINE
  5
A0
  8
0
  6
CONTINUOUS
 62
     7
 10
270.4999999999999
 20
268.0625000000001
 30
0.0
 11
270.4999999999999
 21
154.4375000000001
 31
0.0
  0
LINE
  5
A1
  8
0
  6
DOT
 62
     2
 10
266.7499999999999
 20
267.6231601717798
 30
0.0
 11
266.7499999999999
 21
268.0625000000001
 31
0.0
  0
ARC
  5
A2
  8
0
  6
CONTINUOUS
 62
     7
 10
331.748268490752
 20
266.5625000000001
 30
0.0
 40
1.500000000000001
 50
90.0000000000002
 51
135.0000000000006
  0
ARC
  5
A3
  8
0
  6
CONTINUOUS
 62
     7
 10
348.0624999999999
 20
211.8125
 30
0.0
 40
37.50000000000001
 50
0.0
 51
270.0
  0
ARC
  5
A4
  8
0
  6
DOT
 62
     2
 10
229.9999999999999
 20
256.8125000000001
 30
0.0
 40
0.7500000000000007
 50
359.9999999999996
 51
180.0000000000004
  0
LINE
  5
A5
  8
0
  6
DOT
 62
     2
 10
159.5
 20
194.4376083189722
 30
0.0
 11
159.5
 21
195.498268490752
 31
0.0
  0
ARC
  5
A6
  8
0
  6
DOT
 62
     2
 10
259.9999999999999
 20
256.8125000000001
 30
0.0
 40
0.7499999999999729
 50
359.9999999999996
 51
180.0000000000004
  0
LINE
  5
A7
  8
0
  6
CONTINUOUS
 62
     7
 10
270.4999999999999
 20
154.4375000000001
 30
0.0
 11
159.5
 21
154.4375000000001
 31
0.0
  0
LINE
  5
A8
  8
0
  6
DOT
 62
     2
 10
169.8839745962156
 20
213.3125
 30
0.0
 11
163.25
 21
213.3125
 31
0.0
  0
LINE
  5
A9
  8
0
  6
DOT
 62
     2
 10
163.25
 20
211.0625
 30
0.0
 11
163.25
 21
195.498268490752
 31
0.0
  0
LINE
  5
AA
  8
0
  6
DOT
 62
     2
 10
163.25
 20
268.0625000000001
 30
0.0
 11
163.25
 21
267.6231601717798
 31
0.0
  0
LINE
  5
AB
  8
0
  6
DOT
 62
     2
 10
270.4999999999999
 20
249.5302759264039
 30
0.0
 11
270.4999999999999
 21
247.609780797569
 31
0.0
  0
LINE
  5
AC
  8
0
  6
CENTER
 62
     1
 10
287.6874999999999
 20
211.8125000000001
 30
0.0
 11
407.3124999999999
 21
211.8125000000001
 31
0.0
  0
LINE
  5
AE
  8
0
  6
DOT
 62
     2
 10
230.7499999999999
 20
166.8125
 30
0.0
 11
236.7499999999999
 21
166.8125
 31
0.0
  0
LINE
  5
AF
  8
0
  6
DOT
 62
     2
 10
163.25
 20
156.0018398282203
 30
0.0
 11
163.25
 21
155.5625000000001
 31
0.0
  0
LINE
  5
B0
  8
0
  6
CONTINUOUS
 62
     7
 10
159.5
 20
268.0625000000001
 30
0.0
 11
270.4999999999999
 21
268.0625000000001
 31
0.0
  0
ARC
  5
B1
  8
0
  6
DOT
 62
     2
 10
192.5
 20
251.5625
 30
0.0
 40
0.7500000000000007
 50
0.0
 51
180.0
  0
LINE
  5
B2
  8
0
  6
DOT
 62
     2
 10
199.25
 20
251.5625
 30
0.0
 11
193.25
 21
251.5625
 31
0.0
  0
LINE
  5
B3
  8
0
  6
DOT
 62
     2
 10
170.7499999999999
 20
172.090811969404
 30
0.0
 11
170.7499999999999
 21
210.3125
 31
0.0
  0
LINE
  5
B4
  8
0
  6
DOT
 62
     2
 10
178.25
 20
172.0625
 30
0.0
 11
184.25
 21
172.0625
 31
0.0
  0
LINE
  5
B5
  8
0
  6
DOT
 62
     2
 10
185.75
 20
172.0625
 30
0.0
 11
185.75
 21
251.5625
 31
0.0
  0
LINE
  5
B6
  8
0
  6
DOT
 62
     2
 10
176.75
 20
172.0625
 30
0.0
 11
176.75
 21
251.5625
 31
0.0
  0
ARC
  5
B7
  8
0
  6
DOT
 62
     2
 10
164.7505227838948
 20
253.0347108092242
 30
0.0
 40
1.500522869697313
 50
179.9806239062893
 51
269.9800380840677
  0
LINE
  5
B8
  8
0
  6
DOT
 62
     2
 10
178.25
 20
172.0625
 30
0.0
 11
178.25
 21
251.5625
 31
0.0
  0
LINE
  5
B9
  8
0
  6
DOT
 62
     2
 10
173.7974348364022
 20
251.5341880305961
 30
0.0
 11
171.1830127018922
 21
256.0625
 31
0.0
  0
LINE
  5
BA
  8
0
  6
DOT
 62
     2
 10
244.25
 20
256.8125000000001
 30
0.0
 11
238.2499999999999
 21
256.8125000000001
 31
0.0
  0
ARC
  5
BB
  8
0
  6
DOT
 62
     2
 10
177.5
 20
251.5625
 30
0.0
 40
0.7500000000000007
 50
0.0
 51
180.0
  0
LINE
  5
BC
  8
0
  6
DOT
 62
     2
 10
215.75
 20
166.8125
 30
0.0
 11
221.7499999999999
 21
166.8125
 31
0.0
  0
ARC
  5
BD
  8
0
  6
DOT
 62
     2
 10
237.4999999999999
 20
256.8125000000001
 30
0.0
 40
0.7500000000000007
 50
359.9999999999996
 51
180.0000000000004
  0
LINE
  5
BE
  8
0
  6
DOT
 62
     2
 10
199.25
 20
172.0625
 30
0.0
 11
199.25
 21
251.5625
 31
0.0
  0
LINE
  5
BF
  8
0
  6
DOT
 62
     2
 10
164.75
 20
213.3125
 30
0.0
 11
164.75
 21
251.5341880305961
 31
0.0
  0
LINE
  5
C0
  8
0
  6
DOT
 62
     2
 10
270.4999999999999
 20
211.0625
 30
0.0
 11
270.4999999999999
 21
195.498268490752
 31
0.0
  0
LINE
  5
C1
  8
0
  6
DOT
 62
     2
 10
171.1830127018922
 20
210.3125
 30
0.0
 11
171.1830127018922
 21
213.3125
 31
0.0
  0
ARC
  5
C2
  8
0
  6
DOT
 62
     2
 10
199.9999999999999
 20
172.0625
 30
0.0
 40
0.7499999999999729
 50
180.0
 51
0.0
  0
LINE
  5
C3
  8
0
  6
DOT
 62
     2
 10
185.75
 20
172.0625
 30
0.0
 11
191.75
 21
172.0625
 31
0.0
  0
LINE
  5
C4
  8
0
  6
DOT
 62
     2
 10
193.25
 20
172.0625
 30
0.0
 11
193.25
 21
251.5625
 31
0.0
  0
LINE
  5
C5
  8
0
  6
DOT
 62
     2
 10
265.625
 20
256.8125000000001
 30
0.0
 11
260.7499999999999
 21
256.8125000000001
 31
0.0
  0
CIRCLE
  5
C6
  8
0
  6
CONTINUOUS
 62
     7
 10
348.0624999999999
 20
211.8125
 30
0.0
 40
44.92499999999999
  0
LINE
  5
C7
  8
0
  6
DOT
 62
     2
 10
214.25
 20
256.8125000000001
 30
0.0
 11
208.25
 21
256.8125000000001
 31
0.0
  0
CIRCLE
  5
C8
  8
0
  6
CONTINUOUS
 62
     7
 10
348.0624999999999
 20
211.8125
 30
0.0
 40
43.04999999999998
  0
LINE
  5
C9
  8
0
  6
DOT
 62
     2
 10
176.75
 20
251.5625
 30
0.0
 11
173.7810889132455
 21
251.5625
 31
0.0
  0
LINE
  5
CA
  8
0
  6
CONTINUOUS
 62
     7
 10
292.2518398282201
 20
194.4376083189722
 30
0.0
 11
330.6876083189721
 21
156.0018398282203
 31
0.0
  0
LINE
  5
CB
  8
0
  6
DOT
 62
     2
 10
184.25
 20
251.5625
 30
0.0
 11
178.25
 21
251.5625
 31
0.0
  0
LINE
  5
CC
  8
0
  6
DOT
 62
     2
 10
193.25
 20
172.0625
 30
0.0
 11
199.25
 21
172.0625
 31
0.0
  0
ARC
  5
CD
  8
0
  6
DOT
 62
     2
 10
222.5
 20
256.8125000000001
 30
0.0
 40
0.7499999999999729
 50
359.9999999999996
 51
180.0000000000004
  0
ARC
  5
CE
  8
0
  6
DOT
 62
     2
 10
202.25
 20
252.3125000000001
 30
0.0
 40
0.7499999999999729
 50
270.0
 51
0.0
  0
ARC
  5
CF
  8
0
  6
DOT
 62
     2
 10
185.0
 20
251.5625
 30
0.0
 40
0.7500000000000007
 50
0.0
 51
180.0
  0
ARC
  5
D0
  8
0
  6
DOT
 62
     2
 10
204.4999999999999
 20
255.3125000000001
 30
0.0
 40
1.500000000000001
 50
90.0
 51
180.0
  0
LINE
  5
D1
  8
0
  6
DOT
 62
     2
 10
169.8839745962156
 20
210.3125
 30
0.0
 11
163.25
 21
210.3125
 31
0.0
  0
LINE
  5
D2
  8
0
  6
DOT
 62
     2
 10
206.7499999999999
 20
166.8125
 30
0.0
 11
206.7499999999999
 21
256.8125000000001
 31
0.0
  0
LINE
  5
D3
  8
0
  6
DOT
 62
     2
 10
173.7974348364022
 20
213.3125
 30
0.0
 11
171.1830127018922
 21
213.3125
 31
0.0
  0
LINE
  5
D4
  8
0
  6
DOT
 62
     2
 10
171.1830127018922
 20
210.3125
 30
0.0
 11
169.8839745962156
 21
210.3125
 31
0.0
  0
LINE
  5
D5
  8
0
  6
DOT
 62
     2
 10
173.7974348364022
 20
213.3125000000001
 30
0.0
 11
173.7974348364022
 21
210.3125
 31
0.0
  0
ARC
  5
D6
  8
0
  6
DOT
 62
     2
 10
215.0
 20
166.8125
 30
0.0
 40
0.7500000000000007
 50
179.9999999999996
 51
0.0000000000003979
  0
LINE
  5
D7
  8
0
  6
DOT
 62
     2
 10
204.4999999999999
 20
166.8125
 30
0.0
 11
204.4999999999999
 21
256.8125000000001
 31
0.0
  0
LINE
  5
D8
  8
0
  6
DOT
 62
     2
 10
163.25
 20
212.5625000000001
 30
0.0
 11
163.25
 21
211.0625000000001
 31
0.0
  0
LINE
  5
D9
  8
0
  6
DOT
 62
     2
 10
191.75
 20
172.0625
 30
0.0
 11
191.75
 21
251.5625
 31
0.0
  0
LINE
  5
DA
  8
0
  6
DOT
 62
     2
 10
202.25
 20
251.5625
 30
0.0
 11
200.75
 21
251.5625
 31
0.0
  0
LINE
  5
DB
  8
0
  6
DOT
 62
     2
 10
169.8839745962156
 20
166.8125
 30
0.0
 11
163.25
 21
166.8125
 31
0.0
  0
ARC
  5
DC
  8
0
  6
DOT
 62
     2
 10
252.4999999999999
 20
166.8125
 30
0.0
 40
0.7499999999999729
 50
179.9999999999996
 51
0.0000000000003979
  0
LINE
  5
DD
  8
0
  6
DOT
 62
     2
 10
259.25
 20
166.8125
 30
0.0
 11
259.25
 21
256.8125000000001
 31
0.0
  0
LINE
  5
DE
  8
0
  6
DOT
 62
     2
 10
208.25
 20
166.8125
 30
0.0
 11
214.25
 21
166.8125
 31
0.0
  0
ARC
  5
DF
  8
0
  6
DOT
 62
     2
 10
215.0
 20
256.8125000000001
 30
0.0
 40
0.7500000000000007
 50
359.9999999999996
 51
180.0000000000004
  0
LINE
  5
E0
  8
0
  6
DOT
 62
     2
 10
173.7974348364022
 20
210.3125
 30
0.0
 11
171.1830127018922
 21
210.3125
 31
0.0
  0
LINE
  5
E1
  8
0
  6
DOT
 62
     2
 10
204.4999999999999
 20
166.8125
 30
0.0
 11
206.7499999999999
 21
166.8125
 31
0.0
  0
LINE
  5
E2
  8
0
  6
DOT
 62
     2
 10
173.7810889132455
 20
172.0625
 30
0.0
 11
176.75
 21
172.0625
 31
0.0
  0
LINE
  5
E3
  8
0
  6
DOT
 62
     2
 10
229.2499999999999
 20
256.8125000000001
 30
0.0
 11
223.2499999999999
 21
256.8125000000001
 31
0.0
  0
LINE
  5
E4
  8
0
  6
DOT
 62
     2
 10
169.2499999999999
 20
213.3125
 30
0.0
 11
169.2499999999999
 21
251.5341880305961
 31
0.0
  0
LINE
  5
E5
  8
0
  6
DOT
 62
     2
 10
208.25
 20
256.8125000000001
 30
0.0
 11
208.25
 21
166.8125
 31
0.0
  0
LINE
  5
E6
  8
0
  6
DOT
 62
     2
 10
215.75
 20
256.8125000000001
 30
0.0
 11
215.75
 21
166.8125
 31
0.0
  0
LINE
  5
E7
  8
0
  6
DOT
 62
     2
 10
184.25
 20
172.0625
 30
0.0
 11
184.25
 21
251.5625
 31
0.0
  0
LINE
  5
E8
  8
0
  6
DOT
 62
     2
 10
238.2499999999999
 20
256.8125000000001
 30
0.0
 11
238.2499999999999
 21
166.8125
 31
0.0
  0
LINE
  5
E9
  8
0
  6
DOT
 62
     2
 10
253.25
 20
256.8125000000001
 30
0.0
 11
253.25
 21
166.8125
 31
0.0
  0
ARC
  5
EA
  8
0
  6
DOT
 62
     2
 10
207.5
 20
166.8125
 30
0.0
 40
0.7500000000000007
 50
179.9999999999996
 51
0.0000000000003979
  0
LINE
  5
EB
  8
0
  6
DOT
 62
     2
 10
238.2499999999999
 20
166.8125
 30
0.0
 11
244.25
 21
166.8125
 31
0.0
  0
ARC
  5
EC
  8
0
  6
DOT
 62
     2
 10
164.7505095972503
 20
170.5903023683699
 30
0.0
 40
1.500509687567768
 50
90.0194585696421
 51
180.0198794395392
  0
LINE
  5
ED
  8
0
  6
DOT
 62
     2
 10
260.7499999999999
 20
166.8125
 30
0.0
 11
265.625
 21
166.8125
 31
0.0
  0
LINE
  5
EE
  8
0
  6
CONTINUOUS
 62
     7
 10
404.7518398282201
 20
229.1873916810279
 30
0.0
 11
443.1876083189719
 21
267.6231601717799
 31
0.0
  0
ARC
  5
EF
  8
0
  6
CONTINUOUS
 62
     7
 10
405.8124999999999
 20
195.498268490752
 30
0.0
 40
1.500000000000001
 50
180.0000000000003
 51
225.0000000000002
  0
LINE
  5
F0
  8
0
  6
CONTINUOUS
 62
     7
 10
477.9373916810277
 20
267.6231601717798
 30
0.0
 11
516.3731601717795
 21
229.1873916810279
 31
0.0
  0
ARC
  5
F1
  8
0
  6
CONTINUOUS
 62
     7
 10
444.2482684907518
 20
266.5625000000001
 30
0.0
 40
1.500000000000001
 50
90.0000000000004
 51
135.0
  0
LINE
  5
F2
  8
0
  6
CONTINUOUS
 62
     7
 10
516.8124999999999
 20
268.0625000000001
 30
0.0
 11
516.8124999999999
 21
155.5625000000001
 31
0.0
  0
LINE
  5
F3
  8
0
  6
CENTER
 62
     1
 10
520.9374999999999
 20
211.8125000000001
 30
0.0
 11
401.3124999999999
 21
211.8125000000001
 31
0.0
  0
CIRCLE
  5
F4
  8
0
  6
CONTINUOUS
 62
     7
 10
460.5624999999999
 20
211.8125
 30
0.0
 40
43.04999999999998
  0
ARC
  5
F5
  8
0
  6
CONTINUOUS
 62
     7
 10
460.5624999999999
 20
211.8125
 30
0.0
 40
37.50000000000004
 50
270.0
 51
180.0
  0
LINE
  5
F6
  8
0
  6
CONTINUOUS
 62
     7
 10
404.3124999999999
 20
268.0625000000001
 30
0.0
 11
516.8124999999999
 21
268.0625000000001
 31
0.0
  0
CIRCLE
  5
F7
  8
0
  6
CONTINUOUS
 62
     7
 10
460.5624999999999
 20
211.8125
 30
0.0
 40
44.92499999999999
  0
LINE
  5
F8
  8
0
  6
DOT
 62
     2
 10
191.75
 20
251.5625
 30
0.0
 11
185.75
 21
251.5625
 31
0.0
  0
LINE
  5
F9
  8
0
  6
DOT
 62
     2
 10
202.25
 20
172.0625
 30
0.0
 11
202.25
 21
251.5625
 31
0.0
  0
LINE
  5
FA
  8
0
  6
CENTER
 62
     1
 10
460.5624999999999
 20
151.4375000000001
 30
0.0
 11
460.5624999999999
 21
271.0625000000001
 31
0.0
  0
ARC
  5
FB
  8
0
  6
DOT
 62
     2
 10
265.625
 20
257.9375000000001
 30
0.0
 40
1.124999999999932
 50
270.0
 51
0.0
  0
LINE
  5
FC
  8
0
  6
CONTINUOUS
 62
     7
 10
491.662625005186
 20
182.0698509859411
 30
0.0
 11
490.3051490140589
 21
180.7123749948139
 31
0.0
  0
LINE
  5
FD
  8
0
  6
DOT
 62
     2
 10
251.75
 20
166.8125
 30
0.0
 11
251.75
 21
256.8125000000001
 31
0.0
  0
ARC
  5
FE
  8
0
  6
DOT
 62
     2
 10
202.25
 20
171.3125
 30
0.0
 40
0.7500000000000007
 50
0.0
 51
90.0
  0
LINE
  5
FF
  8
0
  6
CONTINUOUS
 62
     7
 10
443.187608318972
 20
156.0018398282202
 30
0.0
 11
404.7518398282201
 21
194.4376083189722
 31
0.0
  0
LINE
  5
100
  8
0
  6
DOT
 62
     2
 10
223.2499999999999
 20
166.8125
 30
0.0
 11
229.2499999999999
 21
166.8125
 31
0.0
  0
ARC
  5
101
  8
0
  6
CONTINUOUS
 62
     7
 10
515.3124999999999
 20
228.1267315092481
 30
0.0
 40
1.499999999999946
 50
0.0000000000002274
 51
44.99999999999965
  0
LINE
  5
102
  8
0
  6
CONTINUOUS
 62
     7
 10
516.8124999999999
 20
155.5625000000001
 30
0.0
 11
404.3124999999999
 21
155.5625000000001
 31
0.0
  0
LINE
  5
103
  8
0
  6
CONTINUOUS
 62
     7
 10
404.3124999999999
 20
155.5625000000001
 30
0.0
 11
404.3124999999999
 21
268.0625000000001
 31
0.0
  0
LINE
  5
104
  8
0
  6
DOT
 62
     2
 10
260.7499999999999
 20
256.8125000000001
 30
0.0
 11
260.7499999999999
 21
166.8125
 31
0.0
  0
ARC
  5
105
  8
0
  6
CONTINUOUS
 62
     7
 10
444.2482684907518
 20
157.0625
 30
0.0
 40
1.500000000000001
 50
224.9999999999989
 51
269.9999999999996
  0
LINE
  5
106
  8
0
  6
CONTINUOUS
 62
     7
 10
516.3731601717797
 20
194.4376083189722
 30
0.0
 11
477.9373916810277
 21
156.0018398282203
 31
0.0
  0
ARC
  5
107
  8
0
  6
CONTINUOUS
 62
     7
 10
476.8767315092479
 20
157.0625000000001
 30
0.0
 40
1.500000000000001
 50
270.0000000000004
 51
315.0000000000002
  0
ARC
  5
108
  8
0
  6
DOT
 62
     2
 10
199.9999999999999
 20
251.5625
 30
0.0
 40
0.7500000000000284
 50
0.0
 51
180.0
  0
LINE
  5
109
  8
0
  6
DOT
 62
     2
 10
229.2499999999999
 20
166.8125
 30
0.0
 11
229.2499999999999
 21
256.8125000000001
 31
0.0
  0
LINE
  5
10A
  8
0
  6
DOT
 62
     2
 10
200.75
 20
172.0625
 30
0.0
 11
202.25
 21
172.0625
 31
0.0
  0
LINE
  5
10B
  8
0
  6
DOT
 62
     2
 10
265.625
 20
166.8125
 30
0.0
 11
265.625
 21
256.8125000000001
 31
0.0
  0
LINE
  5
10C
  8
0
  6
DOT
 62
     2
 10
169.2499999999995
 20
172.0908119694039
 30
0.0
 11
169.2499999999999
 21
210.3125
 31
0.0
  0
LINE
  5
10D
  8
0
  6
DOT
 62
     2
 10
173.7974348364022
 20
172.0908119694039
 30
0.0
 11
171.1830127018922
 21
167.5625
 31
0.0
  0
LINE
  5
10E
  8
0
  6
DOT
 62
     2
 10
221.7499999999999
 20
166.8125
 30
0.0
 11
221.7499999999999
 21
256.8125000000001
 31
0.0
  0
ARC
  5
10F
  8
0
  6
DOT
 62
     2
 10
192.5
 20
172.0625
 30
0.0
 40
0.7500000000000007
 50
180.0
 51
0.0
  0
LINE
  5
110
  8
0
  6
DOT
 62
     2
 10
206.7499999999999
 20
256.8125000000001
 30
0.0
 11
204.4999999999999
 21
256.8125000000001
 31
0.0
  0
LINE
  5
111
  8
0
  6
DOT
 62
     2
 10
236.7499999999999
 20
166.8125
 30
0.0
 11
236.7499999999999
 21
256.8125000000001
 31
0.0
  0
ARC
  5
112
  8
0
  6
DOT
 62
     2
 10
265.625
 20
165.6875
 30
0.0
 40
1.124999999999987
 50
0.0
 51
90.0
  0
LINE
  5
113
  8
0
  6
DOT
 62
     2
 10
230.7499999999999
 20
256.8125000000001
 30
0.0
 11
230.7499999999999
 21
166.8125
 31
0.0
  0
ARC
  5
114
  8
0
  6
CONTINUOUS
 62
     7
 10
515.3124999999999
 20
195.498268490752
 30
0.0
 40
1.499999999999946
 50
314.9999999999994
 51
0.0
  0
ARC
  5
115
  8
0
  6
DOT
 62
     2
 10
204.4999999999999
 20
168.3125
 30
0.0
 40
1.500000000000001
 50
180.0
 51
270.0
  0
ARC
  5
116
  8
0
  6
CONTINUOUS
 62
     7
 10
476.8767315092478
 20
266.5625000000001
 30
0.0
 40
1.500000000000001
 50
44.99999999999944
 51
89.99999999999977
  0
LINE
  5
117
  8
0
  6
CONTINUOUS
 62
     7
 10
429.4623749948136
 20
241.5551490140589
 30
0.0
 11
430.8198509859409
 21
242.9126250051862
 31
0.0
  0
ARC
  5
118
  8
0
  6
CONTINUOUS
 62
     7
 10
460.5624999999999
 20
211.8125
 30
0.0
 40
37.49999999999998
 50
180.0
 51
270.0
  0
LINE
  5
119
  8
0
  6
DOT
 62
     2
 10
164.75
 20
172.090811969404
 30
0.0
 11
164.75
 21
210.3125
 31
0.0
  0
ARC
  5
11A
  8
0
  6
DOT
 62
     2
 10
185.0
 20
172.0625
 30
0.0
 40
0.7500000000000007
 50
180.0
 51
0.0
  0
LINE
  5
11B
  8
0
  6
DOT
 62
     2
 10
214.25
 20
166.8125
 30
0.0
 11
214.25
 21
256.8125000000001
 31
0.0
  0
LINE
  5
11C
  8
0
  6
DOT
 62
     2
 10
221.7499999999999
 20
256.8125000000001
 30
0.0
 11
215.75
 21
256.8125000000001
 31
0.0
  0
ARC
  5
11D
  8
0
  6
CONTINUOUS
 62
     7
 10
405.8124999999999
 20
228.126731509248
 30
0.0
 40
1.500000000000001
 50
134.9999999999986
 51
179.9999999999998
  0
LINE
  5
11E
  8
0
  6
DOT
 62
     2
 10
245.75
 20
166.8125
 30
0.0
 11
251.75
 21
166.8125
 31
0.0
  0
LINE
  5
11F
  8
0
  6
DOT
 62
     2
 10
170.4100684002034
 20
171.4624066320465
 30
0.0
 11
170.4365353682474
 21
171.4805237406247
 31
0.0
  0
LINE
  5
120
  8
0
  6
DOT
 62
     2
 10
170.4622061651166
 20
171.4997523853752
 30
0.0
 11
170.4870095385073
 21
171.520041389799
 31
0.0
  0
LINE
  5
121
  8
0
  6
DOT
 62
     2
 10
169.4340363990913
 20
171.598346183327
 30
0.0
 11
169.4549781482189
 21
171.5752298996725
 31
0.0
  0
LINE
  5
122
  8
0
  6
DOT
 62
     2
 10
169.8350862407634
 20
171.35866016491
 30
0.0
 11
169.86563652463
 21
171.3524320542254
 31
0.0
  0
LINE
  5
123
  8
0
  6
DOT
 62
     2
 10
169.4549781482189
 20
171.5752298996725
 30
0.0
 11
169.4775165815778
 21
171.55237519941
 31
0.0
  0
LINE
  5
124
  8
0
  6
DOT
 62
     2
 10
170.3280421763666
 20
171.4158901487073
 30
0.0
 11
170.3557781953543
 21
171.4301081271431
 31
0.0
  0
LINE
  5
125
  8
0
  6
DOT
 62
     2
 10
170.5746511382117
 20
171.6085222978047
 30
0.0
 11
170.5947116681117
 21
171.6335284674548
 31
0.0
  0
LINE
  5
126
  8
0
  6
DOT
 62
     2
 10
169.3150845589124
 20
171.7849966677447
 30
0.0
 11
169.3287870293416
 21
171.7559579046435
 31
0.0
  0
LINE
  5
127
  8
0
  6
DOT
 62
     2
 10
169.8963925973028
 20
171.3474830492321
 30
0.0
 11
169.928229699411
 21
171.3437343954281
 31
0.0
  0
LINE
  5
128
  8
0
  6
DOT
 62
     2
 10
169.9922975366273
 20
171.3403297176352
 30
0.0
 11
170.0243526227196
 21
171.3406830529152
 31
0.0
  0
LINE
  5
129
  8
0
  6
DOT
 62
     2
 10
169.3437323888047
 20
171.7275055735207
 30
0.0
 11
169.3598781048797
 21
171.6997168305962
 31
0.0
  0
LINE
  5
12A
  8
0
  6
DOT
 62
     2
 10
169.4140561729717
 20
171.622333583088
 30
0.0
 11
169.4340363990913
 21
171.598346183327
 31
0.0
  0
LINE
  5
12B
  8
0
  6
DOT
 62
     2
 10
170.086474562541
 20
171.3452971639954
 30
0.0
 11
170.1173519510151
 21
171.3495340817103
 31
0.0
  0
LINE
  5
12C
  8
0
  6
DOT
 62
     2
 10
169.2526301095867
 20
172.0280255983673
 30
0.0
 11
169.2559100164024
 21
171.9967765584771
 31
0.0
  0
LINE
  5
12D
  8
0
  6
DOT
 62
     2
 10
170.2709466365929
 20
171.3909739193537
 30
0.0
 11
170.2997408566659
 21
171.4028336347912
 31
0.0
  0
LINE
  5
12E
  8
0
  6
DOT
 62
     2
 10
170.5541459756101
 20
171.5850668493061
 30
0.0
 11
170.5746511382117
 21
171.6085222978047
 31
0.0
  0
LINE
  5
12F
  8
0
  6
DOT
 62
     2
 10
170.4365353682474
 20
171.4805237406247
 30
0.0
 11
170.4622061651166
 21
171.4997523853752
 31
0.0
  0
LINE
  5
130
  8
0
  6
DOT
 62
     2
 10
169.2665931148246
 20
171.933816866346
 30
0.0
 11
169.2739287248951
 21
171.9027411475501
 31
0.0
  0
LINE
  5
131
  8
0
  6
DOT
 62
     2
 10
170.210240820027
 20
171.3703834806408
 30
0.0
 11
170.2408277157416
 21
171.380034534247
 31
0.0
  0
LINE
  5
132
  8
0
  6
DOT
 62
     2
 10
169.3950878087072
 20
171.6471288742457
 30
0.0
 11
169.4140561729717
 21
171.622333583088
 31
0.0
  0
LINE
  5
133
  8
0
  6
DOT
 62
     2
 10
169.3287870293416
 20
171.7559579046435
 30
0.0
 11
169.3437323888047
 21
171.7275055735207
 31
0.0
  0
LINE
  5
134
  8
0
  6
DOT
 62
     2
 10
169.4775165815778
 20
171.55237519941
 30
0.0
 11
169.5010335601955
 21
171.5304854416696
 31
0.0
  0
LINE
  5
135
  8
0
  6
DOT
 62
     2
 10
169.2823707451348
 20
171.8727022508489
 30
0.0
 11
169.2920617861772
 21
171.8430143359754
 31
0.0
  0
LINE
  5
136
  8
0
  6
DOT
 62
     2
 10
170.1792702214237
 20
171.3620454516596
 30
0.0
 11
170.210240820027
 21
171.3703834806408
 31
0.0
  0
LINE
  5
137
  8
0
  6
DOT
 62
     2
 10
170.3557781953543
 20
171.4301081271431
 30
0.0
 11
170.3828765132883
 21
171.4454522361396
 31
0.0
  0
LINE
  5
138
  8
0
  6
DOT
 62
     2
 10
169.2605814656205
 20
171.9651903400832
 30
0.0
 11
169.2665931148246
 21
171.933816866346
 31
0.0
  0
LINE
  5
139
  8
0
  6
DOT
 62
     2
 10
170.4870095385073
 20
171.520041389799
 30
0.0
 11
170.5102685582421
 21
171.5407690774988
 31
0.0
  0
LINE
  5
13A
  8
0
  6
DOT
 62
     2
 10
170.5947116681117
 20
171.6335284674548
 30
0.0
 11
170.6137032587649
 21
171.6593922120397
 31
0.0
  0
LINE
  5
13B
  8
0
  6
DOT
 62
     2
 10
170.6137032587649
 20
171.6593922120397
 30
0.0
 11
170.6315756050874
 21
171.68604167017
 31
0.0
  0
LINE
  5
13C
  8
0
  6
DOT
 62
     2
 10
169.7145911311807
 20
171.3967597985007
 30
0.0
 11
169.7445342444929
 21
171.3851706341979
 31
0.0
  0
LINE
  5
13D
  8
0
  6
DOT
 62
     2
 10
170.6315756050874
 20
171.68604167017
 30
0.0
 11
170.6482784019953
 21
171.7134049804563
 31
0.0
  0
LINE
  5
13E
  8
0
  6
DOT
 62
     2
 10
169.5507403583788
 20
171.4898357408628
 30
0.0
 11
169.5760789500674
 21
171.4716797948618
 31
0.0
  0
LINE
  5
13F
  8
0
  6
DOT
 62
     2
 10
170.2997408566659
 20
171.4028336347912
 30
0.0
 11
170.3280421763666
 21
171.4158901487073
 31
0.0
  0
LINE
  5
140
  8
0
  6
DOT
 62
     2
 10
170.532666243115
 20
171.5624633366026
 30
0.0
 11
170.5541459756101
 21
171.5850668493061
 31
0.0
  0
LINE
  5
141
  8
0
  6
DOT
 62
     2
 10
170.6482784019953
 20
171.7134049804563
 30
0.0
 11
170.6633816847122
 21
171.7406776733222
 31
0.0
  0
LINE
  5
142
  8
0
  6
DOT
 62
     2
 10
169.2559100164024
 20
171.9967765584771
 30
0.0
 11
169.2605814656205
 21
171.9651903400832
 31
0.0
  0
LINE
  5
143
  8
0
  6
DOT
 62
     2
 10
169.3029752550829
 20
171.8137537069379
 30
0.0
 11
169.3150845589124
 21
171.7849966677447
 31
0.0
  0
LINE
  5
144
  8
0
  6
DOT
 62
     2
 10
169.6563520301894
 20
171.4237067756803
 30
0.0
 11
169.6851699243027
 21
171.4096163832695
 31
0.0
  0
LINE
  5
145
  8
0
  6
DOT
 62
     2
 10
169.2499999999995
 20
172.090811969404
 30
0.0
 11
169.2506583863039
 21
172.0593981687968
 31
0.0
  0
LINE
  5
146
  8
0
  6
DOT
 62
     2
 10
169.7445342444929
 20
171.3851706341979
 30
0.0
 11
169.7749178579091
 21
171.3748825031855
 31
0.0
  0
LINE
  5
147
  8
0
  6
DOT
 62
     2
 10
169.2506583863039
 20
172.0593981687968
 30
0.0
 11
169.2526301095867
 21
172.0280255983673
 31
0.0
  0
LINE
  5
148
  8
0
  6
DOT
 62
     2
 10
169.377181645145
 20
171.6726688320902
 30
0.0
 11
169.3950878087072
 21
171.6471288742457
 31
0.0
  0
LINE
  5
149
  8
0
  6
DOT
 62
     2
 10
169.86563652463
 20
171.3524320542254
 30
0.0
 11
169.8963925973028
 21
171.3474830492321
 31
0.0
  0
LINE
  5
14A
  8
0
  6
DOT
 62
     2
 10
169.9602272873552
 20
171.3413483916843
 30
0.0
 11
169.9922975366273
 21
171.3403297176352
 31
0.0
  0
LINE
  5
14B
  8
0
  6
DOT
 62
     2
 10
169.3598781048797
 20
171.6997168305962
 30
0.0
 11
169.377181645145
 21
171.6726688320902
 31
0.0
  0
LINE
  5
14C
  8
0
  6
DOT
 62
     2
 10
170.1173519510151
 20
171.3495340817103
 30
0.0
 11
170.1480001919063
 21
171.3550451404282
 31
0.0
  0
LINE
  5
14D
  8
0
  6
DOT
 62
     2
 10
170.2408277157416
 20
171.380034534247
 30
0.0
 11
170.2709466365929
 21
171.3909739193537
 31
0.0
  0
LINE
  5
14E
  8
0
  6
DOT
 62
     2
 10
169.804820450318
 20
171.366149581244
 30
0.0
 11
169.8350862407634
 21
171.35866016491
 31
0.0
  0
LINE
  5
14F
  8
0
  6
DOT
 62
     2
 10
170.0243526227196
 20
171.3406830529152
 30
0.0
 11
170.0554480964529
 21
171.3423437126186
 31
0.0
  0
LINE
  5
150
  8
0
  6
DOT
 62
     2
 10
170.3828765132883
 20
171.4454522361396
 30
0.0
 11
170.4100684002034
 21
171.4624066320465
 31
0.0
  0
LINE
  5
151
  8
0
  6
DOT
 62
     2
 10
169.5760789500674
 20
171.4716797948618
 30
0.0
 11
169.6021726971758
 21
171.4545776855456
 31
0.0
  0
LINE
  5
152
  8
0
  6
DOT
 62
     2
 10
170.5102685582421
 20
171.5407690774988
 30
0.0
 11
170.532666243115
 21
171.5624633366026
 31
0.0
  0
LINE
  5
153
  8
0
  6
DOT
 62
     2
 10
169.2920617861772
 20
171.8430143359754
 30
0.0
 11
169.3029752550829
 21
171.8137537069379
 31
0.0
  0
LINE
  5
154
  8
0
  6
DOT
 62
     2
 10
169.2739287248951
 20
171.9027411475501
 30
0.0
 11
169.2823707451348
 21
171.8727022508489
 31
0.0
  0
LINE
  5
155
  8
0
  6
DOT
 62
     2
 10
169.5254633853648
 20
171.5096193732282
 30
0.0
 11
169.5507403583788
 21
171.4898357408628
 31
0.0
  0
LINE
  5
156
  8
0
  6
DOT
 62
     2
 10
169.6289531928383
 20
171.4385723625925
 30
0.0
 11
169.6563520301894
 21
171.4237067756803
 31
0.0
  0
LINE
  5
157
  8
0
  6
DOT
 62
     2
 10
169.6851699243027
 20
171.4096163832695
 30
0.0
 11
169.7145911311807
 21
171.3967597985007
 31
0.0
  0
LINE
  5
158
  8
0
  6
DOT
 62
     2
 10
169.7749178579091
 20
171.3748825031855
 30
0.0
 11
169.804820450318
 21
171.366149581244
 31
0.0
  0
LINE
  5
159
  8
0
  6
DOT
 62
     2
 10
169.6021726971758
 20
171.4545776855456
 30
0.0
 11
169.6289531928383
 21
171.4385723625925
 31
0.0
  0
LINE
  5
15A
  8
0
  6
DOT
 62
     2
 10
169.928229699411
 20
171.3437343954281
 30
0.0
 11
169.9602272873552
 21
171.3413483916843
 31
0.0
  0
LINE
  5
15B
  8
0
  6
DOT
 62
     2
 10
170.1480001919063
 20
171.3550451404282
 30
0.0
 11
170.1792702214237
 21
171.3620454516596
 31
0.0
  0
LINE
  5
15C
  8
0
  6
DOT
 62
     2
 10
169.5010335601955
 20
171.5304854416696
 30
0.0
 11
169.5254633853648
 21
171.5096193732282
 31
0.0
  0
LINE
  5
15D
  8
0
  6
DOT
 62
     2
 10
170.0554480964529
 20
171.3423437126186
 30
0.0
 11
170.086474562541
 21
171.3452971639954
 31
0.0
  0
LINE
  5
15E
  8
0
  6
DOT
 62
     2
 10
170.5148005072175
 20
252.0799857189513
 30
0.0
 11
170.4916702223416
 21
252.100937214383
 31
0.0
  0
LINE
  5
15F
  8
0
  6
DOT
 62
     2
 10
170.1238947626177
 20
252.2743986873835
 30
0.0
 11
170.09216388952
 21
252.2790244569935
 31
0.0
  0
LINE
  5
160
  8
0
  6
DOT
 62
     2
 10
170.0611832547536
 20
252.2822086868786
 30
0.0
 11
170.0300701842666
 21
252.2841047399131
 31
0.0
  0
LINE
  5
161
  8
0
  6
DOT
 62
     2
 10
170.0300701842666
 20
252.2841047399131
 30
0.0
 11
169.9989052592497
 21
252.2847093718145
 31
0.0
  0
LINE
  5
162
  8
0
  6
DOT
 62
     2
 10
169.9677690608937
 20
252.2840193383003
 30
0.0
 11
169.9357871190005
 21
252.281954045895
 31
0.0
  0
LINE
  5
163
  8
0
  6
DOT
 62
     2
 10
169.903893511061
 20
252.2785202543212
 30
0.0
 11
169.8721753823484
 21
252.273729261334
 31
0.0
  0
LINE
  5
164
  8
0
  6
DOT
 62
     2
 10
169.8407198781356
 20
252.267592364689
 30
0.0
 11
169.8104370485146
 21
252.2603419588711
 31
0.0
  0
LINE
  5
165
  8
0
  6
DOT
 62
     2
 10
169.8104370485146
 20
252.2603419588711
 30
0.0
 11
169.7804555750392
 21
252.2518327343415
 31
0.0
  0
LINE
  5
166
  8
0
  6
DOT
 62
     2
 10
169.6922148297247
 20
252.2186000485749
 30
0.0
 11
169.6632608008383
 21
252.2048063975765
 31
0.0
  0
LINE
  5
167
  8
0
  6
DOT
 62
     2
 10
169.6632608008383
 20
252.2048063975765
 30
0.0
 11
169.6349210806123
 21
252.1897910276564
 31
0.0
  0
LINE
  5
168
  8
0
  6
DOT
 62
     2
 10
169.6349210806123
 20
252.1897910276564
 30
0.0
 11
169.6072740311806
 21
252.1735934482017
 31
0.0
  0
LINE
  5
169
  8
0
  6
DOT
 62
     2
 10
169.5744581952481
 20
252.1522080123749
 30
0.0
 11
169.5428028063432
 21
252.1291395796983
 31
0.0
  0
LINE
  5
16A
  8
0
  6
DOT
 62
     2
 10
170.6354902262559
 20
251.9327760173712
 30
0.0
 11
170.6183860237864
 21
251.9588677146899
 31
0.0
  0
LINE
  5
16B
  8
0
  6
DOT
 62
     2
 10
170.5798249973732
 20
252.0102282680446
 30
0.0
 11
170.5589254537216
 21
252.0346381312504
 31
0.0
  0
LINE
  5
16C
  8
0
  6
DOT
 62
     2
 10
169.7804555750392
 20
252.2518327343415
 30
0.0
 11
169.7508524848625
 21
252.2420883516296
 31
0.0
  0
LINE
  5
16D
  8
0
  6
DOT
 62
     2
 10
170.7124201507014
 20
171.8562246374559
 30
0.0
 11
170.7217933236007
 21
171.8869350832048
 31
0.0
  0
LINE
  5
16E
  8
0
  6
DOT
 62
     2
 10
170.7217933236007
 20
171.8869350832048
 30
0.0
 11
170.7298493231587
 21
171.9180170564807
 31
0.0
  0
LINE
  5
16F
  8
0
  6
DOT
 62
     2
 10
170.3895561008344
 20
252.1755264050186
 30
0.0
 11
170.3617658099533
 21
252.1916275600783
 31
0.0
  0
LINE
  5
170
  8
0
  6
DOT
 62
     2
 10
170.6773516498333
 20
171.768578020448
 30
0.0
 11
170.6901537838486
 21
171.7970331620935
 31
0.0
  0
LINE
  5
171
  8
0
  6
DOT
 62
     2
 10
169.7217048051375
 20
252.2311324712647
 30
0.0
 11
169.6922148297247
 21
252.2186000485749
 31
0.0
  0
LINE
  5
172
  8
0
  6
DOT
 62
     2
 10
170.7464422275823
 20
251.6072056935926
 30
0.0
 11
170.7427617308237
 21
251.6381909173603
 31
0.0
  0
LINE
  5
173
  8
0
  6
DOT
 62
     2
 10
170.6801320311939
 20
251.8505134696631
 30
0.0
 11
170.6664031582181
 21
251.8785286280364
 31
0.0
  0
LINE
  5
174
  8
0
  6
DOT
 62
     2
 10
170.7499999999999
 20
251.5341880305961
 30
0.0
 11
170.7491121421501
 21
251.5706968620943
 31
0.0
  0
LINE
  5
175
  8
0
  6
DOT
 62
     2
 10
170.704667414304
 20
251.7911505297597
 30
0.0
 11
170.6930289278462
 21
251.8211079822628
 31
0.0
  0
LINE
  5
176
  8
0
  6
DOT
 62
     2
 10
170.4916702223416
 20
252.100937214383
 30
0.0
 11
170.467691004038
 21
252.1209114929828
 31
0.0
  0
LINE
  5
177
  8
0
  6
DOT
 62
     2
 10
170.3333381822623
 20
252.2065113380741
 30
0.0
 11
170.3051453666884
 21
252.2197830424652
 31
0.0
  0
LINE
  5
178
  8
0
  6
DOT
 62
     2
 10
170.6633816847122
 20
171.7406776733222
 30
0.0
 11
170.6773516498333
 21
171.768578020448
 31
0.0
  0
LINE
  5
179
  8
0
  6
DOT
 62
     2
 10
170.7017535732483
 20
171.8259702385186
 30
0.0
 11
170.7124201507014
 21
171.8562246374559
 31
0.0
  0
LINE
  5
17A
  8
0
  6
DOT
 62
     2
 10
170.4166338310375
 20
252.1582537525037
 30
0.0
 11
170.3895561008344
 21
252.1755264050186
 31
0.0
  0
LINE
  5
17B
  8
0
  6
DOT
 62
     2
 10
169.9357871190005
 20
252.281954045895
 30
0.0
 11
169.903893511061
 21
252.2785202543212
 31
0.0
  0
LINE
  5
17C
  8
0
  6
DOT
 62
     2
 10
170.5589254537216
 20
252.0346381312504
 30
0.0
 11
170.5370209342778
 21
252.0581100792966
 31
0.0
  0
LINE
  5
17D
  8
0
  6
DOT
 62
     2
 10
170.467691004038
 20
252.1209114929828
 30
0.0
 11
170.4429237766944
 21
252.1398554821422
 31
0.0
  0
LINE
  5
17E
  8
0
  6
DOT
 62
     2
 10
170.2175550411949
 20
252.2524438352376
 30
0.0
 11
170.1866764262772
 21
252.261090078482
 31
0.0
  0
LINE
  5
17F
  8
0
  6
DOT
 62
     2
 10
170.6183860237864
 20
251.9588677146899
 30
0.0
 11
170.5996637818542
 21
251.9849487193131
 31
0.0
  0
LINE
  5
180
  8
0
  6
DOT
 62
     2
 10
169.8721753823484
 20
252.273729261334
 30
0.0
 11
169.8407198781356
 21
252.267592364689
 31
0.0
  0
LINE
  5
181
  8
0
  6
DOT
 62
     2
 10
169.7508524848625
 20
252.2420883516296
 30
0.0
 11
169.7217048051375
 21
252.2311324712647
 31
0.0
  0
LINE
  5
182
  8
0
  6
DOT
 62
     2
 10
170.09216388952
 20
252.2790244569935
 30
0.0
 11
170.0611832547536
 21
252.2822086868786
 31
0.0
  0
LINE
  5
183
  8
0
  6
DOT
 62
     2
 10
169.6072740311806
 20
252.1735934482017
 30
0.0
 11
169.5744581952481
 21
252.1522080123749
 31
0.0
  0
LINE
  5
184
  8
0
  6
DOT
 62
     2
 10
170.6664031582181
 20
251.8785286280364
 30
0.0
 11
170.6515092471526
 21
251.9059728995463
 31
0.0
  0
LINE
  5
185
  8
0
  6
DOT
 62
     2
 10
170.6901537838486
 20
171.7970331620935
 30
0.0
 11
170.7017535732483
 21
171.8259702385186
 31
0.0
  0
LINE
  5
186
  8
0
  6
DOT
 62
     2
 10
170.7466032758031
 20
172.0194622333913
 30
0.0
 11
170.7491498620821
 21
172.0550967200775
 31
0.0
  0
LINE
  5
187
  8
0
  6
DOT
 62
     2
 10
170.7240489439511
 20
251.7299108172294
 30
0.0
 11
170.7150174373961
 21
251.7607238840998
 31
0.0
  0
LINE
  5
188
  8
0
  6
DOT
 62
     2
 10
170.6515092471526
 20
251.9059728995463
 30
0.0
 11
170.6354902262559
 21
251.9327760173712
 31
0.0
  0
LINE
  5
189
  8
0
  6
DOT
 62
     2
 10
170.2764005615107
 20
252.2318822531223
 30
0.0
 11
170.247178781442
 21
252.2427791305462
 31
0.0
  0
LINE
  5
18A
  8
0
  6
DOT
 62
     2
 10
169.9989052592497
 20
252.2847093718145
 30
0.0
 11
169.9677690608937
 21
252.2840193383003
 31
0.0
  0
LINE
  5
18B
  8
0
  6
DOT
 62
     2
 10
170.7298493231587
 20
171.9180170564807
 30
0.0
 11
170.736564380588
 21
171.9493860379986
 31
0.0
  0
LINE
  5
18C
  8
0
  6
DOT
 62
     2
 10
170.736564380588
 20
171.9493860379986
 30
0.0
 11
170.7424094978284
 21
171.9843058524418
 31
0.0
  0
LINE
  5
18D
  8
0
  6
DOT
 62
     2
 10
170.7424094978284
 20
171.9843058524418
 30
0.0
 11
170.7466032758031
 21
172.0194622333913
 31
0.0
  0
LINE
  5
18E
  8
0
  6
DOT
 62
     2
 10
170.7491121421501
 20
251.5706968620943
 30
0.0
 11
170.7464422275823
 21
251.6072056935926
 31
0.0
  0
LINE
  5
18F
  8
0
  6
DOT
 62
     2
 10
170.7427617308237
 20
251.6381909173603
 30
0.0
 11
170.7377930450949
 21
251.6690231633874
 31
0.0
  0
LINE
  5
190
  8
0
  6
DOT
 62
     2
 10
170.7377930450949
 20
251.6690231633874
 30
0.0
 11
170.731550629702
 21
251.6996229554263
 31
0.0
  0
LINE
  5
191
  8
0
  6
DOT
 62
     2
 10
170.731550629702
 20
251.6996229554263
 30
0.0
 11
170.7240489439511
 21
251.7299108172294
 31
0.0
  0
LINE
  5
192
  8
0
  6
DOT
 62
     2
 10
170.6930289278462
 20
251.8211079822628
 30
0.0
 11
170.6801320311939
 21
251.8505134696631
 31
0.0
  0
LINE
  5
193
  8
0
  6
DOT
 62
     2
 10
170.5370209342778
 20
252.0581100792966
 30
0.0
 11
170.5148005072175
 21
252.0799857189513
 31
0.0
  0
LINE
  5
194
  8
0
  6
DOT
 62
     2
 10
170.3051453666884
 20
252.2197830424652
 30
0.0
 11
170.2764005615107
 21
252.2318822531223
 31
0.0
  0
LINE
  5
195
  8
0
  6
DOT
 62
     2
 10
170.247178781442
 20
252.2427791305462
 30
0.0
 11
170.2175550411949
 21
252.2524438352376
 31
0.0
  0
LINE
  5
196
  8
0
  6
DOT
 62
     2
 10
170.5996637818542
 20
251.9849487193131
 30
0.0
 11
170.5798249973732
 21
252.0102282680446
 31
0.0
  0
LINE
  5
197
  8
0
  6
DOT
 62
     2
 10
170.7491498620821
 20
172.0550967200775
 30
0.0
 11
170.7499999999999
 21
172.0908119694039
 31
0.0
  0
LINE
  5
198
  8
0
  6
DOT
 62
     2
 10
170.7150174373961
 20
251.7607238840998
 30
0.0
 11
170.704667414304
 21
251.7911505297597
 31
0.0
  0
LINE
  5
199
  8
0
  6
DOT
 62
     2
 10
170.4429237766944
 20
252.1398554821422
 30
0.0
 11
170.4166338310375
 21
252.1582537525037
 31
0.0
  0
LINE
  5
19A
  8
0
  6
DOT
 62
     2
 10
170.3617658099533
 20
252.1916275600783
 30
0.0
 11
170.3333381822623
 21
252.2065113380741
 31
0.0
  0
LINE
  5
19B
  8
0
  6
DOT
 62
     2
 10
170.1866764262772
 20
252.261090078482
 30
0.0
 11
170.1554276374774
 21
252.2684144618717
 31
0.0
  0
LINE
  5
19C
  8
0
  6
DOT
 62
     2
 10
170.1554276374774
 20
252.2684144618717
 30
0.0
 11
170.1238947626177
 21
252.2743986873835
 31
0.0
  0
LINE
  5
19D
  8
0
  6
DOT
 62
     2
 10
169.3184674009234
 20
251.8474741919948
 30
0.0
 11
169.3060410685668
 21
251.8188437259533
 31
0.0
  0
ARC
  5
19E
  8
0
  6
DOT
 62
     2
 10
177.5
 20
172.0625
 30
0.0
 40
0.7500000000000007
 50
180.0
 51
0.0
  0
LINE
  5
19F
  8
0
  6
CONTINUOUS
 62
     7
 10
365.4373916810278
 20
156.0018398282202
 30
0.0
 11
403.8731601717798
 21
194.4376083189722
 31
0.0
  0
LINE
  5
1A0
  8
0
  6
DOT
 62
     2
 10
159.5
 20
229.1873916810279
 30
0.0
 11
159.5
 21
267.6231601717798
 31
0.0
  0
LINE
  5
1A1
  8
0
  6
DOT
 62
     2
 10
163.25
 20
267.6231601717798
 30
0.0
 11
163.25
 21
229.1873916810279
 31
0.0
  0
LINE
  5
1A2
  8
0
  6
DOT
 62
     2
 10
270.4999999999999
 20
267.6231601717798
 30
0.0
 11
270.4999999999999
 21
249.5302759264039
 31
0.0
  0
LINE
  5
1A3
  8
0
  6
CONTINUOUS
 62
     7
 10
291.8124999999999
 20
155.5625000000001
 30
0.0
 11
404.3124999999999
 21
155.5625000000001
 31
0.0
  0
LINE
  5
1A4
  8
0
  6
DOT
 62
     2
 10
266.7499999999999
 20
229.1873916810279
 30
0.0
 11
266.7499999999999
 21
247.609780797569
 31
0.0
  0
LINE
  5
1A5
  8
0
  6
DOT
 62
     2
 10
169.4191308153931
 20
252.0089557649436
 30
0.0
 11
169.3999168491911
 21
251.9843942113696
 31
0.0
  0
LINE
  5
1A6
  8
0
  6
DOT
 62
     2
 10
169.4826867407117
 20
252.0776048436172
 30
0.0
 11
169.4605693116274
 21
252.0556215540706
 31
0.0
  0
ARC
  5
1A7
  8
0
  6
DOT
 62
     2
 10
222.5
 20
166.8125
 30
0.0
 40
0.7500000000000284
 50
179.9999999999996
 51
0.0000000000003979
  0
LINE
  5
1A8
  8
0
  6
DOT
 62
     2
 10
169.5428028063432
 20
252.1291395796983
 30
0.0
 11
169.5221658907838
 21
252.1126717385163
 31
0.0
  0
LINE
  5
1A9
  8
0
  6
DOT
 62
     2
 10
244.25
 20
166.8125
 30
0.0
 11
244.25
 21
256.8125
 31
0.0
  0
LINE
  5
1AA
  8
0
  6
DOT
 62
     2
 10
169.3636632164293
 20
251.9314164848048
 30
0.0
 11
169.3472571641384
 21
251.9038031116667
 31
0.0
  0
LINE
  5
1AB
  8
0
  6
DOT
 62
     2
 10
159.5
 20
174.0947240735962
 30
0.0
 11
159.5
 21
176.0152192024311
 31
0.0
  0
LINE
  5
1AC
  8
0
  6
DOT
 62
     2
 10
266.7499999999999
 20
155.5625000000001
 30
0.0
 11
266.7499999999999
 21
156.0018398282202
 31
0.0
  0
LINE
  5
1AD
  8
0
  6
DOT
 62
     2
 10
163.25
 20
194.4376083189722
 30
0.0
 11
163.25
 21
176.0152192024311
 31
0.0
  0
LINE
  5
1AE
  8
0
  6
DOT
 62
     2
 10
270.4999999999999
 20
247.609780797569
 30
0.0
 11
270.4999999999999
 21
229.1873916810279
 31
0.0
  0
LINE
  5
1AF
  8
0
  6
DOT
 62
     2
 10
270.4999999999999
 20
228.1267315092481
 30
0.0
 11
270.4999999999999
 21
212.5625
 31
0.0
  0
LINE
  5
1B0
  8
0
  6
DOT
 62
     2
 10
169.2538326241577
 20
251.6099655315361
 30
0.0
 11
169.2517092902569
 21
251.5848305140613
 31
0.0
  0
LINE
  5
1B1
  8
0
  6
DOT
 62
     2
 10
169.5021148038251
 20
252.0954828352673
 30
0.0
 11
169.4826867407117
 21
252.0776048436172
 31
0.0
  0
LINE
  5
1B2
  8
0
  6
DOT
 62
     2
 10
266.7499999999999
 20
176.0152192024311
 30
0.0
 11
266.7499999999999
 21
194.4376083189722
 31
0.0
  0
LINE
  5
1B3
  8
0
  6
DOT
 62
     2
 10
169.2504275646848
 20
251.5595236872277
 30
0.0
 11
169.2499999999999
 21
251.5341880305961
 31
0.0
  0
LINE
  5
1B4
  8
0
  6
DOT
 62
     2
 10
169.3060410685668
 20
251.8188437259533
 30
0.0
 11
169.294811710034
 21
251.7897229564189
 31
0.0
  0
LINE
  5
1B5
  8
0
  6
DOT
 62
     2
 10
159.5
 20
156.0018398282203
 30
0.0
 11
159.5
 21
174.0947240735962
 31
0.0
  0
LINE
  5
1B6
  8
0
  6
DOT
 62
     2
 10
266.7499999999999
 20
212.5625
 30
0.0
 11
266.7499999999999
 21
228.1267315092481
 31
0.0
  0
LINE
  5
1B7
  8
0
  6
DOT
 62
     2
 10
169.4393661530299
 20
252.0327183701784
 30
0.0
 11
169.4191308153931
 21
252.0089557649436
 31
0.0
  0
LINE
  5
1B8
  8
0
  6
DOT
 62
     2
 10
169.2758122687182
 20
251.7293851124766
 30
0.0
 11
169.2681317870516
 21
251.698198880349
 31
0.0
  0
LINE
  5
1B9
  8
0
  6
DOT
 62
     2
 10
270.4999999999999
 20
229.1873916810279
 30
0.0
 11
270.4999999999999
 21
228.1267315092481
 31
0.0
  0
LINE
  5
1BA
  8
0
  6
DOT
 62
     2
 10
169.2517092902569
 20
251.5848305140613
 30
0.0
 11
169.2504275646848
 21
251.5595236872277
 31
0.0
  0
LINE
  5
1BB
  8
0
  6
DOT
 62
     2
 10
169.3472571641384
 20
251.9038031116667
 30
0.0
 11
169.3320602042099
 21
251.8755396712949
 31
0.0
  0
LINE
  5
1BC
  8
0
  6
DOT
 62
     2
 10
169.5221658907838
 20
252.1126717385163
 30
0.0
 11
169.5021148038251
 21
252.0954828352673
 31
0.0
  0
LINE
  5
1BD
  8
0
  6
DOT
 62
     2
 10
169.294811710034
 20
251.7897229564189
 30
0.0
 11
169.2848098282184
 21
251.7601865666406
 31
0.0
  0
LINE
  5
1BE
  8
0
  6
DOT
 62
     2
 10
169.3999168491911
 20
251.9843942113696
 30
0.0
 11
169.3812319238558
 21
251.9583050862066
 31
0.0
  0
ARC
  5
1BF
  8
0
  6
DOT
 62
     2
 10
207.5
 20
256.8125000000001
 30
0.0
 40
0.7500000000000007
 50
359.9999999999996
 51
180.0000000000004
  0
ARC
  5
1C0
  8
0
  6
CONTINUOUS
 62
     7
 10
293.3124999999999
 20
228.1267315092481
 30
0.0
 40
1.500000000000014
 50
135.0000000000003
 51
179.9999999999998
  0
LINE
  5
1C1
  8
0
  6
DOT
 62
     2
 10
169.4605693116274
 20
252.0556215540706
 30
0.0
 11
169.4393661530299
 21
252.0327183701784
 31
0.0
  0
LINE
  5
1C2
  8
0
  6
DOT
 62
     2
 10
169.2681317870516
 20
251.698198880349
 30
0.0
 11
169.2617875152744
 21
251.6667136238868
 31
0.0
  0
LINE
  5
1C3
  8
0
  6
DOT
 62
     2
 10
169.2617875152744
 20
251.6667136238868
 30
0.0
 11
169.2567985854423
 21
251.635015096719
 31
0.0
  0
LINE
  5
1C4
  8
0
  6
DOT
 62
     2
 10
266.7499999999999
 20
156.0018398282202
 30
0.0
 11
266.7499999999999
 21
174.0947240735962
 31
0.0
  0
LINE
  5
1C5
  8
0
  6
DOT
 62
     2
 10
163.25
 20
268.0625000000001
 30
0.0
 11
159.5
 21
268.0625000000001
 31
0.0
  0
ARC
  5
1C6
  8
0
  6
CONTINUOUS
 62
     7
 10
402.8124999999999
 20
228.126731509248
 30
0.0
 40
1.500000000000001
 50
0.0000000000001953
 51
45.00000000000139
  0
LINE
  5
1C7
  8
0
  6
DOT
 62
     2
 10
245.75
 20
256.8125000000001
 30
0.0
 11
245.75
 21
166.8125
 31
0.0
  0
LINE
  5
1C8
  8
0
  6
CONTINUOUS
 62
     7
 10
403.8731601717798
 20
229.1873916810279
 30
0.0
 11
365.4373916810279
 21
267.6231601717799
 31
0.0
  0
LINE
  5
1C9
  8
0
  6
DOT
 62
     2
 10
266.7499999999999
 20
228.1267315092481
 30
0.0
 11
266.7499999999999
 21
229.1873916810279
 31
0.0
  0
LINE
  5
1CA
  8
0
  6
CONTINUOUS
 62
     7
 10
159.5
 20
154.4375000000001
 30
0.0
 11
159.5
 21
268.0625000000001
 31
0.0
  0
LINE
  5
1CB
  8
0
  6
DOT
 62
     2
 10
266.7499999999999
 20
154.4375000000001
 30
0.0
 11
266.7499999999999
 21
155.5625000000001
 31
0.0
  0
LINE
  5
1CC
  8
0
  6
DOT
 62
     2
 10
163.25
 20
174.0947240735962
 30
0.0
 11
163.25
 21
156.0018398282203
 31
0.0
  0
LINE
  5
1CD
  8
0
  6
DOT
 62
     2
 10
270.4999999999999
 20
176.0152192024311
 30
0.0
 11
270.4999999999999
 21
174.0947240735962
 31
0.0
  0
ARC
  5
1CE
  8
0
  6
CONTINUOUS
 62
     7
 10
331.7482684907519
 20
157.0625000000001
 30
0.0
 40
1.499999999999995
 50
224.9999999999998
 51
269.9999999999996
  0
ARC
  5
1CF
  8
0
  6
CONTINUOUS
 62
     7
 10
364.376731509248
 20
157.0625
 30
0.0
 40
1.500000000000001
 50
270.0000000000004
 51
315.0000000000011
  0
ARC
  5
1D0
  8
0
  6
CONTINUOUS
 62
     7
 10
402.8124999999999
 20
195.498268490752
 30
0.0
 40
1.499999999999995
 50
314.9999999999998
 51
359.9999999999997
  0
LINE
  5
1D1
  8
0
  6
DOT
 62
     2
 10
270.4999999999999
 20
268.0625000000001
 30
0.0
 11
266.7499999999999
 21
268.0625000000001
 31
0.0
  0
LINE
  5
1D2
  8
0
  6
DOT
 62
     2
 10
169.3320602042099
 20
251.8755396712949
 30
0.0
 11
169.3184674009234
 21
251.8474741919948
 31
0.0
  0
ARC
  5
1D3
  8
0
  6
CONTINUOUS
 62
     7
 10
293.3124999999999
 20
195.498268490752
 30
0.0
 40
1.500000000000001
 50
180.0
 51
225.0000000000006
  0
LINE
  5
1D4
  8
0
  6
DOT
 62
     2
 10
163.25
 20
229.1873916810279
 30
0.0
 11
159.5
 21
229.1873916810279
 31
0.0
  0
LINE
  5
1D5
  8
0
  6
CENTER
 62
     1
 10
274.9999999999999
 20
211.8125
 30
0.0
 11
155.0
 21
211.8125
 31
0.0
  0
LINE
  5
1D6
  8
0
  6
DOT
 62
     2
 10
169.3812319238558
 20
251.9583050862066
 30
0.0
 11
169.3636632164293
 21
251.9314164848048
 31
0.0
  0
LINE
  5
1D7
  8
0
  6
DOT
 62
     2
 10
169.2848098282184
 20
251.7601865666406
 30
0.0
 11
169.2758122687182
 21
251.7293851124766
 31
0.0
  0
LINE
  5
1D8
  8
0
  6
DOT
 62
     2
 10
169.2567985854423
 20
251.635015096719
 30
0.0
 11
169.2538326241577
 21
251.6099655315361
 31
0.0
  0
ARC
  5
1D9
  8
0
  6
DOT
 62
     2
 10
169.8839745962156
 20
168.3125
 30
0.0
 40
1.500000000000006
 50
270.0
 51
329.9999999999998
  0
LINE
  5
1DA
  8
0
  6
DOT
 62
     2
 10
159.5
 20
212.5625000000001
 30
0.0
 11
159.5
 21
228.1267315092481
 31
0.0
  0
ARC
  5
1DB
  8
0
  6
CONTINUOUS
 62
     7
 10
364.376731509248
 20
266.5625000000001
 30
0.0
 40
1.499999999999975
 50
45.0
 51
89.99999999999962
  0
LINE
  5
1DC
  8
0
  6
DOT
 62
     2
 10
270.4999999999999
 20
154.4375000000001
 30
0.0
 11
266.7499999999999
 21
154.4375000000001
 31
0.0
  0
LINE
  5
1DD
  8
0
  6
CONTINUOUS
 62
     7
 10
291.8124999999999
 20
268.0625000000001
 30
0.0
 11
291.8124999999999
 21
155.5625000000001
 31
0.0
  0
LINE
  5
1DE
  8
0
  6
CENTER
 62
     1
 10
348.0624999999999
 20
151.4375000000001
 30
0.0
 11
348.0624999999999
 21
271.0625000000001
 31
0.0
  0
LINE
  5
1DF
  8
0
  6
CONTINUOUS
 62
     7
 10
330.6876083189721
 20
267.6231601717798
 30
0.0
 11
292.2518398282202
 21
229.1873916810279
 31
0.0
  0
LINE
  5
1E0
  8
0
  6
DOT
 62
     2
 10
163.25
 20
155.5625000000001
 30
0.0
 11
163.25
 21
154.4375000000001
 31
0.0
  0
LINE
  5
1E1
  8
0
  6
DOT
 62
     2
 10
163.25
 20
228.1267315092481
 30
0.0
 11
163.25
 21
212.5625
 31
0.0
  0
LINE
  5
1E2
  8
0
  6
CONTINUOUS
 62
     7
 10
404.3124999999999
 20
155.5625000000001
 30
0.0
 11
404.3124999999999
 21
268.0625000000001
 31
0.0
  0
ENDSEC
  0
EOF
