  0
SECTION
  2
HEADER
  9
$ACADVER
  1
AC1027
  9
$ACADMAINTVER
 70
   105
  9
$DWGCODEPAGE
  3
ANSI_932
  9
$REQUIREDVERSIONS
160
                 0
  9
$INSBASE
 10
0.0
 20
0.0
 30
0.0
  9
$EXTMIN
 10
-233.763161
 20
365.5681818181818
 30
0.0
  9
$EXTMAX
 10
673.5
 20
683.5
 30
0.0
  9
$LIMMIN
 10
0.0
 20
0.0
  9
$LIMMAX
 10
12.0
 20
9.0
  9
$ORTHOMODE
 70
     0
  9
$REGENMODE
 70
     1
  9
$FILLMODE
 70
     1
  9
$QTEXTMODE
 70
     0
  9
$MIRRTEXT
 70
     1
  9
$LTSCALE
 40
1.0
  9
$ATTMODE
 70
     1
  9
$TEXTSIZE
 40
0.2
  9
$TRACEWID
 40
0.05
  9
$TEXTSTYLE
  7
Standard
  9
$CLAYER
  8
0
  9
$CELTYPE
  6
ByLayer
  9
$CECOLOR
 62
   256
  9
$CELTSCALE
 40
1.0
  9
$DISPSILH
 70
     0
  9
$DIMSCALE
 40
1.0
  9
$DIMASZ
 40
0.9
  9
$DIMEXO
 40
0.0625
  9
$DIMDLI
 40
0.38
  9
$DIMRND
 40
0.0
  9
$DIMDLE
 40
0.0
  9
$DIMEXE
 40
0.45
  9
$DIMTP
 40
0.0
  9
$DIMTM
 40
0.0
  9
$DIMTXT
 40
3.0
  9
$DIMCEN
 40
0.09
  9
$DIMTSZ
 40
0.0
  9
$DIMTOL
 70
     0
  9
$DIMLIM
 70
     0
  9
$DIMTIH
 70
     1
  9
$DIMTOH
 70
     1
  9
$DIMSE1
 70
     0
  9
$DIMSE2
 70
     0
  9
$DIMTAD
 70
     1
  9
$DIMZIN
 70
     0
  9
$DIMBLK
  1

  9
$DIMASO
 70
     1
  9
$DIMSHO
 70
     1
  9
$DIMPOST
  1

  9
$DIMAPOST
  1

  9
$DIMALT
 70
     0
  9
$DIMALTD
 70
     2
  9
$DIMALTF
 40
25.4
  9
$DIMLFAC
 40
1.0
  9
$DIMTOFL
 70
     0
  9
$DIMTVP
 40
0.0
  9
$DIMTIX
 70
     0
  9
$DIMSOXD
 70
     0
  9
$DIMSAH
 70
     0
  9
$DIMBLK1
  1

  9
$DIMBLK2
  1

  9
$DIMSTYLE
  2
Standard
  9
$DIMCLRD
 70
     0
  9
$DIMCLRE
 70
     0
  9
$DIMCLRT
 70
     0
  9
$DIMTFAC
 40
1.0
  9
$DIMGAP
 40
1.5
  9
$DIMJUST
 70
     0
  9
$DIMSD1
 70
     0
  9
$DIMSD2
 70
     0
  9
$DIMTOLJ
 70
     1
  9
$DIMTZIN
 70
     0
  9
$DIMALTZ
 70
     0
  9
$DIMALTTZ
 70
     0
  9
$DIMUPT
 70
     0
  9
$DIMDEC
 70
     2
  9
$DIMTDEC
 70
     4
  9
$DIMALTU
 70
     2
  9
$DIMALTTD
 70
     2
  9
$DIMTXSTY
  7
ＭＳ ゴシック
  9
$DIMAUNIT
 70
     0
  9
$DIMADEC
 70
     0
  9
$DIMALTRND
 40
0.0
  9
$DIMAZIN
 70
     0
  9
$DIMDSEP
 70
    46
  9
$DIMATFIT
 70
     3
  9
$DIMFRAC
 70
     0
  9
$DIMLDRBLK
  1

  9
$DIMLUNIT
 70
     2
  9
$DIMLWD
 70
    -2
  9
$DIMLWE
 70
    -2
  9
$DIMTMOVE
 70
     0
  9
$DIMFXL
 40
1.0
  9
$DIMFXLON
 70
     0
  9
$DIMJOGANG
 40
0.7853981633974483
  9
$DIMTFILL
 70
     0
  9
$DIMTFILLCLR
 70
     0
  9
$DIMARCSYM
 70
     0
  9
$DIMLTYPE
  6

  9
$DIMLTEX1
  6

  9
$DIMLTEX2
  6

  9
$DIMTXTDIRECTION
 70
     0
  9
$LUNITS
 70
     2
  9
$LUPREC
 70
     4
  9
$SKETCHINC
 40
0.1
  9
$FILLETRAD
 40
0.5
  9
$AUNITS
 70
     0
  9
$AUPREC
 70
     0
  9
$MENU
  1
.
  9
$ELEVATION
 40
0.0
  9
$PELEVATION
 40
0.0
  9
$THICKNESS
 40
0.0
  9
$LIMCHECK
 70
     0
  9
$CHAMFERA
 40
0.0
  9
$CHAMFERB
 40
0.0
  9
$CHAMFERC
 40
0.0
  9
$CHAMFERD
 40
0.0
  9
$SKPOLY
 70
     0
  9
$TDCREATE
 40
2458821.458707651
  9
$TDUCREATE
 40
2458821.083707651
  9
$TDUPDATE
 40
2458821.458708009
  9
$TDUUPDATE
 40
2458821.083708009
  9
$TDINDWG
 40
0.0000000116
  9
$TDUSRTIMER
 40
0.0000000116
  9
$USRTIMER
 70
     1
  9
$ANGBASE
 50
0.0
  9
$ANGDIR
 70
     0
  9
$PDMODE
 70
     0
  9
$PDSIZE
 40
0.0
  9
$PLINEWID
 40
0.0
  9
$SPLFRAME
 70
     0
  9
$SPLINETYPE
 70
     6
  9
$SPLINESEGS
 70
     8
  9
$HANDSEED
  5
33D
  9
$SURFTAB1
 70
     6
  9
$SURFTAB2
 70
     6
  9
$SURFTYPE
 70
     6
  9
$SURFU
 70
     6
  9
$SURFV
 70
     6
  9
$UCSBASE
  2

  9
$UCSNAME
  2

  9
$UCSORG
 10
0.0
 20
0.0
 30
0.0
  9
$UCSXDIR
 10
1.0
 20
0.0
 30
0.0
  9
$UCSYDIR
 10
0.0
 20
1.0
 30
0.0
  9
$UCSORTHOREF
  2

  9
$UCSORTHOVIEW
 70
     0
  9
$UCSORGTOP
 10
0.0
 20
0.0
 30
0.0
  9
$UCSORGBOTTOM
 10
0.0
 20
0.0
 30
0.0
  9
$UCSORGLEFT
 10
0.0
 20
0.0
 30
0.0
  9
$UCSORGRIGHT
 10
0.0
 20
0.0
 30
0.0
  9
$UCSORGFRONT
 10
0.0
 20
0.0
 30
0.0
  9
$UCSORGBACK
 10
0.0
 20
0.0
 30
0.0
  9
$PUCSBASE
  2

  9
$PUCSNAME
  2

  9
$PUCSORG
 10
0.0
 20
0.0
 30
0.0
  9
$PUCSXDIR
 10
1.0
 20
0.0
 30
0.0
  9
$PUCSYDIR
 10
0.0
 20
1.0
 30
0.0
  9
$PUCSORTHOREF
  2

  9
$PUCSORTHOVIEW
 70
     0
  9
$PUCSORGTOP
 10
0.0
 20
0.0
 30
0.0
  9
$PUCSORGBOTTOM
 10
0.0
 20
0.0
 30
0.0
  9
$PUCSORGLEFT
 10
0.0
 20
0.0
 30
0.0
  9
$PUCSORGRIGHT
 10
0.0
 20
0.0
 30
0.0
  9
$PUCSORGFRONT
 10
0.0
 20
0.0
 30
0.0
  9
$PUCSORGBACK
 10
0.0
 20
0.0
 30
0.0
  9
$USERI1
 70
     0
  9
$USERI2
 70
     0
  9
$USERI3
 70
     0
  9
$USERI4
 70
     0
  9
$USERI5
 70
     0
  9
$USERR1
 40
0.0
  9
$USERR2
 40
0.0
  9
$USERR3
 40
0.0
  9
$USERR4
 40
0.0
  9
$USERR5
 40
0.0
  9
$WORLDVIEW
 70
     1
  9
$SHADEDGE
 70
     3
  9
$SHADEDIF
 70
    70
  9
$TILEMODE
 70
     1
  9
$MAXACTVP
 70
    64
  9
$PINSBASE
 10
0.0
 20
0.0
 30
0.0
  9
$PLIMCHECK
 70
     0
  9
$PEXTMIN
 10
1.000000000000000E+20
 20
1.000000000000000E+20
 30
1.000000000000000E+20
  9
$PEXTMAX
 10
-1.000000000000000E+20
 20
-1.000000000000000E+20
 30
-1.000000000000000E+20
  9
$PLIMMIN
 10
0.0
 20
0.0
  9
$PLIMMAX
 10
12.0
 20
9.0
  9
$UNITMODE
 70
     0
  9
$VISRETAIN
 70
     1
  9
$PLINEGEN
 70
     0
  9
$PSLTSCALE
 70
     1
  9
$TREEDEPTH
 70
  3020
  9
$CMLSTYLE
  2
Standard
  9
$CMLJUST
 70
     0
  9
$CMLSCALE
 40
1.0
  9
$PROXYGRAPHICS
 70
     1
  9
$MEASUREMENT
 70
     1
  9
$CELWEIGHT
370
    -1
  9
$ENDCAPS
280
     0
  9
$JOINSTYLE
280
     0
  9
$LWDISPLAY
290
     1
  9
$INSUNITS
 70
     4
  9
$HYPERLINKBASE
  1

  9
$STYLESHEET
  1

  9
$XEDIT
290
     1
  9
$CEPSNTYPE
380
     0
  9
$PSTYLEMODE
290
     1
  9
$FINGERPRINTGUID
  2
{F1F1F96E-5C62-4221-9E81-FA24F0AF1609}
  9
$VERSIONGUID
  2
{FAEB1C32-E019-11D5-929B-00C0DF256EC4}
  9
$EXTNAMES
290
     1
  9
$PSVPSCALE
 40
0.0
  9
$OLESTARTUP
290
     0
  9
$SORTENTS
280
   127
  9
$INDEXCTL
280
     0
  9
$HIDETEXT
280
     1
  9
$XCLIPFRAME
280
     2
  9
$HALOGAP
280
     0
  9
$OBSCOLOR
 70
   257
  9
$OBSLTYPE
280
     0
  9
$INTERSECTIONDISPLAY
280
     0
  9
$INTERSECTIONCOLOR
 70
   257
  9
$DIMASSOC
280
     2
  9
$PROJECTNAME
  1

  9
$CAMERADISPLAY
290
     0
  9
$LENSLENGTH
 40
50.0
  9
$CAMERAHEIGHT
 40
0.0
  9
$STEPSPERSEC
 40
2.0
  9
$STEPSIZE
 40
6.0
  9
$3DDWFPREC
 40
2.0
  9
$PSOLWIDTH
 40
0.25
  9
$PSOLHEIGHT
 40
4.0
  9
$LOFTANG1
 40
1.570796326794897
  9
$LOFTANG2
 40
1.570796326794897
  9
$LOFTMAG1
 40
0.0
  9
$LOFTMAG2
 40
0.0
  9
$LOFTPARAM
 70
     7
  9
$LOFTNORMALS
280
     1
  9
$LATITUDE
 40
37.795
  9
$LONGITUDE
 40
-122.394
  9
$NORTHDIRECTION
 40
0.0
  9
$TIMEZONE
 70
 -8000
  9
$LIGHTGLYPHDISPLAY
280
     1
  9
$TILEMODELIGHTSYNCH
280
     1
  9
$CMATERIAL
347
44
  9
$SOLIDHIST
280
     0
  9
$SHOWHIST
280
     1
  9
$DWFFRAME
280
     2
  9
$DGNFRAME
280
     2
  9
$REALWORLDSCALE
290
     1
  9
$INTERFERECOLOR
 62
   256
  9
$CSHADOW
280
     0
  9
$SHADOWPLANELOCATION
 40
0.0
  0
ENDSEC
  0
SECTION
  2
CLASSES
  0
CLASS
  1
ACDBDICTIONARYWDFLT
  2
AcDbDictionaryWithDefault
  3
ObjectDBX Classes
 90
        0
 91
        3
280
     0
281
     0
  0
CLASS
  1
VISUALSTYLE
  2
AcDbVisualStyle
  3
ObjectDBX Classes
 90
     4095
 91
        3
280
     0
281
     0
  0
CLASS
  1
MATERIAL
  2
AcDbMaterial
  3
ObjectDBX Classes
 90
     1153
 91
        3
280
     0
281
     0
  0
CLASS
  1
SCALE
  2
AcDbScale
  3
ObjectDBX Classes
 90
     1153
 91
        3
280
     0
281
     0
  0
CLASS
  1
TABLESTYLE
  2
AcDbTableStyle
  3
ObjectDBX Classes
 90
     4095
 91
        3
280
     0
281
     0
  0
CLASS
  1
MLEADERSTYLE
  2
AcDbMLeaderStyle
  3
ACDB_MLEADERSTYLE_CLASS
 90
     4095
 91
        3
280
     0
281
     0
  0
CLASS
  1
SUN
  2
AcDbSun
  3
SCENEOE
 90
     1153
 91
        3
280
     0
281
     0
  0
CLASS
  1
DICTIONARYVAR
  2
AcDbDictionaryVar
  3
ObjectDBX Classes
 90
        0
 91
        3
280
     0
281
     0
  0
CLASS
  1
CELLSTYLEMAP
  2
AcDbCellStyleMap
  3
ObjectDBX Classes
 90
     1152
 91
        3
280
     0
281
     0
  0
ENDSEC
  0
SECTION
  2
TABLES
  0
TABLE
  2
VPORT
  5
8
330
0
100
AcDbSymbolTable
 70
     1
  0
VPORT
  5
29
330
8
100
AcDbSymbolTableRecord
100
AcDbViewportTableRecord
  2
*Active
 70
     0
 10
0.0
 20
0.0
 11
1.0
 21
1.0
 12
219.8684195
 22
524.5340909090909
 13
0.0
 23
0.0
 14
0.5
 24
0.5
 15
0.5
 25
0.5
 16
0.0
 26
0.0
 36
1.0
 17
0.0
 27
0.0
 37
0.0
 40
317.9318181818182
 41
1.6
 42
50.0
 43
0.0
 44
0.0
 50
0.0
 51
0.0
 71
     0
 72
   100
 73
     1
 74
     3
 75
     0
 76
     0
 77
     0
 78
     0
281
     0
 65
     1
110
0.0
120
0.0
130
0.0
111
1.0
121
0.0
131
0.0
112
0.0
122
1.0
132
0.0
 79
     0
146
0.0
348
2F
 60
     3
 61
     5
292
     1
282
     1
141
0.0
142
0.0
 63
   250
361
6D
  0
ENDTAB
  0
TABLE
  2
LTYPE
  5
5
330
0
100
AcDbSymbolTable
 70
     2
  0
LTYPE
  5
14
330
5
100
AcDbSymbolTableRecord
100
AcDbLinetypeTableRecord
  2
ByBlock
 70
     0
  3

 72
    65
 73
     0
 40
0.0
  0
LTYPE
  5
15
330
5
100
AcDbSymbolTableRecord
100
AcDbLinetypeTableRecord
  2
ByLayer
 70
     0
  3

 72
    65
 73
     0
 40
0.0
  0
LTYPE
  5
16
330
5
100
AcDbSymbolTableRecord
100
AcDbLinetypeTableRecord
  2
Continuous
 70
     0
  3
Solid line
 72
    65
 73
     0
 40
0.0
  0
LTYPE
  5
2A7
330
5
100
AcDbSymbolTableRecord
100
AcDbLinetypeTableRecord
  2
CENTER
 70
     0
  3

 72
    65
 73
     0
 40
0.0
  0
ENDTAB
  0
TABLE
  2
LAYER
  5
2
330
0
100
AcDbSymbolTable
 70
     1
  0
LAYER
  5
10
330
2
100
AcDbSymbolTableRecord
100
AcDbLayerTableRecord
  2
0
 70
     0
 62
     7
  6
Continuous
370
    -3
390
F
347
46
348
0
  0
ENDTAB
  0
TABLE
  2
STYLE
  5
3
330
0
100
AcDbSymbolTable
 70
     2
  0
STYLE
  5
11
330
3
100
AcDbSymbolTableRecord
100
AcDbTextStyleTableRecord
  2
Standard
 70
     0
 40
0.0
 41
1.0
 50
0.0
 71
     0
 42
0.2
  3
txt
  4

  0
STYLE
  5
6E
330
3
100
AcDbSymbolTableRecord
100
AcDbTextStyleTableRecord
  2
ＭＳ ゴシック
 70
     0
 40
0.0
 41
1.0
 50
0.0
 71
     0
 42
0.2
  3
ＭＳ ゴシック.shx
  4

  0
ENDTAB
  0
TABLE
  2
VIEW
  5
6
330
0
100
AcDbSymbolTable
 70
     0
  0
ENDTAB
  0
TABLE
  2
UCS
  5
7
330
0
100
AcDbSymbolTable
 70
     0
  0
ENDTAB
  0
TABLE
  2
APPID
  5
9
330
0
100
AcDbSymbolTable
 70
     1
  0
APPID
  5
12
330
9
100
AcDbSymbolTableRecord
100
AcDbRegAppTableRecord
  2
ACAD
 70
     0
  0
ENDTAB
  0
TABLE
  2
DIMSTYLE
  5
A
330
0
100
AcDbSymbolTable
 70
     1
100
AcDbDimStyleTable
  0
DIMSTYLE
105
27
330
A
100
AcDbSymbolTableRecord
100
AcDbDimStyleTableRecord
  2
Standard
 70
     0
178
     0
340
11
  0
ENDTAB
  0
TABLE
  2
BLOCK_RECORD
  5
1
330
0
100
AcDbSymbolTable
 70
     1
  0
BLOCK_RECORD
  5
1F
330
1
100
AcDbSymbolTableRecord
100
AcDbBlockTableRecord
  2
*Model_Space
340
22
 70
     0
280
     1
281
     0
  0
BLOCK_RECORD
  5
1B
330
1
100
AcDbSymbolTableRecord
100
AcDbBlockTableRecord
  2
*Paper_Space
340
1E
 70
     0
280
     1
281
     0
  0
BLOCK_RECORD
  5
23
330
1
100
AcDbSymbolTableRecord
100
AcDbBlockTableRecord
  2
*Paper_Space0
340
26
 70
     0
280
     1
281
     0
  0
ENDTAB
  0
ENDSEC
  0
SECTION
  2
BLOCKS
  0
BLOCK
  5
20
330
1F
100
AcDbEntity
  8
0
100
AcDbBlockBegin
  2
*Model_Space
 70
     0
 10
0.0
 20
0.0
 30
0.0
  3
*Model_Space
  1

  0
ENDBLK
  5
21
330
1F
100
AcDbEntity
  8
0
100
AcDbBlockEnd
  0
BLOCK
  5
1C
330
1B
100
AcDbEntity
 67
     1
  8
0
100
AcDbBlockBegin
  2
*Paper_Space
 70
     0
 10
0.0
 20
0.0
 30
0.0
  3
*Paper_Space
  1

  0
ENDBLK
  5
1D
330
1B
100
AcDbEntity
 67
     1
  8
0
100
AcDbBlockEnd
  0
BLOCK
  5
24
330
23
100
AcDbEntity
  8
0
100
AcDbBlockBegin
  2
*Paper_Space0
 70
     0
 10
0.0
 20
0.0
 30
0.0
  3
*Paper_Space0
  1

  0
ENDBLK
  5
25
330
23
100
AcDbEntity
  8
0
100
AcDbBlockEnd
  0
ENDSEC
  0
SECTION
  2
ENTITIES
  0
LINE
  5
6F
330
1F
100
AcDbEntity
  8
0
  6
Continuous
 62
     7
370
     9
100
AcDbLine
 10
-203.763161
 20
464.578425
 30
0.0
 11
-203.263161
 21
464.578425
 31
0.0
  0
LINE
  5
70
330
1F
100
AcDbEntity
  8
0
  6
Continuous
 62
     7
370
     9
100
AcDbLine
 10
-203.763161
 20
619.425487
 30
0.0
 11
-203.763161
 21
621.338904
 31
0.0
  0
LINE
  5
71
330
1F
100
AcDbEntity
  8
0
  6
Continuous
 62
     7
370
     9
100
AcDbLine
 10
-203.763161
 20
472.700299
 30
0.0
 11
-203.763161
 21
469.996849
 31
0.0
  0
MTEXT
  5
72
330
1F
100
AcDbEntity
  8
0
 62
     7
100
AcDbMText
 10
85.87851694385395
 20
377.5681818181818
 30
0.0
 40
15.0
 41
0.0
 46
0.0
 71
     1
 72
     1
  1
{\fＭＳ Ｐゴシック;KFERB-150DK2}
 73
     1
 44
1.0
  0
LINE
  5
73
330
1F
100
AcDbEntity
  8
0
  6
Continuous
 62
     7
370
     9
100
AcDbLine
 10
-203.763161
 20
458.398724
 30
0.0
 11
-203.763161
 21
455.209788
 31
0.0
  0
ELLIPSE
  5
74
330
1F
100
AcDbEntity
  8
0
  6
Continuous
 62
     7
370
     9
100
AcDbEllipse
 10
-203.513161
 20
540.5
 30
0.0
 11
1.639892621377787
 21
83.24984475016883
 31
0.0
210
0.0
220
0.0
230
1.0
 40
0.098041
 41
3.30983889912003
 42
3.369907989899641
  0
ELLIPSE
  5
75
330
1F
100
AcDbEntity
  8
0
  6
Continuous
 62
     7
370
     9
100
AcDbEllipse
 10
-203.513161
 20
540.5
 30
0.0
 11
3.213205351679405
 21
83.24947226878088
 31
0.0
210
0.0
220
0.0
230
1.0
 40
0.092252
 41
3.507817841648729
 42
3.567886932428336
  0
LINE
  5
76
330
1F
100
AcDbEntity
  8
0
  6
Continuous
 62
     7
370
     9
100
AcDbLine
 10
-203.763161
 20
616.421575
 30
0.0
 11
-203.763161
 21
619.425487
 31
0.0
  0
LINE
  5
77
330
1F
100
AcDbEntity
  8
0
  6
Continuous
 62
     7
370
     9
100
AcDbLine
 10
-203.763161
 20
469.922448
 30
0.0
 11
-203.763161
 21
467.218998
 31
0.0
  0
LINE
  5
78
330
1F
100
AcDbEntity
  8
0
  6
Continuous
 62
     7
370
     9
100
AcDbLine
 10
-203.763161
 20
608.299701
 30
0.0
 11
-203.263161
 21
608.299701
 31
0.0
  0
LINE
  5
79
330
1F
100
AcDbEntity
  8
0
  6
Continuous
 62
     7
370
     9
100
AcDbLine
 10
-203.763161
 20
597.572324
 30
0.0
 11
-203.263161
 21
597.572324
 31
0.0
  0
LINE
  5
7A
330
1F
100
AcDbEntity
  8
0
  6
Continuous
 62
     7
370
     9
100
AcDbLine
 10
-203.763161
 20
608.299701
 30
0.0
 11
-203.763161
 21
611.003151
 31
0.0
  0
LINE
  5
7B
330
1F
100
AcDbEntity
  8
0
  6
Continuous
 62
     7
370
     9
100
AcDbLine
 10
-203.763161
 20
621.625824
 30
0.0
 11
-203.263161
 21
621.625824
 31
0.0
  0
LINE
  5
7C
330
1F
100
AcDbEntity
  8
0
  6
Continuous
 62
     7
370
     9
100
AcDbLine
 10
-203.763161
 20
462.665008
 30
0.0
 11
-203.763161
 21
459.661096
 31
0.0
  0
LINE
  5
7D
330
1F
100
AcDbEntity
  8
0
  6
Continuous
 62
     7
370
     9
100
AcDbLine
 10
-203.763161
 20
597.572324
 30
0.0
 11
-203.763161
 21
599.871419
 31
0.0
  0
ELLIPSE
  5
7E
330
1F
100
AcDbEntity
  8
0
  6
Continuous
 62
     7
370
     9
100
AcDbEllipse
 10
-203.513161
 20
540.5
 30
0.0
 11
4.657169664088054
 21
83.24910498649368
 31
0.0
210
0.0
220
0.0
230
1.0
 40
0.082889
 41
3.705243741045927
 42
3.76531283182554
  0
LINE
  5
7F
330
1F
100
AcDbEntity
  8
0
  6
Continuous
 62
     7
370
     9
100
AcDbLine
 10
-203.763161
 20
479.892143
 30
0.0
 11
-203.763161
 21
477.593048
 31
0.0
  0
LINE
  5
80
330
1F
100
AcDbEntity
  8
0
  6
Continuous
 62
     7
370
     9
100
AcDbLine
 10
-203.763161
 20
616.421575
 30
0.0
 11
-203.263161
 21
616.421575
 31
0.0
  0
LINE
  5
81
330
1F
100
AcDbEntity
  8
0
  6
Continuous
 62
     7
370
     9
100
AcDbLine
 10
-203.763161
 20
492.190964
 30
0.0
 11
-203.763161
 21
490.384576
 31
0.0
  0
ELLIPSE
  5
82
330
1F
100
AcDbEntity
  8
0
  6
Continuous
 62
     7
370
     9
100
AcDbEllipse
 10
-203.513161
 20
540.5
 30
0.0
 11
6.943194388075918
 21
83.24911858171724
 31
0.0
210
0.0
220
0.0
230
1.0
 40
0.055174
 41
4.097907469905473
 42
4.157976560685083
  0
ELLIPSE
  5
83
330
1F
100
AcDbEntity
  8
0
  6
Continuous
 62
     7
370
     9
100
AcDbEllipse
 10
-203.513161
 20
540.5
 30
0.0
 11
5.916022591225723
 21
83.24895944653704
 31
0.0
210
0.0
220
0.0
230
1.0
 40
0.070357
 41
3.901956104940874
 42
3.962025195720487
  0
LINE
  5
84
330
1F
100
AcDbEntity
  8
0
  6
Continuous
 62
     7
370
     9
100
AcDbLine
 10
-203.763161
 20
621.625824
 30
0.0
 11
-203.763161
 21
624.814761
 31
0.0
  0
LINE
  5
85
330
1F
100
AcDbEntity
  8
0
  6
Continuous
 62
     7
370
     9
100
AcDbLine
 10
335.284329
 20
463.165008
 30
0.0
 11
336.52859
 21
460.161096
 31
0.0
  0
ARC
  5
86
330
1F
100
AcDbEntity
  8
0
  6
Continuous
 62
     7
370
     9
100
AcDbCircle
 10
305.75
 20
541.0
 30
0.0
 40
83.25
100
AcDbArc
 50
347.029147
 51
350.470853
  0
LINE
  5
87
330
1F
100
AcDbEntity
  8
0
  6
Continuous
 62
     7
370
     9
100
AcDbLine
 10
381.671575
 20
506.8462740000001
 30
0.0
 11
384.675487
 21
505.602012
 31
0.0
  0
LINE
  5
88
330
1F
100
AcDbEntity
  8
0
  6
Continuous
 62
     7
370
     9
100
AcDbLine
 10
248.677676
 20
480.392143
 30
0.0
 11
246.378581
 21
478.093048
 31
0.0
  0
LINE
  5
89
330
1F
100
AcDbEntity
  8
0
  6
Continuous
 62
     7
370
     9
100
AcDbLine
 10
257.440964
 20
473.200299
 30
0.0
 11
255.634576
 21
470.496849
 31
0.0
  0
ARC
  5
8A
330
1F
100
AcDbEntity
  8
0
  6
Continuous
 62
     7
370
     9
100
AcDbCircle
 10
305.75
 20
541.0
 30
0.0
 40
83.25
100
AcDbArc
 50
279.529147
 51
282.970853
  0
ARC
  5
8B
330
1F
100
AcDbEntity
  8
0
  6
Continuous
 62
     7
370
     9
100
AcDbCircle
 10
305.75
 20
541.0
 30
0.0
 40
86.5
100
AcDbArc
 50
313.343822
 51
316.656178
  0
ARC
  5
8C
330
1F
100
AcDbEntity
  8
0
  6
Continuous
 62
     7
370
     9
100
AcDbCircle
 10
305.75
 20
541.0
 30
0.0
 40
86.5
100
AcDbArc
 50
347.093822
 51
350.406178
  0
LINE
  5
8D
330
1F
100
AcDbEntity
  8
0
  6
Continuous
 62
     7
370
     9
100
AcDbLine
 10
261.598312
 20
470.422448
 30
0.0
 11
259.791924
 21
467.718998
 31
0.0
  0
ARC
  5
8E
330
1F
100
AcDbEntity
  8
0
  6
Continuous
 62
     7
370
     9
100
AcDbCircle
 10
305.75
 20
541.0
 30
0.0
 40
83.25
100
AcDbArc
 50
245.7791470000001
 51
249.2208529999999
  0
LINE
  5
8F
330
1F
100
AcDbEntity
  8
0
  6
Continuous
 62
     7
370
     9
100
AcDbLine
 10
223.648724
 20
554.781981
 30
0.0
 11
220.459788
 21
555.4163
 31
0.0
  0
LINE
  5
90
330
1F
100
AcDbEntity
  8
0
  6
Continuous
 62
     7
370
     9
100
AcDbLine
 10
245.142143
 20
483.927676
 30
0.0
 11
242.843048
 21
481.628581
 31
0.0
  0
LINE
  5
91
330
1F
100
AcDbEntity
  8
0
  6
Continuous
 62
     7
370
     9
100
AcDbLine
 10
324.435908
 20
459.874176
 30
0.0
 11
325.070227
 21
456.685239
 31
0.0
  0
ARC
  5
92
330
1F
100
AcDbEntity
  8
0
  6
Continuous
 62
     7
370
     9
100
AcDbCircle
 10
305.75
 20
541.0
 30
0.0
 40
83.25
100
AcDbArc
 50
335.779147
 51
339.220853
  0
ARC
  5
93
330
1F
100
AcDbEntity
  8
0
  6
Continuous
 62
     7
370
     9
100
AcDbCircle
 10
305.75
 20
541.0
 30
0.0
 40
86.5
100
AcDbArc
 50
335.843822
 51
339.1561779999999
  0
ARC
  5
94
330
1F
100
AcDbEntity
  8
0
  6
Continuous
 62
     7
370
     9
100
AcDbCircle
 10
305.75
 20
541.0
 30
0.0
 40
83.25
100
AcDbArc
 50
358.279147
 51
1.720852999999977
  0
LINE
  5
95
330
1F
100
AcDbEntity
  8
0
  6
Continuous
 62
     7
370
     9
100
AcDbLine
 10
319.531981
 20
458.898724
 30
0.0
 11
320.1663
 21
455.709788
 31
0.0
  0
ARC
  5
96
330
1F
100
AcDbEntity
  8
0
  6
Continuous
 62
     7
370
     9
100
AcDbCircle
 10
305.75
 20
541.0
 30
0.0
 40
83.25
100
AcDbArc
 50
234.529147
 51
237.970853
  0
LINE
  5
97
330
1F
100
AcDbEntity
  8
0
  6
Continuous
 62
     7
370
     9
100
AcDbLine
 10
376.327552
 20
496.848312
 30
0.0
 11
379.031002
 21
495.041924
 31
0.0
  0
ARC
  5
98
330
1F
100
AcDbEntity
  8
0
  6
Continuous
 62
     7
370
     9
100
AcDbCircle
 10
305.75
 20
541.0
 30
0.0
 40
86.5
100
AcDbArc
 50
324.593822
 51
327.9061780000001
  0
LINE
  5
99
330
1F
100
AcDbEntity
  8
0
  6
Continuous
 62
     7
370
     9
100
AcDbLine
 10
388.962454
 20
543.5
 30
0.0
 11
392.213865
 21
543.5
 31
0.0
  0
ARC
  5
9A
330
1F
100
AcDbEntity
  8
0
  6
Continuous
 62
     7
370
     9
100
AcDbCircle
 10
305.75
 20
541.0
 30
0.0
 40
86.5
100
AcDbArc
 50
358.343822
 51
1.656178000000011
  0
ARC
  5
9B
330
1F
100
AcDbEntity
  8
0
  6
Continuous
 62
     7
370
     9
100
AcDbCircle
 10
305.75
 20
541.0
 30
0.0
 40
83.25
100
AcDbArc
 50
223.279147
 51
226.7208529999999
  0
ARC
  5
9C
330
1F
100
AcDbEntity
  8
0
  6
Continuous
 62
     7
370
     9
100
AcDbCircle
 10
305.75
 20
541.0
 30
0.0
 40
86.5
100
AcDbArc
 50
245.843822
 51
249.156178
  0
LINE
  5
9D
330
1F
100
AcDbEntity
  8
0
  6
Continuous
 62
     7
370
     9
100
AcDbLine
 10
224.624176
 20
559.685908
 30
0.0
 11
221.435239
 21
560.320227
 31
0.0
  0
LINE
  5
9E
330
1F
100
AcDbEntity
  8
0
  6
Continuous
 62
     7
370
     9
100
AcDbLine
 10
222.537546
 20
543.5
 30
0.0
 11
219.286135
 21
543.5
 31
0.0
  0
LINE
  5
9F
330
1F
100
AcDbEntity
  8
0
  6
Continuous
 62
     7
370
     9
100
AcDbLine
 10
235.172448
 20
496.848312
 30
0.0
 11
232.468998
 21
495.041924
 31
0.0
  0
ARC
  5
A0
330
1F
100
AcDbEntity
  8
0
  6
Continuous
 62
     7
370
     9
100
AcDbCircle
 10
305.75
 20
541.0
 30
0.0
 40
86.5
100
AcDbArc
 50
223.343822
 51
226.656178
  0
LINE
  5
A1
330
1F
100
AcDbEntity
  8
0
  6
Continuous
 62
     7
370
     9
100
AcDbLine
 10
339.903726
 20
465.078425
 30
0.0
 11
341.147988
 21
462.074513
 31
0.0
  0
ARC
  5
A2
330
1F
100
AcDbEntity
  8
0
  6
Continuous
 62
     7
370
     9
100
AcDbCircle
 10
305.75
 20
541.0
 30
0.0
 40
83.25
100
AcDbArc
 50
302.029147
 51
305.470853
  0
ARC
  5
A3
330
1F
100
AcDbEntity
  8
0
  6
Continuous
 62
     7
370
     9
100
AcDbCircle
 10
305.75
 20
541.0
 30
0.0
 40
83.25
100
AcDbArc
 50
167.029147
 51
170.470853
  0
LINE
  5
A4
330
1F
100
AcDbEntity
  8
0
  6
Continuous
 62
     7
370
     9
100
AcDbLine
 10
222.537546
 20
538.5
 30
0.0
 11
219.286135
 21
538.5
 31
0.0
  0
LINE
  5
A5
330
1F
100
AcDbEntity
  8
0
  6
Continuous
 62
     7
370
     9
100
AcDbLine
 10
373.549701
 20
492.690964
 30
0.0
 11
376.253151
 21
490.884576
 31
0.0
  0
LINE
  5
A6
330
1F
100
AcDbEntity
  8
0
  6
Continuous
 62
     7
370
     9
100
AcDbLine
 10
383.584992
 20
511.4656709999999
 30
0.0
 11
386.588904
 21
510.22141
 31
0.0
  0
LINE
  5
A7
330
1F
100
AcDbEntity
  8
0
  6
Continuous
 62
     7
370
     9
100
AcDbLine
 10
387.851276
 20
527.218019
 30
0.0
 11
391.040212
 21
526.5837
 31
0.0
  0
LINE
  5
A8
330
1F
100
AcDbEntity
  8
0
  6
Continuous
 62
     7
370
     9
100
AcDbLine
 10
388.962454
 20
538.5
 30
0.0
 11
392.213865
 21
538.5
 31
0.0
  0
LINE
  5
A9
330
1F
100
AcDbEntity
  8
0
  6
Continuous
 62
     7
370
     9
100
AcDbLine
 10
386.875824
 20
522.314092
 30
0.0
 11
390.064761
 21
521.679773
 31
0.0
  0
ARC
  5
AA
330
1F
100
AcDbEntity
  8
0
  6
Continuous
 62
     7
370
     9
100
AcDbCircle
 10
305.75
 20
541.0
 30
0.0
 40
83.25
100
AcDbArc
 50
178.279147
 51
181.720853
  0
ARC
  5
AB
330
1F
100
AcDbEntity
  8
0
  6
Continuous
 62
     7
370
     9
100
AcDbCircle
 10
305.75
 20
541.0
 30
0.0
 40
83.25
100
AcDbArc
 50
9.529147
 51
12.970853
  0
LINE
  5
AC
330
1F
100
AcDbEntity
  8
0
  6
Continuous
 62
     7
370
     9
100
AcDbLine
 10
237.950299
 20
492.690964
 30
0.0
 11
235.246849
 21
490.884576
 31
0.0
  0
ARC
  5
AD
330
1F
100
AcDbEntity
  8
0
  6
Continuous
 62
     7
370
     9
100
AcDbCircle
 10
305.75
 20
541.0
 30
0.0
 40
86.5
100
AcDbArc
 50
302.093822
 51
305.406178
  0
ARC
  5
AE
330
1F
100
AcDbEntity
  8
0
  6
Continuous
 62
     7
370
     9
100
AcDbCircle
 10
305.75
 20
541.0
 30
0.0
 40
86.5
100
AcDbArc
 50
167.093822
 51
170.406178
  0
LINE
  5
AF
330
1F
100
AcDbEntity
  8
0
  6
Continuous
 62
     7
370
     9
100
AcDbLine
 10
386.875824
 20
559.685908
 30
0.0
 11
390.064761
 21
560.320227
 31
0.0
  0
LINE
  5
B0
330
1F
100
AcDbEntity
  8
0
  6
Continuous
 62
     7
370
     9
100
AcDbLine
 10
387.851276
 20
554.781981
 30
0.0
 11
391.040212
 21
555.4163
 31
0.0
  0
LINE
  5
B1
330
1F
100
AcDbEntity
  8
0
  6
Continuous
 62
     7
370
     9
100
AcDbLine
 10
276.215671
 20
463.165008
 30
0.0
 11
274.97141
 21
460.161096
 31
0.0
  0
ARC
  5
B2
330
1F
100
AcDbEntity
  8
0
  6
Continuous
 62
     7
370
     9
100
AcDbCircle
 10
305.75
 20
541.0
 30
0.0
 40
86.5
100
AcDbArc
 50
178.343822
 51
181.656178
  0
ARC
  5
B3
330
1F
100
AcDbEntity
  8
0
  6
Continuous
 62
     7
370
     9
100
AcDbCircle
 10
305.75
 20
541.0
 30
0.0
 40
83.25
100
AcDbArc
 50
313.279147
 51
316.720853
  0
LINE
  5
B4
330
1F
100
AcDbEntity
  8
0
  6
Continuous
 62
     7
370
     9
100
AcDbLine
 10
366.357857
 20
483.927676
 30
0.0
 11
368.656952
 21
481.628581
 31
0.0
  0
ARC
  5
B5
330
1F
100
AcDbEntity
  8
0
  6
Continuous
 62
     7
370
     9
100
AcDbCircle
 10
305.75
 20
541.0
 30
0.0
 40
86.5
100
AcDbArc
 50
9.593822
 51
12.906178
  0
ARC
  5
B6
330
1F
100
AcDbEntity
  8
0
  6
Continuous
 62
     7
370
     9
100
AcDbCircle
 10
305.75
 20
541.0
 30
0.0
 40
83.25
100
AcDbArc
 50
20.77914699999999
 51
24.220853
  0
ARC
  5
B7
330
1F
100
AcDbEntity
  8
0
  6
Continuous
 62
     7
370
     9
100
AcDbCircle
 10
305.75
 20
541.0
 30
0.0
 40
86.5
100
AcDbArc
 50
234.593822
 51
237.906178
  0
ARC
  5
B8
330
1F
100
AcDbEntity
  8
0
  6
Continuous
 62
     7
370
     9
100
AcDbCircle
 10
305.75
 20
541.0
 30
0.0
 40
86.5
100
AcDbArc
 50
279.593822
 51
282.906178
  0
ARC
  5
B9
330
1F
100
AcDbEntity
  8
0
  6
Continuous
 62
     7
370
     9
100
AcDbCircle
 10
305.75
 20
541.0
 30
0.0
 40
86.5
100
AcDbArc
 50
290.843822
 51
294.156178
  0
LINE
  5
BA
330
1F
100
AcDbEntity
  8
0
  6
Continuous
 62
     7
370
     9
100
AcDbLine
 10
349.901688
 20
470.422448
 30
0.0
 11
351.708076
 21
467.718998
 31
0.0
  0
ARC
  5
BB
330
1F
100
AcDbEntity
  8
0
  6
Continuous
 62
     7
370
     9
100
AcDbCircle
 10
305.75
 20
541.0
 30
0.0
 40
83.25
100
AcDbArc
 50
324.529147
 51
327.970853
  0
ARC
  5
BC
330
1F
100
AcDbEntity
  8
0
  6
Continuous
 62
     7
370
     9
100
AcDbCircle
 10
305.75
 20
541.0
 30
0.0
 40
86.5
100
AcDbArc
 50
212.093822
 51
215.406178
  0
LINE
  5
BD
330
1F
100
AcDbEntity
  8
0
  6
Continuous
 62
     7
370
     9
100
AcDbLine
 10
271.596274
 20
465.078425
 30
0.0
 11
270.352012
 21
462.074513
 31
0.0
  0
LINE
  5
BE
330
1F
100
AcDbEntity
  8
0
  6
Continuous
 62
     7
370
     9
100
AcDbLine
 10
362.822324
 20
480.392143
 30
0.0
 11
365.121419
 21
478.093048
 31
0.0
  0
ARC
  5
BF
330
1F
100
AcDbEntity
  8
0
  6
Continuous
 62
     7
370
     9
100
AcDbCircle
 10
305.75
 20
541.0
 30
0.0
 40
83.25
100
AcDbArc
 50
290.779147
 51
294.220853
  0
LINE
  5
C0
330
1F
100
AcDbEntity
  8
0
  6
Continuous
 62
     7
370
     9
100
AcDbLine
 10
354.059036
 20
473.200299
 30
0.0
 11
355.865424
 21
470.496849
 31
0.0
  0
LINE
  5
C1
330
1F
100
AcDbEntity
  8
0
  6
Continuous
 62
     7
370
     9
100
AcDbLine
 10
287.064092
 20
622.125824
 30
0.0
 11
286.429773
 21
625.314761
 31
0.0
  0
LINE
  5
C2
330
1F
100
AcDbEntity
  8
0
  6
Continuous
 62
     7
370
     9
100
AcDbLine
 10
392.245708
 20
541.861634
 30
0.0
 11
392.405839
 21
543.79593
 31
0.0
  0
ARC
  5
C3
330
1F
100
AcDbEntity
  8
0
  6
Continuous
 62
     7
370
     9
100
AcDbCircle
 10
305.75
 20
541.0
 30
0.0
 40
86.5
100
AcDbArc
 50
189.593822
 51
192.906178
  0
LINE
  5
C4
330
1F
100
AcDbEntity
  8
0
  6
Continuous
 62
     7
370
     9
100
AcDbLine
 10
237.950299
 20
589.309036
 30
0.0
 11
235.246849
 21
591.115424
 31
0.0
  0
LINE
  5
C5
330
1F
100
AcDbEntity
  8
0
  6
Continuous
 62
     7
370
     9
100
AcDbLine
 10
248.677676
 20
601.607857
 30
0.0
 11
246.378581
 21
603.906952
 31
0.0
  0
LINE
  5
C6
330
1F
100
AcDbEntity
  8
0
  6
Continuous
 62
     7
370
     9
100
AcDbLine
 10
223.648724
 20
527.218019
 30
0.0
 11
220.459788
 21
526.5837
 31
0.0
  0
LINE
  5
C7
330
1F
100
AcDbEntity
  8
0
  6
Continuous
 62
     7
370
     9
100
AcDbLine
 10
390.418757
 20
570.003106
 30
0.0
 11
390.058787
 21
571.03325
 31
0.0
  0
ARC
  5
C8
330
1F
100
AcDbEntity
  8
0
  6
Continuous
 62
     7
370
     9
100
AcDbCircle
 10
305.75
 20
541.0
 30
0.0
 40
86.5
100
AcDbArc
 50
110.843822
 51
114.156178
  0
ARC
  5
C9
330
1F
100
AcDbEntity
  8
0
  6
Continuous
 62
     7
370
     9
100
AcDbCircle
 10
305.75
 20
541.0
 30
0.0
 40
83.25
100
AcDbArc
 50
155.779147
 51
159.220853
  0
ARC
  5
CA
330
1F
100
AcDbEntity
  8
0
  6
Continuous
 62
     7
370
     9
100
AcDbCircle
 10
305.75
 20
541.0
 30
0.0
 40
86.5
100
AcDbArc
 50
99.593822
 51
102.906178
  0
ARC
  5
CB
330
1F
100
AcDbEntity
  8
0
  6
Continuous
 62
     7
370
     9
100
AcDbCircle
 10
305.75
 20
541.0
 30
0.0
 40
86.5
100
AcDbArc
 50
155.843822
 51
159.156178
  0
LINE
  5
CC
330
1F
100
AcDbEntity
  8
0
  6
Continuous
 62
     7
370
     9
100
AcDbLine
 10
271.596274
 20
616.921575
 30
0.0
 11
270.352012
 21
619.925487
 31
0.0
  0
ARC
  5
CD
330
1F
100
AcDbEntity
  8
0
  6
Continuous
 62
     7
370
     9
100
AcDbCircle
 10
305.75
 20
541.0
 30
0.0
 40
86.5
100
AcDbArc
 50
88.343822
 51
91.656178
  0
ARC
  5
CE
330
1F
100
AcDbEntity
  8
0
  6
Continuous
 62
     7
370
     9
100
AcDbCircle
 10
305.75
 20
541.0
 30
0.0
 40
83.25
100
AcDbArc
 50
122.029147
 51
125.470853
  0
LINE
  5
CF
330
1F
100
AcDbEntity
  8
0
  6
Continuous
 62
     7
370
     9
100
AcDbLine
 10
229.828425
 20
575.153726
 30
0.0
 11
226.824513
 21
576.397988
 31
0.0
  0
LINE
  5
D0
330
1F
100
AcDbEntity
  8
0
  6
Continuous
 62
     7
370
     9
100
AcDbLine
 10
257.440964
 20
608.799701
 30
0.0
 11
255.634576
 21
611.503151
 31
0.0
  0
ARC
  5
D1
330
1F
100
AcDbEntity
  8
0
  6
Continuous
 62
     7
370
     9
100
AcDbCircle
 10
305.75
 20
541.0
 30
0.0
 40
83.25
100
AcDbArc
 50
99.52914700000001
 51
102.970853
  0
LINE
  5
D2
330
1F
100
AcDbEntity
  8
0
  6
Continuous
 62
     7
370
     9
100
AcDbLine
 10
261.598312
 20
611.577552
 30
0.0
 11
259.791924
 21
614.281002
 31
0.0
  0
ARC
  5
D3
330
1F
100
AcDbEntity
  8
0
  6
Continuous
 62
     7
370
     9
100
AcDbCircle
 10
305.75
 20
541.0
 30
0.0
 40
86.5
100
AcDbArc
 50
133.343822
 51
136.656178
  0
LINE
  5
D4
330
1F
100
AcDbEntity
  8
0
  6
Continuous
 62
     7
370
     9
100
AcDbLine
 10
193.25
 20
428.5
 30
0.0
 11
418.25
 21
428.5
 31
0.0
  0
ARC
  5
D5
330
1F
100
AcDbEntity
  8
0
  6
Continuous
 62
     7
370
     9
100
AcDbCircle
 10
305.75
 20
541.0
 30
0.0
 40
83.25
100
AcDbArc
 50
189.529147
 51
192.9708529999999
  0
ARC
  5
D6
330
1F
100
AcDbEntity
  8
0
  6
Continuous
 62
     7
370
     9
100
AcDbCircle
 10
305.749451
 20
540.999217
 30
0.0
 40
89.499257
100
AcDbArc
 50
155.771796
 51
18.90915000000001
  0
LINE
  5
D7
330
1F
100
AcDbEntity
  8
0
  6
Continuous
 62
     7
370
     9
100
AcDbLine
 10
418.25
 20
653.5
 30
0.0
 11
193.25
 21
653.5
 31
0.0
  0
LINE
  5
D8
330
1F
100
AcDbEntity
  8
0
  6
Continuous
 62
     7
370
     9
100
AcDbLine
 10
308.25
 20
624.212454
 30
0.0
 11
308.25
 21
627.463865
 31
0.0
  0
LINE
  5
D9
330
1F
100
AcDbEntity
  8
0
  6
Continuous
 62
     7
370
     9
100
AcDbLine
 10
193.25
 20
653.5
 30
0.0
 11
193.25
 21
428.5
 31
0.0
  0
ARC
  5
DA
330
1F
100
AcDbEntity
  8
0
  6
Continuous
 62
     7
370
     9
100
AcDbCircle
 10
305.75
 20
541.0
 30
0.0
 40
83.25
100
AcDbArc
 50
144.529147
 51
147.970853
  0
LINE
  5
DB
330
1F
100
AcDbEntity
  8
0
  6
Continuous
 62
     7
370
     9
100
AcDbLine
 10
227.915008
 20
570.534329
 30
0.0
 11
224.911096
 21
571.77859
 31
0.0
  0
LINE
  5
DC
330
1F
100
AcDbEntity
  8
0
  6
Continuous
 62
     7
370
     9
100
AcDbLine
 10
224.624176
 20
522.314092
 30
0.0
 11
221.435239
 21
521.679773
 31
0.0
  0
ARC
  5
DD
330
1F
100
AcDbEntity
  8
0
  6
Continuous
 62
     7
370
     9
100
AcDbCircle
 10
305.75
 20
541.0
 30
0.0
 40
83.25
100
AcDbArc
 50
110.779147
 51
114.220853
  0
LINE
  5
DE
330
1F
100
AcDbEntity
  8
0
  6
Continuous
 62
     7
370
     9
100
AcDbLine
 10
303.25
 20
624.212454
 30
0.0
 11
303.25
 21
627.463865
 31
0.0
  0
ARC
  5
DF
330
1F
100
AcDbEntity
  8
0
  6
Continuous
 62
     7
370
     9
100
AcDbCircle
 10
305.75
 20
541.0
 30
0.0
 40
83.25
100
AcDbArc
 50
88.279147
 51
91.720853
  0
ARC
  5
E0
330
1F
100
AcDbEntity
  8
0
  6
Continuous
 62
     7
370
     9
100
AcDbCircle
 10
305.75
 20
541.0
 30
0.0
 40
83.25
100
AcDbArc
 50
133.279147
 51
136.720853
  0
LINE
  5
E1
330
1F
100
AcDbEntity
  8
0
  6
Continuous
 62
     7
370
     9
100
AcDbLine
 10
227.915008
 20
511.4656709999999
 30
0.0
 11
224.911096
 21
510.22141
 31
0.0
  0
LINE
  5
E2
330
1F
100
AcDbEntity
  8
0
  6
Continuous
 62
     7
370
     9
100
AcDbLine
 10
235.172448
 20
585.151688
 30
0.0
 11
232.468998
 21
586.958076
 31
0.0
  0
ARC
  5
E3
330
1F
100
AcDbEntity
  8
0
  6
Continuous
 62
     7
370
     9
100
AcDbCircle
 10
305.75
 20
541.0
 30
0.0
 40
86.5
100
AcDbArc
 50
144.593822
 51
147.906178
  0
LINE
  5
E4
330
1F
100
AcDbEntity
  8
0
  6
Continuous
 62
     7
370
     9
100
AcDbLine
 10
229.828425
 20
506.8462740000001
 30
0.0
 11
226.824513
 21
505.602012
 31
0.0
  0
ARC
  5
E5
330
1F
100
AcDbEntity
  8
0
  6
Continuous
 62
     7
370
     9
100
AcDbCircle
 10
305.75
 20
541.0
 30
0.0
 40
86.5
100
AcDbArc
 50
200.843822
 51
204.156178
  0
LINE
  5
E6
330
1F
100
AcDbEntity
  8
0
  6
Continuous
 62
     7
370
     9
100
AcDbLine
 10
291.968019
 20
623.101276
 30
0.0
 11
291.3337
 21
626.290212
 31
0.0
  0
LINE
  5
E7
330
1F
100
AcDbEntity
  8
0
  6
Continuous
 62
     7
370
     9
100
AcDbLine
 10
245.142143
 20
598.072324
 30
0.0
 11
242.843048
 21
600.371419
 31
0.0
  0
ARC
  5
E8
330
1F
100
AcDbEntity
  8
0
  6
Continuous
 62
     7
370
     9
100
AcDbCircle
 10
305.75
 20
541.0
 30
0.0
 40
83.25
100
AcDbArc
 50
200.779147
 51
204.220853
  0
ARC
  5
E9
330
1F
100
AcDbEntity
  8
0
  6
Continuous
 62
     7
370
     9
100
AcDbCircle
 10
305.75
 20
541.0
 30
0.0
 40
83.25
100
AcDbArc
 50
212.0291470000001
 51
215.470853
  0
ARC
  5
EA
330
1F
100
AcDbEntity
  8
0
  6
Continuous
 62
     7
370
     9
100
AcDbCircle
 10
305.135959
 20
549.995628
 30
0.0
 40
87.489818
100
AcDbArc
 50
355.936504
 51
13.91356999999999
  0
LINE
  5
EB
330
1F
100
AcDbEntity
  8
0
  6
Continuous
 62
     7
370
     9
100
AcDbLine
 10
276.215671
 20
618.834992
 30
0.0
 11
274.97141
 21
621.838904
 31
0.0
  0
ARC
  5
EC
330
1F
100
AcDbEntity
  8
0
  6
Continuous
 62
     7
370
     9
100
AcDbCircle
 10
305.75
 20
541.0
 30
0.0
 40
86.5
100
AcDbArc
 50
122.093822
 51
125.406178
  0
LINE
  5
ED
330
1F
100
AcDbEntity
  8
0
  6
Continuous
 62
     7
370
     9
100
AcDbLine
 10
-203.763161
 20
624.814761
 30
0.0
 11
-203.763161
 21
626.963865
 31
0.0
  0
LINE
  5
EE
330
1F
100
AcDbEntity
  8
0
  6
Continuous
 62
     7
370
     9
100
AcDbLine
 10
-203.763161
 20
455.209788
 30
0.0
 11
-203.763161
 21
454.036135
 31
0.0
  0
LINE
  5
EF
330
1F
100
AcDbEntity
  8
0
  6
Continuous
 62
     7
370
     9
100
AcDbLine
 10
-203.763161
 20
464.578425
 30
0.0
 11
-203.763161
 21
462.665008
 31
0.0
  0
ELLIPSE
  5
F0
330
1F
100
AcDbEntity
  8
0
  6
Continuous
 62
     7
370
     9
100
AcDbEllipse
 10
-203.513161
 20
540.5
 30
0.0
 11
3.213205351679405
 21
-83.24947226878132
 31
0.0
210
0.0
220
0.0
230
1.0
 40
0.092252
 41
5.856891028341252
 42
5.886925573730843
  0
LINE
  5
F1
330
1F
100
AcDbEntity
  8
0
  6
Continuous
 62
     7
370
     9
100
AcDbLine
 10
-203.763161
 20
459.374176
 30
0.0
 11
-203.763161
 21
458.398724
 31
0.0
  0
LINE
  5
F2
330
1F
100
AcDbEntity
  8
0
  6
Continuous
 62
     7
370
     9
100
AcDbLine
 10
-203.763161
 20
459.374176
 30
0.0
 11
-203.263161
 21
459.374176
 31
0.0
  0
LINE
  5
F3
330
1F
100
AcDbEntity
  8
0
  6
Continuous
 62
     7
370
     9
100
AcDbLine
 10
-203.263161
 20
624.814761
 30
0.0
 11
-203.263161
 21
621.338904
 31
0.0
  0
ELLIPSE
  5
F4
330
1F
100
AcDbEntity
  8
0
  6
Continuous
 62
     7
370
     9
100
AcDbEllipse
 10
-203.513161
 20
540.5
 30
0.0
 11
4.838981092415818
 21
86.49907004602665
 31
0.0
210
0.0
220
0.0
230
1.0
 40
0.082889
 41
0.5647798735762041
 42
0.6225913921154609
  0
LINE
  5
F5
330
1F
100
AcDbEntity
  8
0
  6
Continuous
 62
     7
370
     9
100
AcDbLine
 10
-203.763161
 20
554.281981
 30
0.0
 11
-203.263161
 21
554.281981
 31
0.0
  0
ELLIPSE
  5
F6
330
1F
100
AcDbEntity
  8
0
  6
Continuous
 62
     7
370
     9
100
AcDbEllipse
 10
-203.513161
 20
540.5
 30
0.0
 11
8.486976803926794
 21
86.49984454192827
 31
0.0
210
0.0
220
0.0
230
1.0
 40
0.019323
 41
1.347436918907304
 42
1.405248437446561
  0
LINE
  5
F7
330
1F
100
AcDbEntity
  8
0
  6
Continuous
 62
     7
370
     9
100
AcDbLine
 10
-203.763161
 20
554.281981
 30
0.0
 11
-203.763161
 21
554.9163
 31
0.0
  0
LINE
  5
F8
330
1F
100
AcDbEntity
  8
0
  6
Continuous
 62
     7
370
     9
100
AcDbLine
 10
-203.263161
 20
543.0
 30
0.0
 11
-203.763161
 21
538.0
 31
0.0
  0
ELLIPSE
  5
F9
330
1F
100
AcDbEntity
  8
0
  6
Continuous
 62
     7
370
     9
100
AcDbEllipse
 10
-203.513161
 20
540.5
 30
0.0
 11
7.702434062137331
 21
83.2494869859004
 31
0.0
210
0.0
220
0.0
230
1.0
 40
0.037944
 41
4.293166005046341
 42
4.353235095825953
  0
ELLIPSE
  5
FA
330
1F
100
AcDbEntity
  8
0
  6
Continuous
 62
     7
370
     9
100
AcDbEllipse
 10
-203.513161
 20
540.5
 30
0.0
 11
6.146978428120425
 21
86.49891882433013
 31
0.0
210
0.0
220
0.0
230
1.0
 40
0.070357
 41
0.7614922374711522
 42
0.8193037560104093
  0
LINE
  5
FB
330
1F
100
AcDbEntity
  8
0
  6
Continuous
 62
     7
370
     9
100
AcDbLine
 10
-203.763161
 20
611.003151
 30
0.0
 11
-203.263161
 21
611.003151
 31
0.0
  0
LINE
  5
FC
330
1F
100
AcDbEntity
  8
0
  6
Continuous
 62
     7
370
     9
100
AcDbLine
 10
-203.263161
 20
586.458076
 30
0.0
 11
-203.263161
 21
575.897988
 31
0.0
  0
LINE
  5
FD
330
1F
100
AcDbEntity
  8
0
  6
Continuous
 62
     7
370
     9
100
AcDbLine
 10
-203.263161
 20
599.871419
 30
0.0
 11
-203.263161
 21
590.615424
 31
0.0
  0
LINE
  5
FE
330
1F
100
AcDbEntity
  8
0
  6
Continuous
 62
     7
370
     9
100
AcDbLine
 10
-203.263161
 20
619.425487
 30
0.0
 11
-203.263161
 21
613.781002
 31
0.0
  0
ELLIPSE
  5
FF
330
1F
100
AcDbEntity
  8
0
  6
Continuous
 62
     7
370
     9
100
AcDbEllipse
 10
-203.513161
 20
540.5
 30
0.0
 11
3.338645800844087
 21
86.49945166666085
 31
0.0
210
0.0
220
0.0
230
1.0
 40
0.092252
 41
0.3673539741790031
 42
0.42516549271826
  0
LINE
  5
100
330
1F
100
AcDbEntity
  8
0
  6
Continuous
 62
     7
370
     9
100
AcDbLine
 10
-203.763161
 20
624.814761
 30
0.0
 11
-203.263161
 21
624.814761
 31
0.0
  0
ELLIPSE
  5
101
330
1F
100
AcDbEntity
  8
0
  6
Continuous
 62
     7
370
     9
100
AcDbEllipse
 10
-203.513161
 20
540.5
 30
0.0
 11
1.703912453443563
 21
86.49983868936451
 31
0.0
210
0.0
220
0.0
230
1.0
 40
0.098041
 41
0.1693750316503091
 42
0.2271865501895661
  0
LINE
  5
102
330
1F
100
AcDbEntity
  8
0
  6
Continuous
 62
     7
370
     9
100
AcDbLine
 10
-203.263161
 20
521.179773
 30
0.0
 11
-203.263161
 21
509.72141
 31
0.0
  0
ELLIPSE
  5
103
330
1F
100
AcDbEntity
  8
0
  6
Continuous
 62
     7
370
     9
100
AcDbEllipse
 10
-203.513161
 20
540.5
 30
0.0
 11
8.486976803926794
 21
86.49984454192827
 31
0.0
210
0.0
220
0.0
230
1.0
 40
0.019323
 41
4.489029572497097
 42
4.546841091036352
  0
LINE
  5
104
330
1F
100
AcDbEntity
  8
0
  6
Continuous
 62
     7
370
     9
100
AcDbLine
 10
-203.263161
 20
554.9163
 30
0.0
 11
-203.263161
 21
543.0
 31
0.0
  0
ELLIPSE
  5
105
330
1F
100
AcDbEntity
  8
0
  6
Continuous
 62
     7
370
     9
100
AcDbEllipse
 10
-203.513161
 20
540.5
 30
0.0
 11
8.003129686184746
 21
86.499466958323
 31
0.0
210
0.0
220
0.0
230
1.0
 40
0.037944
 41
4.29429479116641
 42
4.35210630970567
  0
ELLIPSE
  5
106
330
1F
100
AcDbEntity
  8
0
  6
Continuous
 62
     7
370
     9
100
AcDbEllipse
 10
-203.513161
 20
540.5
 30
0.0
 11
7.214250024847656
 21
86.49908417199414
 31
0.0
210
0.0
220
0.0
230
1.0
 40
0.055174
 41
0.9574436024357521
 42
1.015255120975009
  0
LINE
  5
107
330
1F
100
AcDbEntity
  8
0
  6
Continuous
 62
     7
370
     9
100
AcDbLine
 10
-203.763161
 20
599.871419
 30
0.0
 11
-203.263161
 21
599.871419
 31
0.0
  0
LINE
  5
108
330
1F
100
AcDbEntity
  8
0
  6
Continuous
 62
     7
370
     9
100
AcDbLine
 10
-203.763161
 20
505.1020120000001
 30
0.0
 11
-203.263161
 21
505.1020120000001
 31
0.0
  0
LINE
  5
109
330
1F
100
AcDbEntity
  8
0
  6
Continuous
 62
     7
370
     9
100
AcDbLine
 10
-203.263161
 20
571.27859
 30
0.0
 11
-203.263161
 21
559.820227
 31
0.0
  0
LINE
  5
10A
330
1F
100
AcDbEntity
  8
0
  6
Continuous
 62
     7
370
     9
100
AcDbLine
 10
-203.263161
 20
626.963865
 30
0.0
 11
-203.263161
 21
625.790212
 31
0.0
  0
ELLIPSE
  5
10B
330
1F
100
AcDbEntity
  8
0
  6
Continuous
 62
     7
370
     9
100
AcDbEllipse
 10
-203.513161
 20
540.5
 30
0.0
 11
8.168101952912206
 21
83.24985038283872
 31
0.0
210
0.0
220
0.0
230
1.0
 40
0.019323
 41
4.487900786377024
 42
4.547969877156639
  0
LINE
  5
10C
330
1F
100
AcDbEntity
  8
0
  6
Continuous
 62
     7
370
     9
100
AcDbLine
 10
-203.763161
 20
586.458076
 30
0.0
 11
-203.263161
 21
586.458076
 31
0.0
  0
LINE
  5
10D
330
1F
100
AcDbEntity
  8
0
  6
Continuous
 62
     7
370
     9
100
AcDbLine
 10
-203.263161
 20
538.0
 30
0.0
 11
-203.263161
 21
526.0837
 31
0.0
  0
LINE
  5
10E
330
1F
100
AcDbEntity
  8
0
  6
Continuous
 62
     7
370
     9
100
AcDbLine
 10
-203.763161
 20
506.346274
 30
0.0
 11
-203.763161
 21
505.1020120000001
 31
0.0
  0
LINE
  5
10F
330
1F
100
AcDbEntity
  8
0
  6
Continuous
 62
     7
370
     9
100
AcDbLine
 10
-203.763161
 20
521.179773
 30
0.0
 11
-203.263161
 21
521.179773
 31
0.0
  0
LINE
  5
110
330
1F
100
AcDbEntity
  8
0
  6
Continuous
 62
     7
370
     9
100
AcDbLine
 10
-203.763161
 20
570.034329
 30
0.0
 11
-203.263161
 21
570.034329
 31
0.0
  0
LINE
  5
111
330
1F
100
AcDbEntity
  8
0
  6
Continuous
 62
     7
370
     9
100
AcDbLine
 10
-203.763161
 20
571.27859
 30
0.0
 11
-203.263161
 21
571.27859
 31
0.0
  0
LINE
  5
112
330
1F
100
AcDbEntity
  8
0
  6
Continuous
 62
     7
370
     9
100
AcDbLine
 10
-203.763161
 20
570.034329
 30
0.0
 11
-203.763161
 21
571.27859
 31
0.0
  0
LINE
  5
113
330
1F
100
AcDbEntity
  8
0
  6
Continuous
 62
     7
370
     9
100
AcDbLine
 10
-203.763161
 20
584.651688
 30
0.0
 11
-203.263161
 21
584.651688
 31
0.0
  0
LINE
  5
114
330
1F
100
AcDbEntity
  8
0
  6
Continuous
 62
     7
370
     9
100
AcDbLine
 10
-203.763161
 20
584.651688
 30
0.0
 11
-203.763161
 21
586.458076
 31
0.0
  0
LINE
  5
115
330
1F
100
AcDbEntity
  8
0
  6
Continuous
 62
     7
370
     9
100
AcDbLine
 10
-203.763161
 20
619.425487
 30
0.0
 11
-203.263161
 21
619.425487
 31
0.0
  0
LINE
  5
116
330
1F
100
AcDbEntity
  8
0
  6
Continuous
 62
     7
370
     9
100
AcDbLine
 10
-203.763161
 20
538.0
 30
0.0
 11
-203.263161
 21
538.0
 31
0.0
  0
LINE
  5
117
330
1F
100
AcDbEntity
  8
0
  6
Continuous
 62
     7
370
     9
100
AcDbLine
 10
-203.763161
 20
554.9163
 30
0.0
 11
-203.263161
 21
554.9163
 31
0.0
  0
ELLIPSE
  5
118
330
1F
100
AcDbEntity
  8
0
  6
Continuous
 62
     7
370
     9
100
AcDbEllipse
 10
-203.513161
 20
540.5
 30
0.0
 11
8.003129686184746
 21
86.499466958323
 31
0.0
210
0.0
220
0.0
230
1.0
 40
0.037944
 41
1.152702137576618
 42
1.210513656115875
  0
LINE
  5
119
330
1F
100
AcDbEntity
  8
0
  6
Continuous
 62
     7
370
     9
100
AcDbLine
 10
-203.263161
 20
611.003151
 30
0.0
 11
-203.263161
 21
603.406952
 31
0.0
  0
LINE
  5
11A
330
1F
100
AcDbEntity
  8
0
  6
Continuous
 62
     7
370
     9
100
AcDbLine
 10
-203.763161
 20
521.814092
 30
0.0
 11
-203.763161
 21
521.179773
 31
0.0
  0
LINE
  5
11B
330
1F
100
AcDbEntity
  8
0
  6
Continuous
 62
     7
370
     9
100
AcDbLine
 10
-149.418966
 20
629.99999
 30
0.0
 11
-153.218966
 21
629.999999
 31
0.0
  0
LINE
  5
11C
330
1F
100
AcDbEntity
  8
0
  6
Continuous
 62
     7
370
     9
100
AcDbLine
 10
-178.218922
 20
451.000271
 30
0.0
 11
-174.418922
 21
451.00028
 31
0.0
  0
LINE
  5
11D
330
1F
100
AcDbEntity
  8
0
  6
Continuous
 62
     7
370
     9
100
AcDbLine
 10
-198.218691
 20
451.000736
 30
0.0
 11
-194.418691
 21
451.000744
 31
0.0
  0
LINE
  5
11E
330
1F
100
AcDbEntity
  8
0
  6
Continuous
 62
     7
370
     9
100
AcDbLine
 10
-153.378867
 20
629.544779
 30
0.0
 11
-153.829935
 21
626.999969
 31
0.0
  0
ELLIPSE
  5
11F
330
1F
100
AcDbEntity
  8
0
  6
Continuous
 62
     7
370
     9
100
AcDbEllipse
 10
-203.513161
 20
540.5
 30
0.0
 11
4.657169664088054
 21
-83.24910498649368
 31
0.0
210
0.0
220
0.0
230
1.0
 40
0.082889
 41
5.659465128944053
 42
5.689499674333712
  0
LINE
  5
120
330
1F
100
AcDbEntity
  8
0
  6
Continuous
 62
     7
370
     9
100
AcDbLine
 10
-203.763161
 20
574.653726
 30
0.0
 11
-203.763161
 21
575.897988
 31
0.0
  0
LINE
  5
121
330
1F
100
AcDbEntity
  8
0
  6
Continuous
 62
     7
370
     9
100
AcDbLine
 10
-193.377709
 20
629.552206
 30
0.0
 11
-193.830087
 21
626.99997
 31
0.0
  0
LINE
  5
122
330
1F
100
AcDbEntity
  8
0
  6
Continuous
 62
     7
370
     9
100
AcDbLine
 10
-203.763161
 20
526.718019
 30
0.0
 11
-203.263161
 21
526.718019
 31
0.0
  0
LINE
  5
123
330
1F
100
AcDbEntity
  8
0
  6
Continuous
 62
     7
370
     9
100
AcDbLine
 10
-139.418075
 20
629.999921
 30
0.0
 11
-143.218075
 21
629.99993
 31
0.0
  0
LINE
  5
124
330
1F
100
AcDbEntity
  8
0
  6
Continuous
 62
     7
370
     9
100
AcDbLine
 10
-158.218767
 20
451.000004
 30
0.0
 11
-154.418767
 21
451.000013
 31
0.0
  0
LINE
  5
125
330
1F
100
AcDbEntity
  8
0
  6
Continuous
 62
     7
370
     9
100
AcDbLine
 10
-173.378646
 20
629.546439
 30
0.0
 11
-173.830004
 21
626.999969
 31
0.0
  0
LINE
  5
126
330
1F
100
AcDbEntity
  8
0
  6
Continuous
 62
     7
370
     9
100
AcDbLine
 10
-143.378196
 20
629.548422
 30
0.0
 11
-143.829913
 21
626.99997
 31
0.0
  0
LINE
  5
127
330
1F
100
AcDbEntity
  8
0
  6
Continuous
 62
     7
370
     9
100
AcDbLine
 10
-203.763161
 20
472.700299
 30
0.0
 11
-203.263161
 21
472.700299
 31
0.0
  0
LINE
  5
128
330
1F
100
AcDbEntity
  8
0
  6
Continuous
 62
     7
370
     9
100
AcDbLine
 10
-203.763161
 20
611.077552
 30
0.0
 11
-203.750311
 21
611.077552
 31
0.0
  0
LINE
  5
129
330
1F
100
AcDbEntity
  8
0
  6
Continuous
 62
     7
370
     9
100
AcDbLine
 10
-183.378076
 20
629.549901
 30
0.0
 11
-183.830046
 21
626.99997
 31
0.0
  0
LINE
  5
12A
330
1F
100
AcDbEntity
  8
0
  6
Continuous
 62
     7
370
     9
100
AcDbLine
 10
-133.378119
 20
629.548767
 30
0.0
 11
-133.829899
 21
626.99997
 31
0.0
  0
LINE
  5
12B
330
1F
100
AcDbEntity
  8
0
  6
Continuous
 62
     7
370
     9
100
AcDbLine
 10
-138.218261
 20
451.000139
 30
0.0
 11
-134.418261
 21
451.000148
 31
0.0
  0
LINE
  5
12C
330
1F
100
AcDbEntity
  8
0
  6
Continuous
 62
     7
370
     9
100
AcDbLine
 10
-113.763161
 20
627.376468
 30
0.0
 11
-113.829906
 21
626.999969
 31
0.0
  0
LINE
  5
12D
330
1F
100
AcDbEntity
  8
0
  6
Continuous
 62
     7
370
     9
100
AcDbLine
 10
-203.763161
 20
483.427676
 30
0.0
 11
-203.763161
 21
481.128581
 31
0.0
  0
LINE
  5
12E
330
1F
100
AcDbEntity
  8
0
  6
Continuous
 62
     7
370
     9
100
AcDbLine
 10
-118.916149
 20
454.486527
 30
0.0
 11
-118.378276
 21
451.452132
 31
0.0
  0
LINE
  5
12F
330
1F
100
AcDbEntity
  8
0
  6
Continuous
 62
     7
370
     9
100
AcDbLine
 10
-203.763161
 20
601.107857
 30
0.0
 11
-203.591561
 21
601.107857
 31
0.0
  0
ELLIPSE
  5
130
330
1F
100
AcDbEntity
  8
0
  6
Continuous
 62
     7
370
     9
100
AcDbEllipse
 10
-203.513161
 20
540.5
 30
0.0
 11
5.916022591225723
 21
-83.24895944653748
 31
0.0
210
0.0
220
0.0
230
1.0
 40
0.070357
 41
2.370718997956708
 42
2.38122920223871
  0
LINE
  5
131
330
1F
100
AcDbEntity
  8
0
  6
Continuous
 62
     7
370
     9
100
AcDbLine
 10
-203.763161
 20
483.427676
 30
0.0
 11
-203.263161
 21
483.427676
 31
0.0
  0
LINE
  5
132
330
1F
100
AcDbEntity
  8
0
  6
Continuous
 62
     7
370
     9
100
AcDbLine
 10
-179.418701
 20
629.999614
 30
0.0
 11
-183.218701
 21
629.999623
 31
0.0
  0
LINE
  5
133
330
1F
100
AcDbEntity
  8
0
  6
Continuous
 62
     7
370
     9
100
AcDbLine
 10
-123.378405
 20
629.547133
 30
0.0
 11
-123.829897
 21
626.999969
 31
0.0
  0
LINE
  5
134
330
1F
100
AcDbEntity
  8
0
  6
Continuous
 62
     7
370
     9
100
AcDbLine
 10
-128.916734
 20
454.489851
 30
0.0
 11
-128.378828
 21
451.455255
 31
0.0
  0
LINE
  5
135
330
1F
100
AcDbEntity
  8
0
  6
Continuous
 62
     7
370
     9
100
AcDbLine
 10
-118.218144
 20
451.000559
 30
0.0
 11
-114.418144
 21
451.000567
 31
0.0
  0
LINE
  5
136
330
1F
100
AcDbEntity
  8
0
  6
Continuous
 62
     7
370
     9
100
AcDbLine
 10
-158.915992
 20
454.48537
 30
0.0
 11
-158.378017
 21
451.450333
 31
0.0
  0
LINE
  5
137
330
1F
100
AcDbEntity
  8
0
  6
Continuous
 62
     7
370
     9
100
AcDbLine
 10
-168.91586
 20
454.484433
 30
0.0
 11
-168.377924
 21
451.449597
 31
0.0
  0
LINE
  5
138
330
1F
100
AcDbEntity
  8
0
  6
Continuous
 62
     7
370
     9
100
AcDbLine
 10
-178.916271
 20
454.486522
 30
0.0
 11
-178.378401
 21
451.452054
 31
0.0
  0
LINE
  5
139
330
1F
100
AcDbEntity
  8
0
  6
Continuous
 62
     7
370
     9
100
AcDbLine
 10
-203.763161
 20
543.0
 30
0.0
 11
-203.263161
 21
543.0
 31
0.0
  0
LINE
  5
13A
330
1F
100
AcDbEntity
  8
0
  6
Continuous
 62
     7
370
     9
100
AcDbLine
 10
-168.218073
 20
451.000104
 30
0.0
 11
-164.418073
 21
451.000113
 31
0.0
  0
LINE
  5
13B
330
1F
100
AcDbEntity
  8
0
  6
Continuous
 62
     7
370
     9
100
AcDbLine
 10
-138.916726
 20
454.489764
 30
0.0
 11
-138.378767
 21
451.454849
 31
0.0
  0
LINE
  5
13C
330
1F
100
AcDbEntity
  8
0
  6
Continuous
 62
     7
370
     9
100
AcDbLine
 10
-203.763161
 20
601.107857
 30
0.0
 11
-203.763161
 21
603.406952
 31
0.0
  0
LINE
  5
13D
330
1F
100
AcDbEntity
  8
0
  6
Continuous
 62
     7
370
     9
100
AcDbLine
 10
-203.763161
 20
543.0
 30
0.0
 11
-203.513161
 21
540.5
 31
0.0
  0
LINE
  5
13E
330
1F
100
AcDbEntity
  8
0
  6
Continuous
 62
     7
370
     9
100
AcDbLine
 10
-203.763161
 20
496.348312
 30
0.0
 11
-203.763161
 21
494.541924
 31
0.0
  0
LINE
  5
13F
330
1F
100
AcDbEntity
  8
0
  6
Continuous
 62
     7
370
     9
100
AcDbLine
 10
-119.418378
 20
629.999551
 30
0.0
 11
-123.218378
 21
629.999559
 31
0.0
  0
LINE
  5
140
330
1F
100
AcDbEntity
  8
0
  6
Continuous
 62
     7
370
     9
100
AcDbLine
 10
-128.218931
 20
451.000337
 30
0.0
 11
-124.418931
 21
451.000345
 31
0.0
  0
LINE
  5
141
330
1F
100
AcDbEntity
  8
0
  6
Continuous
 62
     7
370
     9
100
AcDbLine
 10
-188.218218
 20
451.000498
 30
0.0
 11
-184.418218
 21
451.000507
 31
0.0
  0
LINE
  5
142
330
1F
100
AcDbEntity
  8
0
  6
Continuous
 62
     7
370
     9
100
AcDbLine
 10
-203.763161
 20
496.348312
 30
0.0
 11
-203.263161
 21
496.348312
 31
0.0
  0
LINE
  5
143
330
1F
100
AcDbEntity
  8
0
  6
Continuous
 62
     7
370
     9
100
AcDbLine
 10
-148.91638
 20
454.487709
 30
0.0
 11
-148.378397
 21
451.452646
 31
0.0
  0
ELLIPSE
  5
144
330
1F
100
AcDbEntity
  8
0
  6
Continuous
 62
     7
370
     9
100
AcDbEllipse
 10
-203.513161
 20
540.5
 30
0.0
 11
5.916022591225723
 21
-83.24895944653748
 31
0.0
210
0.0
220
0.0
230
1.0
 40
0.070357
 41
5.462752765049105
 42
5.492787310438871
  0
LINE
  5
145
330
1F
100
AcDbEntity
  8
0
  6
Continuous
 62
     7
370
     9
100
AcDbLine
 10
-203.763161
 20
510.965671
 30
0.0
 11
-203.263161
 21
510.965671
 31
0.0
  0
LINE
  5
146
330
1F
100
AcDbEntity
  8
0
  6
Continuous
 62
     7
370
     9
100
AcDbLine
 10
-203.763161
 20
559.185908
 30
0.0
 11
-203.763161
 21
559.820227
 31
0.0
  0
LINE
  5
147
330
1F
100
AcDbEntity
  8
0
  6
Continuous
 62
     7
370
     9
100
AcDbLine
 10
-169.418634
 20
629.999815
 30
0.0
 11
-173.218634
 21
629.999824
 31
0.0
  0
LINE
  5
148
330
1F
100
AcDbEntity
  8
0
  6
Continuous
 62
     7
370
     9
100
AcDbLine
 10
-163.379061
 20
629.543865
 30
0.0
 11
-163.829965
 21
626.999969
 31
0.0
  0
LINE
  5
149
330
1F
100
AcDbEntity
  8
0
  6
Continuous
 62
     7
370
     9
100
AcDbLine
 10
-203.763161
 20
611.077552
 30
0.0
 11
-203.763161
 21
613.781002
 31
0.0
  0
LINE
  5
14A
330
1F
100
AcDbEntity
  8
0
  6
Continuous
 62
     7
370
     9
100
AcDbLine
 10
-203.763161
 20
588.809036
 30
0.0
 11
-203.482793
 21
588.809036
 31
0.0
  0
LINE
  5
14B
330
1F
100
AcDbEntity
  8
0
  6
Continuous
 62
     7
370
     9
100
AcDbLine
 10
-203.763161
 20
526.718019
 30
0.0
 11
-203.763161
 21
526.0837
 31
0.0
  0
LINE
  5
14C
330
1F
100
AcDbEntity
  8
0
  6
Continuous
 62
     7
370
     9
100
AcDbLine
 10
-203.763161
 20
510.965671
 30
0.0
 11
-203.763161
 21
509.72141
 31
0.0
  0
ELLIPSE
  5
14D
330
1F
100
AcDbEntity
  8
0
  6
Continuous
 62
     7
370
     9
100
AcDbEllipse
 10
-203.513161
 20
540.5
 30
0.0
 11
6.943194388075918
 21
-83.24911858171768
 31
0.0
210
0.0
220
0.0
230
1.0
 40
0.055174
 41
2.168287255683067
 42
2.185277837274112
  0
LINE
  5
14E
330
1F
100
AcDbEntity
  8
0
  6
Continuous
 62
     7
370
     9
100
AcDbLine
 10
-199.418823
 20
629.999134
 30
0.0
 11
-201.263161
 21
629.999138
 31
0.0
  0
LINE
  5
14F
330
1F
100
AcDbEntity
  8
0
  6
Continuous
 62
     7
370
     9
100
AcDbLine
 10
-189.418165
 20
629.999371
 30
0.0
 11
-193.218165
 21
629.99938
 31
0.0
  0
ELLIPSE
  5
150
330
1F
100
AcDbEntity
  8
0
  6
Continuous
 62
     7
370
     9
100
AcDbEllipse
 10
-203.513161
 20
540.5
 30
0.0
 11
7.702434062137331
 21
-83.2494869859004
 31
0.0
210
0.0
220
0.0
230
1.0
 40
0.037944
 41
5.07154286494364
 42
5.101577410333256
  0
ELLIPSE
  5
151
330
1F
100
AcDbEntity
  8
0
  6
Continuous
 62
     7
370
     9
100
AcDbEllipse
 10
-203.513161
 20
540.5
 30
0.0
 11
7.702434062137331
 21
-83.24948698590084
 31
0.0
210
0.0
220
0.0
230
1.0
 40
0.037944
 41
1.968070348930837
 42
1.990019302133244
  0
ELLIPSE
  5
152
330
1F
100
AcDbEntity
  8
0
  6
Continuous
 62
     7
370
     9
100
AcDbEllipse
 10
-203.513161
 20
540.5
 30
0.0
 11
8.168101952912206
 21
-83.24985038283872
 31
0.0
210
0.0
220
0.0
230
1.0
 40
0.019323
 41
4.876808083612954
 42
4.906842629002517
  0
LINE
  5
153
330
1F
100
AcDbEntity
  8
0
  6
Continuous
 62
     7
370
     9
100
AcDbLine
 10
-203.763161
 20
559.185908
 30
0.0
 11
-203.328161
 21
559.185908
 31
0.0
  0
LINE
  5
154
330
1F
100
AcDbEntity
  8
0
  6
Continuous
 62
     7
370
     9
100
AcDbLine
 10
-148.218489
 20
451.00002
 30
0.0
 11
-144.418489
 21
451.000029
 31
0.0
  0
LINE
  5
155
330
1F
100
AcDbEntity
  8
0
  6
Continuous
 62
     7
370
     9
100
AcDbLine
 10
-203.763161
 20
574.653726
 30
0.0
 11
-203.399024
 21
574.653726
 31
0.0
  0
ELLIPSE
  5
156
330
1F
100
AcDbEntity
  8
0
  6
Continuous
 62
     7
370
     9
100
AcDbEllipse
 10
-203.513161
 20
540.5
 30
0.0
 11
6.943194388075947
 21
-83.24911858171768
 31
0.0
210
0.0
220
0.0
230
1.0
 40
0.055174
 41
5.266801400084505
 42
5.296835945474303
  0
ELLIPSE
  5
157
330
1F
100
AcDbEntity
  8
0
  6
Continuous
 62
     7
370
     9
100
AcDbEllipse
 10
-203.513161
 20
540.5
 30
0.0
 11
8.168101952912206
 21
-83.24985038283872
 31
0.0
210
0.0
220
0.0
230
1.0
 40
0.019323
 41
1.769132687173153
 42
1.795284520802559
  0
LINE
  5
158
330
1F
100
AcDbEntity
  8
0
  6
Continuous
 62
     7
370
     9
100
AcDbLine
 10
-129.418788
 20
629.99976
 30
0.0
 11
-133.218788
 21
629.999769
 31
0.0
  0
LINE
  5
159
330
1F
100
AcDbEntity
  8
0
  6
Continuous
 62
     7
370
     9
100
AcDbLine
 10
-203.763161
 20
588.809036
 30
0.0
 11
-203.763161
 21
590.615424
 31
0.0
  0
LINE
  5
15A
330
1F
100
AcDbEntity
  8
0
  6
Continuous
 62
     7
370
     9
100
AcDbLine
 10
-159.418212
 20
629.99995
 30
0.0
 11
-163.218212
 21
629.999958
 31
0.0
  0
LINE
  5
15B
330
1F
100
AcDbEntity
  8
0
  6
Continuous
 62
     7
370
     9
100
AcDbLine
 10
-198.917216
 20
454.491417
 30
0.0
 11
-198.37926
 21
451.456448
 31
0.0
  0
LINE
  5
15C
330
1F
100
AcDbEntity
  8
0
  6
Continuous
 62
     7
370
     9
100
AcDbLine
 10
-134.257949
 20
451.456041
 30
0.0
 11
-133.807043
 21
454.000031
 31
0.0
  0
LINE
  5
15D
330
1F
100
AcDbEntity
  8
0
  6
Continuous
 62
     7
370
     9
100
AcDbLine
 10
-118.720618
 20
626.512811
 30
0.0
 11
-119.258454
 21
629.547181
 31
0.0
  0
LINE
  5
15E
330
1F
100
AcDbEntity
  8
0
  6
Continuous
 62
     7
370
     9
100
AcDbLine
 10
-114.25905
 20
451.449339
 30
0.0
 11
-113.806958
 21
454.00003
 31
0.0
  0
LINE
  5
15F
330
1F
100
AcDbEntity
  8
0
  6
Continuous
 62
     7
370
     9
100
AcDbLine
 10
-163.747484
 20
627.0
 30
0.0
 11
-168.807135
 21
627.0
 31
0.0
  0
LINE
  5
160
330
1F
100
AcDbEntity
  8
0
  6
Continuous
 62
     7
370
     9
100
AcDbLine
 10
-128.721185
 20
626.515778
 30
0.0
 11
-129.259095
 21
629.550553
 31
0.0
  0
LINE
  5
161
330
1F
100
AcDbEntity
  8
0
  6
Continuous
 62
     7
370
     9
100
AcDbLine
 10
-138.721141
 20
626.515312
 30
0.0
 11
-139.259095
 21
629.550326
 31
0.0
  0
LINE
  5
162
330
1F
100
AcDbEntity
  8
0
  6
Continuous
 62
     7
370
     9
100
AcDbLine
 10
-123.747423
 20
627.0
 30
0.0
 11
-128.80702
 21
627.0
 31
0.0
  0
LINE
  5
163
330
1F
100
AcDbEntity
  8
0
  6
Continuous
 62
     7
370
     9
100
AcDbLine
 10
-194.25815
 20
451.455461
 30
0.0
 11
-193.807127
 21
454.000031
 31
0.0
  0
LINE
  5
164
330
1F
100
AcDbEntity
  8
0
  6
Continuous
 62
     7
370
     9
100
AcDbLine
 10
-113.889638
 20
454.0
 30
0.0
 11
-113.763161
 21
454.0
 31
0.0
  0
LINE
  5
165
330
1F
100
AcDbEntity
  8
0
  6
Continuous
 62
     7
370
     9
100
AcDbLine
 10
-173.747455
 20
627.0
 30
0.0
 11
-178.807139
 21
627.0
 31
0.0
  0
LINE
  5
166
330
1F
100
AcDbEntity
  8
0
  6
Continuous
 62
     7
370
     9
100
AcDbLine
 10
-173.889593
 20
454.0
 30
0.0
 11
-168.829985
 21
454.0
 31
0.0
  0
LINE
  5
167
330
1F
100
AcDbEntity
  8
0
  6
Continuous
 62
     7
370
     9
100
AcDbLine
 10
-198.720791
 20
626.513024
 30
0.0
 11
-199.258747
 21
629.547954
 31
0.0
  0
LINE
  5
168
330
1F
100
AcDbEntity
  8
0
  6
Continuous
 62
     7
370
     9
100
AcDbLine
 10
-163.889564
 20
454.0
 30
0.0
 11
-158.82995
 21
454.0
 31
0.0
  0
LINE
  5
169
330
1F
100
AcDbEntity
  8
0
  6
Continuous
 62
     7
370
     9
100
AcDbLine
 10
-188.917153
 20
454.491283
 30
0.0
 11
-188.379262
 21
451.45669
 31
0.0
  0
LINE
  5
16A
330
1F
100
AcDbEntity
  8
0
  6
Continuous
 62
     7
370
     9
100
AcDbLine
 10
-168.720225
 20
626.509726
 30
0.0
 11
-169.258129
 21
629.544406
 31
0.0
  0
LINE
  5
16B
330
1F
100
AcDbEntity
  8
0
  6
Continuous
 62
     7
370
     9
100
AcDbLine
 10
-148.720768
 20
626.513022
 30
0.0
 11
-149.258737
 21
629.5481
 31
0.0
  0
LINE
  5
16C
330
1F
100
AcDbEntity
  8
0
  6
Continuous
 62
     7
370
     9
100
AcDbLine
 10
-124.258458
 20
451.45292
 30
0.0
 11
-123.807
 21
454.000031
 31
0.0
  0
LINE
  5
16D
330
1F
100
AcDbEntity
  8
0
  6
Continuous
 62
     7
370
     9
100
AcDbLine
 10
-144.257988
 20
451.456037
 30
0.0
 11
-143.807079
 21
454.000031
 31
0.0
  0
LINE
  5
16E
330
1F
100
AcDbEntity
  8
0
  6
Continuous
 62
     7
370
     9
100
AcDbLine
 10
-183.747426
 20
627.0
 30
0.0
 11
-188.807134
 21
627.0
 31
0.0
  0
LINE
  5
16F
330
1F
100
AcDbEntity
  8
0
  6
Continuous
 62
     7
370
     9
100
AcDbLine
 10
-153.747485
 20
627.0
 30
0.0
 11
-158.807119
 21
627.0
 31
0.0
  0
LINE
  5
170
330
1F
100
AcDbEntity
  8
0
  6
Continuous
 62
     7
370
     9
100
AcDbLine
 10
-123.889605
 20
454.0
 30
0.0
 11
-118.8299
 21
454.0
 31
0.0
  0
LINE
  5
171
330
1F
100
AcDbEntity
  8
0
  6
Continuous
 62
     7
370
     9
100
AcDbLine
 10
-133.88957
 20
454.0
 30
0.0
 11
-128.829897
 21
454.0
 31
0.0
  0
LINE
  5
172
330
1F
100
AcDbEntity
  8
0
  6
Continuous
 62
     7
370
     9
100
AcDbLine
 10
-143.88956
 20
454.0
 30
0.0
 11
-138.829904
 21
454.0
 31
0.0
  0
LINE
  5
173
330
1F
100
AcDbEntity
  8
0
  6
Continuous
 62
     7
370
     9
100
AcDbLine
 10
-193.889662
 20
454.0
 30
0.0
 11
-188.830064
 21
454.0
 31
0.0
  0
LINE
  5
174
330
1F
100
AcDbEntity
  8
0
  6
Continuous
 62
     7
370
     9
100
AcDbLine
 10
-143.747467
 20
627.0
 30
0.0
 11
-148.807093
 21
627.0
 31
0.0
  0
LINE
  5
175
330
1F
100
AcDbEntity
  8
0
  6
Continuous
 62
     7
370
     9
100
AcDbLine
 10
-203.513161
 20
454.0
 30
0.0
 11
-198.830104
 21
454.0
 31
0.0
  0
LINE
  5
176
330
1F
100
AcDbEntity
  8
0
  6
Continuous
 62
     7
370
     9
100
AcDbLine
 10
643.5
 20
653.5
 30
0.0
 11
418.5
 21
653.5
 31
0.0
  0
LINE
  5
177
330
1F
100
AcDbEntity
  8
0
  6
Continuous
 62
     7
370
     9
100
AcDbLine
 10
617.495708
 20
541.861634
 30
0.0
 11
617.655839
 21
543.79593
 31
0.0
  0
LINE
  5
178
330
1F
100
AcDbEntity
  8
0
  6
Continuous
 62
     7
370
     9
100
AcDbLine
 10
-193.747394
 20
627.0
 30
0.0
 11
-198.807118
 21
627.0
 31
0.0
  0
LINE
  5
179
330
1F
100
AcDbEntity
  8
0
  6
Continuous
 62
     7
370
     9
100
AcDbLine
 10
-178.720717
 20
626.512478
 30
0.0
 11
-179.258557
 21
629.54678
 31
0.0
  0
LINE
  5
17A
330
1F
100
AcDbEntity
  8
0
  6
Continuous
 62
     7
370
     9
100
AcDbLine
 10
-164.25895
 20
451.450915
 30
0.0
 11
-163.807128
 21
454.00003
 31
0.0
  0
LINE
  5
17B
330
1F
100
AcDbEntity
  8
0
  6
Continuous
 62
     7
370
     9
100
AcDbLine
 10
-201.263161
 20
627.0
 30
0.0
 11
-203.513161
 21
627.0
 31
0.0
  0
LINE
  5
17C
330
1F
100
AcDbEntity
  8
0
  6
Continuous
 62
     7
370
     9
100
AcDbLine
 10
-158.720362
 20
626.510591
 30
0.0
 11
-159.258314
 21
629.545556
 31
0.0
  0
LINE
  5
17D
330
1F
100
AcDbEntity
  8
0
  6
Continuous
 62
     7
370
     9
100
AcDbLine
 10
-174.258729
 20
451.452238
 30
0.0
 11
-173.807138
 21
454.00003
 31
0.0
  0
LINE
  5
17E
330
1F
100
AcDbEntity
  8
0
  6
Continuous
 62
     7
370
     9
100
AcDbLine
 10
-133.74746
 20
627.0
 30
0.0
 11
-138.807059
 21
627.0
 31
0.0
  0
LINE
  5
17F
330
1F
100
AcDbEntity
  8
0
  6
Continuous
 62
     7
370
     9
100
AcDbLine
 10
-113.763161
 20
627.0
 30
0.0
 11
-118.806979
 21
627.0
 31
0.0
  0
LINE
  5
180
330
1F
100
AcDbEntity
  8
0
  6
Continuous
 62
     7
370
     9
100
AcDbLine
 10
-183.889623
 20
454.0
 30
0.0
 11
-178.830025
 21
454.0
 31
0.0
  0
LINE
  5
181
330
1F
100
AcDbEntity
  8
0
  6
Continuous
 62
     7
370
     9
100
AcDbLine
 10
418.5
 20
428.5
 30
0.0
 11
643.5
 21
428.5
 31
0.0
  0
ARC
  5
182
330
1F
100
AcDbEntity
  8
0
  6
Continuous
 62
     7
370
     9
100
AcDbCircle
 10
530.385959
 20
549.995628
 30
0.0
 40
87.489818
100
AcDbArc
 50
355.936504
 51
13.91356999999999
  0
LINE
  5
183
330
1F
100
AcDbEntity
  8
0
  6
Continuous
 62
     7
370
     9
100
AcDbLine
 10
615.668757
 20
570.003106
 30
0.0
 11
615.308787
 21
571.03325
 31
0.0
  0
ARC
  5
184
330
1F
100
AcDbEntity
  8
0
  6
Continuous
 62
     7
370
     9
100
AcDbCircle
 10
530.999479
 20
540.999198
 30
0.0
 40
89.499237
100
AcDbArc
 50
155.5835
 51
18.90916600000003
  0
LINE
  5
185
330
1F
100
AcDbEntity
  8
0
  6
Continuous
 62
     7
370
     9
100
AcDbLine
 10
533.5
 20
624.212454
 30
0.0
 11
533.5
 21
627.463865
 31
0.0
  0
LINE
  5
186
330
1F
100
AcDbEntity
  8
0
  6
Continuous
 62
     7
370
     9
100
AcDbLine
 10
-188.72102
 20
626.514219
 30
0.0
 11
-189.258933
 21
629.548922
 31
0.0
  0
LINE
  5
187
330
1F
100
AcDbEntity
  8
0
  6
Continuous
 62
     7
370
     9
100
AcDbLine
 10
-154.258738
 20
451.451978
 30
0.0
 11
-153.807107
 21
454.00003
 31
0.0
  0
LINE
  5
188
330
1F
100
AcDbEntity
  8
0
  6
Continuous
 62
     7
370
     9
100
AcDbLine
 10
-184.258363
 20
451.454311
 30
0.0
 11
-183.807138
 21
454.000031
 31
0.0
  0
LINE
  5
189
330
1F
100
AcDbEntity
  8
0
  6
Continuous
 62
     7
370
     9
100
AcDbLine
 10
-153.889549
 20
454.0
 30
0.0
 11
-148.829923
 21
454.0
 31
0.0
  0
LINE
  5
18A
330
1F
100
AcDbEntity
  8
0
  6
Continuous
 62
     7
370
     9
100
AcDbLine
 10
643.5
 20
428.5
 30
0.0
 11
643.5
 21
653.5
 31
0.0
  0
ARC
  5
18B
330
1F
100
AcDbEntity
  8
0
  6
Continuous
 62
     7
370
     9
100
AcDbCircle
 10
531.0
 20
541.0
 30
0.0
 40
83.25
100
AcDbArc
 50
88.279147
 51
91.720853
  0
ARC
  5
18C
330
1F
100
AcDbEntity
  8
0
  6
Continuous
 62
     7
370
     9
100
AcDbCircle
 10
-115.791321
 20
451.634183
 30
0.0
 40
1.543389
100
AcDbArc
 50
339.560808
 51
353.1270720000001
  0
LINE
  5
18D
330
1F
100
AcDbEntity
  8
0
  6
Continuous
 62
     7
370
     9
100
AcDbLine
 10
-201.263161
 20
541.361634
 30
0.0
 11
-201.263161
 21
570.53325
 31
0.0
  0
ELLIPSE
  5
18E
330
1F
100
AcDbEntity
  8
0
  6
Continuous
 62
     7
370
     9
100
AcDbEllipse
 10
-203.513161
 20
540.5
 30
0.0
 11
4.838981092415818
 21
86.49907004602665
 31
0.0
210
0.0
220
0.0
230
1.0
 40
0.082889
 41
3.706372527166
 42
3.764184045705254
  0
LINE
  5
18F
330
1F
100
AcDbEntity
  8
0
  6
Continuous
 62
     7
370
     9
100
AcDbLine
 10
-203.263161
 20
477.593048
 30
0.0
 11
-203.263161
 21
469.996849
 31
0.0
  0
ELLIPSE
  5
190
330
1F
100
AcDbEntity
  8
0
  6
Continuous
 62
     7
370
     9
100
AcDbEllipse
 10
-203.513161
 20
540.5
 30
0.0
 11
7.214250024847656
 21
-86.49908417199414
 31
0.0
210
0.0
220
0.0
230
1.0
 40
0.055174
 41
5.267930186204575
 42
5.284282099052271
  0
LINE
  5
191
330
1F
100
AcDbEntity
  8
0
  6
Continuous
 62
     7
370
     9
100
AcDbLine
 10
-203.763161
 20
459.661096
 30
0.0
 11
-203.263161
 21
459.661096
 31
0.0
  0
LINE
  5
192
330
1F
100
AcDbEntity
  8
0
  6
Continuous
 62
     7
370
     9
100
AcDbLine
 10
-203.763161
 20
575.897988
 30
0.0
 11
-203.263161
 21
575.897988
 31
0.0
  0
SPLINE
  5
193
330
1F
100
AcDbEntity
  8
0
  6
Continuous
 62
     7
370
     9
100
AcDbSpline
210
0.0
220
0.0
230
1.0
 70
     8
 71
     3
 72
     9
 73
     5
 74
     0
 42
0.000000001
 43
0.0001
 40
2.176129508952153
 40
2.176129508952153
 40
2.176129508952153
 40
2.176129508952153
 40
2.177277034611171
 40
2.177694488606448
 40
2.177694488606448
 40
2.177694488606448
 40
2.177694488606448
 10
-139.322455800896
 20
629.8366175133514
 30
0.0
 10
-139.3458267196507
 20
629.9161209709318
 30
0.0
 10
-139.377699656056
 20
629.9850791839796
 30
0.0
 10
-139.4095725924613
 20
629.9998343335174
 30
0.0
 10
-139.4180746101118
 20
629.9999212515328
 30
0.0
  0
ELLIPSE
  5
194
330
1F
100
AcDbEntity
  8
0
  6
Continuous
 62
     7
370
     9
100
AcDbEllipse
 10
-203.513161
 20
540.5
 30
0.0
 11
6.146978428120425
 21
86.49891882433013
 31
0.0
210
0.0
220
0.0
230
1.0
 40
0.070357
 41
3.903084891060942
 42
3.9608964096002
  0
LINE
  5
195
330
1F
100
AcDbEntity
  8
0
  6
Continuous
 62
     7
370
     9
100
AcDbLine
 10
-203.263161
 20
490.384576
 30
0.0
 11
-203.263161
 21
481.128581
 31
0.0
  0
SPLINE
  5
196
330
1F
100
AcDbEntity
  8
0
  6
Continuous
 62
     7
370
     9
100
AcDbSpline
210
0.0
220
0.0
230
1.0
 70
     8
 71
     3
 72
     8
 73
     4
 74
     0
 42
0.000000001
 43
0.0001
 40
2.994739829359899
 40
2.994739829359899
 40
2.994739829359899
 40
2.994739829359899
 40
2.996038967456534
 40
2.996038967456534
 40
2.996038967456534
 40
2.996038967456534
 10
-189.3387891342301
 20
629.8863617687311
 30
0.0
 10
-189.3652478462154
 20
629.9610419367456
 30
0.0
 10
-189.3917065582006
 20
629.99876607248
 30
0.0
 10
-189.4181652701859
 20
629.9993712436877
 30
0.0
  0
LWPOLYLINE
  5
197
330
1F
100
AcDbEntity
  8
0
  6
Continuous
 62
     7
370
     9
100
AcDbPolyline
 90
        3
 70
     0
 43
0.0
 10
-178.7243969999963
 20
626.5332380000003
 42
-0.000082
 10
-174.057869
 20
454.482459
 10
-173.889583
 20
454.0
  0
LWPOLYLINE
  5
198
330
1F
100
AcDbEntity
  8
0
  6
Continuous
 62
     7
370
     9
100
AcDbPolyline
 90
        3
 70
     0
 43
0.0
 10
-158.7240519999966
 20
626.5314040000001
 42
-0.000566
 10
-154.105511
 20
454.793226
 10
-153.889542
 20
454.0
  0
LINE
  5
199
330
1F
100
AcDbEntity
  8
0
  6
Continuous
 62
     7
370
     9
100
AcDbLine
 10
-203.763161
 20
490.384576
 30
0.0
 11
-203.263161
 21
490.384576
 31
0.0
  0
SPLINE
  5
19A
330
1F
100
AcDbEntity
  8
0
  6
Continuous
 62
     7
370
     9
100
AcDbSpline
210
0.0
220
0.0
230
1.0
 70
     8
 71
     3
 72
     9
 73
     5
 74
     0
 42
0.000000001
 43
0.0001
 40
2.339109238515424
 40
2.339109238515424
 40
2.339109238515424
 40
2.339109238515424
 40
2.341318455027082
 40
2.341377685041207
 40
2.341377685041207
 40
2.341377685041207
 40
2.341377685041207
 10
-149.280366515182
 20
629.6619641812187
 30
0.0
 10
-149.3253602102682
 20
629.8817310257749
 30
0.0
 10
-149.3715602050455
 20
629.9978204919603
 30
0.0
 10
-149.4177601998229
 20
630.0000108366362
 30
0.0
 10
-149.418966499514
 20
629.9999904011504
 30
0.0
  0
LINE
  5
19B
330
1F
100
AcDbEntity
  8
0
  6
Continuous
 62
     7
370
     9
100
AcDbLine
 10
-203.263161
 20
505.1020120000001
 30
0.0
 11
-203.263161
 21
494.541924
 31
0.0
  0
ARC
  5
19C
330
1F
100
AcDbEntity
  8
0
  6
Continuous
 62
     7
370
     9
100
AcDbCircle
 10
-22490.847928
 20
-65.047486
 30
0.0
 40
22358.43579
100
AcDbArc
 50
1.323708
 51
1.781417
  0
ARC
  5
19D
330
1F
100
AcDbEntity
  8
0
  6
Continuous
 62
     7
370
     9
100
AcDbCircle
 10
-199.791692
 20
629.635841
 30
0.0
 40
0.520589
100
AcDbArc
 50
357.8908039999999
 51
44.25475599999999
  0
SPLINE
  5
19E
330
1F
100
AcDbEntity
  8
0
  6
Continuous
 62
     7
370
     9
100
AcDbSpline
210
0.0
220
0.0
230
1.0
 70
     8
 71
     3
 72
     8
 73
     4
 74
     0
 42
0.000000001
 43
0.0001
 40
2.830652511521569
 40
2.830652511521569
 40
2.830652511521569
 40
2.830652511521569
 40
2.832379129340039
 40
2.832379129340039
 40
2.832379129340039
 40
2.832379129340039
 10
-179.3132058008966
 20
629.802766419804
 30
0.0
 10
-179.3483707180719
 20
629.9337434525853
 30
0.0
 10
-179.3835356352472
 20
629.9995075558351
 30
0.0
 10
-179.4187005524225
 20
629.9996141253137
 30
0.0
  0
ARC
  5
19F
330
1F
100
AcDbEntity
  8
0
  6
Continuous
 62
     7
370
     9
100
AcDbCircle
 10
-165.761587
 20
451.63869
 30
0.0
 40
1.514337
100
AcDbArc
 50
336.878283
 51
352.885947
  0
LWPOLYLINE
  5
1A0
330
1F
100
AcDbEntity
  8
0
  6
Continuous
 62
     7
370
     9
100
AcDbPolyline
 90
        3
 70
     0
 43
0.0
 10
-138.7247470000119
 20
626.535654
 42
-0.000359
 10
-134.084643
 20
454.647334
 10
-133.889563
 20
454.0
  0
ELLIPSE
  5
1A1
330
1F
100
AcDbEntity
  8
0
  6
Continuous
 62
     7
370
     9
100
AcDbEllipse
 10
-203.513161
 20
540.5
 30
0.0
 11
0.0
 21
86.49999999999957
 31
0.0
210
0.0
220
0.0
230
1.0
 40
0.1
 41
0.0
 42
0.0289057592696285
  0
LINE
  5
1A2
330
1F
100
AcDbEntity
  8
0
  6
Continuous
 62
     7
370
     9
100
AcDbLine
 10
-203.763161
 20
626.963865
 30
0.0
 11
-203.263161
 21
626.963865
 31
0.0
  0
ELLIPSE
  5
1A3
330
1F
100
AcDbEntity
  8
0
  6
Continuous
 62
     7
370
     9
100
AcDbEllipse
 10
-203.513161
 20
540.5
 30
0.0
 11
7.214250024847656
 21
86.49908417199414
 31
0.0
210
0.0
220
0.0
230
1.0
 40
0.055174
 41
4.099036256025538
 42
4.156847774564801
  0
ARC
  5
1A4
330
1F
100
AcDbEntity
  8
0
  6
Continuous
 62
     7
370
     9
100
AcDbCircle
 10
-125.081543
 20
451.457034
 30
0.0
 40
0.82313
100
AcDbArc
 50
328.359204
 51
359.727644
  0
LWPOLYLINE
  5
1A5
330
1F
100
AcDbEntity
  8
0
  6
Continuous
 62
     7
370
     9
100
AcDbPolyline
 90
        3
 70
     0
 43
0.0
 10
-168.7239030000001
 20
626.5304710000001
 42
-0.000324
 10
-164.081394
 20
454.626233
 10
-163.889552
 20
454.0
  0
ARC
  5
1A6
330
1F
100
AcDbEntity
  8
0
  6
Continuous
 62
     7
370
     9
100
AcDbCircle
 10
-134.603816
 20
451.32158
 30
0.0
 40
0.371146
100
AcDbArc
 50
299.996711
 51
21.26009699999997
  0
LWPOLYLINE
  5
1A7
330
1F
100
AcDbEntity
  8
0
  6
Continuous
 62
     7
370
     9
100
AcDbPolyline
 90
        3
 70
     0
 43
0.0
 10
-148.7244040000064
 20
626.5335299999997
 42
-0.000116
 10
-144.061174
 20
454.501012
 10
-143.889542
 20
454.0
  0
LWPOLYLINE
  5
1A8
330
1F
100
AcDbEntity
  8
0
  6
Continuous
 62
     7
370
     9
100
AcDbPolyline
 90
        3
 70
     0
 43
0.0
 10
-198.7244540000006
 20
626.533684
 42
-0.000398
 10
-194.08943
 20
454.68045
 10
-193.889662
 20
454.0
  0
LINE
  5
1A9
330
1F
100
AcDbEntity
  8
0
  6
Continuous
 62
     7
370
     9
100
AcDbLine
 10
-203.763161
 20
477.593048
 30
0.0
 11
-203.263161
 21
477.593048
 31
0.0
  0
ARC
  5
1AA
330
1F
100
AcDbEntity
  8
0
  6
Continuous
 62
     7
370
     9
100
AcDbCircle
 10
-175.090642
 20
451.475553
 30
0.0
 40
0.832242
100
AcDbArc
 50
325.447095
 51
358.395192
  0
SPLINE
  5
1AB
330
1F
100
AcDbEntity
  8
0
  6
Continuous
 62
     7
370
     9
100
AcDbSpline
210
0.0
220
0.0
230
1.0
 70
     8
 71
     3
 72
    18
 73
    14
 74
     0
 42
0.000000001
 43
0.0001
 40
2.589482525013648
 40
2.589482525013648
 40
2.589482525013648
 40
2.589482525013648
 40
2.594837013851671
 40
2.602293442052394
 40
2.609749870253117
 40
2.617206298453841
 40
2.624662726654564
 40
2.632119154855287
 40
2.63957558305601
 40
2.647032011256734
 40
2.654488439457457
 40
2.66194486765818
 40
2.668709445971844
 40
2.668709445971844
 40
2.668709445971844
 40
2.668709445971844
 10
-168.3779427160433
 20
451.4497028968008
 30
0.0
 10
-168.486994154347
 20
452.0640516802248
 30
0.0
 10
-168.7479058811852
 20
455.0321779397695
 30
0.0
 10
-169.1606778965581
 20
465.2083602711332
 30
0.0
 10
-169.6162587621625
 20
482.5672322741211
 30
0.0
 10
-170.0718396277654
 20
504.6407326541142
 30
0.0
 10
-170.5274204933694
 20
529.6324971882987
 30
0.0
 10
-170.9830013589723
 20
555.5086703077194
 30
0.0
 10
-171.4385822245764
 20
580.1634223607637
 30
0.0
 10
-171.8941630901811
 20
601.5903242017122
 30
0.0
 10
-172.3497439557827
 20
618.0456324636239
 30
0.0
 10
-172.7912343586835
 20
627.876440355611
 30
0.0
 10
-173.0808644730483
 20
629.9993734423215
 30
0.0
 10
-173.2186342988782
 20
629.9998238335583
 30
0.0
  0
LWPOLYLINE
  5
1AC
330
1F
100
AcDbEntity
  8
0
  6
Continuous
 62
     7
370
     9
100
AcDbPolyline
 90
        3
 70
     0
 43
0.0
 10
-118.7241380000046
 20
626.5326699999996
 42
-0.000149
 10
-114.064387
 20
454.519915
 10
-113.889635
 20
454.0
  0
LWPOLYLINE
  5
1AD
330
1F
100
AcDbEntity
  8
0
  6
Continuous
 62
     7
370
     9
100
AcDbPolyline
 90
        3
 70
     0
 43
0.0
 10
-128.7247719999982
 20
626.5360130000008
 42
0.000105
 10
-124.040816
 20
454.389061
 10
-123.8896
 20
454.0
  0
ARC
  5
1AE
330
1F
100
AcDbEntity
  8
0
  6
Continuous
 62
     7
370
     9
100
AcDbCircle
 10
-196.148334
 20
451.728351
 30
0.0
 40
1.909787
100
AcDbArc
 50
340.06727
 51
351.790324
  0
ARC
  5
1AF
330
1F
100
AcDbEntity
  8
0
  6
Continuous
 62
     7
370
     9
100
AcDbCircle
 10
-19768.98515
 20
9.182152
 30
0.0
 40
19615.593592
100
AcDbArc
 50
1.291945
 51
1.813668
  0
LWPOLYLINE
  5
1B0
330
1F
100
AcDbEntity
  8
0
  6
Continuous
 62
     7
370
     9
100
AcDbPolyline
 90
        3
 70
     0
 43
0.0
 10
-188.7247239999965
 20
626.5351100000003
 42
-0.000546
 10
-184.10413
 20
454.783646
 10
-183.889624
 20
454.0
  0
LINE
  5
1B1
330
1F
100
AcDbEntity
  8
0
  6
Continuous
 62
     7
370
     9
100
AcDbLine
 10
-203.763161
 20
613.781002
 30
0.0
 11
-203.263161
 21
613.781002
 31
0.0
  0
LINE
  5
1B2
330
1F
100
AcDbEntity
  8
0
  6
Continuous
 62
     7
370
     9
100
AcDbLine
 10
-203.763161
 20
559.820227
 30
0.0
 11
-203.263161
 21
559.820227
 31
0.0
  0
LINE
  5
1B3
330
1F
100
AcDbEntity
  8
0
  6
Continuous
 62
     7
370
     9
100
AcDbLine
 10
-203.763161
 20
603.406952
 30
0.0
 11
-203.263161
 21
603.406952
 31
0.0
  0
ELLIPSE
  5
1B4
330
1F
100
AcDbEntity
  8
0
  6
Continuous
 62
     7
370
     9
100
AcDbEllipse
 10
-203.513161
 20
540.5
 30
0.0
 11
8.486976803926794
 21
-86.49984454192872
 31
0.0
210
0.0
220
0.0
230
1.0
 40
0.019323
 41
4.877936869733025
 42
4.903105800159864
  0
ARC
  5
1B5
330
1F
100
AcDbEntity
  8
0
  6
Continuous
 62
     7
370
     9
100
AcDbCircle
 10
-184.909298
 20
451.428563
 30
0.0
 40
0.651453
100
AcDbArc
 50
318.922567
 51
2.268798000000004
  0
ELLIPSE
  5
1B6
330
1F
100
AcDbEntity
  8
0
  6
Continuous
 62
     7
370
     9
100
AcDbEllipse
 10
-203.513161
 20
540.5
 30
0.0
 11
0.0
 21
-86.50000000000003
 31
0.0
210
0.0
220
0.0
230
1.0
 40
0.1
 41
0.0
 42
0.0289057592696287
  0
ARC
  5
1B7
330
1F
100
AcDbEntity
  8
0
  6
Continuous
 62
     7
370
     9
100
AcDbCircle
 10
-155.02034
 20
451.456728
 30
0.0
 40
0.761626
100
AcDbArc
 50
323.28188
 51
359.646657
  0
LINE
  5
1B8
330
1F
100
AcDbEntity
  8
0
  6
Continuous
 62
     7
370
     9
100
AcDbLine
 10
-203.263161
 20
455.209788
 30
0.0
 11
-203.263161
 21
454.036135
 31
0.0
  0
ARC
  5
1B9
330
1F
100
AcDbEntity
  8
0
  6
Continuous
 62
     7
370
     9
100
AcDbCircle
 10
-24092.516619
 20
-108.819918
 30
0.0
 40
23970.686413
100
AcDbArc
 50
1.339317
 51
1.766239
  0
ARC
  5
1BA
330
1F
100
AcDbEntity
  8
0
  6
Continuous
 62
     7
370
     9
100
AcDbCircle
 10
-20994.755351
 20
-24.368375
 30
0.0
 40
20851.806561
100
AcDbArc
 50
1.307556
 51
1.798343
  0
ARC
  5
1BB
330
1F
100
AcDbEntity
  8
0
  6
Continuous
 62
     7
370
     9
100
AcDbCircle
 10
-26076.317279
 20
-162.878647
 30
0.0
 40
25965.20746
100
AcDbArc
 50
1.355732
 51
1.749866
  0
ARC
  5
1BC
330
1F
100
AcDbEntity
  8
0
  6
Continuous
 62
     7
370
     9
100
AcDbCircle
 10
-119.582899
 20
629.795614
 30
0.0
 40
0.262026
100
AcDbArc
 50
12.496205
 51
51.106008
  0
ELLIPSE
  5
1BD
330
1F
100
AcDbEntity
  8
0
  6
Continuous
 62
     7
370
     9
100
AcDbEllipse
 10
-203.513161
 20
540.5
 30
0.0
 11
0.0
 21
-86.50000000000003
 31
0.0
210
0.0
220
0.0
230
1.0
 40
0.1
 41
6.254279547909952
 42
6.283185307179586
  0
LINE
  5
1BE
330
1F
100
AcDbEntity
  8
0
  6
Continuous
 62
     7
370
     9
100
AcDbLine
 10
-203.763161
 20
455.209788
 30
0.0
 11
-203.263161
 21
455.209788
 31
0.0
  0
SPLINE
  5
1BF
330
1F
100
AcDbEntity
  8
0
  6
Continuous
 62
     7
370
     9
100
AcDbSpline
210
0.0
220
0.0
230
1.0
 70
     8
 71
     3
 72
     8
 73
     4
 74
     0
 42
0.000000001
 43
0.0001
 40
2.50339101023686
 40
2.50339101023686
 40
2.50339101023686
 40
2.50339101023686
 40
2.505033936504054
 40
2.505033936504054
 40
2.505033936504054
 40
2.505033936504054
 10
-159.317830800896
 20
629.8200238755711
 30
0.0
 10
-159.3512912259495
 20
629.9393157189008
 30
0.0
 10
-159.3847516510028
 20
629.999454246679
 30
0.0
 10
-159.4182120760563
 20
629.9999496589039
 30
0.0
  0
LINE
  5
1C0
330
1F
100
AcDbEntity
  8
0
  6
Continuous
 62
     7
370
     9
100
AcDbLine
 10
-203.263161
 20
467.218998
 30
0.0
 11
-203.263161
 21
461.574513
 31
0.0
  0
LINE
  5
1C1
330
1F
100
AcDbEntity
  8
0
  6
Continuous
 62
     7
370
     9
100
AcDbLine
 10
-203.763161
 20
621.338904
 30
0.0
 11
-203.263161
 21
621.338904
 31
0.0
  0
LINE
  5
1C2
330
1F
100
AcDbEntity
  8
0
  6
Continuous
 62
     7
370
     9
100
AcDbLine
 10
-203.763161
 20
590.615424
 30
0.0
 11
-203.263161
 21
590.615424
 31
0.0
  0
ELLIPSE
  5
1C3
330
1F
100
AcDbEntity
  8
0
  6
Continuous
 62
     7
370
     9
100
AcDbEllipse
 10
-203.513161
 20
540.5
 30
0.0
 11
3.338645800844087
 21
86.49945166666085
 31
0.0
210
0.0
220
0.0
230
1.0
 40
0.092252
 41
3.508946627768794
 42
3.566758146308051
  0
ARC
  5
1C4
330
1F
100
AcDbEntity
  8
0
  6
Continuous
 62
     7
370
     9
100
AcDbCircle
 10
-169.761732
 20
629.655474
 30
0.0
 40
0.486093
100
AcDbArc
 50
358.113323
 51
45.10362199999997
  0
ARC
  5
1C5
330
1F
100
AcDbEntity
  8
0
  6
Continuous
 62
     7
370
     9
100
AcDbCircle
 10
-145.648437
 20
451.613564
 30
0.0
 40
1.399357
100
AcDbArc
 50
335.5242720000001
 51
353.545194
  0
ELLIPSE
  5
1C6
330
1F
100
AcDbEntity
  8
0
  6
Continuous
 62
     7
370
     9
100
AcDbEllipse
 10
-203.513161
 20
540.5
 30
0.0
 11
6.146978428120429
 21
-86.49891882433059
 31
0.0
210
0.0
220
0.0
230
1.0
 40
0.070357
 41
5.463881551169174
 42
5.473996630879272
  0
ELLIPSE
  5
1C7
330
1F
100
AcDbEntity
  8
0
  6
Continuous
 62
     7
370
     9
100
AcDbEllipse
 10
-203.513161
 20
540.5
 30
0.0
 11
1.703912453443563
 21
86.49983868936451
 31
0.0
210
0.0
220
0.0
230
1.0
 40
0.098041
 41
3.310967685240102
 42
3.36877920377936
  0
LINE
  5
1C8
330
1F
100
AcDbEntity
  8
0
  6
Continuous
 62
     7
370
     9
100
AcDbLine
 10
-203.263161
 20
459.661096
 30
0.0
 11
-203.263161
 21
456.185239
 31
0.0
  0
LINE
  5
1C9
330
1F
100
AcDbEntity
  8
0
  6
Continuous
 62
     7
370
     9
100
AcDbLine
 10
-203.763161
 20
467.218998
 30
0.0
 11
-203.263161
 21
467.218998
 31
0.0
  0
ARC
  5
1CA
330
1F
100
AcDbEntity
  8
0
  6
Continuous
 62
     7
370
     9
100
AcDbCircle
 10
-129.600819
 20
629.736224
 30
0.0
 40
0.320292
100
AcDbArc
 50
350.5973579999999
 51
55.36608499999999
  0
ELLIPSE
  5
1CB
330
1F
100
AcDbEntity
  8
0
  6
Continuous
 62
     7
370
     9
100
AcDbEllipse
 10
-203.513161
 20
540.5
 30
0.0
 11
8.003129686184746
 21
-86.499466958323
 31
0.0
210
0.0
220
0.0
230
1.0
 40
0.037944
 41
5.072671651063709
 42
5.09379561832311
  0
ARC
  5
1CC
330
1F
100
AcDbEntity
  8
0
  6
Continuous
 62
     7
370
     9
100
AcDbCircle
 10
-147.735093
 20
451.425403
 30
0.0
 40
0.643912
100
AcDbArc
 50
177.562652
 51
221.347399
  0
ARC
  5
1CD
330
1F
100
AcDbEntity
  8
0
  6
Continuous
 62
     7
370
     9
100
AcDbCircle
 10
-127.724102
 20
451.429873
 30
0.0
 40
0.655254
100
AcDbArc
 50
177.765586
 51
220.959607
  0
ARC
  5
1CE
330
1F
100
AcDbEntity
  8
0
  6
Continuous
 62
     7
370
     9
100
AcDbCircle
 10
28565.392002
 20
1319.9566
 30
0.0
 40
28772.935119
100
AcDbArc
 50
181.374949
 51
181.730622
  0
SPLINE
  5
1CF
330
1F
100
AcDbEntity
  8
0
  6
Continuous
 62
     7
370
     9
100
AcDbSpline
210
0.0
220
0.0
230
1.0
 70
     8
 71
     3
 72
    18
 73
    14
 74
     0
 42
0.000000001
 43
0.0001
 40
1.93220561060732
 40
1.93220561060732
 40
1.93220561060732
 40
1.93220561060732
 40
1.938671332188029
 40
1.946127760388752
 40
1.953584188589475
 40
1.961040616790198
 40
1.968497044990922
 40
1.975953473191645
 40
1.983409901392368
 40
1.990866329593091
 40
1.998322757793814
 40
2.005779185994538
 40
2.011423239615997
 40
2.011423239615997
 40
2.011423239615997
 40
2.011423239615997
 10
-124.4189312502841
 20
451.0003454195058
 30
0.0
 10
-124.5506144528041
 20
451.0035370564876
 30
0.0
 10
-124.8341579438584
 20
452.9934966763645
 30
0.0
 10
-125.2695617234459
 20
462.4348393854423
 30
0.0
 10
-125.7251425890506
 20
478.666727483293
 30
0.0
 10
-126.1807234546538
 20
499.930671060173
 30
0.0
 10
-126.6363043202576
 20
524.4961884607118
 30
0.0
 10
-127.0918851858622
 20
550.3641125472283
 30
0.0
 10
-127.5474660514645
 20
575.4292849829133
 30
0.0
 10
-128.0030469170688
 20
597.6518761880907
 30
0.0
 10
-128.4586277826723
 20
615.223388774852
 30
0.0
 10
-128.8772971781819
 20
625.7828712045608
 30
0.0
 10
-129.1441062851568
 20
628.9025826340164
 30
0.0
 10
-129.2590551035973
 20
629.5503303228907
 30
0.0
  0
ARC
  5
1D0
330
1F
100
AcDbEntity
  8
0
  6
Continuous
 62
     7
370
     9
100
AcDbCircle
 10
-117.739791
 20
451.424412
 30
0.0
 40
0.639119
100
AcDbArc
 50
177.501032
 51
221.543121
  0
ARC
  5
1D1
330
1F
100
AcDbEntity
  8
0
  6
Continuous
 62
     7
370
     9
100
AcDbCircle
 10
-168.075161
 20
451.304144
 30
0.0
 40
0.335953
100
AcDbArc
 50
154.324632
 51
244.824494
  0
ARC
  5
1D2
330
1F
100
AcDbEntity
  8
0
  6
Continuous
 62
     7
370
     9
100
AcDbCircle
 10
-141.843829
 20
629.353858
 30
0.0
 40
1.546665
100
AcDbArc
 50
157.182109
 51
172.781981
  0
ARC
  5
1D3
330
1F
100
AcDbEntity
  8
0
  6
Continuous
 62
     7
370
     9
100
AcDbCircle
 10
-137.733692
 20
451.426926
 30
0.0
 40
0.64572
100
AcDbArc
 50
177.504754
 51
221.372199
  0
LINE
  5
1D4
330
1F
100
AcDbEntity
  8
0
  6
Continuous
 62
     7
370
     9
100
AcDbLine
 10
-201.263161
 20
570.53325
 30
0.0
 11
-201.263161
 21
629.999138
 31
0.0
  0
LINE
  5
1D5
330
1F
100
AcDbEntity
  8
0
  6
Continuous
 62
     7
370
     9
100
AcDbLine
 10
-198.913715
 20
454.471666
 30
0.0
 11
-201.263161
 21
541.361634
 31
0.0
  0
LWPOLYLINE
  5
1D6
330
1F
100
AcDbEntity
  8
0
  6
Continuous
 62
     7
370
     9
100
AcDbPolyline
 90
        3
 70
     0
 43
0.0
 10
-178.9127170000029
 20
454.4664760000003
 42
-0.00016
 10
-183.583061
 20
626.540236
 10
-183.747432
 20
627.0
  0
LWPOLYLINE
  5
1D7
330
1F
100
AcDbEntity
  8
0
  6
Continuous
 62
     7
370
     9
100
AcDbPolyline
 90
        3
 70
     0
 43
0.0
 10
-168.9122580000912
 20
454.4641140000003
 42
-0.000038
 10
-173.583783
 20
626.544244
 10
-173.747466
 20
627.0
  0
LWPOLYLINE
  5
1D8
330
1F
100
AcDbEntity
  8
0
  6
Continuous
 62
     7
370
     9
100
AcDbPolyline
 90
        3
 70
     0
 43
0.0
 10
-148.9127259999918
 20
454.4671000000005
 42
-0.000248
 10
-153.563052
 20
626.421336
 10
-153.747503
 20
627.0
  0
LWPOLYLINE
  5
1D9
330
1F
100
AcDbEntity
  8
0
  6
Continuous
 62
     7
370
     9
100
AcDbPolyline
 90
        3
 70
     0
 43
0.0
 10
-138.9130420002402
 20
454.4689820000087
 42
-0.00001
 10
-143.585166
 20
626.551506
 10
-143.747488
 20
627.0
  0
LWPOLYLINE
  5
1DA
330
1F
100
AcDbEntity
  8
0
  6
Continuous
 62
     7
370
     9
100
AcDbPolyline
 90
        3
 70
     0
 43
0.0
 10
-118.9124740000125
 20
454.4658000000003
 42
-0.000234
 10
-123.562549
 20
626.417566
 10
-123.747429
 20
627.0
  0
ARC
  5
1DB
330
1F
100
AcDbEntity
  8
0
  6
Continuous
 62
     7
370
     9
100
AcDbCircle
 10
26211.873192
 20
1255.982842
 30
0.0
 40
26408.562945
100
AcDbArc
 50
181.359233
 51
181.746753
  0
LINE
  5
1DC
330
1F
100
AcDbEntity
  8
0
  6
Continuous
 62
     7
370
     9
100
AcDbLine
 10
-113.763161
 20
428.0
 30
0.0
 11
-113.763161
 21
653.0
 31
0.0
  0
LWPOLYLINE
  5
1DD
330
1F
100
AcDbEntity
  8
0
  6
Continuous
 62
     7
370
     9
100
AcDbPolyline
 90
        3
 70
     0
 43
0.0
 10
-158.9123410000042
 20
454.4647730000002
 42
-0.000488
 10
-163.539452
 20
626.263928
 10
-163.74749
 20
627.0
  0
LINE
  5
1DE
330
1F
100
AcDbEntity
  8
0
  6
Continuous
 62
     7
370
     9
100
AcDbLine
 10
-198.379269
 20
451.456501
 30
0.0
 11
-201.263161
 21
570.53325
 31
0.0
  0
ARC
  5
1DF
330
1F
100
AcDbEntity
  8
0
  6
Continuous
 62
     7
370
     9
100
AcDbCircle
 10
-121.736669
 20
629.328339
 30
0.0
 40
1.656261
100
AcDbArc
 50
158.162439
 51
172.417463
  0
ARC
  5
1E0
330
1F
100
AcDbEntity
  8
0
  6
Continuous
 62
     7
370
     9
100
AcDbCircle
 10
-173.004767
 20
629.669371
 30
0.0
 40
0.393622
100
AcDbArc
 50
122.910669
 51
198.214829
  0
ARC
  5
1E1
330
1F
100
AcDbEntity
  8
0
  6
Continuous
 62
     7
370
     9
100
AcDbCircle
 10
-161.932493
 20
629.373341
 30
0.0
 40
1.456598
100
AcDbArc
 50
156.162012
 51
173.285793
  0
ARC
  5
1E2
330
1F
100
AcDbEntity
  8
0
  6
Continuous
 62
     7
370
     9
100
AcDbCircle
 10
-197.574683
 20
451.483808
 30
0.0
 40
0.805049
100
AcDbArc
 50
181.943795
 51
216.873667
  0
ARC
  5
1E3
330
1F
100
AcDbEntity
  8
0
  6
Continuous
 62
     7
370
     9
100
AcDbCircle
 10
-132.73273
 20
629.574402
 30
0.0
 40
0.645902
100
AcDbArc
 50
138.809655
 51
182.2758910000001
  0
ARC
  5
1E4
330
1F
100
AcDbEntity
  8
0
  6
Continuous
 62
     7
370
     9
100
AcDbCircle
 10
21028.601837
 20
1114.509992
 30
0.0
 40
21193.409527
100
AcDbArc
 50
181.311202
 51
181.7940740000001
  0
ARC
  5
1E5
330
1F
100
AcDbEntity
  8
0
  6
Continuous
 62
     7
370
     9
100
AcDbCircle
 10
22465.203768
 20
1153.787784
 30
0.0
 40
22640.532131
100
AcDbArc
 50
181.326808
 51
181.778811
  0
SPLINE
  5
1E6
330
1F
100
AcDbEntity
  8
0
  6
Continuous
 62
     7
370
     9
100
AcDbSpline
210
0.0
220
0.0
230
1.0
 70
     8
 71
     3
 72
    18
 73
    14
 74
     0
 42
0.000000001
 43
0.0001
 40
2.916841723990668
 40
2.916841723990668
 40
2.916841723990668
 40
2.916841723990668
 40
2.922919854683492
 40
2.930376282884215
 40
2.937832711084938
 40
2.945289139285661
 40
2.952745567486385
 40
2.960201995687108
 40
2.967658423887831
 40
2.975114852088554
 40
2.982571280289278
 40
2.990027708490001
 40
2.996038967456534
 40
2.996038967456534
 40
2.996038967456534
 40
2.996038967456534
 10
-188.3792869546705
 20
451.4568297734061
 30
0.0
 10
-188.5030763422856
 20
452.1601345153597
 30
0.0
 10
-188.7787260184349
 20
455.526738808006
 30
0.0
 10
-189.2062359831192
 20
466.688239018821
 30
0.0
 10
-189.6618168487226
 20
484.5894961329316
 30
0.0
 10
-190.1173977143266
 20
507.0408077058868
 30
0.0
 10
-190.57297857993
 20
532.215062850397
 30
0.0
 10
-191.0285594455336
 20
558.0635547234542
 30
0.0
 10
-191.4841403111365
 20
582.4827064018206
 30
0.0
 10
-191.939721176741
 20
603.4852621412175
 30
0.0
 10
-192.3953020423453
 20
619.3620122980252
 30
0.0
 10
-192.8214500734885
 20
628.2097990640636
 30
0.0
 10
-193.0957378160997
 20
629.9965797767528
 30
0.0
 10
-193.2181652701758
 20
629.9993799726805
 30
0.0
  0
SPLINE
  5
1E7
330
1F
100
AcDbEntity
  8
0
  6
Continuous
 62
     7
370
     9
100
AcDbSpline
210
0.0
220
0.0
230
1.0
 70
     8
 71
     3
 72
    18
 73
    14
 74
     0
 42
0.000000001
 43
0.0001
 40
2.753159290598833
 40
2.753159290598833
 40
2.753159290598833
 40
2.753159290598833
 40
2.758878434267582
 40
2.766334862468305
 40
2.773791290669028
 40
2.781247718869751
 40
2.788704147070474
 40
2.796160575271197
 40
2.803617003471921
 40
2.811073431672644
 40
2.818529859873367
 40
2.82598628807409
 40
2.832379129340041
 40
2.832379129340041
 40
2.832379129340041
 40
2.832379129340041
 10
-178.3784416864854
 20
451.4522827339163
 30
0.0
 10
-178.4949198157352
 20
452.1105997518753
 30
0.0
 10
-178.7632582335192
 20
455.2746250555202
 30
0.0
 10
-179.1834569398388
 20
465.9406631279637
 30
0.0
 10
-179.6390378054419
 20
483.5725335780932
 30
0.0
 10
-180.0946186710461
 20
505.837219948458
 30
0.0
 10
-180.5501995366487
 20
530.9227991031988
 30
0.0
 10
-181.005780402254
 20
556.7877807427994
 30
0.0
 10
-181.4613612678571
 20
581.3272459898162
 30
0.0
 10
-181.9169421334602
 20
602.5441478576868
 30
0.0
 10
-182.3725229990642
 20
618.711832993826
 30
0.0
 10
-182.8064424720483
 20
628.0484707038665
 30
0.0
 10
-183.0885016564976
 20
629.9992282784028
 30
0.0
 10
-183.2187005524125
 20
629.9996228543299
 30
0.0
  0
ARC
  5
1E8
330
1F
100
AcDbEntity
  8
0
  6
Continuous
 62
     7
370
     9
100
AcDbCircle
 10
-152.725457
 20
629.57094
 30
0.0
 40
0.653945
100
AcDbArc
 50
138.996135
 51
182.297458
  0
LWPOLYLINE
  5
1E9
330
1F
100
AcDbEntity
  8
0
  6
Continuous
 62
     7
370
     9
100
AcDbPolyline
 90
        3
 70
     0
 43
0.0
 10
-188.9136389999919
 20
454.471463
 42
-0.000271
 10
-193.561454
 20
626.411252
 10
-193.747395
 20
627.0
  0
ARC
  5
1EA
330
1F
100
AcDbEntity
  8
0
  6
Continuous
 62
     7
370
     9
100
AcDbCircle
 10
-187.769273
 20
451.415551
 30
0.0
 40
0.611409
100
AcDbArc
 50
176.128774
 51
222.753594
  0
SPLINE
  5
1EB
330
1F
100
AcDbEntity
  8
0
  6
Continuous
 62
     7
370
     9
100
AcDbSpline
210
0.0
220
0.0
230
1.0
 70
     8
 71
     3
 72
    18
 73
    14
 74
     0
 42
0.000000001
 43
0.0001
 40
2.259535569740796
 40
2.259535569740796
 40
2.259535569740796
 40
2.259535569740796
 40
2.26675417301985
 40
2.274210601220573
 40
2.281667029421296
 40
2.289123457622019
 40
2.296579885822743
 40
2.304036314023466
 40
2.311492742224189
 40
2.318949170424912
 40
2.326405598625636
 40
2.333862026826359
 40
2.338754599504807
 40
2.338754599504807
 40
2.338754599504807
 40
2.338754599504807
 10
-144.4184889615178
 20
451.0000285944565
 30
0.0
 10
-144.5655056224796
 20
451.0003836040457
 30
0.0
 10
-144.8643825719762
 20
453.3429063930535
 30
0.0
 10
-145.3151198100076
 20
463.7901780132781
 30
0.0
 10
-145.7707006756118
 20
480.5924405505463
 30
0.0
 10
-146.226281541215
 20
502.2700420516626
 30
0.0
 10
-146.6818624068176
 20
527.0588369528213
 30
0.0
 10
-147.1374432724225
 20
552.9414875631022
 30
0.0
 10
-147.5930241380262
 20
577.811637086007
 30
0.0
 10
-148.048605003629
 20
599.6453271076059
 30
0.0
 10
-148.5041858692333
 20
616.6657094193384
 30
0.0
 10
-148.9075503345852
 20
626.2472913105414
 30
0.0
 10
-149.1590545114035
 20
628.9853892282771
 30
0.0
 10
-149.2586983996869
 20
629.5478847785724
 30
0.0
  0
LINE
  5
1EC
330
1F
100
AcDbEntity
  8
0
  6
Continuous
 62
     7
370
     9
100
AcDbLine
 10
34.236839
 20
428.0
 30
0.0
 11
34.236839
 21
653.0
 31
0.0
  0
ARC
  5
1ED
330
1F
100
AcDbEntity
  8
0
  6
Continuous
 62
     7
370
     9
100
AcDbCircle
 10
24265.849716
 20
1202.807047
 30
0.0
 40
24451.829063
100
AcDbArc
 50
181.343393
 51
181.761919
  0
SPLINE
  5
1EE
330
1F
100
AcDbEntity
  8
0
  6
Continuous
 62
     7
370
     9
100
AcDbSpline
210
0.0
220
0.0
230
1.0
 70
     8
 71
     3
 72
    18
 73
    14
 74
     0
 42
0.000000001
 43
0.0001
 40
2.095863242406338
 40
2.095863242406338
 40
2.095863242406338
 40
2.095863242406338
 40
2.10271275260394
 40
2.110169180804662
 40
2.117625609005386
 40
2.125082037206109
 40
2.132538465406832
 40
2.139994893607555
 40
2.147451321808278
 40
2.154907750009002
 40
2.162364178209725
 40
2.169820606410448
 40
2.17509219900892
 40
2.17509219900892
 40
2.17509219900892
 40
2.17509219900892
 10
-134.41826116409
 20
451.0001476679844
 30
0.0
 10
-134.5577607431012
 20
450.9998840129692
 30
0.0
 10
-134.8491206106472
 20
453.1616267484509
 30
0.0
 10
-135.292340766727
 20
463.1045817051922
 30
0.0
 10
-135.747921632331
 20
479.6233489080611
 30
0.0
 10
-136.203502497935
 20
501.0963207519585
 30
0.0
 10
-136.6590833635373
 20
525.7760046455935
 30
0.0
 10
-137.114664229142
 20
551.6539424643516
 30
0.0
 10
-137.5702450947456
 20
576.6241609435691
 30
0.0
 10
-138.0258259603493
 20
598.6545579544604
 30
0.0
 10
-138.481406825953
 20
615.9522770708372
 30
0.0
 10
-138.8924905468065
 20
626.019861410178
 30
0.0
 10
-139.1517139791271
 20
628.9454034055735
 30
0.0
 10
-139.2590771229127
 20
629.5502226864802
 30
0.0
  0
SPLINE
  5
1EF
330
1F
100
AcDbEntity
  8
0
  6
Continuous
 62
     7
370
     9
100
AcDbSpline
210
0.0
220
0.0
230
1.0
 70
     8
 71
     3
 72
    18
 73
    14
 74
     0
 42
0.000000001
 43
0.0001
 40
1.768524127105143
 40
1.768524127105143
 40
1.768524127105143
 40
1.768524127105143
 40
1.774629911772121
 40
1.782086339972843
 40
1.789542768173567
 40
1.79699919637429
 40
1.804455624575013
 40
1.811912052775736
 40
1.819368480976459
 40
1.826824909177182
 40
1.834281337377905
 40
1.841737765578628
 40
1.847744657243927
 40
1.847744657243927
 40
1.847744657243927
 40
1.847744657243927
 10
-114.4181440194777
 20
451.0005674478451
 30
0.0
 10
-114.5424966178392
 20
451.0002617594327
 30
0.0
 10
-114.8187095047353
 20
452.8213754992157
 30
0.0
 10
-115.2467826801667
 20
461.7810882467384
 30
0.0
 10
-115.7023635457702
 20
477.7227722344198
 30
0.0
 10
-116.1579444113738
 20
498.7733317526775
 30
0.0
 10
-116.6135252769779
 20
523.2196505608695
 30
0.0
 10
-117.0691061425805
 20
549.0722620256768
 30
0.0
 10
-117.5246870081845
 20
574.227253967235
 30
0.0
 10
-117.9802678737885
 20
596.6374872018594
 30
0.0
 10
-118.4358487393919
 20
614.4791938397926
 30
0.0
 10
-118.8619078245147
 20
625.5343797634649
 30
0.0
 10
-119.1361066211036
 20
628.8551072070699
 30
0.0
 10
-119.2584451291578
 20
629.5471294550176
 30
0.0
  0
LWPOLYLINE
  5
1F0
330
1F
100
AcDbEntity
  8
0
  6
Continuous
 62
     7
370
     9
100
AcDbPolyline
 90
        3
 70
     0
 43
0.0
 10
-128.9130370000038
 20
454.468994
 42
-0.000452
 10
-133.542708
 20
626.286438
 10
-133.747461
 20
627.0
  0
LINE
  5
1F1
330
1F
100
AcDbEntity
  8
0
  6
Continuous
 62
     7
370
     9
100
AcDbLine
 10
-113.763161
 20
428.0
 30
0.0
 11
34.23683900000002
 21
428.0
 31
0.0
  0
ARC
  5
1F2
330
1F
100
AcDbEntity
  8
0
  6
Continuous
 62
     7
370
     9
100
AcDbCircle
 10
-182.480774
 20
629.523426
 30
0.0
 40
0.897723
100
AcDbArc
 50
150.085407
 51
178.323105
  0
ARC
  5
1F3
330
1F
100
AcDbEntity
  8
0
  6
Continuous
 62
     7
370
     9
100
AcDbCircle
 10
-177.931048
 20
451.356018
 30
0.0
 40
0.457633
100
AcDbArc
 50
167.856963
 51
231.019882
  0
SPLINE
  5
1F4
330
1F
100
AcDbEntity
  8
0
  6
Continuous
 62
     7
370
     9
100
AcDbSpline
210
0.0
220
0.0
230
1.0
 70
     8
 71
     3
 72
     9
 73
     5
 74
     0
 42
0.000000001
 43
0.0001
 40
2.423208719839442
 40
2.423208719839442
 40
2.423208719839442
 40
2.423208719839442
 40
2.423339165235037
 40
2.425815760831263
 40
2.425815760831263
 40
2.425815760831263
 40
2.425815760831263
 10
-158.2187670290665
 20
451.0000042954492
 30
0.0
 10
-158.2214237267347
 20
451.0000234089778
 30
0.0
 10
-158.2745196577329
 20
451.0079274665884
 30
0.0
 10
-158.3276155887312
 20
451.16626832942
 30
0.0
 10
-158.3780548220615
 20
451.4505448699574
 30
0.0
  0
ARC
  5
1F5
330
1F
100
AcDbEntity
  8
0
  6
Continuous
 62
     7
370
     9
100
AcDbCircle
 10
-192.68679
 20
629.557725
 30
0.0
 40
0.690955
100
AcDbArc
 50
140.268201
 51
180.463615
  0
ARC
  5
1F6
330
1F
100
AcDbEntity
  8
0
  6
Continuous
 62
     7
370
     9
100
AcDbCircle
 10
305.75
 20
541.0
 30
0.0
 40
83.25
100
AcDbArc
 50
260.470853
 51
268.279147
  0
ARC
  5
1F7
330
1F
100
AcDbEntity
  8
0
  6
Continuous
 62
     7
370
     9
100
AcDbCircle
 10
305.75
 20
541.0
 30
0.0
 40
86.5
100
AcDbArc
 50
339.1561779999999
 51
347.093822
  0
ARC
  5
1F8
330
1F
100
AcDbEntity
  8
0
  6
Continuous
 62
     7
370
     9
100
AcDbCircle
 10
305.75
 20
541.0
 30
0.0
 40
86.5
100
AcDbArc
 50
226.656178
 51
234.593822
  0
ARC
  5
1F9
330
1F
100
AcDbEntity
  8
0
  6
Continuous
 62
     7
370
     9
100
AcDbCircle
 10
305.75
 20
541.0
 30
0.0
 40
86.5
100
AcDbArc
 50
1.656178
 51
9.593822
  0
ARC
  5
1FA
330
1F
100
AcDbEntity
  8
0
  6
Continuous
 62
     7
370
     9
100
AcDbCircle
 10
305.75
 20
541.0
 30
0.0
 40
82.5
100
AcDbArc
 50
147.835067
 51
180.0
  0
ARC
  5
1FB
330
1F
100
AcDbEntity
  8
0
  6
Continuous
 62
     7
370
     9
100
AcDbCircle
 10
305.75
 20
541.0
 30
0.0
 40
82.5
100
AcDbArc
 50
306.081375
 51
36.08137499999998
  0
ARC
  5
1FC
330
1F
100
AcDbEntity
  8
0
  6
Continuous
 62
     7
370
     9
100
AcDbCircle
 10
305.75
 20
541.0
 30
0.0
 40
83.25
100
AcDbArc
 50
170.470853
 51
178.279147
  0
ARC
  5
1FD
330
1F
100
AcDbEntity
  8
0
  6
Continuous
 62
     7
370
     9
100
AcDbCircle
 10
305.75
 20
541.0
 30
0.0
 40
83.25
100
AcDbArc
 50
35.470853
 51
43.279147
  0
ARC
  5
1FE
330
1F
100
AcDbEntity
  8
0
  6
Continuous
 62
     7
370
     9
100
AcDbCircle
 10
305.75
 20
541.0
 30
0.0
 40
83.25
100
AcDbArc
 50
192.9708529999999
 51
200.779147
  0
ARC
  5
1FF
330
1F
100
AcDbEntity
  8
0
  6
Continuous
 62
     7
370
     9
100
AcDbCircle
 10
305.75
 20
541.0
 30
0.0
 40
83.25
100
AcDbArc
 50
181.720853
 51
189.529147
  0
ARC
  5
200
330
1F
100
AcDbEntity
  8
0
  6
Continuous
 62
     7
370
     9
100
AcDbCircle
 10
305.75
 20
541.0
 30
0.0
 40
82.5
100
AcDbArc
 50
36.081375
 51
91.21176499999999
  0
ARC
  5
201
330
1F
100
AcDbEntity
  8
0
  6
Continuous
 62
     7
370
     9
100
AcDbCircle
 10
305.75
 20
541.0
 30
0.0
 40
82.5
100
AcDbArc
 50
91.21176499999999
 51
147.835067
  0
ARC
  5
202
330
1F
100
AcDbEntity
  8
0
  6
Continuous
 62
     7
370
     9
100
AcDbCircle
 10
305.75
 20
541.0
 30
0.0
 40
83.25
100
AcDbArc
 50
57.970853
 51
65.779147
  0
ARC
  5
203
330
1F
100
AcDbEntity
  8
0
  6
Continuous
 62
     7
370
     9
100
AcDbCircle
 10
305.75
 20
541.0
 30
0.0
 40
86.5
100
AcDbArc
 50
260.406178
 51
268.343822
  0
ARC
  5
204
330
1F
100
AcDbEntity
  8
0
  6
Continuous
 62
     7
370
     9
100
AcDbCircle
 10
305.75
 20
541.0
 30
0.0
 40
86.5
100
AcDbArc
 50
35.40617799999999
 51
43.343822
  0
ARC
  5
205
330
1F
100
AcDbEntity
  8
0
  6
Continuous
 62
     7
370
     9
100
AcDbCircle
 10
305.75
 20
541.0
 30
0.0
 40
82.5
100
AcDbArc
 50
282.835067
 51
306.081375
  0
ARC
  5
206
330
1F
100
AcDbEntity
  8
0
  6
Continuous
 62
     7
370
     9
100
AcDbCircle
 10
305.75
 20
541.0
 30
0.0
 40
82.5
100
AcDbArc
 50
261.081375
 51
271.211765
  0
ARC
  5
207
330
1F
100
AcDbEntity
  8
0
  6
Continuous
 62
     7
370
     9
100
AcDbCircle
 10
305.75
 20
541.0
 30
0.0
 40
83.25
100
AcDbArc
 50
159.220853
 51
167.029147
  0
ARC
  5
208
330
1F
100
AcDbEntity
  8
0
  6
Continuous
 62
     7
370
     9
100
AcDbCircle
 10
305.75
 20
541.0
 30
0.0
 40
86.5
100
AcDbArc
 50
181.656178
 51
189.593822
  0
ARC
  5
209
330
1F
100
AcDbEntity
  8
0
  6
Continuous
 62
     7
370
     9
100
AcDbCircle
 10
305.75
 20
541.0
 30
0.0
 40
86.5
100
AcDbArc
 50
12.906178
 51
20.843822
  0
ARC
  5
20A
330
1F
100
AcDbEntity
  8
0
  6
Continuous
 62
     7
370
     9
100
AcDbCircle
 10
305.75
 20
541.0
 30
0.0
 40
82.5
100
AcDbArc
 50
271.211765
 51
282.835067
  0
ARC
  5
20B
330
1F
100
AcDbEntity
  8
0
  6
Continuous
 62
     7
370
     9
100
AcDbCircle
 10
305.75
 20
541.0
 30
0.0
 40
82.5
100
AcDbArc
 50
249.458281
 51
261.081375
  0
ARC
  5
20C
330
1F
100
AcDbEntity
  8
0
  6
Continuous
 62
     7
370
     9
100
AcDbCircle
 10
305.749465
 20
540.99932
 30
0.0
 40
89.499155
100
AcDbArc
 50
19.607678
 51
156.406953
  0
LINE
  5
20D
330
1F
100
AcDbEntity
  8
0
  6
Continuous
 62
     7
370
     9
100
AcDbLine
 10
219.666626
 20
555.378169
 30
0.0
 11
219.522571
 21
547.861524
 31
0.0
  0
ARC
  5
20E
330
1F
100
AcDbEntity
  8
0
  6
Continuous
 62
     7
370
     9
100
AcDbCircle
 10
305.75
 20
541.0
 30
0.0
 40
86.5
100
AcDbArc
 50
125.406178
 51
133.343822
  0
ARC
  5
20F
330
1F
100
AcDbEntity
  8
0
  6
Continuous
 62
     7
370
     9
100
AcDbCircle
 10
305.75
 20
541.0
 30
0.0
 40
75.0
100
AcDbArc
 50
180.0
 51
0.0
  0
ARC
  5
210
330
1F
100
AcDbEntity
  8
0
  6
Continuous
 62
     7
370
     9
100
AcDbCircle
 10
305.75
 20
541.0
 30
0.0
 40
83.25
100
AcDbArc
 50
339.220853
 51
347.029147
  0
ARC
  5
211
330
1F
100
AcDbEntity
  8
0
  6
Continuous
 62
     7
370
     9
100
AcDbCircle
 10
305.75
 20
541.0
 30
0.0
 40
75.0
100
AcDbArc
 50
0.0
 51
180.0
  0
LINE
  5
212
330
1F
100
AcDbEntity
  8
0
  6
Continuous
 62
     7
370
     9
100
AcDbLine
 10
-113.763161
 20
653.0
 30
0.0
 11
34.23683900000002
 21
653.0
 31
0.0
  0
ARC
  5
213
330
1F
100
AcDbEntity
  8
0
  6
Continuous
 62
     7
370
     9
100
AcDbCircle
 10
305.75
 20
541.0
 30
0.0
 40
83.25
100
AcDbArc
 50
305.470853
 51
313.279147
  0
ARC
  5
214
330
1F
100
AcDbEntity
  8
0
  6
Continuous
 62
     7
370
     9
100
AcDbCircle
 10
305.75
 20
541.0
 30
0.0
 40
83.25
100
AcDbArc
 50
114.220853
 51
122.029147
  0
ARC
  5
215
330
1F
100
AcDbEntity
  8
0
  6
Continuous
 62
     7
370
     9
100
AcDbCircle
 10
305.75
 20
541.0
 30
0.0
 40
86.5
100
AcDbArc
 50
316.656178
 51
324.593822
  0
ARC
  5
216
330
1F
100
AcDbEntity
  8
0
  6
Continuous
 62
     7
370
     9
100
AcDbCircle
 10
305.75
 20
541.0
 30
0.0
 40
86.5
100
AcDbArc
 50
136.656178
 51
144.593822
  0
ARC
  5
217
330
1F
100
AcDbEntity
  8
0
  6
Continuous
 62
     7
370
     9
100
AcDbCircle
 10
305.75
 20
541.0
 30
0.0
 40
86.5
100
AcDbArc
 50
159.156178
 51
167.093822
  0
ARC
  5
218
330
1F
100
AcDbEntity
  8
0
  6
Continuous
 62
     7
370
     9
100
AcDbCircle
 10
305.75
 20
541.0
 30
0.0
 40
83.25
100
AcDbArc
 50
24.220853
 51
32.029147
  0
ARC
  5
219
330
1F
100
AcDbEntity
  8
0
  6
Continuous
 62
     7
370
     9
100
AcDbCircle
 10
305.75
 20
541.0
 30
0.0
 40
86.5
100
AcDbArc
 50
24.156178
 51
32.09382200000001
  0
ARC
  5
21A
330
1F
100
AcDbEntity
  8
0
  6
Continuous
 62
     7
370
     9
100
AcDbCircle
 10
305.75
 20
541.0
 30
0.0
 40
83.25
100
AcDbArc
 50
136.720853
 51
144.529147
  0
ARC
  5
21B
330
1F
100
AcDbEntity
  8
0
  6
Continuous
 62
     7
370
     9
100
AcDbCircle
 10
305.75
 20
541.0
 30
0.0
 40
86.5
100
AcDbArc
 50
192.906178
 51
200.843822
  0
ARC
  5
21C
330
1F
100
AcDbEntity
  8
0
  6
Continuous
 62
     7
370
     9
100
AcDbCircle
 10
305.75
 20
541.0
 30
0.0
 40
83.25
100
AcDbArc
 50
350.470853
 51
358.279147
  0
ARC
  5
21D
330
1F
100
AcDbEntity
  8
0
  6
Continuous
 62
     7
370
     9
100
AcDbCircle
 10
305.75
 20
541.0
 30
0.0
 40
83.25
100
AcDbArc
 50
46.720853
 51
54.529147
  0
ARC
  5
21E
330
1F
100
AcDbEntity
  8
0
  6
Continuous
 62
     7
370
     9
100
AcDbCircle
 10
305.75
 20
541.0
 30
0.0
 40
86.5
100
AcDbArc
 50
46.656178
 51
54.593822
  0
ARC
  5
21F
330
1F
100
AcDbEntity
  8
0
  6
Continuous
 62
     7
370
     9
100
AcDbCircle
 10
305.75
 20
541.0
 30
0.0
 40
83.25
100
AcDbArc
 50
1.720853
 51
9.529147
  0
ARC
  5
220
330
1F
100
AcDbEntity
  8
0
  6
Continuous
 62
     7
370
     9
100
AcDbCircle
 10
305.75
 20
541.0
 30
0.0
 40
86.5
100
AcDbArc
 50
204.156178
 51
212.093822
  0
ARC
  5
221
330
1F
100
AcDbEntity
  8
0
  6
Continuous
 62
     7
370
     9
100
AcDbCircle
 10
305.75
 20
541.0
 30
0.0
 40
86.5
100
AcDbArc
 50
102.906178
 51
110.843822
  0
ARC
  5
222
330
1F
100
AcDbEntity
  8
0
  6
Continuous
 62
     7
370
     9
100
AcDbCircle
 10
305.75
 20
541.0
 30
0.0
 40
86.5
100
AcDbArc
 50
215.406178
 51
223.343822
  0
ARC
  5
223
330
1F
100
AcDbEntity
  8
0
  6
Continuous
 62
     7
370
     9
100
AcDbCircle
 10
305.75
 20
541.0
 30
0.0
 40
83.25
100
AcDbArc
 50
147.970853
 51
155.779147
  0
ARC
  5
224
330
1F
100
AcDbEntity
  8
0
  6
Continuous
 62
     7
370
     9
100
AcDbCircle
 10
305.75
 20
541.0
 30
0.0
 40
86.5
100
AcDbArc
 50
350.406178
 51
358.343822
  0
ARC
  5
225
330
1F
100
AcDbEntity
  8
0
  6
Continuous
 62
     7
370
     9
100
AcDbCircle
 10
305.75
 20
541.0
 30
0.0
 40
83.25
100
AcDbArc
 50
215.470853
 51
223.279147
  0
ARC
  5
226
330
1F
100
AcDbEntity
  8
0
  6
Continuous
 62
     7
370
     9
100
AcDbCircle
 10
307.404029
 20
549.852026
 30
0.0
 40
87.911263
100
AcDbArc
 50
162.13552
 51
176.395984
  0
ARC
  5
227
330
1F
100
AcDbEntity
  8
0
  6
Continuous
 62
     7
370
     9
100
AcDbCircle
 10
305.75
 20
541.0
 30
0.0
 40
86.5
100
AcDbArc
 50
282.906178
 51
290.843822
  0
ARC
  5
228
330
1F
100
AcDbEntity
  8
0
  6
Continuous
 62
     7
370
     9
100
AcDbCircle
 10
305.75
 20
541.0
 30
0.0
 40
86.5
100
AcDbArc
 50
305.406178
 51
313.343822
  0
ARC
  5
229
330
1F
100
AcDbEntity
  8
0
  6
Continuous
 62
     7
370
     9
100
AcDbCircle
 10
305.75
 20
541.0
 30
0.0
 40
86.5
100
AcDbArc
 50
147.906178
 51
155.843822
  0
ARC
  5
22A
330
1F
100
AcDbEntity
  8
0
  6
Continuous
 62
     7
370
     9
100
AcDbCircle
 10
305.75
 20
541.0
 30
0.0
 40
83.25
100
AcDbArc
 50
282.970853
 51
290.779147
  0
ARC
  5
22B
330
1F
100
AcDbEntity
  8
0
  6
Continuous
 62
     7
370
     9
100
AcDbCircle
 10
305.75
 20
541.0
 30
0.0
 40
83.25
100
AcDbArc
 50
125.470853
 51
133.279147
  0
ARC
  5
22C
330
1F
100
AcDbEntity
  8
0
  6
Continuous
 62
     7
370
     9
100
AcDbCircle
 10
305.75
 20
541.0
 30
0.0
 40
86.5
100
AcDbArc
 50
114.156178
 51
122.093822
  0
ARC
  5
22D
330
1F
100
AcDbEntity
  8
0
  6
Continuous
 62
     7
370
     9
100
AcDbCircle
 10
305.75
 20
541.0
 30
0.0
 40
83.25
100
AcDbArc
 50
271.720853
 51
279.529147
  0
ARC
  5
22E
330
1F
100
AcDbEntity
  8
0
  6
Continuous
 62
     7
370
     9
100
AcDbCircle
 10
305.75
 20
541.0
 30
0.0
 40
83.25
100
AcDbArc
 50
316.720853
 51
324.529147
  0
ARC
  5
22F
330
1F
100
AcDbEntity
  8
0
  6
Continuous
 62
     7
370
     9
100
AcDbCircle
 10
305.75
 20
541.0
 30
0.0
 40
86.5
100
AcDbArc
 50
271.656178
 51
279.593822
  0
ARC
  5
230
330
1F
100
AcDbEntity
  8
0
  6
Continuous
 62
     7
370
     9
100
AcDbCircle
 10
305.75
 20
541.0
 30
0.0
 40
86.5
100
AcDbArc
 50
57.90617799999999
 51
65.843822
  0
ARC
  5
231
330
1F
100
AcDbEntity
  8
0
  6
Continuous
 62
     7
370
     9
100
AcDbCircle
 10
305.75
 20
541.0
 30
0.0
 40
83.25
100
AcDbArc
 50
226.7208529999999
 51
234.529147
  0
ARC
  5
232
330
1F
100
AcDbEntity
  8
0
  6
Continuous
 62
     7
370
     9
100
AcDbCircle
 10
305.75
 20
541.0
 30
0.0
 40
83.25
100
AcDbArc
 50
12.970853
 51
20.77914699999999
  0
ARC
  5
233
330
1F
100
AcDbEntity
  8
0
  6
Continuous
 62
     7
370
     9
100
AcDbCircle
 10
305.75
 20
541.0
 30
0.0
 40
83.25
100
AcDbArc
 50
204.220853
 51
212.0291470000001
  0
ARC
  5
234
330
1F
100
AcDbEntity
  8
0
  6
Continuous
 62
     7
370
     9
100
AcDbCircle
 10
305.75
 20
541.0
 30
0.0
 40
86.5
100
AcDbArc
 50
170.406178
 51
178.343822
  0
ARC
  5
235
330
1F
100
AcDbEntity
  8
0
  6
Continuous
 62
     7
370
     9
100
AcDbCircle
 10
305.75
 20
541.0
 30
0.0
 40
83.25
100
AcDbArc
 50
102.970853
 51
110.779147
  0
ARC
  5
236
330
1F
100
AcDbEntity
  8
0
  6
Continuous
 62
     7
370
     9
100
AcDbCircle
 10
305.75
 20
541.0
 30
0.0
 40
86.5
100
AcDbArc
 50
20.843822
 51
24.156178
  0
ARC
  5
237
330
1F
100
AcDbEntity
  8
0
  6
Continuous
 62
     7
370
     9
100
AcDbCircle
 10
305.75
 20
541.0
 30
0.0
 40
86.5
100
AcDbArc
 50
69.156178
 51
77.093822
  0
ARC
  5
238
330
1F
100
AcDbEntity
  8
0
  6
Continuous
 62
     7
370
     9
100
AcDbCircle
 10
305.75
 20
541.0
 30
0.0
 40
83.25
100
AcDbArc
 50
327.970853
 51
335.779147
  0
ARC
  5
239
330
1F
100
AcDbEntity
  8
0
  6
Continuous
 62
     7
370
     9
100
AcDbCircle
 10
305.75
 20
541.0
 30
0.0
 40
86.5
100
AcDbArc
 50
294.156178
 51
302.093822
  0
ARC
  5
23A
330
1F
100
AcDbEntity
  8
0
  6
Continuous
 62
     7
370
     9
100
AcDbCircle
 10
305.75
 20
541.0
 30
0.0
 40
83.25
100
AcDbArc
 50
77.029147
 51
80.470853
  0
ARC
  5
23B
330
1F
100
AcDbEntity
  8
0
  6
Continuous
 62
     7
370
     9
100
AcDbCircle
 10
305.75
 20
541.0
 30
0.0
 40
83.25
100
AcDbArc
 50
237.970853
 51
245.7791470000001
  0
ARC
  5
23C
330
1F
100
AcDbEntity
  8
0
  6
Continuous
 62
     7
370
     9
100
AcDbCircle
 10
305.75
 20
541.0
 30
0.0
 40
83.25
100
AcDbArc
 50
268.279147
 51
271.720853
  0
ARC
  5
23D
330
1F
100
AcDbEntity
  8
0
  6
Continuous
 62
     7
370
     9
100
AcDbCircle
 10
305.75
 20
541.0
 30
0.0
 40
86.5
100
AcDbArc
 50
91.656178
 51
99.593822
  0
LINE
  5
23E
330
1F
100
AcDbEntity
  8
0
  6
Continuous
 62
     7
370
     9
100
AcDbLine
 10
381.671575
 20
575.153726
 30
0.0
 11
384.675487
 21
576.397988
 31
0.0
  0
LINE
  5
23F
330
1F
100
AcDbEntity
  8
0
  6
Continuous
 62
     7
370
     9
100
AcDbLine
 10
303.25
 20
457.787546
 30
0.0
 11
303.25
 21
454.536135
 31
0.0
  0
ARC
  5
240
330
1F
100
AcDbEntity
  8
0
  6
Continuous
 62
     7
370
     9
100
AcDbCircle
 10
305.75
 20
541.0
 30
0.0
 40
83.25
100
AcDbArc
 50
294.220853
 51
302.029147
  0
ARC
  5
241
330
1F
100
AcDbEntity
  8
0
  6
Continuous
 62
     7
370
     9
100
AcDbCircle
 10
305.75
 20
541.0
 30
0.0
 40
86.5
100
AcDbArc
 50
237.906178
 51
245.843822
  0
ARC
  5
242
330
1F
100
AcDbEntity
  8
0
  6
Continuous
 62
     7
370
     9
100
AcDbCircle
 10
305.75
 20
541.0
 30
0.0
 40
83.25
100
AcDbArc
 50
249.2208529999999
 51
257.029147
  0
ARC
  5
243
330
1F
100
AcDbEntity
  8
0
  6
Continuous
 62
     7
370
     9
100
AcDbCircle
 10
305.75
 20
541.0
 30
0.0
 40
86.5
100
AcDbArc
 50
249.156178
 51
257.093822
  0
ARC
  5
244
330
1F
100
AcDbEntity
  8
0
  6
Continuous
 62
     7
370
     9
100
AcDbCircle
 10
305.75
 20
541.0
 30
0.0
 40
86.5
100
AcDbArc
 50
268.343822
 51
271.656178
  0
ARC
  5
245
330
1F
100
AcDbEntity
  8
0
  6
Continuous
 62
     7
370
     9
100
AcDbCircle
 10
305.75
 20
541.0
 30
0.0
 40
83.25
100
AcDbArc
 50
80.470853
 51
88.279147
  0
ARC
  5
246
330
1F
100
AcDbEntity
  8
0
  6
Continuous
 62
     7
370
     9
100
AcDbCircle
 10
305.75
 20
541.0
 30
0.0
 40
86.5
100
AcDbArc
 50
65.843822
 51
69.156178
  0
ARC
  5
247
330
1F
100
AcDbEntity
  8
0
  6
Continuous
 62
     7
370
     9
100
AcDbCircle
 10
305.75
 20
541.0
 30
0.0
 40
83.25
100
AcDbArc
 50
69.220853
 51
77.029147
  0
ARC
  5
248
330
1F
100
AcDbEntity
  8
0
  6
Continuous
 62
     7
370
     9
100
AcDbCircle
 10
305.75
 20
541.0
 30
0.0
 40
86.5
100
AcDbArc
 50
327.9061780000001
 51
335.843822
  0
LINE
  5
249
330
1F
100
AcDbEntity
  8
0
  6
Continuous
 62
     7
370
     9
100
AcDbLine
 10
376.327552
 20
585.151688
 30
0.0
 11
379.031002
 21
586.958076
 31
0.0
  0
LINE
  5
24A
330
1F
100
AcDbEntity
  8
0
  6
Continuous
 62
     7
370
     9
100
AcDbLine
 10
335.284329
 20
618.834992
 30
0.0
 11
336.52859
 21
621.838904
 31
0.0
  0
ARC
  5
24B
330
1F
100
AcDbEntity
  8
0
  6
Continuous
 62
     7
370
     9
100
AcDbCircle
 10
305.75
 20
541.0
 30
0.0
 40
86.5
100
AcDbArc
 50
54.593822
 51
57.90617799999999
  0
ARC
  5
24C
330
1F
100
AcDbEntity
  8
0
  6
Continuous
 62
     7
370
     9
100
AcDbCircle
 10
305.75
 20
541.0
 30
0.0
 40
86.5
100
AcDbArc
 50
77.093822
 51
80.406178
  0
LINE
  5
24D
330
1F
100
AcDbEntity
  8
0
  6
Continuous
 62
     7
370
     9
100
AcDbLine
 10
308.25
 20
457.787546
 30
0.0
 11
308.25
 21
454.536135
 31
0.0
  0
ARC
  5
24E
330
1F
100
AcDbEntity
  8
0
  6
Continuous
 62
     7
370
     9
100
AcDbCircle
 10
305.75
 20
541.0
 30
0.0
 40
83.25
100
AcDbArc
 50
65.779147
 51
69.220853
  0
LINE
  5
24F
330
1F
100
AcDbEntity
  8
0
  6
Continuous
 62
     7
370
     9
100
AcDbLine
 10
362.822324
 20
601.607857
 30
0.0
 11
365.121419
 21
603.906952
 31
0.0
  0
LINE
  5
250
330
1F
100
AcDbEntity
  8
0
  6
Continuous
 62
     7
370
     9
100
AcDbLine
 10
383.584992
 20
570.534329
 30
0.0
 11
386.588904
 21
571.77859
 31
0.0
  0
LINE
  5
251
330
1F
100
AcDbEntity
  8
0
  6
Continuous
 62
     7
370
     9
100
AcDbLine
 10
339.903726
 20
616.921575
 30
0.0
 11
341.147988
 21
619.925487
 31
0.0
  0
ARC
  5
252
330
1F
100
AcDbEntity
  8
0
  6
Continuous
 62
     7
370
     9
100
AcDbCircle
 10
305.75
 20
541.0
 30
0.0
 40
86.5
100
AcDbArc
 50
32.09382200000001
 51
35.40617799999999
  0
LINE
  5
253
330
1F
100
AcDbEntity
  8
0
  6
Continuous
 62
     7
370
     9
100
AcDbLine
 10
324.435908
 20
622.125824
 30
0.0
 11
325.070227
 21
625.314761
 31
0.0
  0
LINE
  5
254
330
1F
100
AcDbEntity
  8
0
  6
Continuous
 62
     7
370
     9
100
AcDbLine
 10
349.901688
 20
611.577552
 30
0.0
 11
351.708076
 21
614.281002
 31
0.0
  0
LINE
  5
255
330
1F
100
AcDbEntity
  8
0
  6
Continuous
 62
     7
370
     9
100
AcDbLine
 10
319.531981
 20
623.101276
 30
0.0
 11
320.1663
 21
626.290212
 31
0.0
  0
ARC
  5
256
330
1F
100
AcDbEntity
  8
0
  6
Continuous
 62
     7
370
     9
100
AcDbCircle
 10
305.75
 20
541.0
 30
0.0
 40
83.25
100
AcDbArc
 50
257.029147
 51
260.470853
  0
LINE
  5
257
330
1F
100
AcDbEntity
  8
0
  6
Continuous
 62
     7
370
     9
100
AcDbLine
 10
291.968019
 20
458.898724
 30
0.0
 11
291.3337
 21
455.709788
 31
0.0
  0
LINE
  5
258
330
1F
100
AcDbEntity
  8
0
  6
Continuous
 62
     7
370
     9
100
AcDbLine
 10
366.357857
 20
598.072324
 30
0.0
 11
368.656952
 21
600.371419
 31
0.0
  0
LINE
  5
259
330
1F
100
AcDbEntity
  8
0
  6
Continuous
 62
     7
370
     9
100
AcDbLine
 10
287.064092
 20
459.874176
 30
0.0
 11
286.429773
 21
456.685239
 31
0.0
  0
ARC
  5
25A
330
1F
100
AcDbEntity
  8
0
  6
Continuous
 62
     7
370
     9
100
AcDbCircle
 10
305.75
 20
541.0
 30
0.0
 40
86.5
100
AcDbArc
 50
43.343822
 51
46.656178
  0
ARC
  5
25B
330
1F
100
AcDbEntity
  8
0
  6
Continuous
 62
     7
370
     9
100
AcDbCircle
 10
305.75
 20
541.0
 30
0.0
 40
86.5
100
AcDbArc
 50
257.093822
 51
260.406178
  0
LINE
  5
25C
330
1F
100
AcDbEntity
  8
0
  6
Continuous
 62
     7
370
     9
100
AcDbLine
 10
354.059036
 20
608.799701
 30
0.0
 11
355.865424
 21
611.503151
 31
0.0
  0
ARC
  5
25D
330
1F
100
AcDbEntity
  8
0
  6
Continuous
 62
     7
370
     9
100
AcDbCircle
 10
305.75
 20
541.0
 30
0.0
 40
83.25
100
AcDbArc
 50
91.720853
 51
99.52914700000001
  0
ARC
  5
25E
330
1F
100
AcDbEntity
  8
0
  6
Continuous
 62
     7
370
     9
100
AcDbCircle
 10
305.75
 20
541.0
 30
0.0
 40
83.25
100
AcDbArc
 50
43.279147
 51
46.720853
  0
ARC
  5
25F
330
1F
100
AcDbEntity
  8
0
  6
Continuous
 62
     7
370
     9
100
AcDbCircle
 10
305.75
 20
541.0
 30
0.0
 40
86.5
100
AcDbArc
 50
80.406178
 51
88.343822
  0
ARC
  5
260
330
1F
100
AcDbEntity
  8
0
  6
Continuous
 62
     7
370
     9
100
AcDbCircle
 10
305.75
 20
541.0
 30
0.0
 40
83.25
100
AcDbArc
 50
32.029147
 51
35.470853
  0
LINE
  5
261
330
1F
100
AcDbEntity
  8
0
  6
Continuous
 62
     7
370
     9
100
AcDbLine
 10
373.549701
 20
589.309036
 30
0.0
 11
376.253151
 21
591.115424
 31
0.0
  0
ARC
  5
262
330
1F
100
AcDbEntity
  8
0
  6
Continuous
 62
     7
370
     9
100
AcDbCircle
 10
305.75
 20
541.0
 30
0.0
 40
83.25
100
AcDbArc
 50
54.529147
 51
57.970853
  0
LINE
  5
263
330
1F
100
AcDbEntity
  8
0
  6
Continuous
 62
     7
370
     9
100
AcDbLine
 10
549.685908
 20
622.125824
 30
0.0
 11
550.320227
 21
625.314761
 31
0.0
  0
ARC
  5
264
330
1F
100
AcDbEntity
  8
0
  6
Continuous
 62
     7
370
     9
100
AcDbCircle
 10
531.0
 20
541.0
 30
0.0
 40
83.25
100
AcDbArc
 50
268.279147
 51
271.720853
  0
ARC
  5
265
330
1F
100
AcDbEntity
  8
0
  6
Continuous
 62
     7
370
     9
100
AcDbCircle
 10
531.0
 20
541.0
 30
0.0
 40
86.5
100
AcDbArc
 50
80.406178
 51
88.343822
  0
ARC
  5
266
330
1F
100
AcDbEntity
  8
0
  6
Continuous
 62
     7
370
     9
100
AcDbCircle
 10
531.0
 20
541.0
 30
0.0
 40
83.25
100
AcDbArc
 50
294.220853
 51
302.029147
  0
ARC
  5
267
330
1F
100
AcDbEntity
  8
0
  6
Continuous
 62
     7
370
     9
100
AcDbCircle
 10
531.0
 20
541.0
 30
0.0
 40
86.5
100
AcDbArc
 50
237.906178
 51
245.843822
  0
ARC
  5
268
330
1F
100
AcDbEntity
  8
0
  6
Continuous
 62
     7
370
     9
100
AcDbCircle
 10
531.0
 20
541.0
 30
0.0
 40
86.5
100
AcDbArc
 50
305.406178
 51
313.343822
  0
ARC
  5
269
330
1F
100
AcDbEntity
  8
0
  6
Continuous
 62
     7
370
     9
100
AcDbCircle
 10
531.0
 20
541.0
 30
0.0
 40
83.25
100
AcDbArc
 50
204.220853
 51
212.0291470000001
  0
LINE
  5
26A
330
1F
100
AcDbEntity
  8
0
  6
Continuous
 62
     7
370
     9
100
AcDbLine
 10
544.781981
 20
623.101276
 30
0.0
 11
545.4163
 21
626.290212
 31
0.0
  0
ARC
  5
26B
330
1F
100
AcDbEntity
  8
0
  6
Continuous
 62
     7
370
     9
100
AcDbCircle
 10
531.0
 20
541.0
 30
0.0
 40
86.5
100
AcDbArc
 50
204.156178
 51
212.093822
  0
ARC
  5
26C
330
1F
100
AcDbEntity
  8
0
  6
Continuous
 62
     7
370
     9
100
AcDbCircle
 10
531.0
 20
541.0
 30
0.0
 40
86.5
100
AcDbArc
 50
282.906178
 51
290.843822
  0
ARC
  5
26D
330
1F
100
AcDbEntity
  8
0
  6
Continuous
 62
     7
370
     9
100
AcDbCircle
 10
531.0
 20
541.0
 30
0.0
 40
83.25
100
AcDbArc
 50
316.720853
 51
324.529147
  0
ARC
  5
26E
330
1F
100
AcDbEntity
  8
0
  6
Continuous
 62
     7
370
     9
100
AcDbCircle
 10
531.0
 20
541.0
 30
0.0
 40
86.5
100
AcDbArc
 50
316.656178
 51
324.593822
  0
ARC
  5
26F
330
1F
100
AcDbEntity
  8
0
  6
Continuous
 62
     7
370
     9
100
AcDbCircle
 10
531.0
 20
541.0
 30
0.0
 40
83.25
100
AcDbArc
 50
170.470853
 51
178.279147
  0
ARC
  5
270
330
1F
100
AcDbEntity
  8
0
  6
Continuous
 62
     7
370
     9
100
AcDbCircle
 10
531.0
 20
541.0
 30
0.0
 40
86.5
100
AcDbArc
 50
170.406178
 51
178.343822
  0
ARC
  5
271
330
1F
100
AcDbEntity
  8
0
  6
Continuous
 62
     7
370
     9
100
AcDbCircle
 10
531.0
 20
541.0
 30
0.0
 40
83.25
100
AcDbArc
 50
159.220853
 51
167.029147
  0
ARC
  5
272
330
1F
100
AcDbEntity
  8
0
  6
Continuous
 62
     7
370
     9
100
AcDbCircle
 10
531.0
 20
541.0
 30
0.0
 40
83.25
100
AcDbArc
 50
77.029147
 51
80.470853
  0
LINE
  5
273
330
1F
100
AcDbEntity
  8
0
  6
Continuous
 62
     7
370
     9
100
AcDbLine
 10
517.218019
 20
458.898724
 30
0.0
 11
516.5837
 21
455.709788
 31
0.0
  0
ARC
  5
274
330
1F
100
AcDbEntity
  8
0
  6
Continuous
 62
     7
370
     9
100
AcDbCircle
 10
531.0
 20
541.0
 30
0.0
 40
83.25
100
AcDbArc
 50
282.970853
 51
290.779147
  0
LINE
  5
275
330
1F
100
AcDbEntity
  8
0
  6
Continuous
 62
     7
370
     9
100
AcDbLine
 10
533.5
 20
457.787546
 30
0.0
 11
533.5
 21
454.536135
 31
0.0
  0
ARC
  5
276
330
1F
100
AcDbEntity
  8
0
  6
Continuous
 62
     7
370
     9
100
AcDbCircle
 10
531.0
 20
541.0
 30
0.0
 40
83.25
100
AcDbArc
 50
80.470853
 51
88.279147
  0
ARC
  5
277
330
1F
100
AcDbEntity
  8
0
  6
Continuous
 62
     7
370
     9
100
AcDbCircle
 10
531.0
 20
541.0
 30
0.0
 40
83.25
100
AcDbArc
 50
249.2208529999999
 51
257.029147
  0
ARC
  5
278
330
1F
100
AcDbEntity
  8
0
  6
Continuous
 62
     7
370
     9
100
AcDbCircle
 10
531.0
 20
541.0
 30
0.0
 40
83.25
100
AcDbArc
 50
305.470853
 51
313.279147
  0
ARC
  5
279
330
1F
100
AcDbEntity
  8
0
  6
Continuous
 62
     7
370
     9
100
AcDbCircle
 10
531.0
 20
541.0
 30
0.0
 40
86.5
100
AcDbArc
 50
147.906178
 51
155.843822
  0
ARC
  5
27A
330
1F
100
AcDbEntity
  8
0
  6
Continuous
 62
     7
370
     9
100
AcDbCircle
 10
531.0
 20
541.0
 30
0.0
 40
86.5
100
AcDbArc
 50
136.656178
 51
144.593822
  0
LINE
  5
27B
330
1F
100
AcDbEntity
  8
0
  6
Continuous
 62
     7
370
     9
100
AcDbLine
 10
528.5
 20
457.787546
 30
0.0
 11
528.5
 21
454.536135
 31
0.0
  0
ARC
  5
27C
330
1F
100
AcDbEntity
  8
0
  6
Continuous
 62
     7
370
     9
100
AcDbCircle
 10
531.0
 20
541.0
 30
0.0
 40
83.25
100
AcDbArc
 50
257.029147
 51
260.470853
  0
ARC
  5
27D
330
1F
100
AcDbEntity
  8
0
  6
Continuous
 62
     7
370
     9
100
AcDbCircle
 10
531.0
 20
541.0
 30
0.0
 40
86.5
100
AcDbArc
 50
159.156178
 51
167.093822
  0
ARC
  5
27E
330
1F
100
AcDbEntity
  8
0
  6
Continuous
 62
     7
370
     9
100
AcDbCircle
 10
531.0
 20
541.0
 30
0.0
 40
83.25
100
AcDbArc
 50
114.220853
 51
122.029147
  0
ARC
  5
27F
330
1F
100
AcDbEntity
  8
0
  6
Continuous
 62
     7
370
     9
100
AcDbCircle
 10
531.0
 20
541.0
 30
0.0
 40
83.25
100
AcDbArc
 50
102.970853
 51
110.779147
  0
ARC
  5
280
330
1F
100
AcDbEntity
  8
0
  6
Continuous
 62
     7
370
     9
100
AcDbCircle
 10
531.0
 20
541.0
 30
0.0
 40
86.5
100
AcDbArc
 50
102.906178
 51
110.843822
  0
ARC
  5
281
330
1F
100
AcDbEntity
  8
0
  6
Continuous
 62
     7
370
     9
100
AcDbCircle
 10
531.0
 20
541.0
 30
0.0
 40
86.5
100
AcDbArc
 50
294.156178
 51
302.093822
  0
ARC
  5
282
330
1F
100
AcDbEntity
  8
0
  6
Continuous
 62
     7
370
     9
100
AcDbCircle
 10
531.0
 20
541.0
 30
0.0
 40
83.25
100
AcDbArc
 50
271.720853
 51
279.529147
  0
ARC
  5
283
330
1F
100
AcDbEntity
  8
0
  6
Continuous
 62
     7
370
     9
100
AcDbCircle
 10
531.0
 20
541.0
 30
0.0
 40
83.25
100
AcDbArc
 50
260.470853
 51
268.279147
  0
ARC
  5
284
330
1F
100
AcDbEntity
  8
0
  6
Continuous
 62
     7
370
     9
100
AcDbCircle
 10
531.0
 20
541.0
 30
0.0
 40
83.25
100
AcDbArc
 50
147.970853
 51
155.779147
  0
ARC
  5
285
330
1F
100
AcDbEntity
  8
0
  6
Continuous
 62
     7
370
     9
100
AcDbCircle
 10
531.0
 20
541.0
 30
0.0
 40
83.25
100
AcDbArc
 50
339.220853
 51
347.029147
  0
ARC
  5
286
330
1F
100
AcDbEntity
  8
0
  6
Continuous
 62
     7
370
     9
100
AcDbCircle
 10
531.0
 20
541.0
 30
0.0
 40
86.5
100
AcDbArc
 50
268.343822
 51
271.656178
  0
ARC
  5
287
330
1F
100
AcDbEntity
  8
0
  6
Continuous
 62
     7
370
     9
100
AcDbCircle
 10
531.0
 20
541.0
 30
0.0
 40
86.5
100
AcDbArc
 50
327.9061780000001
 51
335.843822
  0
ARC
  5
288
330
1F
100
AcDbEntity
  8
0
  6
Continuous
 62
     7
370
     9
100
AcDbCircle
 10
531.0
 20
541.0
 30
0.0
 40
86.5
100
AcDbArc
 50
69.156178
 51
77.093822
  0
ARC
  5
289
330
1F
100
AcDbEntity
  8
0
  6
Continuous
 62
     7
370
     9
100
AcDbCircle
 10
531.0
 20
541.0
 30
0.0
 40
86.5
100
AcDbArc
 50
114.156178
 51
122.093822
  0
ARC
  5
28A
330
1F
100
AcDbEntity
  8
0
  6
Continuous
 62
     7
370
     9
100
AcDbCircle
 10
531.0
 20
541.0
 30
0.0
 40
83.25
100
AcDbArc
 50
69.220853
 51
77.029147
  0
ARC
  5
28B
330
1F
100
AcDbEntity
  8
0
  6
Continuous
 62
     7
370
     9
100
AcDbCircle
 10
531.0
 20
541.0
 30
0.0
 40
86.5
100
AcDbArc
 50
339.1561779999999
 51
347.093822
  0
ARC
  5
28C
330
1F
100
AcDbEntity
  8
0
  6
Continuous
 62
     7
370
     9
100
AcDbCircle
 10
531.0
 20
541.0
 30
0.0
 40
83.25
100
AcDbArc
 50
57.970853
 51
65.779147
  0
ARC
  5
28D
330
1F
100
AcDbEntity
  8
0
  6
Continuous
 62
     7
370
     9
100
AcDbCircle
 10
531.0
 20
541.0
 30
0.0
 40
86.5
100
AcDbArc
 50
257.093822
 51
260.406178
  0
ARC
  5
28E
330
1F
100
AcDbEntity
  8
0
  6
Continuous
 62
     7
370
     9
100
AcDbCircle
 10
531.0
 20
541.0
 30
0.0
 40
83.25
100
AcDbArc
 50
125.470853
 51
133.279147
  0
ARC
  5
28F
330
1F
100
AcDbEntity
  8
0
  6
Continuous
 62
     7
370
     9
100
AcDbCircle
 10
531.0
 20
541.0
 30
0.0
 40
86.5
100
AcDbArc
 50
57.90617799999999
 51
65.843822
  0
ARC
  5
290
330
1F
100
AcDbEntity
  8
0
  6
Continuous
 62
     7
370
     9
100
AcDbCircle
 10
531.0
 20
541.0
 30
0.0
 40
86.5
100
AcDbArc
 50
260.406178
 51
268.343822
  0
ARC
  5
291
330
1F
100
AcDbEntity
  8
0
  6
Continuous
 62
     7
370
     9
100
AcDbCircle
 10
531.0
 20
541.0
 30
0.0
 40
83.25
100
AcDbArc
 50
226.7208529999999
 51
234.529147
  0
ARC
  5
292
330
1F
100
AcDbEntity
  8
0
  6
Continuous
 62
     7
370
     9
100
AcDbCircle
 10
531.0
 20
541.0
 30
0.0
 40
86.5
100
AcDbArc
 50
226.656178
 51
234.593822
  0
ARC
  5
293
330
1F
100
AcDbEntity
  8
0
  6
Continuous
 62
     7
370
     9
100
AcDbCircle
 10
531.0
 20
541.0
 30
0.0
 40
86.5
100
AcDbArc
 50
77.093822
 51
80.406178
  0
ARC
  5
294
330
1F
100
AcDbEntity
  8
0
  6
Continuous
 62
     7
370
     9
100
AcDbCircle
 10
531.0
 20
541.0
 30
0.0
 40
86.5
100
AcDbArc
 50
91.656178
 51
99.593822
  0
ARC
  5
295
330
1F
100
AcDbEntity
  8
0
  6
Continuous
 62
     7
370
     9
100
AcDbCircle
 10
531.0
 20
541.0
 30
0.0
 40
83.25
100
AcDbArc
 50
237.970853
 51
245.7791470000001
  0
ARC
  5
296
330
1F
100
AcDbEntity
  8
0
  6
Continuous
 62
     7
370
     9
100
AcDbCircle
 10
531.0
 20
541.0
 30
0.0
 40
86.5
100
AcDbArc
 50
249.156178
 51
257.093822
  0
ARC
  5
297
330
1F
100
AcDbEntity
  8
0
  6
Continuous
 62
     7
370
     9
100
AcDbCircle
 10
531.0
 20
541.0
 30
0.0
 40
83.25
100
AcDbArc
 50
91.720853
 51
99.52914700000001
  0
ARC
  5
298
330
1F
100
AcDbEntity
  8
0
  6
Continuous
 62
     7
370
     9
100
AcDbCircle
 10
531.0
 20
541.0
 30
0.0
 40
86.5
100
AcDbArc
 50
65.843822
 51
69.156178
  0
ARC
  5
299
330
1F
100
AcDbEntity
  8
0
  6
Continuous
 62
     7
370
     9
100
AcDbCircle
 10
531.0
 20
541.0
 30
0.0
 40
83.25
100
AcDbArc
 50
327.970853
 51
335.779147
  0
ARC
  5
29A
330
1F
100
AcDbEntity
  8
0
  6
Continuous
 62
     7
370
     9
100
AcDbCircle
 10
531.0
 20
541.0
 30
0.0
 40
83.25
100
AcDbArc
 50
35.470853
 51
43.279147
  0
ARC
  5
29B
330
1F
100
AcDbEntity
  8
0
  6
Continuous
 62
     7
370
     9
100
AcDbCircle
 10
531.0
 20
541.0
 30
0.0
 40
86.5
100
AcDbArc
 50
35.40617799999999
 51
43.343822
  0
ARC
  5
29C
330
1F
100
AcDbEntity
  8
0
  6
Continuous
 62
     7
370
     9
100
AcDbCircle
 10
531.0
 20
541.0
 30
0.0
 40
83.25
100
AcDbArc
 50
24.220853
 51
32.029147
  0
ARC
  5
29D
330
1F
100
AcDbEntity
  8
0
  6
Continuous
 62
     7
370
     9
100
AcDbCircle
 10
531.0
 20
541.0
 30
0.0
 40
83.25
100
AcDbArc
 50
136.720853
 51
144.529147
  0
ARC
  5
29E
330
1F
100
AcDbEntity
  8
0
  6
Continuous
 62
     7
370
     9
100
AcDbCircle
 10
531.0
 20
541.0
 30
0.0
 40
86.5
100
AcDbArc
 50
125.406178
 51
133.343822
  0
ARC
  5
29F
330
1F
100
AcDbEntity
  8
0
  6
Continuous
 62
     7
370
     9
100
AcDbCircle
 10
531.0
 20
541.0
 30
0.0
 40
86.5
100
AcDbArc
 50
24.156178
 51
32.09382200000001
  0
ARC
  5
2A0
330
1F
100
AcDbEntity
  8
0
  6
Continuous
 62
     7
370
     9
100
AcDbCircle
 10
531.0
 20
541.0
 30
0.0
 40
83.25
100
AcDbArc
 50
192.9708529999999
 51
200.779147
  0
LINE
  5
2A1
330
1F
100
AcDbEntity
  8
0
  6
Continuous
 62
     7
370
     9
100
AcDbLine
 10
512.314092
 20
459.874176
 30
0.0
 11
511.679773
 21
456.685239
 31
0.0
  0
ARC
  5
2A2
330
1F
100
AcDbEntity
  8
0
  6
Continuous
 62
     7
370
     9
100
AcDbCircle
 10
531.0
 20
541.0
 30
0.0
 40
86.5
100
AcDbArc
 50
271.656178
 51
279.593822
  0
ARC
  5
2A3
330
1F
100
AcDbEntity
  8
0
  6
Continuous
 62
     7
370
     9
100
AcDbCircle
 10
531.0
 20
541.0
 30
0.0
 40
83.25
100
AcDbArc
 50
215.470853
 51
223.279147
  0
LINE
  5
2A4
330
1F
100
AcDbEntity
  8
0
  6
Continuous
 62
     7
370
     9
100
AcDbLine
 10
444.916626
 20
555.378169
 30
0.0
 11
444.772571
 21
547.861524
 31
0.0
  0
ARC
  5
2A5
330
1F
100
AcDbEntity
  8
0
  6
Continuous
 62
     7
370
     9
100
AcDbCircle
 10
531.0
 20
541.0
 30
0.0
 40
86.5
100
AcDbArc
 50
181.656178
 51
189.593822
  0
LINE
  5
2A6
330
1F
100
AcDbEntity
  8
0
  6
CENTER
 62
     1
370
     9
100
AcDbLine
 10
163.25
 20
541.0
 30
0.0
 11
448.25
 21
541.0
 31
0.0
  0
ARC
  5
2A8
330
1F
100
AcDbEntity
  8
0
  6
Continuous
 62
     7
370
     9
100
AcDbCircle
 10
531.0
 20
541.0
 30
0.0
 40
86.5
100
AcDbArc
 50
46.656178
 51
54.593822
  0
ARC
  5
2A9
330
1F
100
AcDbEntity
  8
0
  6
Continuous
 62
     7
370
     9
100
AcDbCircle
 10
531.0
 20
541.0
 30
0.0
 40
83.25
100
AcDbArc
 50
1.720853
 51
9.529147
  0
ARC
  5
2AA
330
1F
100
AcDbEntity
  8
0
  6
Continuous
 62
     7
370
     9
100
AcDbCircle
 10
531.0
 20
541.0
 30
0.0
 40
82.5
100
AcDbArc
 50
147.835067
 51
180.0
  0
ARC
  5
2AB
330
1F
100
AcDbEntity
  8
0
  6
Continuous
 62
     7
370
     9
100
AcDbCircle
 10
531.0
 20
541.0
 30
0.0
 40
82.5
100
AcDbArc
 50
36.081375
 51
91.21176499999999
  0
LINE
  5
2AC
330
1F
100
AcDbEntity
  8
0
  6
CENTER
 62
     1
370
     9
100
AcDbLine
 10
305.75
 20
398.5
 30
0.0
 11
305.75
 21
683.5
 31
0.0
  0
ARC
  5
2AD
330
1F
100
AcDbEntity
  8
0
  6
Continuous
 62
     7
370
     9
100
AcDbCircle
 10
531.0
 20
541.0
 30
0.0
 40
82.5
100
AcDbArc
 50
271.211765
 51
282.835067
  0
ARC
  5
2AE
330
1F
100
AcDbEntity
  8
0
  6
Continuous
 62
     7
370
     9
100
AcDbCircle
 10
531.0
 20
541.0
 30
0.0
 40
86.5
100
AcDbArc
 50
192.906178
 51
200.843822
  0
ARC
  5
2AF
330
1F
100
AcDbEntity
  8
0
  6
Continuous
 62
     7
370
     9
100
AcDbCircle
 10
531.0
 20
541.0
 30
0.0
 40
83.25
100
AcDbArc
 50
46.720853
 51
54.529147
  0
ARC
  5
2B0
330
1F
100
AcDbEntity
  8
0
  6
Continuous
 62
     7
370
     9
100
AcDbCircle
 10
531.0
 20
541.0
 30
0.0
 40
82.5
100
AcDbArc
 50
249.458281
 51
261.081375
  0
ARC
  5
2B1
330
1F
100
AcDbEntity
  8
0
  6
Continuous
 62
     7
370
     9
100
AcDbCircle
 10
531.0
 20
541.0
 30
0.0
 40
83.25
100
AcDbArc
 50
181.720853
 51
189.529147
  0
ARC
  5
2B2
330
1F
100
AcDbEntity
  8
0
  6
Continuous
 62
     7
370
     9
100
AcDbCircle
 10
531.0
 20
541.0
 30
0.0
 40
82.5
100
AcDbArc
 50
282.835067
 51
306.081375
  0
ARC
  5
2B3
330
1F
100
AcDbEntity
  8
0
  6
Continuous
 62
     7
370
     9
100
AcDbCircle
 10
531.0
 20
541.0
 30
0.0
 40
86.5
100
AcDbArc
 50
12.906178
 51
20.843822
  0
ARC
  5
2B4
330
1F
100
AcDbEntity
  8
0
  6
Continuous
 62
     7
370
     9
100
AcDbCircle
 10
531.0
 20
541.0
 30
0.0
 40
86.5
100
AcDbArc
 50
1.656178
 51
9.593822
  0
ARC
  5
2B5
330
1F
100
AcDbEntity
  8
0
  6
Continuous
 62
     7
370
     9
100
AcDbCircle
 10
531.0
 20
541.0
 30
0.0
 40
83.25
100
AcDbArc
 50
350.470853
 51
358.279147
  0
ARC
  5
2B6
330
1F
100
AcDbEntity
  8
0
  6
Continuous
 62
     7
370
     9
100
AcDbCircle
 10
531.0
 20
541.0
 30
0.0
 40
83.25
100
AcDbArc
 50
12.970853
 51
20.77914699999999
  0
ARC
  5
2B7
330
1F
100
AcDbEntity
  8
0
  6
Continuous
 62
     7
370
     9
100
AcDbCircle
 10
531.0
 20
541.0
 30
0.0
 40
82.5
100
AcDbArc
 50
91.21176499999999
 51
147.835067
  0
ARC
  5
2B8
330
1F
100
AcDbEntity
  8
0
  6
Continuous
 62
     7
370
     9
100
AcDbCircle
 10
531.0
 20
541.0
 30
0.0
 40
82.5
100
AcDbArc
 50
261.081375
 51
271.211765
  0
ARC
  5
2B9
330
1F
100
AcDbEntity
  8
0
  6
Continuous
 62
     7
370
     9
100
AcDbCircle
 10
530.999467
 20
540.999358
 30
0.0
 40
89.499141
100
AcDbArc
 50
19.607655
 51
156.406976
  0
ARC
  5
2BA
330
1F
100
AcDbEntity
  8
0
  6
Continuous
 62
     7
370
     9
100
AcDbCircle
 10
532.654029
 20
549.852026
 30
0.0
 40
87.911263
100
AcDbArc
 50
162.13552
 51
176.395984
  0
ARC
  5
2BB
330
1F
100
AcDbEntity
  8
0
  6
Continuous
 62
     7
370
     9
100
AcDbCircle
 10
531.0
 20
541.0
 30
0.0
 40
75.0
100
AcDbArc
 50
0.0
 51
180.0
  0
LINE
  5
2BC
330
1F
100
AcDbEntity
  8
0
  6
CENTER
 62
     1
370
     9
100
AcDbLine
 10
-233.763161
 20
540.5
 30
0.0
 11
106.736839
 21
540.5
 31
0.0
  0
LINE
  5
2BD
330
1F
100
AcDbEntity
  8
0
  6
CENTER
 62
     1
370
     9
100
AcDbLine
 10
388.5
 20
541.0
 30
0.0
 11
673.5
 21
541.0
 31
0.0
  0
LINE
  5
2BE
330
1F
100
AcDbEntity
  8
0
  6
CENTER
 62
     1
370
     9
100
AcDbLine
 10
531.0
 20
398.5
 30
0.0
 11
531.0
 21
683.5
 31
0.0
  0
ARC
  5
2BF
330
1F
100
AcDbEntity
  8
0
  6
Continuous
 62
     7
370
     9
100
AcDbCircle
 10
531.0
 20
541.0
 30
0.0
 40
86.5
100
AcDbArc
 50
350.406178
 51
358.343822
  0
ARC
  5
2C0
330
1F
100
AcDbEntity
  8
0
  6
Continuous
 62
     7
370
     9
100
AcDbCircle
 10
531.0
 20
541.0
 30
0.0
 40
75.0
100
AcDbArc
 50
180.0
 51
0.0
  0
ARC
  5
2C1
330
1F
100
AcDbEntity
  8
0
  6
Continuous
 62
     7
370
     9
100
AcDbCircle
 10
531.0
 20
541.0
 30
0.0
 40
86.5
100
AcDbArc
 50
215.406178
 51
223.343822
  0
ARC
  5
2C2
330
1F
100
AcDbEntity
  8
0
  6
Continuous
 62
     7
370
     9
100
AcDbCircle
 10
531.0
 20
541.0
 30
0.0
 40
82.5
100
AcDbArc
 50
306.081375
 51
36.08137499999998
  0
LINE
  5
2C3
330
1F
100
AcDbEntity
  8
0
  6
Continuous
 62
     7
370
     9
100
AcDbLine
 10
565.153726
 20
616.921575
 30
0.0
 11
566.397988
 21
619.925487
 31
0.0
  0
ARC
  5
2C4
330
1F
100
AcDbEntity
  8
0
  6
Continuous
 62
     7
370
     9
100
AcDbCircle
 10
531.0
 20
541.0
 30
0.0
 40
83.25
100
AcDbArc
 50
279.529147
 51
282.970853
  0
LINE
  5
2C5
330
1F
100
AcDbEntity
  8
0
  6
Continuous
 62
     7
370
     9
100
AcDbLine
 10
575.151688
 20
470.422448
 30
0.0
 11
576.958076
 21
467.718998
 31
0.0
  0
LINE
  5
2C6
330
1F
100
AcDbEntity
  8
0
  6
Continuous
 62
     7
370
     9
100
AcDbLine
 10
601.577552
 20
496.848312
 30
0.0
 11
604.281002
 21
495.041924
 31
0.0
  0
LINE
  5
2C7
330
1F
100
AcDbEntity
  8
0
  6
Continuous
 62
     7
370
     9
100
AcDbLine
 10
608.834992
 20
511.4656709999999
 30
0.0
 11
611.838904
 21
510.22141
 31
0.0
  0
LINE
  5
2C8
330
1F
100
AcDbEntity
  8
0
  6
Continuous
 62
     7
370
     9
100
AcDbLine
 10
606.921575
 20
575.153726
 30
0.0
 11
609.925487
 21
576.397988
 31
0.0
  0
ARC
  5
2C9
330
1F
100
AcDbEntity
  8
0
  6
Continuous
 62
     7
370
     9
100
AcDbCircle
 10
531.0
 20
541.0
 30
0.0
 40
83.25
100
AcDbArc
 50
32.029147
 51
35.470853
  0
ARC
  5
2CA
330
1F
100
AcDbEntity
  8
0
  6
Continuous
 62
     7
370
     9
100
AcDbCircle
 10
531.0
 20
541.0
 30
0.0
 40
86.5
100
AcDbArc
 50
313.343822
 51
316.656178
  0
ARC
  5
2CB
330
1F
100
AcDbEntity
  8
0
  6
Continuous
 62
     7
370
     9
100
AcDbCircle
 10
531.0
 20
541.0
 30
0.0
 40
83.25
100
AcDbArc
 50
347.029147
 51
350.470853
  0
LINE
  5
2CC
330
1F
100
AcDbEntity
  8
0
  6
Continuous
 62
     7
370
     9
100
AcDbLine
 10
579.309036
 20
473.200299
 30
0.0
 11
581.115424
 21
470.496849
 31
0.0
  0
LINE
  5
2CD
330
1F
100
AcDbEntity
  8
0
  6
Continuous
 62
     7
370
     9
100
AcDbLine
 10
612.125824
 20
522.314092
 30
0.0
 11
615.314761
 21
521.679773
 31
0.0
  0
ARC
  5
2CE
330
1F
100
AcDbEntity
  8
0
  6
Continuous
 62
     7
370
     9
100
AcDbCircle
 10
531.0
 20
541.0
 30
0.0
 40
86.5
100
AcDbArc
 50
302.093822
 51
305.406178
  0
LINE
  5
2CF
330
1F
100
AcDbEntity
  8
0
  6
Continuous
 62
     7
370
     9
100
AcDbLine
 10
549.685908
 20
459.874176
 30
0.0
 11
550.320227
 21
456.685239
 31
0.0
  0
LINE
  5
2D0
330
1F
100
AcDbEntity
  8
0
  6
Continuous
 62
     7
370
     9
100
AcDbLine
 10
598.799701
 20
492.690964
 30
0.0
 11
601.503151
 21
490.884576
 31
0.0
  0
ARC
  5
2D1
330
1F
100
AcDbEntity
  8
0
  6
Continuous
 62
     7
370
     9
100
AcDbCircle
 10
531.0
 20
541.0
 30
0.0
 40
86.5
100
AcDbArc
 50
335.843822
 51
339.1561779999999
  0
LINE
  5
2D2
330
1F
100
AcDbEntity
  8
0
  6
Continuous
 62
     7
370
     9
100
AcDbLine
 10
614.212454
 20
543.5
 30
0.0
 11
617.463865
 21
543.5
 31
0.0
  0
ARC
  5
2D3
330
1F
100
AcDbEntity
  8
0
  6
Continuous
 62
     7
370
     9
100
AcDbCircle
 10
531.0
 20
541.0
 30
0.0
 40
83.25
100
AcDbArc
 50
167.029147
 51
170.470853
  0
LINE
  5
2D4
330
1F
100
AcDbEntity
  8
0
  6
Continuous
 62
     7
370
     9
100
AcDbLine
 10
447.787546
 20
543.5
 30
0.0
 11
444.536135
 21
543.5
 31
0.0
  0
ARC
  5
2D5
330
1F
100
AcDbEntity
  8
0
  6
Continuous
 62
     7
370
     9
100
AcDbCircle
 10
531.0
 20
541.0
 30
0.0
 40
86.5
100
AcDbArc
 50
290.843822
 51
294.156178
  0
LINE
  5
2D6
330
1F
100
AcDbEntity
  8
0
  6
Continuous
 62
     7
370
     9
100
AcDbLine
 10
565.153726
 20
465.078425
 30
0.0
 11
566.397988
 21
462.074513
 31
0.0
  0
LINE
  5
2D7
330
1F
100
AcDbEntity
  8
0
  6
Continuous
 62
     7
370
     9
100
AcDbLine
 10
447.787546
 20
538.5
 30
0.0
 11
444.536135
 21
538.5
 31
0.0
  0
LINE
  5
2D8
330
1F
100
AcDbEntity
  8
0
  6
Continuous
 62
     7
370
     9
100
AcDbLine
 10
449.874176
 20
559.685908
 30
0.0
 11
446.685239
 21
560.320227
 31
0.0
  0
LINE
  5
2D9
330
1F
100
AcDbEntity
  8
0
  6
Continuous
 62
     7
370
     9
100
AcDbLine
 10
588.072324
 20
480.392143
 30
0.0
 11
590.371419
 21
478.093048
 31
0.0
  0
ARC
  5
2DA
330
1F
100
AcDbEntity
  8
0
  6
Continuous
 62
     7
370
     9
100
AcDbCircle
 10
531.0
 20
541.0
 30
0.0
 40
86.5
100
AcDbArc
 50
358.343822
 51
1.656178000000011
  0
LINE
  5
2DB
330
1F
100
AcDbEntity
  8
0
  6
Continuous
 62
     7
370
     9
100
AcDbLine
 10
612.125824
 20
559.685908
 30
0.0
 11
615.314761
 21
560.320227
 31
0.0
  0
LINE
  5
2DC
330
1F
100
AcDbEntity
  8
0
  6
Continuous
 62
     7
370
     9
100
AcDbLine
 10
613.101276
 20
554.781981
 30
0.0
 11
616.290212
 21
555.4163
 31
0.0
  0
ARC
  5
2DD
330
1F
100
AcDbEntity
  8
0
  6
Continuous
 62
     7
370
     9
100
AcDbCircle
 10
531.0
 20
541.0
 30
0.0
 40
83.25
100
AcDbArc
 50
324.529147
 51
327.970853
  0
ARC
  5
2DE
330
1F
100
AcDbEntity
  8
0
  6
Continuous
 62
     7
370
     9
100
AcDbCircle
 10
531.0
 20
541.0
 30
0.0
 40
86.5
100
AcDbArc
 50
347.093822
 51
350.406178
  0
ARC
  5
2DF
330
1F
100
AcDbEntity
  8
0
  6
Continuous
 62
     7
370
     9
100
AcDbCircle
 10
531.0
 20
541.0
 30
0.0
 40
86.5
100
AcDbArc
 50
324.593822
 51
327.9061780000001
  0
ARC
  5
2E0
330
1F
100
AcDbEntity
  8
0
  6
Continuous
 62
     7
370
     9
100
AcDbCircle
 10
531.0
 20
541.0
 30
0.0
 40
86.5
100
AcDbArc
 50
9.593822
 51
12.906178
  0
ARC
  5
2E1
330
1F
100
AcDbEntity
  8
0
  6
Continuous
 62
     7
370
     9
100
AcDbCircle
 10
531.0
 20
541.0
 30
0.0
 40
86.5
100
AcDbArc
 50
32.09382200000001
 51
35.40617799999999
  0
LINE
  5
2E2
330
1F
100
AcDbEntity
  8
0
  6
Continuous
 62
     7
370
     9
100
AcDbLine
 10
606.921575
 20
506.8462740000001
 30
0.0
 11
609.925487
 21
505.602012
 31
0.0
  0
LINE
  5
2E3
330
1F
100
AcDbEntity
  8
0
  6
Continuous
 62
     7
370
     9
100
AcDbLine
 10
544.781981
 20
458.898724
 30
0.0
 11
545.4163
 21
455.709788
 31
0.0
  0
ARC
  5
2E4
330
1F
100
AcDbEntity
  8
0
  6
Continuous
 62
     7
370
     9
100
AcDbCircle
 10
531.0
 20
541.0
 30
0.0
 40
83.25
100
AcDbArc
 50
290.779147
 51
294.220853
  0
LINE
  5
2E5
330
1F
100
AcDbEntity
  8
0
  6
Continuous
 62
     7
370
     9
100
AcDbLine
 10
613.101276
 20
527.218019
 30
0.0
 11
616.290212
 21
526.5837
 31
0.0
  0
ARC
  5
2E6
330
1F
100
AcDbEntity
  8
0
  6
Continuous
 62
     7
370
     9
100
AcDbCircle
 10
531.0
 20
541.0
 30
0.0
 40
83.25
100
AcDbArc
 50
335.779147
 51
339.220853
  0
ARC
  5
2E7
330
1F
100
AcDbEntity
  8
0
  6
Continuous
 62
     7
370
     9
100
AcDbCircle
 10
531.0
 20
541.0
 30
0.0
 40
83.25
100
AcDbArc
 50
20.77914699999999
 51
24.220853
  0
ARC
  5
2E8
330
1F
100
AcDbEntity
  8
0
  6
Continuous
 62
     7
370
     9
100
AcDbCircle
 10
531.0
 20
541.0
 30
0.0
 40
83.25
100
AcDbArc
 50
43.279147
 51
46.720853
  0
ARC
  5
2E9
330
1F
100
AcDbEntity
  8
0
  6
Continuous
 62
     7
370
     9
100
AcDbCircle
 10
531.0
 20
541.0
 30
0.0
 40
86.5
100
AcDbArc
 50
43.343822
 51
46.656178
  0
ARC
  5
2EA
330
1F
100
AcDbEntity
  8
0
  6
Continuous
 62
     7
370
     9
100
AcDbCircle
 10
531.0
 20
541.0
 30
0.0
 40
83.25
100
AcDbArc
 50
54.529147
 51
57.970853
  0
LINE
  5
2EB
330
1F
100
AcDbEntity
  8
0
  6
Continuous
 62
     7
370
     9
100
AcDbLine
 10
614.212454
 20
538.5
 30
0.0
 11
617.463865
 21
538.5
 31
0.0
  0
ARC
  5
2EC
330
1F
100
AcDbEntity
  8
0
  6
Continuous
 62
     7
370
     9
100
AcDbCircle
 10
531.0
 20
541.0
 30
0.0
 40
86.5
100
AcDbArc
 50
178.343822
 51
181.656178
  0
LINE
  5
2ED
330
1F
100
AcDbEntity
  8
0
  6
Continuous
 62
     7
370
     9
100
AcDbLine
 10
560.534329
 20
463.165008
 30
0.0
 11
561.77859
 21
460.161096
 31
0.0
  0
ARC
  5
2EE
330
1F
100
AcDbEntity
  8
0
  6
Continuous
 62
     7
370
     9
100
AcDbCircle
 10
531.0
 20
541.0
 30
0.0
 40
83.25
100
AcDbArc
 50
313.279147
 51
316.720853
  0
LINE
  5
2EF
330
1F
100
AcDbEntity
  8
0
  6
Continuous
 62
     7
370
     9
100
AcDbLine
 10
591.607857
 20
483.927676
 30
0.0
 11
593.906952
 21
481.628581
 31
0.0
  0
ARC
  5
2F0
330
1F
100
AcDbEntity
  8
0
  6
Continuous
 62
     7
370
     9
100
AcDbCircle
 10
531.0
 20
541.0
 30
0.0
 40
83.25
100
AcDbArc
 50
358.279147
 51
1.720852999999977
  0
ARC
  5
2F1
330
1F
100
AcDbEntity
  8
0
  6
Continuous
 62
     7
370
     9
100
AcDbCircle
 10
531.0
 20
541.0
 30
0.0
 40
83.25
100
AcDbArc
 50
9.529147
 51
12.970853
  0
ARC
  5
2F2
330
1F
100
AcDbEntity
  8
0
  6
Continuous
 62
     7
370
     9
100
AcDbCircle
 10
531.0
 20
541.0
 30
0.0
 40
86.5
100
AcDbArc
 50
20.843822
 51
24.156178
  0
LINE
  5
2F3
330
1F
100
AcDbEntity
  8
0
  6
Continuous
 62
     7
370
     9
100
AcDbLine
 10
448.898724
 20
554.781981
 30
0.0
 11
445.709788
 21
555.4163
 31
0.0
  0
ARC
  5
2F4
330
1F
100
AcDbEntity
  8
0
  6
Continuous
 62
     7
370
     9
100
AcDbCircle
 10
531.0
 20
541.0
 30
0.0
 40
86.5
100
AcDbArc
 50
245.843822
 51
249.156178
  0
ARC
  5
2F5
330
1F
100
AcDbEntity
  8
0
  6
Continuous
 62
     7
370
     9
100
AcDbCircle
 10
531.0
 20
541.0
 30
0.0
 40
86.5
100
AcDbArc
 50
279.593822
 51
282.906178
  0
LINE
  5
2F6
330
1F
100
AcDbEntity
  8
0
  6
Continuous
 62
     7
370
     9
100
AcDbLine
 10
601.577552
 20
585.151688
 30
0.0
 11
604.281002
 21
586.958076
 31
0.0
  0
LINE
  5
2F7
330
1F
100
AcDbEntity
  8
0
  6
Continuous
 62
     7
370
     9
100
AcDbLine
 10
588.072324
 20
601.607857
 30
0.0
 11
590.371419
 21
603.906952
 31
0.0
  0
ARC
  5
2F8
330
1F
100
AcDbEntity
  8
0
  6
Continuous
 62
     7
370
     9
100
AcDbCircle
 10
531.0
 20
541.0
 30
0.0
 40
83.25
100
AcDbArc
 50
302.029147
 51
305.470853
  0
ARC
  5
2F9
330
1F
100
AcDbEntity
  8
0
  6
Continuous
 62
     7
370
     9
100
AcDbCircle
 10
531.0
 20
541.0
 30
0.0
 40
86.5
100
AcDbArc
 50
167.093822
 51
170.406178
  0
LINE
  5
2FA
330
1F
100
AcDbEntity
  8
0
  6
Continuous
 62
     7
370
     9
100
AcDbLine
 10
591.607857
 20
598.072324
 30
0.0
 11
593.906952
 21
600.371419
 31
0.0
  0
LINE
  5
2FB
330
1F
100
AcDbEntity
  8
0
  6
Continuous
 62
     7
370
     9
100
AcDbLine
 10
575.151688
 20
611.577552
 30
0.0
 11
576.958076
 21
614.281002
 31
0.0
  0
LINE
  5
2FC
330
1F
100
AcDbEntity
  8
0
  6
Continuous
 62
     7
370
     9
100
AcDbLine
 10
579.309036
 20
608.799701
 30
0.0
 11
581.115424
 21
611.503151
 31
0.0
  0
ARC
  5
2FD
330
1F
100
AcDbEntity
  8
0
  6
Continuous
 62
     7
370
     9
100
AcDbCircle
 10
531.0
 20
541.0
 30
0.0
 40
86.5
100
AcDbArc
 50
54.593822
 51
57.90617799999999
  0
ARC
  5
2FE
330
1F
100
AcDbEntity
  8
0
  6
Continuous
 62
     7
370
     9
100
AcDbCircle
 10
531.0
 20
541.0
 30
0.0
 40
83.25
100
AcDbArc
 50
65.779147
 51
69.220853
  0
ARC
  5
2FF
330
1F
100
AcDbEntity
  8
0
  6
Continuous
 62
     7
370
     9
100
AcDbCircle
 10
531.0
 20
541.0
 30
0.0
 40
83.25
100
AcDbArc
 50
178.279147
 51
181.720853
  0
LINE
  5
300
330
1F
100
AcDbEntity
  8
0
  6
Continuous
 62
     7
370
     9
100
AcDbLine
 10
598.799701
 20
589.309036
 30
0.0
 11
601.503151
 21
591.115424
 31
0.0
  0
LINE
  5
301
330
1F
100
AcDbEntity
  8
0
  6
Continuous
 62
     7
370
     9
100
AcDbLine
 10
560.534329
 20
618.834992
 30
0.0
 11
561.77859
 21
621.838904
 31
0.0
  0
LINE
  5
302
330
1F
100
AcDbEntity
  8
0
  6
Continuous
 62
     7
370
     9
100
AcDbLine
 10
608.834992
 20
570.534329
 30
0.0
 11
611.838904
 21
571.77859
 31
0.0
  0
LINE
  5
303
330
1F
100
AcDbEntity
  8
0
  6
Continuous
 62
     7
370
     9
100
AcDbLine
 10
512.314092
 20
622.125824
 30
0.0
 11
511.679773
 21
625.314761
 31
0.0
  0
ARC
  5
304
330
1F
100
AcDbEntity
  8
0
  6
Continuous
 62
     7
370
     9
100
AcDbCircle
 10
531.0
 20
541.0
 30
0.0
 40
83.25
100
AcDbArc
 50
189.529147
 51
192.9708529999999
  0
ARC
  5
305
330
1F
100
AcDbEntity
  8
0
  6
Continuous
 62
     7
370
     9
100
AcDbCircle
 10
531.0
 20
541.0
 30
0.0
 40
83.25
100
AcDbArc
 50
155.779147
 51
159.220853
  0
LINE
  5
306
330
1F
100
AcDbEntity
  8
0
  6
Continuous
 62
     7
370
     9
100
AcDbLine
 10
496.846274
 20
616.921575
 30
0.0
 11
495.602012
 21
619.925487
 31
0.0
  0
LINE
  5
307
330
1F
100
AcDbEntity
  8
0
  6
Continuous
 62
     7
370
     9
100
AcDbLine
 10
460.422448
 20
585.151688
 30
0.0
 11
457.718998
 21
586.958076
 31
0.0
  0
LINE
  5
308
330
1F
100
AcDbEntity
  8
0
  6
Continuous
 62
     7
370
     9
100
AcDbLine
 10
453.165008
 20
511.4656709999999
 30
0.0
 11
450.161096
 21
510.22141
 31
0.0
  0
ARC
  5
309
330
1F
100
AcDbEntity
  8
0
  6
Continuous
 62
     7
370
     9
100
AcDbCircle
 10
531.0
 20
541.0
 30
0.0
 40
83.25
100
AcDbArc
 50
133.279147
 51
136.720853
  0
ARC
  5
30A
330
1F
100
AcDbEntity
  8
0
  6
Continuous
 62
     7
370
     9
100
AcDbCircle
 10
531.0
 20
541.0
 30
0.0
 40
86.5
100
AcDbArc
 50
200.843822
 51
204.156178
  0
LINE
  5
30B
330
1F
100
AcDbEntity
  8
0
  6
Continuous
 62
     7
370
     9
100
AcDbLine
 10
463.200299
 20
492.690964
 30
0.0
 11
460.496849
 21
490.884576
 31
0.0
  0
ARC
  5
30C
330
1F
100
AcDbEntity
  8
0
  6
Continuous
 62
     7
370
     9
100
AcDbCircle
 10
531.0
 20
541.0
 30
0.0
 40
86.5
100
AcDbArc
 50
155.843822
 51
159.156178
  0
ARC
  5
30D
330
1F
100
AcDbEntity
  8
0
  6
Continuous
 62
     7
370
     9
100
AcDbCircle
 10
531.0
 20
541.0
 30
0.0
 40
86.5
100
AcDbArc
 50
144.593822
 51
147.906178
  0
ARC
  5
30E
330
1F
100
AcDbEntity
  8
0
  6
Continuous
 62
     7
370
     9
100
AcDbCircle
 10
531.0
 20
541.0
 30
0.0
 40
86.5
100
AcDbArc
 50
189.593822
 51
192.906178
  0
LINE
  5
30F
330
1F
100
AcDbEntity
  8
0
  6
Continuous
 62
     7
370
     9
100
AcDbLine
 10
460.422448
 20
496.848312
 30
0.0
 11
457.718998
 21
495.041924
 31
0.0
  0
ARC
  5
310
330
1F
100
AcDbEntity
  8
0
  6
Continuous
 62
     7
370
     9
100
AcDbCircle
 10
531.0
 20
541.0
 30
0.0
 40
86.5
100
AcDbArc
 50
212.093822
 51
215.406178
  0
ARC
  5
311
330
1F
100
AcDbEntity
  8
0
  6
Continuous
 62
     7
370
     9
100
AcDbCircle
 10
531.0
 20
541.0
 30
0.0
 40
83.25
100
AcDbArc
 50
223.279147
 51
226.7208529999999
  0
LINE
  5
312
330
1F
100
AcDbEntity
  8
0
  6
Continuous
 62
     7
370
     9
100
AcDbLine
 10
470.392143
 20
483.927676
 30
0.0
 11
468.093048
 21
481.628581
 31
0.0
  0
ARC
  5
313
330
1F
100
AcDbEntity
  8
0
  6
Continuous
 62
     7
370
     9
100
AcDbCircle
 10
531.0
 20
541.0
 30
0.0
 40
83.25
100
AcDbArc
 50
200.779147
 51
204.220853
  0
ARC
  5
314
330
1F
100
AcDbEntity
  8
0
  6
Continuous
 62
     7
370
     9
100
AcDbCircle
 10
531.0
 20
541.0
 30
0.0
 40
83.25
100
AcDbArc
 50
212.0291470000001
 51
215.470853
  0
ARC
  5
315
330
1F
100
AcDbEntity
  8
0
  6
Continuous
 62
     7
370
     9
100
AcDbCircle
 10
531.0
 20
541.0
 30
0.0
 40
86.5
100
AcDbArc
 50
223.343822
 51
226.656178
  0
ARC
  5
316
330
1F
100
AcDbEntity
  8
0
  6
Continuous
 62
     7
370
     9
100
AcDbCircle
 10
531.0
 20
541.0
 30
0.0
 40
83.25
100
AcDbArc
 50
234.529147
 51
237.970853
  0
LINE
  5
317
330
1F
100
AcDbEntity
  8
0
  6
Continuous
 62
     7
370
     9
100
AcDbLine
 10
455.078425
 20
575.153726
 30
0.0
 11
452.074513
 21
576.397988
 31
0.0
  0
ARC
  5
318
330
1F
100
AcDbEntity
  8
0
  6
Continuous
 62
     7
370
     9
100
AcDbCircle
 10
531.0
 20
541.0
 30
0.0
 40
83.25
100
AcDbArc
 50
122.029147
 51
125.470853
  0
LINE
  5
319
330
1F
100
AcDbEntity
  8
0
  6
Continuous
 62
     7
370
     9
100
AcDbLine
 10
486.848312
 20
470.422448
 30
0.0
 11
485.041924
 21
467.718998
 31
0.0
  0
LINE
  5
31A
330
1F
100
AcDbEntity
  8
0
  6
Continuous
 62
     7
370
     9
100
AcDbLine
 10
473.927676
 20
480.392143
 30
0.0
 11
471.628581
 21
478.093048
 31
0.0
  0
LINE
  5
31B
330
1F
100
AcDbEntity
  8
0
  6
Continuous
 62
     7
370
     9
100
AcDbLine
 10
453.165008
 20
570.534329
 30
0.0
 11
450.161096
 21
571.77859
 31
0.0
  0
ARC
  5
31C
330
1F
100
AcDbEntity
  8
0
  6
Continuous
 62
     7
370
     9
100
AcDbCircle
 10
531.0
 20
541.0
 30
0.0
 40
83.25
100
AcDbArc
 50
99.52914700000001
 51
102.970853
  0
ARC
  5
31D
330
1F
100
AcDbEntity
  8
0
  6
Continuous
 62
     7
370
     9
100
AcDbCircle
 10
531.0
 20
541.0
 30
0.0
 40
83.25
100
AcDbArc
 50
110.779147
 51
114.220853
  0
ARC
  5
31E
330
1F
100
AcDbEntity
  8
0
  6
Continuous
 62
     7
370
     9
100
AcDbCircle
 10
531.0
 20
541.0
 30
0.0
 40
86.5
100
AcDbArc
 50
110.843822
 51
114.156178
  0
LINE
  5
31F
330
1F
100
AcDbEntity
  8
0
  6
Continuous
 62
     7
370
     9
100
AcDbLine
 10
501.4656709999999
 20
618.834992
 30
0.0
 11
500.22141
 21
621.838904
 31
0.0
  0
ARC
  5
320
330
1F
100
AcDbEntity
  8
0
  6
Continuous
 62
     7
370
     9
100
AcDbCircle
 10
531.0
 20
541.0
 30
0.0
 40
83.25
100
AcDbArc
 50
144.529147
 51
147.970853
  0
LINE
  5
321
330
1F
100
AcDbEntity
  8
0
  6
Continuous
 62
     7
370
     9
100
AcDbLine
 10
463.200299
 20
589.309036
 30
0.0
 11
460.496849
 21
591.115424
 31
0.0
  0
LINE
  5
322
330
1F
100
AcDbEntity
  8
0
  6
Continuous
 62
     7
370
     9
100
AcDbLine
 10
528.5
 20
624.212454
 30
0.0
 11
528.5
 21
627.463865
 31
0.0
  0
LINE
  5
323
330
1F
100
AcDbEntity
  8
0
  6
Continuous
 62
     7
370
     9
100
AcDbLine
 10
486.848312
 20
611.577552
 30
0.0
 11
485.041924
 21
614.281002
 31
0.0
  0
ARC
  5
324
330
1F
100
AcDbEntity
  8
0
  6
Continuous
 62
     7
370
     9
100
AcDbCircle
 10
531.0
 20
541.0
 30
0.0
 40
86.5
100
AcDbArc
 50
122.093822
 51
125.406178
  0
LINE
  5
325
330
1F
100
AcDbEntity
  8
0
  6
Continuous
 62
     7
370
     9
100
AcDbLine
 10
473.927676
 20
601.607857
 30
0.0
 11
471.628581
 21
603.906952
 31
0.0
  0
LINE
  5
326
330
1F
100
AcDbEntity
  8
0
  6
Continuous
 62
     7
370
     9
100
AcDbLine
 10
470.392143
 20
598.072324
 30
0.0
 11
468.093048
 21
600.371419
 31
0.0
  0
LINE
  5
327
330
1F
100
AcDbEntity
  8
0
  6
Continuous
 62
     7
370
     9
100
AcDbLine
 10
449.874176
 20
522.314092
 30
0.0
 11
446.685239
 21
521.679773
 31
0.0
  0
LINE
  5
328
330
1F
100
AcDbEntity
  8
0
  6
Continuous
 62
     7
370
     9
100
AcDbLine
 10
455.078425
 20
506.8462740000001
 30
0.0
 11
452.074513
 21
505.602012
 31
0.0
  0
LINE
  5
329
330
1F
100
AcDbEntity
  8
0
  6
Continuous
 62
     7
370
     9
100
AcDbLine
 10
482.690964
 20
473.200299
 30
0.0
 11
480.884576
 21
470.496849
 31
0.0
  0
ARC
  5
32A
330
1F
100
AcDbEntity
  8
0
  6
Continuous
 62
     7
370
     9
100
AcDbCircle
 10
531.0
 20
541.0
 30
0.0
 40
86.5
100
AcDbArc
 50
234.593822
 51
237.906178
  0
ARC
  5
32B
330
1F
100
AcDbEntity
  8
0
  6
Continuous
 62
     7
370
     9
100
AcDbCircle
 10
531.0
 20
541.0
 30
0.0
 40
86.5
100
AcDbArc
 50
88.343822
 51
91.656178
  0
ARC
  5
32C
330
1F
100
AcDbEntity
  8
0
  6
Continuous
 62
     7
370
     9
100
AcDbCircle
 10
531.0
 20
541.0
 30
0.0
 40
86.5
100
AcDbArc
 50
99.593822
 51
102.906178
  0
ARC
  5
32D
330
1F
100
AcDbEntity
  8
0
  6
Continuous
 62
     7
370
     9
100
AcDbCircle
 10
531.0
 20
541.0
 30
0.0
 40
83.25
100
AcDbArc
 50
245.7791470000001
 51
249.2208529999999
  0
LINE
  5
32E
330
1F
100
AcDbEntity
  8
0
  6
Continuous
 62
     7
370
     9
100
AcDbLine
 10
501.4656709999999
 20
463.165008
 30
0.0
 11
500.22141
 21
460.161096
 31
0.0
  0
LINE
  5
32F
330
1F
100
AcDbEntity
  8
0
  6
Continuous
 62
     7
370
     9
100
AcDbLine
 10
496.846274
 20
465.078425
 30
0.0
 11
495.602012
 21
462.074513
 31
0.0
  0
LINE
  5
330
330
1F
100
AcDbEntity
  8
0
  6
Continuous
 62
     7
370
     9
100
AcDbLine
 10
448.898724
 20
527.218019
 30
0.0
 11
445.709788
 21
526.5837
 31
0.0
  0
ARC
  5
331
330
1F
100
AcDbEntity
  8
0
  6
Continuous
 62
     7
370
     9
100
AcDbCircle
 10
531.0
 20
541.0
 30
0.0
 40
86.5
100
AcDbArc
 50
133.343822
 51
136.656178
  0
LINE
  5
332
330
1F
100
AcDbEntity
  8
0
  6
Continuous
 62
     7
370
     9
100
AcDbLine
 10
517.218019
 20
623.101276
 30
0.0
 11
516.5837
 21
626.290212
 31
0.0
  0
LINE
  5
333
330
1F
100
AcDbEntity
  8
0
  6
Continuous
 62
     7
370
     9
100
AcDbLine
 10
482.690964
 20
608.799701
 30
0.0
 11
480.884576
 21
611.503151
 31
0.0
  0
ENDSEC
  0
SECTION
  2
OBJECTS
  0
DICTIONARY
  5
C
330
0
100
AcDbDictionary
281
     1
  3
ACAD_DETAILVIEWSTYLE
350
33B
  3
ACAD_GROUP
350
D
  3
ACAD_LAYOUT
350
1A
  3
ACAD_MATERIAL
350
43
  3
ACAD_MLEADERSTYLE
350
6B
  3
ACAD_MLINESTYLE
350
17
  3
ACAD_PLOTSETTINGS
350
19
  3
ACAD_PLOTSTYLENAME
350
E
  3
ACAD_SCALELIST
350
47
  3
ACAD_SECTIONVIEWSTYLE
350
33C
  3
ACAD_TABLESTYLE
350
69
  3
ACAD_VISUALSTYLE
350
2A
  3
ACDB_RECOMPOSE_DATA
350
338
  3
AcDbVariableDictionary
350
334
  0
SUN
  5
6D
330
29
100
AcDbSun
 90
        1
290
     0
 63
     7
421
 16777215
 40
1.0
291
     1
 91
  2455826
 92
 54000000
292
     0
 70
     2
 71
   256
280
     1
  0
DICTIONARY
  5
33B
102
{ACAD_REACTORS
330
C
102
}
330
C
100
AcDbDictionary
281
     1
  0
DICTIONARY
  5
D
102
{ACAD_REACTORS
330
C
102
}
330
C
100
AcDbDictionary
281
     1
  0
DICTIONARY
  5
1A
102
{ACAD_REACTORS
330
C
102
}
330
C
100
AcDbDictionary
281
     1
  3
Layout1
350
1E
  3
Layout2
350
26
  3
Model
350
22
  0
DICTIONARY
  5
43
102
{ACAD_REACTORS
330
C
102
}
330
C
100
AcDbDictionary
281
     1
  3
ByBlock
350
45
  3
ByLayer
350
44
  3
Global
350
46
  0
DICTIONARY
  5
6B
102
{ACAD_REACTORS
330
C
102
}
330
C
100
AcDbDictionary
281
     1
  3
Standard
350
6C
  0
DICTIONARY
  5
17
102
{ACAD_REACTORS
330
C
102
}
330
C
100
AcDbDictionary
281
     1
  3
Standard
350
18
  0
DICTIONARY
  5
19
102
{ACAD_REACTORS
330
C
102
}
330
C
100
AcDbDictionary
281
     1
  0
ACDBDICTIONARYWDFLT
  5
E
102
{ACAD_REACTORS
330
C
102
}
330
C
100
AcDbDictionary
281
     1
  3
Normal
350
F
100
AcDbDictionaryWithDefault
340
F
  0
DICTIONARY
  5
47
102
{ACAD_REACTORS
330
C
102
}
330
C
100
AcDbDictionary
281
     1
  3
A0
350
48
  3
A1
350
49
  3
A2
350
4A
  3
A3
350
4B
  3
A4
350
4C
  3
A5
350
4D
  3
A6
350
4E
  3
A7
350
4F
  3
A8
350
50
  3
A9
350
51
  3
B0
350
52
  3
B1
350
53
  3
B2
350
54
  3
B3
350
55
  3
B4
350
56
  3
B5
350
57
  3
B6
350
58
  3
B7
350
59
  3
B8
350
5A
  3
B9
350
5B
  3
C0
350
5C
  3
C1
350
5D
  3
C2
350
5E
  3
C3
350
5F
  3
C4
350
60
  3
C5
350
61
  3
C6
350
62
  3
C7
350
63
  3
C8
350
64
  3
C9
350
65
  3
D0
350
66
  3
D1
350
67
  3
D2
350
68
  0
DICTIONARY
  5
33C
102
{ACAD_REACTORS
330
C
102
}
330
C
100
AcDbDictionary
281
     1
  0
DICTIONARY
  5
69
102
{ACAD_REACTORS
330
C
102
}
330
C
100
AcDbDictionary
281
     1
  3
Standard
350
6A
  0
DICTIONARY
  5
2A
102
{ACAD_REACTORS
330
C
102
}
330
C
100
AcDbDictionary
281
     1
  3
2dWireframe
350
2F
  3
Basic
350
32
  3
Brighten
350
36
  3
ColorChange
350
3A
  3
Conceptual
350
34
  3
Dim
350
35
  3
EdgeColorOff
350
3D
  3
Facepattern
350
39
  3
Flat
350
2B
  3
FlatWithEdges
350
2C
  3
Gouraud
350
2D
  3
GouraudWithEdges
350
2E
  3
Hidden
350
31
  3
JitterOff
350
3B
  3
Linepattern
350
38
  3
OverhangOff
350
3C
  3
Realistic
350
33
  3
Shaded
350
42
  3
Shaded with edges
350
41
  3
Shades of Gray
350
3E
  3
Sketchy
350
3F
  3
Thicken
350
37
  3
Wireframe
350
30
  3
X-Ray
350
40
  0
XRECORD
  5
338
102
{ACAD_REACTORS
330
C
102
}
330
C
100
AcDbXrecord
280
     1
 90
        1
330
6A
  0
DICTIONARY
  5
334
102
{ACAD_REACTORS
330
C
102
}
330
C
100
AcDbDictionary
281
     1
  3
CANNOSCALE
350
335
  3
CMLEADERSTYLE
350
33A
  3
CTABLESTYLE
350
339
  0
LAYOUT
  5
1E
102
{ACAD_REACTORS
330
1A
102
}
330
1A
100
AcDbPlotSettings
  1

  2
none_device
  4

  6

 40
0.0
 41
0.0
 42
0.0
 43
0.0
 44
0.0
 45
0.0
 46
0.0
 47
0.0
 48
0.0
 49
0.0
140
0.0
141
0.0
142
1.0
143
1.0
 70
   688
 72
     0
 73
     0
 74
     5
  7

 75
    16
 76
     0
 77
     2
 78
   300
147
1.0
148
0.0
149
0.0
100
AcDbLayout
  1
Layout1
 70
     1
 71
     1
 10
0.0
 20
0.0
 11
12.0
 21
9.0
 12
0.0
 22
0.0
 32
0.0
 14
1.000000000000000E+20
 24
1.000000000000000E+20
 34
1.000000000000000E+20
 15
-1.000000000000000E+20
 25
-1.000000000000000E+20
 35
-1.000000000000000E+20
146
0.0
 13
0.0
 23
0.0
 33
0.0
 16
1.0
 26
0.0
 36
0.0
 17
0.0
 27
1.0
 37
0.0
 76
     0
330
1B
  0
LAYOUT
  5
26
102
{ACAD_REACTORS
330
1A
102
}
330
1A
100
AcDbPlotSettings
  1

  2
none_device
  4

  6

 40
0.0
 41
0.0
 42
0.0
 43
0.0
 44
0.0
 45
0.0
 46
0.0
 47
0.0
 48
0.0
 49
0.0
140
0.0
141
0.0
142
1.0
143
1.0
 70
   688
 72
     0
 73
     0
 74
     5
  7

 75
    16
 76
     0
 77
     2
 78
   300
147
1.0
148
0.0
149
0.0
100
AcDbLayout
  1
Layout2
 70
     1
 71
     2
 10
0.0
 20
0.0
 11
0.0
 21
0.0
 12
0.0
 22
0.0
 32
0.0
 14
0.0
 24
0.0
 34
0.0
 15
0.0
 25
0.0
 35
0.0
146
0.0
 13
0.0
 23
0.0
 33
0.0
 16
1.0
 26
0.0
 36
0.0
 17
0.0
 27
1.0
 37
0.0
 76
     0
330
23
  0
LAYOUT
  5
22
102
{ACAD_REACTORS
330
1A
102
}
330
1A
100
AcDbPlotSettings
  1

  2
none_device
  4
Letter_(8.50_x_11.00_Inches)
  6

 40
6.35
 41
6.35
 42
6.35000508
 43
6.35000508
 44
215.9
 45
279.4
 46
0.0
 47
0.0
 48
0.0
 49
0.0
140
0.0
141
0.0
142
1.0
143
1.0
 70
  1712
 72
     0
 73
     0
 74
     0
  7

 75
     0
 76
     0
 77
     2
 78
   300
147
1.0
148
0.0
149
0.0
100
AcDbLayout
  1
Model
 70
     1
 71
     0
 10
0.0
 20
0.0
 11
12.0
 21
9.0
 12
0.0
 22
0.0
 32
0.0
 14
-233.763161
 24
365.5681818181818
 34
0.0
 15
673.5
 25
683.5
 35
0.0
146
0.0
 13
0.0
 23
0.0
 33
0.0
 16
1.0
 26
0.0
 36
0.0
 17
0.0
 27
1.0
 37
0.0
 76
     0
330
1F
331
29
  0
MATERIAL
  5
45
102
{ACAD_REACTORS
330
43
102
}
330
43
100
AcDbMaterial
  1
ByBlock
 72
     1
 94
      127
  0
MATERIAL
  5
44
102
{ACAD_REACTORS
330
43
102
}
330
43
100
AcDbMaterial
  1
ByLayer
 72
     1
 94
      127
  0
MATERIAL
  5
46
102
{ACAD_REACTORS
330
43
102
}
330
43
100
AcDbMaterial
  1
Global
 72
     1
 94
      127
  0
MLEADERSTYLE
  5
6C
102
{ACAD_REACTORS
330
6B
102
}
330
6B
100
AcDbMLeaderStyle
179
     2
170
     2
171
     1
172
     0
 90
        2
 40
0.0
 41
0.0
173
     1
 91
-1056964608
340
14
 92
       -2
290
     1
 42
0.09
291
     1
 43
0.36
  3
Standard
341
0
 44
0.18
300

342
11
174
     1
178
     6
175
     1
176
     0
 93
-1056964608
 45
0.18
292
     0
297
     0
 46
0.18
343
0
 94
-1056964608
 47
1.0
 49
1.0
140
1.0
293
     1
141
0.0
294
     1
177
     0
142
1.0
295
     0
296
     0
143
0.125
271
     0
272
     9
273
     9
298
     0
  0
MLINESTYLE
  5
18
102
{ACAD_REACTORS
330
17
102
}
330
17
100
AcDbMlineStyle
  2
Standard
 70
     0
  3

 62
   256
 51
90.0
 52
90.0
 71
     2
 49
0.5
 62
   256
  6
BYLAYER
 49
-0.5
 62
   256
  6
BYLAYER
  0
ACDBPLACEHOLDER
  5
F
102
{ACAD_REACTORS
330
E
102
}
330
E
  0
SCALE
  5
48
102
{ACAD_REACTORS
330
47
102
}
330
47
100
AcDbScale
 70
     0
300
1:1
140
1.0
141
1.0
290
     1
  0
SCALE
  5
49
102
{ACAD_REACTORS
330
47
102
}
330
47
100
AcDbScale
 70
     0
300
1:2
140
1.0
141
2.0
290
     0
  0
SCALE
  5
4A
102
{ACAD_REACTORS
330
47
102
}
330
47
100
AcDbScale
 70
     0
300
1:4
140
1.0
141
4.0
290
     0
  0
SCALE
  5
4B
102
{ACAD_REACTORS
330
47
102
}
330
47
100
AcDbScale
 70
     0
300
1:5
140
1.0
141
5.0
290
     0
  0
SCALE
  5
4C
102
{ACAD_REACTORS
330
47
102
}
330
47
100
AcDbScale
 70
     0
300
1:8
140
1.0
141
8.0
290
     0
  0
SCALE
  5
4D
102
{ACAD_REACTORS
330
47
102
}
330
47
100
AcDbScale
 70
     0
300
1:10
140
1.0
141
10.0
290
     0
  0
SCALE
  5
4E
102
{ACAD_REACTORS
330
47
102
}
330
47
100
AcDbScale
 70
     0
300
1:16
140
1.0
141
16.0
290
     0
  0
SCALE
  5
4F
102
{ACAD_REACTORS
330
47
102
}
330
47
100
AcDbScale
 70
     0
300
1:20
140
1.0
141
20.0
290
     0
  0
SCALE
  5
50
102
{ACAD_REACTORS
330
47
102
}
330
47
100
AcDbScale
 70
     0
300
1:30
140
1.0
141
30.0
290
     0
  0
SCALE
  5
51
102
{ACAD_REACTORS
330
47
102
}
330
47
100
AcDbScale
 70
     0
300
1:40
140
1.0
141
40.0
290
     0
  0
SCALE
  5
52
102
{ACAD_REACTORS
330
47
102
}
330
47
100
AcDbScale
 70
     0
300
1:50
140
1.0
141
50.0
290
     0
  0
SCALE
  5
53
102
{ACAD_REACTORS
330
47
102
}
330
47
100
AcDbScale
 70
     0
300
1:100
140
1.0
141
100.0
290
     0
  0
SCALE
  5
54
102
{ACAD_REACTORS
330
47
102
}
330
47
100
AcDbScale
 70
     0
300
2:1
140
2.0
141
1.0
290
     0
  0
SCALE
  5
55
102
{ACAD_REACTORS
330
47
102
}
330
47
100
AcDbScale
 70
     0
300
4:1
140
4.0
141
1.0
290
     0
  0
SCALE
  5
56
102
{ACAD_REACTORS
330
47
102
}
330
47
100
AcDbScale
 70
     0
300
8:1
140
8.0
141
1.0
290
     0
  0
SCALE
  5
57
102
{ACAD_REACTORS
330
47
102
}
330
47
100
AcDbScale
 70
     0
300
10:1
140
10.0
141
1.0
290
     0
  0
SCALE
  5
58
102
{ACAD_REACTORS
330
47
102
}
330
47
100
AcDbScale
 70
     0
300
100:1
140
100.0
141
1.0
290
     0
  0
SCALE
  5
59
102
{ACAD_REACTORS
330
47
102
}
330
47
100
AcDbScale
 70
     0
300
1/128" = 1'-0"
140
0.0078125
141
12.0
290
     0
  0
SCALE
  5
5A
102
{ACAD_REACTORS
330
47
102
}
330
47
100
AcDbScale
 70
     0
300
1/64" = 1'-0"
140
0.015625
141
12.0
290
     0
  0
SCALE
  5
5B
102
{ACAD_REACTORS
330
47
102
}
330
47
100
AcDbScale
 70
     0
300
1/32" = 1'-0"
140
0.03125
141
12.0
290
     0
  0
SCALE
  5
5C
102
{ACAD_REACTORS
330
47
102
}
330
47
100
AcDbScale
 70
     0
300
1/16" = 1'-0"
140
0.0625
141
12.0
290
     0
  0
SCALE
  5
5D
102
{ACAD_REACTORS
330
47
102
}
330
47
100
AcDbScale
 70
     0
300
3/32" = 1'-0"
140
0.09375
141
12.0
290
     0
  0
SCALE
  5
5E
102
{ACAD_REACTORS
330
47
102
}
330
47
100
AcDbScale
 70
     0
300
1/8" = 1'-0"
140
0.125
141
12.0
290
     0
  0
SCALE
  5
5F
102
{ACAD_REACTORS
330
47
102
}
330
47
100
AcDbScale
 70
     0
300
3/16" = 1'-0"
140
0.1875
141
12.0
290
     0
  0
SCALE
  5
60
102
{ACAD_REACTORS
330
47
102
}
330
47
100
AcDbScale
 70
     0
300
1/4" = 1'-0"
140
0.25
141
12.0
290
     0
  0
SCALE
  5
61
102
{ACAD_REACTORS
330
47
102
}
330
47
100
AcDbScale
 70
     0
300
3/8" = 1'-0"
140
0.375
141
12.0
290
     0
  0
SCALE
  5
62
102
{ACAD_REACTORS
330
47
102
}
330
47
100
AcDbScale
 70
     0
300
1/2" = 1'-0"
140
0.5
141
12.0
290
     0
  0
SCALE
  5
63
102
{ACAD_REACTORS
330
47
102
}
330
47
100
AcDbScale
 70
     0
300
3/4" = 1'-0"
140
0.75
141
12.0
290
     0
  0
SCALE
  5
64
102
{ACAD_REACTORS
330
47
102
}
330
47
100
AcDbScale
 70
     0
300
1" = 1'-0"
140
1.0
141
12.0
290
     0
  0
SCALE
  5
65
102
{ACAD_REACTORS
330
47
102
}
330
47
100
AcDbScale
 70
     0
300
1-1/2" = 1'-0"
140
1.5
141
12.0
290
     0
  0
SCALE
  5
66
102
{ACAD_REACTORS
330
47
102
}
330
47
100
AcDbScale
 70
     0
300
3" = 1'-0"
140
3.0
141
12.0
290
     0
  0
SCALE
  5
67
102
{ACAD_REACTORS
330
47
102
}
330
47
100
AcDbScale
 70
     0
300
6" = 1'-0"
140
6.0
141
12.0
290
     0
  0
SCALE
  5
68
102
{ACAD_REACTORS
330
47
102
}
330
47
100
AcDbScale
 70
     0
300
1'-0" = 1'-0"
140
12.0
141
12.0
290
     0
  0
TABLESTYLE
  5
6A
102
{ACAD_REACTORS
330
69
102
}
102
{ACAD_XDICTIONARY
360
336
102
}
330
69
100
AcDbTableStyle
  3
Standard
 70
     0
 71
     0
 40
0.06
 41
0.06
280
     0
281
     0
  7
Standard
140
0.18
170
     2
 62
     0
 63
   257
283
     0
 90
        4
 91
        0
  1

274
    -2
284
     1
 64
     0
275
    -2
285
     1
 65
     0
276
    -2
286
     1
 66
     0
277
    -2
287
     1
 67
     0
278
    -2
288
     1
 68
     0
279
    -2
289
     1
 69
     0
  7
Standard
140
0.25
170
     5
 62
     0
 63
   257
283
     0
 90
        4
 91
        0
  1

274
    -2
284
     1
 64
     0
275
    -2
285
     1
 65
     0
276
    -2
286
     1
 66
     0
277
    -2
287
     1
 67
     0
278
    -2
288
     1
 68
     0
279
    -2
289
     1
 69
     0
  7
Standard
140
0.18
170
     5
 62
     0
 63
   257
283
     0
 90
        4
 91
        0
  1

274
    -2
284
     1
 64
     0
275
    -2
285
     1
 65
     0
276
    -2
286
     1
 66
     0
277
    -2
287
     1
 67
     0
278
    -2
288
     1
 68
     0
279
    -2
289
     1
 69
     0
  0
VISUALSTYLE
  5
2F
102
{ACAD_REACTORS
330
2A
102
}
330
2A
100
AcDbVisualStyle
  2
2dWireframe
 70
     4
177
     3
291
     0
 70
    58
 90
        0
176
     1
 90
        2
176
     1
 90
        0
176
     1
 90
        0
176
     1
 40
0.6
176
     1
 40
30.0
176
     1
 62
     7
420
 16777215
176
     1
 90
        1
176
     1
 90
        4
176
     1
 62
     7
176
     1
 62
   257
176
     1
 90
        1
176
     1
 90
        1
176
     1
 40
1.0
176
     1
 90
        0
176
     1
 62
   257
176
     1
 40
1.0
176
     1
 90
        1
176
     1
 90
        6
176
     1
 90
        2
176
     1
 62
     7
176
     1
 90
        5
176
     1
 90
        0
176
     1
 90
        0
176
     1
290
     0
176
     1
 90
        1
176
     1
 40
0.0
176
     1
 90
        0
176
     1
290
     1
176
     1
290
     1
176
     1
290
     0
176
     1
290
     0
176
     1
290
     0
176
     1
290
     0
176
     1
290
     0
176
     1
290
     0
176
     1
290
     0
176
     1
 90
       50
176
     1
 40
0.0
176
     1
 40
1.0
176
     1
 90
        0
176
     1
 62
    18
420
        0
176
     1
 90
       50
176
     1
 90
        3
176
     1
 62
     5
420
      255
176
     1
290
     0
176
     1
 90
       50
176
     1
 90
       50
176
     1
 90
       50
176
     1
290
     0
176
     1
 90
       50
176
     1
 62
   256
176
     0
 40
1.0
176
     0
 90
        2
176
     1
  1
strokes_ogs.tif
176
     1
290
     0
176
     1
 40
1.0
176
     1
 40
1.0
176
     1
  0
VISUALSTYLE
  5
32
102
{ACAD_REACTORS
330
2A
102
}
330
2A
100
AcDbVisualStyle
  2
Basic
 70
     7
177
     3
291
     1
 70
    58
 90
        1
176
     1
 90
        0
176
     1
 90
        1
176
     1
 90
        0
176
     1
 40
0.6
176
     1
 40
30.0
176
     1
 62
     7
420
 16777215
176
     1
 90
        0
176
     1
 90
        4
176
     1
 62
     7
176
     1
 62
   257
176
     1
 90
        1
176
     1
 90
        1
176
     1
 40
1.0
176
     1
 90
        8
176
     1
 62
     7
176
     1
 40
1.0
176
     1
 90
        1
176
     1
 90
        6
176
     1
 90
        2
176
     1
 62
     7
176
     1
 90
        5
176
     1
 90
        0
176
     1
 90
        0
176
     1
290
     0
176
     1
 90
        1
176
     1
 40
0.0
176
     1
 90
        0
176
     1
290
     0
176
     1
290
     1
176
     1
290
     1
176
     1
290
     0
176
     1
290
     0
176
     1
290
     0
176
     1
290
     0
176
     1
290
     0
176
     1
290
     0
176
     1
 90
       50
176
     1
 40
0.0
176
     1
 40
1.0
176
     1
 90
        0
176
     1
 62
    18
420
        0
176
     1
 90
       50
176
     1
 90
        3
176
     1
 62
     5
420
      255
176
     1
290
     0
176
     1
 90
       50
176
     1
 90
       50
176
     1
 90
       50
176
     1
290
     0
176
     1
 90
       50
176
     1
 62
   256
176
     0
 40
1.0
176
     0
 90
        2
176
     1
  1
strokes_ogs.tif
176
     1
290
     0
176
     1
 40
1.0
176
     1
 40
1.0
176
     1
  0
VISUALSTYLE
  5
36
102
{ACAD_REACTORS
330
2A
102
}
330
2A
100
AcDbVisualStyle
  2
Brighten
 70
    12
177
     3
291
     1
 70
    58
 90
        2
176
     1
 90
        2
176
     1
 90
        0
176
     1
 90
        0
176
     1
 40
0.6
176
     1
 40
30.0
176
     1
 62
     7
420
 16777215
176
     1
 90
        1
176
     1
 90
        4
176
     1
 62
     7
176
     1
 62
   257
176
     1
 90
        1
176
     1
 90
        1
176
     1
 40
1.0
176
     1
 90
        8
176
     1
 62
     7
176
     1
 40
1.0
176
     1
 90
        1
176
     1
 90
        6
176
     1
 90
        2
176
     1
 62
     7
176
     1
 90
        5
176
     1
 90
        0
176
     1
 90
        0
176
     1
290
     0
176
     1
 90
        1
176
     1
 40
50.0
176
     1
 90
        0
176
     1
290
     0
176
     1
290
     1
176
     1
290
     1
176
     1
290
     0
176
     1
290
     0
176
     1
290
     0
176
     1
290
     0
176
     1
290
     0
176
     1
290
     0
176
     1
 90
       50
176
     1
 40
0.0
176
     1
 40
1.0
176
     1
 90
        0
176
     1
 62
    18
420
        0
176
     1
 90
       50
176
     1
 90
        3
176
     1
 62
     5
420
      255
176
     1
290
     0
176
     1
 90
       50
176
     1
 90
       50
176
     1
 90
       50
176
     1
290
     0
176
     1
 90
       50
176
     1
 62
   256
176
     0
 40
1.0
176
     0
 90
        2
176
     1
  1
strokes_ogs.tif
176
     1
290
     0
176
     1
 40
1.0
176
     1
 40
1.0
176
     1
  0
VISUALSTYLE
  5
3A
102
{ACAD_REACTORS
330
2A
102
}
330
2A
100
AcDbVisualStyle
  2
ColorChange
 70
    16
177
     3
291
     1
 70
    58
 90
        2
176
     1
 90
        2
176
     1
 90
        3
176
     1
 90
        0
176
     1
 40
0.6
176
     1
 40
30.0
176
     1
 62
     8
420
  8421504
176
     1
 90
        1
176
     1
 90
        4
176
     1
 62
     7
176
     1
 62
   257
176
     1
 90
        1
176
     1
 90
        1
176
     1
 40
1.0
176
     1
 90
        8
176
     1
 62
     8
420
  8421504
176
     1
 40
1.0
176
     1
 90
        1
176
     1
 90
        6
176
     1
 90
        2
176
     1
 62
     7
176
     1
 90
        5
176
     1
 90
        0
176
     1
 90
        0
176
     1
290
     0
176
     1
 90
        1
176
     1
 40
0.0
176
     1
 90
        0
176
     1
290
     0
176
     1
290
     1
176
     1
290
     1
176
     1
290
     0
176
     1
290
     0
176
     1
290
     0
176
     1
290
     0
176
     1
290
     0
176
     1
290
     0
176
     1
 90
       50
176
     1
 40
0.0
176
     1
 40
1.0
176
     1
 90
        0
176
     1
 62
    18
420
        0
176
     1
 90
       50
176
     1
 90
        3
176
     1
 62
     5
420
      255
176
     1
290
     0
176
     1
 90
       50
176
     1
 90
       50
176
     1
 90
       50
176
     1
290
     0
176
     1
 90
       50
176
     1
 62
   256
176
     0
 40
1.0
176
     0
 90
        2
176
     1
  1
strokes_ogs.tif
176
     1
290
     0
176
     1
 40
1.0
176
     1
 40
1.0
176
     1
  0
VISUALSTYLE
  5
34
102
{ACAD_REACTORS
330
2A
102
}
330
2A
100
AcDbVisualStyle
  2
Conceptual
 70
     9
177
     3
291
     0
 70
    58
 90
        3
176
     1
 90
        2
176
     1
 90
        0
176
     1
 90
        0
176
     1
 40
0.6
176
     1
 40
30.0
176
     1
 62
     7
420
 16777215
176
     1
 90
        2
176
     1
 90
        2
176
     1
 62
     7
176
     1
 62
   257
176
     1
 90
        1
176
     1
 90
        1
176
     1
 40
179.0
176
     1
 90
        8
176
     1
 62
     7
176
     1
 40
1.0
176
     1
 90
        1
176
     1
 90
        6
176
     1
 90
        2
176
     1
 62
     7
176
     1
 90
        3
176
     1
 90
        0
176
     1
 90
        0
176
     1
290
     0
176
     1
 90
        1
176
     1
 40
0.0
176
     1
 90
        0
176
     1
290
     0
176
     1
290
     1
176
     1
290
     1
176
     1
290
     0
176
     1
290
     0
176
     1
290
     0
176
     1
290
     0
176
     1
290
     0
176
     1
290
     0
176
     1
 90
       50
176
     1
 40
0.0
176
     1
 40
1.0
176
     1
 90
        0
176
     1
 62
    18
420
        0
176
     1
 90
       50
176
     1
 90
        3
176
     1
 62
     5
420
      255
176
     1
290
     0
176
     1
 90
       50
176
     1
 90
       50
176
     1
 90
       50
176
     1
290
     0
176
     1
 90
       50
176
     1
 62
   256
176
     0
 40
1.0
176
     0
 90
        2
176
     1
  1
strokes_ogs.tif
176
     1
290
     0
176
     1
 40
1.0
176
     1
 40
1.0
176
     1
  0
VISUALSTYLE
  5
35
102
{ACAD_REACTORS
330
2A
102
}
330
2A
100
AcDbVisualStyle
  2
Dim
 70
    11
177
     3
291
     1
 70
    58
 90
        2
176
     1
 90
        2
176
     1
 90
        0
176
     1
 90
        0
176
     1
 40
0.6
176
     1
 40
30.0
176
     1
 62
     7
420
 16777215
176
     1
 90
        1
176
     1
 90
        4
176
     1
 62
     7
176
     1
 62
   257
176
     1
 90
        1
176
     1
 90
        1
176
     1
 40
1.0
176
     1
 90
        8
176
     1
 62
     7
176
     1
 40
1.0
176
     1
 90
        1
176
     1
 90
        6
176
     1
 90
        2
176
     1
 62
     7
176
     1
 90
        5
176
     1
 90
        0
176
     1
 90
        0
176
     1
290
     0
176
     1
 90
        1
176
     1
 40
-50.0
176
     1
 90
        0
176
     1
290
     0
176
     1
290
     1
176
     1
290
     1
176
     1
290
     0
176
     1
290
     0
176
     1
290
     0
176
     1
290
     0
176
     1
290
     0
176
     1
290
     0
176
     1
 90
       50
176
     1
 40
0.0
176
     1
 40
1.0
176
     1
 90
        0
176
     1
 62
    18
420
        0
176
     1
 90
       50
176
     1
 90
        3
176
     1
 62
     5
420
      255
176
     1
290
     0
176
     1
 90
       50
176
     1
 90
       50
176
     1
 90
       50
176
     1
290
     0
176
     1
 90
       50
176
     1
 62
   256
176
     0
 40
1.0
176
     0
 90
        2
176
     1
  1
strokes_ogs.tif
176
     1
290
     0
176
     1
 40
1.0
176
     1
 40
1.0
176
     1
  0
VISUALSTYLE
  5
3D
102
{ACAD_REACTORS
330
2A
102
}
330
2A
100
AcDbVisualStyle
  2
EdgeColorOff
 70
    22
177
     3
291
     1
 70
    58
 90
        2
176
     0
 90
        2
176
     0
 90
        0
176
     0
 90
        0
176
     0
 40
0.6
176
     0
 40
30.0
176
     0
 62
     7
420
 16777215
176
     0
 90
        1
176
     0
 90
        4
176
     0
 62
     7
176
     0
 62
   257
176
     0
 90
        1
176
     0
 90
        1
176
     0
 40
1.0
176
     0
 90
        8
176
     2
 62
     7
176
     0
 40
1.0
176
     0
 90
        1
176
     0
 90
        6
176
     0
 90
        2
176
     0
 62
     7
176
     0
 90
        5
176
     0
 90
        0
176
     0
 90
        0
176
     0
290
     0
176
     0
 90
        1
176
     0
 40
0.0
176
     0
 90
        0
176
     0
290
     0
176
     0
290
     1
176
     0
290
     1
176
     0
290
     0
176
     0
290
     0
176
     0
290
     0
176
     0
290
     0
176
     0
290
     0
176
     0
290
     0
176
     0
 90
       50
176
     0
 40
0.0
176
     0
 40
1.0
176
     0
 90
        0
176
     0
 62
    18
420
        0
176
     0
 90
       50
176
     0
 90
        3
176
     0
 62
     5
420
      255
176
     0
290
     0
176
     0
 90
       50
176
     0
 90
       50
176
     0
 90
       50
176
     0
290
     0
176
     0
 90
       50
176
     0
 62
   256
176
     0
 40
1.0
176
     0
 90
        2
176
     0
  1
strokes_ogs.tif
176
     0
290
     0
176
     0
 40
1.0
176
     0
 40
1.0
176
     0
  0
VISUALSTYLE
  5
39
102
{ACAD_REACTORS
330
2A
102
}
330
2A
100
AcDbVisualStyle
  2
Facepattern
 70
    15
177
     3
291
     1
 70
    58
 90
        2
176
     1
 90
        2
176
     1
 90
        0
176
     1
 90
        0
176
     1
 40
0.6
176
     1
 40
30.0
176
     1
 62
     7
420
 16777215
176
     1
 90
        1
176
     1
 90
        4
176
     1
 62
     7
176
     1
 62
   257
176
     1
 90
        1
176
     1
 90
        1
176
     1
 40
1.0
176
     1
 90
        8
176
     1
 62
     7
176
     1
 40
1.0
176
     1
 90
        1
176
     1
 90
        6
176
     1
 90
        2
176
     1
 62
     7
176
     1
 90
        5
176
     1
 90
        0
176
     1
 90
        0
176
     1
290
     0
176
     1
 90
        1
176
     1
 40
0.0
176
     1
 90
        0
176
     1
290
     0
176
     1
290
     1
176
     1
290
     1
176
     1
290
     0
176
     1
290
     0
176
     1
290
     0
176
     1
290
     0
176
     1
290
     0
176
     1
290
     0
176
     1
 90
       50
176
     1
 40
0.0
176
     1
 40
1.0
176
     1
 90
        0
176
     1
 62
    18
420
        0
176
     1
 90
       50
176
     1
 90
        3
176
     1
 62
     5
420
      255
176
     1
290
     0
176
     1
 90
       50
176
     1
 90
       50
176
     1
 90
       50
176
     1
290
     0
176
     1
 90
       50
176
     1
 62
   256
176
     0
 40
1.0
176
     0
 90
        2
176
     1
  1
strokes_ogs.tif
176
     1
290
     0
176
     1
 40
1.0
176
     1
 40
1.0
176
     1
  0
VISUALSTYLE
  5
2B
102
{ACAD_REACTORS
330
2A
102
}
330
2A
100
AcDbVisualStyle
  2
Flat
 70
     0
177
     3
291
     1
 70
    58
 90
        2
176
     1
 90
        1
176
     1
 90
        1
176
     1
 90
        2
176
     1
 40
0.6
176
     1
 40
30.0
176
     1
 62
     7
420
 16777215
176
     1
 90
        0
176
     1
 90
        0
176
     1
 62
     7
176
     1
 62
   257
176
     1
 90
        1
176
     1
 90
        1
176
     1
 40
1.0
176
     1
 90
        8
176
     1
 62
     7
176
     1
 40
1.0
176
     1
 90
        1
176
     1
 90
        6
176
     1
 90
        2
176
     1
 62
     7
176
     1
 90
        5
176
     1
 90
        0
176
     1
 90
        0
176
     1
290
     0
176
     1
 90
       13
176
     1
 40
0.0
176
     1
 90
        0
176
     1
290
     0
176
     1
290
     1
176
     1
290
     1
176
     1
290
     0
176
     1
290
     0
176
     1
290
     0
176
     1
290
     0
176
     1
290
     0
176
     1
290
     0
176
     1
 90
       50
176
     1
 40
0.0
176
     1
 40
1.0
176
     1
 90
        0
176
     1
 62
    18
420
        0
176
     1
 90
       50
176
     1
 90
        3
176
     1
 62
     5
420
      255
176
     1
290
     0
176
     1
 90
       50
176
     1
 90
       50
176
     1
 90
       50
176
     1
290
     0
176
     1
 90
       50
176
     1
 62
   256
176
     0
 40
1.0
176
     0
 90
        2
176
     1
  1
strokes_ogs.tif
176
     1
290
     0
176
     1
 40
1.0
176
     1
 40
1.0
176
     1
  0
VISUALSTYLE
  5
2C
102
{ACAD_REACTORS
330
2A
102
}
330
2A
100
AcDbVisualStyle
  2
FlatWithEdges
 70
     1
177
     3
291
     1
 70
    58
 90
        2
176
     1
 90
        1
176
     1
 90
        1
176
     1
 90
        2
176
     1
 40
0.6
176
     1
 40
30.0
176
     1
 62
     7
420
 16777215
176
     1
 90
        1
176
     1
 90
        0
176
     1
 62
     7
176
     1
 62
   257
176
     1
 90
        1
176
     1
 90
        1
176
     1
 40
1.0
176
     1
 90
        0
176
     1
 62
   257
176
     1
 40
1.0
176
     1
 90
        1
176
     1
 90
        6
176
     1
 90
        2
176
     1
 62
     7
176
     1
 90
        5
176
     1
 90
        0
176
     1
 90
        0
176
     1
290
     0
176
     1
 90
       13
176
     1
 40
0.0
176
     1
 90
        0
176
     1
290
     0
176
     1
290
     1
176
     1
290
     1
176
     1
290
     0
176
     1
290
     0
176
     1
290
     0
176
     1
290
     0
176
     1
290
     0
176
     1
290
     0
176
     1
 90
       50
176
     1
 40
0.0
176
     1
 40
1.0
176
     1
 90
        0
176
     1
 62
    18
420
        0
176
     1
 90
       50
176
     1
 90
        3
176
     1
 62
     5
420
      255
176
     1
290
     0
176
     1
 90
       50
176
     1
 90
       50
176
     1
 90
       50
176
     1
290
     0
176
     1
 90
       50
176
     1
 62
   256
176
     0
 40
1.0
176
     0
 90
        2
176
     1
  1
strokes_ogs.tif
176
     1
290
     0
176
     1
 40
1.0
176
     1
 40
1.0
176
     1
  0
VISUALSTYLE
  5
2D
102
{ACAD_REACTORS
330
2A
102
}
330
2A
100
AcDbVisualStyle
  2
Gouraud
 70
     2
177
     3
291
     1
 70
    58
 90
        2
176
     1
 90
        2
176
     1
 90
        1
176
     1
 90
        2
176
     1
 40
0.6
176
     1
 40
30.0
176
     1
 62
     7
420
 16777215
176
     1
 90
        0
176
     1
 90
        0
176
     1
 62
     7
176
     1
 62
   257
176
     1
 90
        1
176
     1
 90
        1
176
     1
 40
1.0
176
     1
 90
        0
176
     1
 62
     7
176
     1
 40
1.0
176
     1
 90
        1
176
     1
 90
        6
176
     1
 90
        2
176
     1
 62
     7
176
     1
 90
        5
176
     1
 90
        0
176
     1
 90
        0
176
     1
290
     0
176
     1
 90
       13
176
     1
 40
0.0
176
     1
 90
        0
176
     1
290
     0
176
     1
290
     1
176
     1
290
     1
176
     1
290
     0
176
     1
290
     0
176
     1
290
     0
176
     1
290
     0
176
     1
290
     0
176
     1
290
     0
176
     1
 90
       50
176
     1
 40
0.0
176
     1
 40
1.0
176
     1
 90
        0
176
     1
 62
    18
420
        0
176
     1
 90
       50
176
     1
 90
        3
176
     1
 62
     5
420
      255
176
     1
290
     0
176
     1
 90
       50
176
     1
 90
       50
176
     1
 90
       50
176
     1
290
     0
176
     1
 90
       50
176
     1
 62
   256
176
     0
 40
1.0
176
     0
 90
        2
176
     1
  1
strokes_ogs.tif
176
     1
290
     0
176
     1
 40
1.0
176
     1
 40
1.0
176
     1
  0
VISUALSTYLE
  5
2E
102
{ACAD_REACTORS
330
2A
102
}
330
2A
100
AcDbVisualStyle
  2
GouraudWithEdges
 70
     3
177
     3
291
     1
 70
    58
 90
        2
176
     1
 90
        2
176
     1
 90
        1
176
     1
 90
        2
176
     1
 40
0.6
176
     1
 40
30.0
176
     1
 62
     7
420
 16777215
176
     1
 90
        1
176
     1
 90
        0
176
     1
 62
     7
176
     1
 62
   257
176
     1
 90
        1
176
     1
 90
        1
176
     1
 40
1.0
176
     1
 90
        0
176
     1
 62
   257
176
     1
 40
1.0
176
     1
 90
        1
176
     1
 90
        6
176
     1
 90
        2
176
     1
 62
     7
176
     1
 90
        5
176
     1
 90
        0
176
     1
 90
        0
176
     1
290
     0
176
     1
 90
       13
176
     1
 40
0.0
176
     1
 90
        0
176
     1
290
     0
176
     1
290
     1
176
     1
290
     1
176
     1
290
     0
176
     1
290
     0
176
     1
290
     0
176
     1
290
     0
176
     1
290
     0
176
     1
290
     0
176
     1
 90
       50
176
     1
 40
0.0
176
     1
 40
1.0
176
     1
 90
        0
176
     1
 62
    18
420
        0
176
     1
 90
       50
176
     1
 90
        3
176
     1
 62
     5
420
      255
176
     1
290
     0
176
     1
 90
       50
176
     1
 90
       50
176
     1
 90
       50
176
     1
290
     0
176
     1
 90
       50
176
     1
 62
   256
176
     0
 40
1.0
176
     0
 90
        2
176
     1
  1
strokes_ogs.tif
176
     1
290
     0
176
     1
 40
1.0
176
     1
 40
1.0
176
     1
  0
VISUALSTYLE
  5
31
102
{ACAD_REACTORS
330
2A
102
}
330
2A
100
AcDbVisualStyle
  2
Hidden
 70
     6
177
     3
291
     0
 70
    58
 90
        1
176
     1
 90
        2
176
     1
 90
        2
176
     1
 90
        0
176
     1
 40
0.6
176
     1
 40
30.0
176
     1
 62
     7
420
 16777215
176
     1
 90
        2
176
     1
 90
        2
176
     1
 62
     7
176
     1
 62
   257
176
     1
 90
        2
176
     1
 90
        1
176
     1
 40
40.0
176
     1
 90
        0
176
     1
 62
   257
176
     1
 40
1.0
176
     1
 90
        1
176
     1
 90
        6
176
     1
 90
        2
176
     1
 62
     7
176
     1
 90
        3
176
     1
 90
        0
176
     1
 90
        0
176
     1
290
     0
176
     1
 90
        1
176
     1
 40
0.0
176
     1
 90
        0
176
     1
290
     0
176
     1
290
     1
176
     1
290
     1
176
     1
290
     0
176
     1
290
     0
176
     1
290
     0
176
     1
290
     0
176
     1
290
     0
176
     1
290
     0
176
     1
 90
       50
176
     1
 40
0.0
176
     1
 40
1.0
176
     1
 90
        0
176
     1
 62
    18
420
        0
176
     1
 90
       50
176
     1
 90
        3
176
     1
 62
     5
420
      255
176
     1
290
     0
176
     1
 90
       50
176
     1
 90
       50
176
     1
 90
       50
176
     1
290
     0
176
     1
 90
       50
176
     1
 62
   256
176
     0
 40
1.0
176
     0
 90
        2
176
     1
  1
strokes_ogs.tif
176
     1
290
     0
176
     1
 40
1.0
176
     1
 40
1.0
176
     1
  0
VISUALSTYLE
  5
3B
102
{ACAD_REACTORS
330
2A
102
}
330
2A
100
AcDbVisualStyle
  2
JitterOff
 70
    20
177
     3
291
     1
 70
    58
 90
        2
176
     0
 90
        2
176
     0
 90
        0
176
     0
 90
        0
176
     0
 40
0.6
176
     0
 40
30.0
176
     0
 62
     7
420
 16777215
176
     0
 90
        1
176
     0
 90
        4
176
     0
 62
     7
176
     0
 62
   257
176
     0
 90
        1
176
     0
 90
        1
176
     0
 40
1.0
176
     0
 90
       10
176
     2
 62
     7
176
     0
 40
1.0
176
     0
 90
        1
176
     0
 90
        6
176
     0
 90
        2
176
     0
 62
     7
176
     0
 90
        5
176
     0
 90
        0
176
     0
 90
        0
176
     0
290
     0
176
     0
 90
        1
176
     0
 40
0.0
176
     0
 90
        0
176
     0
290
     0
176
     0
290
     1
176
     0
290
     1
176
     0
290
     0
176
     0
290
     0
176
     0
290
     0
176
     0
290
     0
176
     0
290
     0
176
     0
290
     0
176
     0
 90
       50
176
     0
 40
0.0
176
     0
 40
1.0
176
     0
 90
        0
176
     0
 62
    18
420
        0
176
     0
 90
       50
176
     0
 90
        3
176
     0
 62
     5
420
      255
176
     0
290
     0
176
     0
 90
       50
176
     0
 90
       50
176
     0
 90
       50
176
     0
290
     0
176
     0
 90
       50
176
     0
 62
   256
176
     0
 40
1.0
176
     0
 90
        2
176
     0
  1
strokes_ogs.tif
176
     0
290
     0
176
     0
 40
1.0
176
     0
 40
1.0
176
     0
  0
VISUALSTYLE
  5
38
102
{ACAD_REACTORS
330
2A
102
}
330
2A
100
AcDbVisualStyle
  2
Linepattern
 70
    14
177
     3
291
     1
 70
    58
 90
        2
176
     1
 90
        2
176
     1
 90
        0
176
     1
 90
        0
176
     1
 40
0.6
176
     1
 40
30.0
176
     1
 62
     7
420
 16777215
176
     1
 90
        1
176
     1
 90
        4
176
     1
 62
     7
176
     1
 62
   257
176
     1
 90
        7
176
     1
 90
        7
176
     1
 40
1.0
176
     1
 90
        8
176
     1
 62
     7
176
     1
 40
1.0
176
     1
 90
        1
176
     1
 90
        6
176
     1
 90
        2
176
     1
 62
     7
176
     1
 90
        5
176
     1
 90
        0
176
     1
 90
        0
176
     1
290
     0
176
     1
 90
        1
176
     1
 40
0.0
176
     1
 90
        0
176
     1
290
     0
176
     1
290
     1
176
     1
290
     1
176
     1
290
     0
176
     1
290
     0
176
     1
290
     0
176
     1
290
     0
176
     1
290
     0
176
     1
290
     0
176
     1
 90
       50
176
     1
 40
0.0
176
     1
 40
1.0
176
     1
 90
        0
176
     1
 62
    18
420
        0
176
     1
 90
       50
176
     1
 90
        3
176
     1
 62
     5
420
      255
176
     1
290
     0
176
     1
 90
       50
176
     1
 90
       50
176
     1
 90
       50
176
     1
290
     0
176
     1
 90
       50
176
     1
 62
   256
176
     0
 40
1.0
176
     0
 90
        2
176
     1
  1
strokes_ogs.tif
176
     1
290
     0
176
     1
 40
1.0
176
     1
 40
1.0
176
     1
  0
VISUALSTYLE
  5
3C
102
{ACAD_REACTORS
330
2A
102
}
330
2A
100
AcDbVisualStyle
  2
OverhangOff
 70
    21
177
     3
291
     1
 70
    58
 90
        2
176
     0
 90
        2
176
     0
 90
        0
176
     0
 90
        0
176
     0
 40
0.6
176
     0
 40
30.0
176
     0
 62
     7
420
 16777215
176
     0
 90
        1
176
     0
 90
        4
176
     0
 62
     7
176
     0
 62
   257
176
     0
 90
        1
176
     0
 90
        1
176
     0
 40
1.0
176
     0
 90
        9
176
     2
 62
     7
176
     0
 40
1.0
176
     0
 90
        1
176
     0
 90
        6
176
     0
 90
        2
176
     0
 62
     7
176
     0
 90
        5
176
     0
 90
        0
176
     0
 90
        0
176
     0
290
     0
176
     0
 90
        1
176
     0
 40
0.0
176
     0
 90
        0
176
     0
290
     0
176
     0
290
     1
176
     0
290
     1
176
     0
290
     0
176
     0
290
     0
176
     0
290
     0
176
     0
290
     0
176
     0
290
     0
176
     0
290
     0
176
     0
 90
       50
176
     0
 40
0.0
176
     0
 40
1.0
176
     0
 90
        0
176
     0
 62
    18
420
        0
176
     0
 90
       50
176
     0
 90
        3
176
     0
 62
     5
420
      255
176
     0
290
     0
176
     0
 90
       50
176
     0
 90
       50
176
     0
 90
       50
176
     0
290
     0
176
     0
 90
       50
176
     0
 62
   256
176
     0
 40
1.0
176
     0
 90
        2
176
     0
  1
strokes_ogs.tif
176
     0
290
     0
176
     0
 40
1.0
176
     0
 40
1.0
176
     0
  0
VISUALSTYLE
  5
33
102
{ACAD_REACTORS
330
2A
102
}
330
2A
100
AcDbVisualStyle
  2
Realistic
 70
     8
177
     3
291
     0
 70
    58
 90
        2
176
     1
 90
        3
176
     1
 90
        0
176
     1
 90
        2
176
     1
 40
0.6
176
     1
 40
30.0
176
     1
 62
     7
420
 16777215
176
     1
 90
        0
176
     1
 90
        0
176
     1
 62
     7
176
     1
 62
   257
176
     1
 90
        1
176
     1
 90
        1
176
     1
 40
1.0
176
     1
 90
        8
176
     1
 62
   257
176
     1
 40
1.0
176
     1
 90
        1
176
     1
 90
        6
176
     1
 90
        2
176
     1
 62
     7
176
     1
 90
        3
176
     1
 90
        0
176
     1
 90
        0
176
     1
290
     0
176
     1
 90
       13
176
     1
 40
0.0
176
     1
 90
        0
176
     1
290
     0
176
     1
290
     1
176
     1
290
     1
176
     1
290
     0
176
     1
290
     0
176
     1
290
     0
176
     1
290
     0
176
     1
290
     0
176
     1
290
     0
176
     1
 90
       50
176
     1
 40
0.0
176
     1
 40
1.0
176
     1
 90
        0
176
     1
 62
    18
420
        0
176
     1
 90
       50
176
     1
 90
        3
176
     1
 62
     5
420
      255
176
     1
290
     0
176
     1
 90
       50
176
     1
 90
       50
176
     1
 90
       50
176
     1
290
     0
176
     1
 90
       50
176
     1
 62
   256
176
     0
 40
1.0
176
     0
 90
        2
176
     1
  1
strokes_ogs.tif
176
     1
290
     0
176
     1
 40
1.0
176
     1
 40
1.0
176
     1
  0
VISUALSTYLE
  5
42
102
{ACAD_REACTORS
330
2A
102
}
330
2A
100
AcDbVisualStyle
  2
Shaded
 70
    27
177
     3
291
     0
 70
    58
 90
        2
176
     1
 90
        2
176
     1
 90
        1
176
     1
 90
        2
176
     1
 40
0.6
176
     1
 40
30.0
176
     1
 62
     7
420
 16777215
176
     1
 90
        0
176
     1
 90
        4
176
     1
 62
     7
176
     1
 62
   257
176
     1
 90
        1
176
     1
 90
        1
176
     1
 40
1.0
176
     1
 90
        8
176
     1
 62
   257
176
     1
 40
1.0
176
     1
 90
        1
176
     1
 90
        6
176
     1
 90
        2
176
     1
 62
     8
420
  7895160
176
     1
 90
        3
176
     1
 90
        0
176
     1
 90
        0
176
     1
290
     0
176
     1
 90
        5
176
     1
 40
0.0
176
     1
 90
        0
176
     1
290
     0
176
     1
290
     1
176
     1
290
     1
176
     1
290
     0
176
     1
290
     0
176
     1
290
     0
176
     1
290
     0
176
     1
290
     0
176
     1
290
     0
176
     1
 90
       50
176
     1
 40
0.0
176
     1
 40
1.0
176
     1
 90
        0
176
     1
 62
    18
420
        0
176
     1
 90
       50
176
     1
 90
        3
176
     1
 62
     5
420
      255
176
     1
290
     0
176
     1
 90
       50
176
     1
 90
       50
176
     1
 90
       50
176
     1
290
     0
176
     1
 90
       50
176
     1
 62
   256
176
     0
 40
1.0
176
     0
 90
        2
176
     1
  1
strokes_ogs.tif
176
     1
290
     0
176
     1
 40
1.0
176
     1
 40
1.0
176
     1
  0
VISUALSTYLE
  5
41
102
{ACAD_REACTORS
330
2A
102
}
330
2A
100
AcDbVisualStyle
  2
Shaded with edges
 70
    26
177
     3
291
     0
 70
    58
 90
        2
176
     1
 90
        2
176
     1
 90
        1
176
     1
 90
        2
176
     1
 40
0.6
176
     1
 40
30.0
176
     1
 62
     7
420
 16777215
176
     1
 90
        1
176
     1
 90
       10
176
     1
 62
     7
176
     1
 62
   257
176
     1
 90
        2
176
     1
 90
        1
176
     1
 40
1.0
176
     1
 90
        8
176
     1
 62
   257
176
     1
 40
1.0
176
     1
 90
        1
176
     1
 90
        6
176
     1
 90
        2
176
     1
 62
     7
176
     1
 90
        3
176
     1
 90
        0
176
     1
 90
        0
176
     1
290
     0
176
     1
 90
        5
176
     1
 40
0.0
176
     1
 90
        0
176
     1
290
     0
176
     1
290
     1
176
     1
290
     1
176
     1
290
     0
176
     1
290
     0
176
     1
290
     0
176
     1
290
     0
176
     1
290
     0
176
     1
290
     0
176
     1
 90
       50
176
     1
 40
0.0
176
     1
 40
1.0
176
     1
 90
        0
176
     1
 62
    18
420
        0
176
     1
 90
       50
176
     1
 90
        3
176
     1
 62
     5
420
      255
176
     1
290
     0
176
     1
 90
       50
176
     1
 90
       50
176
     1
 90
       50
176
     1
290
     0
176
     1
 90
       50
176
     1
 62
   256
176
     0
 40
1.0
176
     0
 90
        2
176
     1
  1
strokes_ogs.tif
176
     1
290
     0
176
     1
 40
1.0
176
     1
 40
1.0
176
     1
  0
VISUALSTYLE
  5
3E
102
{ACAD_REACTORS
330
2A
102
}
330
2A
100
AcDbVisualStyle
  2
Shades of Gray
 70
    23
177
     3
291
     0
 70
    58
 90
        2
176
     1
 90
        2
176
     1
 90
        3
176
     1
 90
        0
176
     1
 40
0.6
176
     1
 40
30.0
176
     1
 62
     7
420
 16777215
176
     1
 90
        2
176
     1
 90
        2
176
     1
 62
     7
176
     1
 62
     7
176
     1
 90
        1
176
     1
 90
        1
176
     1
 40
40.0
176
     1
 90
        8
176
     1
 62
     7
176
     1
 40
1.0
176
     1
 90
        1
176
     1
 90
        6
176
     1
 90
        2
176
     1
 62
     7
176
     1
 90
        3
176
     1
 90
        0
176
     1
 90
        0
176
     1
290
     0
176
     1
 90
        1
176
     1
 40
0.0
176
     1
 90
        0
176
     1
290
     0
176
     1
290
     1
176
     1
290
     1
176
     1
290
     0
176
     1
290
     0
176
     1
290
     0
176
     1
290
     0
176
     1
290
     0
176
     1
290
     0
176
     1
 90
       50
176
     1
 40
0.0
176
     1
 40
1.0
176
     1
 90
        0
176
     1
 62
    18
420
        0
176
     1
 90
       50
176
     1
 90
        3
176
     1
 62
     5
420
      255
176
     1
290
     0
176
     1
 90
       50
176
     1
 90
       50
176
     1
 90
       50
176
     1
290
     0
176
     1
 90
       50
176
     1
 62
   256
176
     0
 40
1.0
176
     0
 90
        2
176
     1
  1
strokes_ogs.tif
176
     1
290
     0
176
     1
 40
1.0
176
     1
 40
1.0
176
     1
  0
VISUALSTYLE
  5
3F
102
{ACAD_REACTORS
330
2A
102
}
330
2A
100
AcDbVisualStyle
  2
Sketchy
 70
    24
177
     3
291
     0
 70
    58
 90
        1
176
     1
 90
        2
176
     1
 90
        2
176
     1
 90
        0
176
     1
 40
0.6
176
     1
 40
30.0
176
     1
 62
     7
420
 16777215
176
     1
 90
        2
176
     1
 90
        2
176
     1
 62
     7
176
     1
 62
     7
176
     1
 90
        1
176
     1
 90
        1
176
     1
 40
40.0
176
     1
 90
       11
176
     1
 62
     7
176
     1
 40
1.0
176
     1
 90
        1
176
     1
 90
        6
176
     1
 90
        2
176
     1
 62
     7
176
     1
 90
        6
176
     1
 90
        0
176
     1
 90
        0
176
     1
290
     0
176
     1
 90
        1
176
     1
 40
0.0
176
     1
 90
        0
176
     1
290
     0
176
     1
290
     1
176
     1
290
     1
176
     1
290
     0
176
     1
290
     0
176
     1
290
     0
176
     1
290
     0
176
     1
290
     0
176
     1
290
     0
176
     1
 90
       50
176
     1
 40
0.0
176
     1
 40
1.0
176
     1
 90
        0
176
     1
 62
    18
420
        0
176
     1
 90
       50
176
     1
 90
        3
176
     1
 62
     5
420
      255
176
     1
290
     0
176
     1
 90
       50
176
     1
 90
       50
176
     1
 90
       50
176
     1
290
     0
176
     1
 90
       50
176
     1
 62
   256
176
     0
 40
1.0
176
     0
 90
        2
176
     1
  1
strokes_ogs.tif
176
     1
290
     0
176
     1
 40
1.0
176
     1
 40
1.0
176
     1
  0
VISUALSTYLE
  5
37
102
{ACAD_REACTORS
330
2A
102
}
330
2A
100
AcDbVisualStyle
  2
Thicken
 70
    13
177
     3
291
     1
 70
    58
 90
        2
176
     1
 90
        2
176
     1
 90
        0
176
     1
 90
        0
176
     1
 40
0.6
176
     1
 40
30.0
176
     1
 62
     7
420
 16777215
176
     1
 90
        1
176
     1
 90
        4
176
     1
 62
     7
176
     1
 62
   257
176
     1
 90
        1
176
     1
 90
        1
176
     1
 40
1.0
176
     1
 90
       12
176
     1
 62
     7
176
     1
 40
1.0
176
     1
 90
        1
176
     1
 90
        6
176
     1
 90
        2
176
     1
 62
     7
176
     1
 90
        5
176
     1
 90
        0
176
     1
 90
        0
176
     1
290
     0
176
     1
 90
        1
176
     1
 40
0.0
176
     1
 90
        0
176
     1
290
     0
176
     1
290
     1
176
     1
290
     1
176
     1
290
     0
176
     1
290
     0
176
     1
290
     0
176
     1
290
     0
176
     1
290
     0
176
     1
290
     0
176
     1
 90
       50
176
     1
 40
0.0
176
     1
 40
1.0
176
     1
 90
        0
176
     1
 62
    18
420
        0
176
     1
 90
       50
176
     1
 90
        3
176
     1
 62
     5
420
      255
176
     1
290
     0
176
     1
 90
       50
176
     1
 90
       50
176
     1
 90
       50
176
     1
290
     0
176
     1
 90
       50
176
     1
 62
   256
176
     0
 40
1.0
176
     0
 90
        2
176
     1
  1
strokes_ogs.tif
176
     1
290
     0
176
     1
 40
1.0
176
     1
 40
1.0
176
     1
  0
VISUALSTYLE
  5
30
102
{ACAD_REACTORS
330
2A
102
}
330
2A
100
AcDbVisualStyle
  2
Wireframe
 70
     5
177
     3
291
     0
 70
    58
 90
        0
176
     1
 90
        2
176
     1
 90
        0
176
     1
 90
        0
176
     1
 40
0.6
176
     1
 40
30.0
176
     1
 62
     7
420
 16777215
176
     1
 90
        1
176
     1
 90
        4
176
     1
 62
     7
176
     1
 62
   257
176
     1
 90
        1
176
     1
 90
        1
176
     1
 40
1.0
176
     1
 90
        0
176
     1
 62
   257
176
     1
 40
1.0
176
     1
 90
        1
176
     1
 90
        6
176
     1
 90
        2
176
     1
 62
     7
176
     1
 90
        3
176
     1
 90
        0
176
     1
 90
        0
176
     1
290
     0
176
     1
 90
        1
176
     1
 40
0.0
176
     1
 90
        0
176
     1
290
     0
176
     1
290
     1
176
     1
290
     1
176
     1
290
     0
176
     1
290
     0
176
     1
290
     0
176
     1
290
     0
176
     1
290
     0
176
     1
290
     0
176
     1
 90
       50
176
     1
 40
0.0
176
     1
 40
1.0
176
     1
 90
        0
176
     1
 62
    18
420
        0
176
     1
 90
       50
176
     1
 90
        3
176
     1
 62
     5
420
      255
176
     1
290
     0
176
     1
 90
       50
176
     1
 90
       50
176
     1
 90
       50
176
     1
290
     0
176
     1
 90
       50
176
     1
 62
   256
176
     0
 40
1.0
176
     0
 90
        2
176
     1
  1
strokes_ogs.tif
176
     1
290
     0
176
     1
 40
1.0
176
     1
 40
1.0
176
     1
  0
VISUALSTYLE
  5
40
102
{ACAD_REACTORS
330
2A
102
}
330
2A
100
AcDbVisualStyle
  2
X-Ray
 70
    25
177
     3
291
     0
 70
    58
 90
        2
176
     1
 90
        2
176
     1
 90
        1
176
     1
 90
        1
176
     1
 40
0.5
176
     1
 40
30.0
176
     1
 62
     7
420
 16777215
176
     1
 90
        1
176
     1
 90
        0
176
     1
 62
     7
176
     1
 62
   257
176
     1
 90
        1
176
     1
 90
        1
176
     1
 40
1.0
176
     1
 90
        8
176
     1
 62
     7
176
     1
 40
1.0
176
     1
 90
        1
176
     1
 90
        6
176
     1
 90
        2
176
     1
 62
     7
176
     1
 90
        3
176
     1
 90
        0
176
     1
 90
        0
176
     1
290
     0
176
     1
 90
       13
176
     1
 40
0.0
176
     1
 90
        0
176
     1
290
     0
176
     1
290
     1
176
     1
290
     1
176
     1
290
     0
176
     1
290
     0
176
     1
290
     0
176
     1
290
     0
176
     1
290
     0
176
     1
290
     0
176
     1
 90
       50
176
     1
 40
0.0
176
     1
 40
1.0
176
     1
 90
        0
176
     1
 62
    18
420
        0
176
     1
 90
       50
176
     1
 90
        3
176
     1
 62
     5
420
      255
176
     1
290
     0
176
     1
 90
       50
176
     1
 90
       50
176
     1
 90
       50
176
     1
290
     0
176
     1
 90
       50
176
     1
 62
   256
176
     0
 40
1.0
176
     0
 90
        2
176
     1
  1
strokes_ogs.tif
176
     1
290
     0
176
     1
 40
1.0
176
     1
 40
1.0
176
     1
  0
DICTIONARYVAR
  5
335
102
{ACAD_REACTORS
330
334
102
}
330
334
100
DictionaryVariables
280
     0
  1
1:1
  0
DICTIONARYVAR
  5
33A
102
{ACAD_REACTORS
330
334
102
}
330
334
100
DictionaryVariables
280
     0
  1
Standard
  0
DICTIONARYVAR
  5
339
102
{ACAD_REACTORS
330
334
102
}
330
334
100
DictionaryVariables
280
     0
  1
Standard
  0
DICTIONARY
  5
336
330
6A
100
AcDbDictionary
280
     1
281
     1
  3
ACAD_ROUNDTRIP_2008_TABLESTYLE_CELLSTYLEMAP
360
337
  0
CELLSTYLEMAP
  5
337
102
{ACAD_REACTORS
330
336
102
}
330
336
100
AcDbCellStyleMap
 90
        3
300
CELLSTYLE
  1
TABLEFORMAT_BEGIN
 90
        5
170
     1
 91
        0
 92
    32768
 62
   257
 93
        1
300
CONTENTFORMAT
  1
CONTENTFORMAT_BEGIN
 90
        0
 91
        0
 92
        4
 93
        0
300

 40
0.0
140
1.0
 94
        5
 62
     0
340
11
144
0.25
309
CONTENTFORMAT_END
171
     1
301
MARGIN
  1
CELLMARGIN_BEGIN
 40
0.06
 40
0.06
 40
0.06
 40
0.06
 40
0.06
 40
0.06
309
CELLMARGIN_END
 94
        6
 95
        1
302
GRIDFORMAT
  1
GRIDFORMAT_BEGIN
 90
        0
 91
        1
 62
     0
 92
       -2
340
14
 93
        0
 40
0.045
309
GRIDFORMAT_END
 95
        2
302
GRIDFORMAT
  1
GRIDFORMAT_BEGIN
 90
        0
 91
        1
 62
     0
 92
       -2
340
14
 93
        0
 40
0.045
309
GRIDFORMAT_END
 95
        4
302
GRIDFORMAT
  1
GRIDFORMAT_BEGIN
 90
        0
 91
        1
 62
     0
 92
       -2
340
14
 93
        0
 40
0.045
309
GRIDFORMAT_END
 95
        8
302
GRIDFORMAT
  1
GRIDFORMAT_BEGIN
 90
        0
 91
        1
 62
     0
 92
       -2
340
14
 93
        0
 40
0.045
309
GRIDFORMAT_END
 95
       16
302
GRIDFORMAT
  1
GRIDFORMAT_BEGIN
 90
        0
 91
        1
 62
     0
 92
       -2
340
14
 93
        0
 40
0.045
309
GRIDFORMAT_END
 95
       32
302
GRIDFORMAT
  1
GRIDFORMAT_BEGIN
 90
        0
 91
        1
 62
     0
 92
       -2
340
14
 93
        0
 40
0.045
309
GRIDFORMAT_END
309
TABLEFORMAT_END
  1
CELLSTYLE_BEGIN
 90
        1
 91
        1
300
_TITLE
309
CELLSTYLE_END
300
CELLSTYLE
  1
TABLEFORMAT_BEGIN
 90
        5
170
     1
 91
        0
 92
        0
 62
   257
 93
        1
300
CONTENTFORMAT
  1
CONTENTFORMAT_BEGIN
 90
        0
 91
        0
 92
        4
 93
        0
300

 40
0.0
140
1.0
 94
        5
 62
     0
340
11
144
0.18
309
CONTENTFORMAT_END
171
     1
301
MARGIN
  1
CELLMARGIN_BEGIN
 40
0.06
 40
0.06
 40
0.06
 40
0.06
 40
0.06
 40
0.06
309
CELLMARGIN_END
 94
        6
 95
        1
302
GRIDFORMAT
  1
GRIDFORMAT_BEGIN
 90
        0
 91
        1
 62
     0
 92
       -2
340
14
 93
        0
 40
0.045
309
GRIDFORMAT_END
 95
        2
302
GRIDFORMAT
  1
GRIDFORMAT_BEGIN
 90
        0
 91
        1
 62
     0
 92
       -2
340
14
 93
        0
 40
0.045
309
GRIDFORMAT_END
 95
        4
302
GRIDFORMAT
  1
GRIDFORMAT_BEGIN
 90
        0
 91
        1
 62
     0
 92
       -2
340
14
 93
        0
 40
0.045
309
GRIDFORMAT_END
 95
        8
302
GRIDFORMAT
  1
GRIDFORMAT_BEGIN
 90
        0
 91
        1
 62
     0
 92
       -2
340
14
 93
        0
 40
0.045
309
GRIDFORMAT_END
 95
       16
302
GRIDFORMAT
  1
GRIDFORMAT_BEGIN
 90
        0
 91
        1
 62
     0
 92
       -2
340
14
 93
        0
 40
0.045
309
GRIDFORMAT_END
 95
       32
302
GRIDFORMAT
  1
GRIDFORMAT_BEGIN
 90
        0
 91
        1
 62
     0
 92
       -2
340
14
 93
        0
 40
0.045
309
GRIDFORMAT_END
309
TABLEFORMAT_END
  1
CELLSTYLE_BEGIN
 90
        2
 91
        1
300
_HEADER
309
CELLSTYLE_END
300
CELLSTYLE
  1
TABLEFORMAT_BEGIN
 90
        5
170
     1
 91
        0
 92
        0
 62
   257
 93
        1
300
CONTENTFORMAT
  1
CONTENTFORMAT_BEGIN
 90
        0
 91
        0
 92
        4
 93
        0
300

 40
0.0
140
1.0
 94
        2
 62
     0
340
11
144
0.18
309
CONTENTFORMAT_END
171
     1
301
MARGIN
  1
CELLMARGIN_BEGIN
 40
0.06
 40
0.06
 40
0.06
 40
0.06
 40
0.06
 40
0.06
309
CELLMARGIN_END
 94
        6
 95
        1
302
GRIDFORMAT
  1
GRIDFORMAT_BEGIN
 90
        0
 91
        1
 62
     0
 92
       -2
340
14
 93
        0
 40
0.045
309
GRIDFORMAT_END
 95
        2
302
GRIDFORMAT
  1
GRIDFORMAT_BEGIN
 90
        0
 91
        1
 62
     0
 92
       -2
340
14
 93
        0
 40
0.045
309
GRIDFORMAT_END
 95
        4
302
GRIDFORMAT
  1
GRIDFORMAT_BEGIN
 90
        0
 91
        1
 62
     0
 92
       -2
340
14
 93
        0
 40
0.045
309
GRIDFORMAT_END
 95
        8
302
GRIDFORMAT
  1
GRIDFORMAT_BEGIN
 90
        0
 91
        1
 62
     0
 92
       -2
340
14
 93
        0
 40
0.045
309
GRIDFORMAT_END
 95
       16
302
GRIDFORMAT
  1
GRIDFORMAT_BEGIN
 90
        0
 91
        1
 62
     0
 92
       -2
340
14
 93
        0
 40
0.045
309
GRIDFORMAT_END
 95
       32
302
GRIDFORMAT
  1
GRIDFORMAT_BEGIN
 90
        0
 91
        1
 62
     0
 92
       -2
340
14
 93
        0
 40
0.045
309
GRIDFORMAT_END
309
TABLEFORMAT_END
  1
CELLSTYLE_BEGIN
 90
        3
 91
        2
300
_DATA
309
CELLSTYLE_END
  0
ENDSEC
  0
EOF
