  0
SECTION
  2
HEADER
  9
$ACADVER
  1
AC1014
  9
$ACADMAINTVER
 70
     9
  9
$DWGCODEPAGE
  3
ANSI_932
  9
$INSBASE
 10
0.0
 20
0.0
 30
0.0
  9
$EXTMIN
 10
284.9999999999999
 20
64.041703138677
 30
0.0
  9
$EXTMAX
 10
764.9999999999999
 20
355.0
 30
0.0
  9
$LIMMIN
 10
0.0
 20
0.0
  9
$LIMMAX
 10
12.0
 20
9.0
  9
$ORTHOMODE
 70
     0
  9
$REGENMODE
 70
     1
  9
$FILLMODE
 70
     1
  9
$QTEXTMODE
 70
     0
  9
$MIRRTEXT
 70
     1
  9
$DRAGMODE
 70
     2
  9
$LTSCALE
 40
1.0
  9
$OSMODE
 70
    37
  9
$ATTMODE
 70
     1
  9
$TEXTSIZE
 40
0.2
  9
$TRACEWID
 40
0.05
  9
$TEXTSTYLE
  7
STANDARD
  9
$CLAYER
  8
0
  9
$CELTYPE
  6
BYLAYER
  9
$CECOLOR
 62
   256
  9
$CELTSCALE
 40
1.0
  9
$DELOBJ
 70
     1
  9
$DISPSILH
 70
     0
  9
$DIMSCALE
 40
1.0
  9
$DIMASZ
 40
3.0
  9
$DIMEXO
 40
0.0625
  9
$DIMDLI
 40
0.38
  9
$DIMRND
 40
0.0
  9
$DIMDLE
 40
0.0
  9
$DIMEXE
 40
1.5
  9
$DIMTP
 40
0.0
  9
$DIMTM
 40
0.0
  9
$DIMTXT
 40
3.0
  9
$DIMCEN
 40
0.09
  9
$DIMTSZ
 40
0.0
  9
$DIMTOL
 70
     0
  9
$DIMLIM
 70
     0
  9
$DIMTIH
 70
     1
  9
$DIMTOH
 70
     1
  9
$DIMSE1
 70
     0
  9
$DIMSE2
 70
     0
  9
$DIMTAD
 70
     1
  9
$DIMZIN
 70
     0
  9
$DIMBLK
  1

  9
$DIMASO
 70
     1
  9
$DIMSHO
 70
     1
  9
$DIMPOST
  1

  9
$DIMAPOST
  1

  9
$DIMALT
 70
     0
  9
$DIMALTD
 70
     2
  9
$DIMALTF
 40
25.4
  9
$DIMLFAC
 40
1.0
  9
$DIMTOFL
 70
     0
  9
$DIMTVP
 40
0.0
  9
$DIMTIX
 70
     0
  9
$DIMSOXD
 70
     0
  9
$DIMSAH
 70
     0
  9
$DIMBLK1
  1

  9
$DIMBLK2
  1

  9
$DIMSTYLE
  2
STANDARD
  9
$DIMCLRD
 70
     0
  9
$DIMCLRE
 70
     0
  9
$DIMCLRT
 70
     0
  9
$DIMTFAC
 40
1.0
  9
$DIMGAP
 40
1.5
  9
$DIMJUST
 70
     0
  9
$DIMSD1
 70
     0
  9
$DIMSD2
 70
     0
  9
$DIMTOLJ
 70
     1
  9
$DIMTZIN
 70
     0
  9
$DIMALTZ
 70
     0
  9
$DIMALTTZ
 70
     0
  9
$DIMFIT
 70
     3
  9
$DIMUPT
 70
     0
  9
$DIMUNIT
 70
     2
  9
$DIMDEC
 70
     2
  9
$DIMTDEC
 70
     4
  9
$DIMALTU
 70
     2
  9
$DIMALTTD
 70
     2
  9
$DIMTXSTY
  7
ＭＳ_ゴシック
  9
$DIMAUNIT
 70
     0
  9
$LUNITS
 70
     2
  9
$LUPREC
 70
     4
  9
$SKETCHINC
 40
0.1
  9
$FILLETRAD
 40
0.5
  9
$AUNITS
 70
     0
  9
$AUPREC
 70
     0
  9
$MENU
  1
.
  9
$ELEVATION
 40
0.0
  9
$PELEVATION
 40
0.0
  9
$THICKNESS
 40
0.0
  9
$LIMCHECK
 70
     0
  9
$CHAMFERA
 40
0.0
  9
$CHAMFERB
 40
0.0
  9
$CHAMFERC
 40
0.0
  9
$CHAMFERD
 40
0.0
  9
$SKPOLY
 70
     0
  9
$TDCREATE
 40
2459664.485753785
  9
$TDUPDATE
 40
2459664.485754051
  9
$TDINDWG
 40
0.0000000116
  9
$TDUSRTIMER
 40
0.0000000116
  9
$USRTIMER
 70
     1
  9
$ANGBASE
 50
0.0
  9
$ANGDIR
 70
     0
  9
$PDMODE
 70
     0
  9
$PDSIZE
 40
0.0
  9
$PLINEWID
 40
0.0
  9
$COORDS
 70
     1
  9
$SPLFRAME
 70
     0
  9
$SPLINETYPE
 70
     6
  9
$SPLINESEGS
 70
     8
  9
$ATTDIA
 70
     0
  9
$ATTREQ
 70
     1
  9
$HANDLING
 70
     1
  9
$HANDSEED
  5
2C2
  9
$SURFTAB1
 70
     6
  9
$SURFTAB2
 70
     6
  9
$SURFTYPE
 70
     6
  9
$SURFU
 70
     6
  9
$SURFV
 70
     6
  9
$UCSNAME
  2

  9
$UCSORG
 10
0.0
 20
0.0
 30
0.0
  9
$UCSXDIR
 10
1.0
 20
0.0
 30
0.0
  9
$UCSYDIR
 10
0.0
 20
1.0
 30
0.0
  9
$PUCSNAME
  2

  9
$PUCSORG
 10
0.0
 20
0.0
 30
0.0
  9
$PUCSXDIR
 10
1.0
 20
0.0
 30
0.0
  9
$PUCSYDIR
 10
0.0
 20
1.0
 30
0.0
  9
$USERI1
 70
     0
  9
$USERI2
 70
     0
  9
$USERI3
 70
     0
  9
$USERI4
 70
     0
  9
$USERI5
 70
     0
  9
$USERR1
 40
0.0
  9
$USERR2
 40
0.0
  9
$USERR3
 40
0.0
  9
$USERR4
 40
0.0
  9
$USERR5
 40
0.0
  9
$WORLDVIEW
 70
     1
  9
$SHADEDGE
 70
     3
  9
$SHADEDIF
 70
    70
  9
$TILEMODE
 70
     1
  9
$MAXACTVP
 70
    64
  9
$PINSBASE
 10
0.0
 20
0.0
 30
0.0
  9
$PLIMCHECK
 70
     0
  9
$PEXTMIN
 10
1.000000000000000E+20
 20
1.000000000000000E+20
 30
1.000000000000000E+20
  9
$PEXTMAX
 10
-1.000000000000000E+20
 20
-1.000000000000000E+20
 30
-1.000000000000000E+20
  9
$PLIMMIN
 10
0.0
 20
0.0
  9
$PLIMMAX
 10
12.0
 20
9.0
  9
$UNITMODE
 70
     0
  9
$VISRETAIN
 70
     1
  9
$PLINEGEN
 70
     0
  9
$PSLTSCALE
 70
     1
  9
$TREEDEPTH
 70
  3020
  9
$PICKSTYLE
 70
     1
  9
$CMLSTYLE
  2
STANDARD
  9
$CMLJUST
 70
     0
  9
$CMLSCALE
 40
1.0
  9
$PROXYGRAPHICS
 70
     1
  9
$MEASUREMENT
 70
     1
  0
ENDSEC
  0
SECTION
  2
CLASSES
  0
CLASS
  1
ACDBDICTIONARYWDFLT
  2
AcDbDictionaryWithDefault
  3
ObjectDBX Classes
 90
        0
280
     0
281
     0
  0
CLASS
  1
VISUALSTYLE
  2
AcDbVisualStyle
  3
ObjectDBX Classes
 90
     4095
280
     0
281
     0
  0
CLASS
  1
MATERIAL
  2
AcDbMaterial
  3
ObjectDBX Classes
 90
     1153
280
     0
281
     0
  0
CLASS
  1
SCALE
  2
AcDbScale
  3
ObjectDBX Classes
 90
     1153
280
     0
281
     0
  0
CLASS
  1
TABLESTYLE
  2
AcDbTableStyle
  3
ObjectDBX Classes
 90
     4095
280
     0
281
     0
  0
CLASS
  1
MLEADERSTYLE
  2
AcDbMLeaderStyle
  3
ACDB_MLEADERSTYLE_CLASS
 90
     4095
280
     0
281
     0
  0
CLASS
  1
SUN
  2
AcDbSun
  3
SCENEOE
 90
     1153
280
     0
281
     0
  0
CLASS
  1
DICTIONARYVAR
  2
AcDbDictionaryVar
  3
ObjectDBX Classes
 90
        0
280
     0
281
     0
  0
CLASS
  1
XRECORD
  2
AcDbXrecord
  3
ObjectDBX Classes
 90
        0
280
     0
281
     0
  0
CLASS
  1
LWPOLYLINE
  2
AcDbPolyline
  3
ObjectDBX Classes
 90
        0
280
     0
281
     1
  0
CLASS
  1
HATCH
  2
AcDbHatch
  3
ObjectDBX Classes
 90
        0
280
     0
281
     1
  0
CLASS
  1
ACDBPLACEHOLDER
  2
AcDbPlaceHolder
  3
ObjectDBX Classes
 90
        0
280
     0
281
     0
  0
CLASS
  1
LAYOUT
  2
AcDbLayout
  3
ObjectDBX Classes
 90
        0
280
     0
281
     0
  0
ENDSEC
  0
SECTION
  2
TABLES
  0
TABLE
  2
VPORT
  5
8
102
{ACAD_XDICTIONARY
360
2B7
102
}
330
0
100
AcDbSymbolTable
 70
     1
  0
VPORT
  5
29
330
8
100
AcDbSymbolTableRecord
100
AcDbViewportTableRecord
  2
*ACTIVE
 70
     0
 10
0.0
 20
0.0
 11
1.0
 21
1.0
 12
524.9999999999999
 22
209.5208515693385
 13
0.0
 23
0.0
 14
0.5
 24
0.5
 15
0.5
 25
0.5
 16
0.0
 26
0.0
 36
1.0
 17
0.0
 27
0.0
 37
0.0
 40
290.958296861323
 41
1.6
 42
50.0
 43
0.0
 44
0.0
 50
0.0
 51
0.0
 71
     0
 72
   100
 73
     1
 74
     3
 75
     0
 76
     0
 77
     0
 78
     0
  0
ENDTAB
  0
TABLE
  2
LTYPE
  5
5
330
0
100
AcDbSymbolTable
 70
     3
  0
LTYPE
  5
14
330
5
100
AcDbSymbolTableRecord
100
AcDbLinetypeTableRecord
  2
BYBLOCK
 70
     0
  3

 72
    65
 73
     0
 40
0.0
  0
LTYPE
  5
15
330
5
100
AcDbSymbolTableRecord
100
AcDbLinetypeTableRecord
  2
BYLAYER
 70
     0
  3

 72
    65
 73
     0
 40
0.0
  0
LTYPE
  5
16
330
5
100
AcDbSymbolTableRecord
100
AcDbLinetypeTableRecord
  2
CONTINUOUS
 70
     0
  3
Solid line
 72
    65
 73
     0
 40
0.0
  0
LTYPE
  5
71
330
5
100
AcDbSymbolTableRecord
100
AcDbLinetypeTableRecord
  2
DOT
 70
     0
  3

 72
    65
 73
     0
 40
0.0
  0
LTYPE
  5
106
330
5
100
AcDbSymbolTableRecord
100
AcDbLinetypeTableRecord
  2
CENTER
 70
     0
  3

 72
    65
 73
     0
 40
0.0
  0
ENDTAB
  0
TABLE
  2
LAYER
  5
2
330
0
100
AcDbSymbolTable
 70
     1
  0
LAYER
  5
10
330
2
100
AcDbSymbolTableRecord
100
AcDbLayerTableRecord
  2
0
 70
     0
 62
     7
  6
CONTINUOUS
  0
ENDTAB
  0
TABLE
  2
STYLE
  5
3
330
0
100
AcDbSymbolTable
 70
     2
  0
STYLE
  5
11
330
3
100
AcDbSymbolTableRecord
100
AcDbTextStyleTableRecord
  2
STANDARD
 70
     0
 40
0.0
 41
1.0
 50
0.0
 71
     0
 42
0.2
  3
txt
  4

  0
STYLE
  5
6E
330
3
100
AcDbSymbolTableRecord
100
AcDbTextStyleTableRecord
  2
ＭＳ_ゴシック
 70
     0
 40
0.0
 41
1.0
 50
0.0
 71
     0
 42
0.2
  3
ＭＳ ゴシック.shx
  4

  0
ENDTAB
  0
TABLE
  2
VIEW
  5
6
330
0
100
AcDbSymbolTable
 70
     0
  0
ENDTAB
  0
TABLE
  2
UCS
  5
7
330
0
100
AcDbSymbolTable
 70
     0
  0
ENDTAB
  0
TABLE
  2
APPID
  5
9
330
0
100
AcDbSymbolTable
 70
     2
  0
APPID
  5
12
330
9
100
AcDbSymbolTableRecord
100
AcDbRegAppTableRecord
  2
ACAD
 70
     0
  0
APPID
  5
2C1
330
9
100
AcDbSymbolTableRecord
100
AcDbRegAppTableRecord
  2
ACAD_MLEADERVER
 70
     0
  0
ENDTAB
  0
TABLE
  2
DIMSTYLE
  5
A
330
0
100
AcDbSymbolTable
 70
     1
  0
DIMSTYLE
105
27
330
A
100
AcDbSymbolTableRecord
100
AcDbDimStyleTableRecord
  2
STANDARD
 70
     0
  3

  4

  5

  6

  7

 40
1.0
 41
0.18
 42
0.0625
 43
0.38
 44
0.18
 45
0.0
 46
0.0
 47
0.0
 48
0.0
140
0.18
141
0.09
142
0.0
143
25.4
144
1.0
145
0.0
146
1.0
147
0.09
 71
     0
 72
     0
 73
     1
 74
     1
 75
     0
 76
     0
 77
     0
 78
     0
170
     0
171
     2
172
     0
173
     0
174
     0
175
     0
176
     0
177
     0
178
     0
270
     2
271
     4
272
     4
273
     2
274
     2
340
11
275
     0
280
     0
281
     0
282
     0
283
     1
284
     0
285
     0
286
     0
287
     3
288
     0
  0
ENDTAB
  0
TABLE
  2
BLOCK_RECORD
  5
1
330
0
100
AcDbSymbolTable
 70
     0
  0
BLOCK_RECORD
  5
1F
330
1
100
AcDbSymbolTableRecord
100
AcDbBlockTableRecord
  2
*MODEL_SPACE
  0
BLOCK_RECORD
  5
1B
330
1
100
AcDbSymbolTableRecord
100
AcDbBlockTableRecord
  2
*PAPER_SPACE
  0
ENDTAB
  0
ENDSEC
  0
SECTION
  2
BLOCKS
  0
BLOCK
  5
20
330
1F
100
AcDbEntity
  8
0
100
AcDbBlockBegin
  2
*MODEL_SPACE
 70
     0
 10
0.0
 20
0.0
 30
0.0
  3
*MODEL_SPACE
  1

  0
ENDBLK
  5
21
330
1F
100
AcDbEntity
  8
0
100
AcDbBlockEnd
  0
BLOCK
  5
1C
330
1B
100
AcDbEntity
 67
     1
  8
0
100
AcDbBlockBegin
  2
*PAPER_SPACE
 70
     0
 10
0.0
 20
0.0
 30
0.0
  3
*PAPER_SPACE
  1

  0
ENDBLK
  5
1D
330
1B
100
AcDbEntity
 67
     1
  8
0
100
AcDbBlockEnd
  0
ENDSEC
  0
SECTION
  2
ENTITIES
  0
MTEXT
  5
6F
330
1F
100
AcDbEntity
  8
0
 62
     4
100
AcDbMText
 10
455.7534075278229
 20
72.90533950231335
 30
0.0
 40
10.0
 41
0.0
 71
     1
 72
     1
  1
{\fＭＳ ゴシック;KFERB-75-6}
  0
LINE
  5
70
330
1F
100
AcDbEntity
  8
0
  6
DOT
 62
     7
100
AcDbLine
 10
303.5
 20
130.4393398282201
 30
0.0
 11
303.5
 21
144.6446609406725
 31
0.0
  0
LINE
  5
72
330
1F
100
AcDbEntity
  8
0
  6
DOT
 62
     7
100
AcDbLine
 10
301.5
 20
130.4393398282201
 30
0.0
 11
301.5
 21
197.0578369376198
 31
0.0
  0
LINE
  5
73
330
1F
100
AcDbEntity
  8
0
  6
DOT
 62
     7
100
AcDbLine
 10
303.5
 20
144.6446609406726
 30
0.0
 11
303.5
 21
227.4393398282202
 31
0.0
  0
LINE
  5
74
330
1F
100
AcDbEntity
  8
0
  6
DOT
 62
     7
100
AcDbLine
 10
301.5834848610088
 20
197.9575965394434
 30
0.0
 11
301.5
 21
197.0578369376197
 31
0.0
  0
LINE
  5
75
330
1F
100
AcDbEntity
  8
0
  6
DOT
 62
     7
100
AcDbLine
 10
301.5834848610088
 20
197.9575965394434
 30
0.0
 11
301.5834848610088
 21
223.9894886810931
 31
0.0
  0
LINE
  5
76
330
1F
100
AcDbEntity
  8
0
  6
DOT
 62
     7
100
AcDbLine
 10
301.5
 20
224.0682177434066
 30
0.0
 11
301.5
 21
227.4393398282202
 31
0.0
  0
LINE
  5
77
330
1F
100
AcDbEntity
  8
0
  6
DOT
 62
     7
100
AcDbLine
 10
323.5
 20
130.4393398282201
 30
0.0
 11
323.5
 21
144.6446609406725
 31
0.0
  0
LINE
  5
78
330
1F
100
AcDbEntity
  8
0
  6
DOT
 62
     7
100
AcDbLine
 10
321.5
 20
130.4393398282201
 30
0.0
 11
321.5
 21
144.6446609406726
 31
0.0
  0
LINE
  5
79
330
1F
100
AcDbEntity
  8
0
  6
DOT
 62
     7
100
AcDbLine
 10
323.5
 20
144.6446609406726
 30
0.0
 11
323.5
 21
227.4393398282202
 31
0.0
  0
LINE
  5
7A
330
1F
100
AcDbEntity
  8
0
  6
DOT
 62
     7
100
AcDbLine
 10
321.5
 20
144.6446609406726
 30
0.0
 11
321.5
 21
227.4393398282202
 31
0.0
  0
LINE
  5
7B
330
1F
100
AcDbEntity
  8
0
  6
DOT
 62
     7
100
AcDbLine
 10
333.5
 20
130.4393398282201
 30
0.0
 11
333.5
 21
144.6446609406725
 31
0.0
  0
LINE
  5
7C
330
1F
100
AcDbEntity
  8
0
  6
DOT
 62
     7
100
AcDbLine
 10
331.5
 20
130.4393398282201
 30
0.0
 11
331.5
 21
144.6446609406726
 31
0.0
  0
LINE
  5
7D
330
1F
100
AcDbEntity
  8
0
  6
DOT
 62
     7
100
AcDbLine
 10
333.5
 20
144.6446609406726
 30
0.0
 11
333.5
 21
227.4393398282202
 31
0.0
  0
LINE
  5
7E
330
1F
100
AcDbEntity
  8
0
  6
DOT
 62
     7
100
AcDbLine
 10
331.5
 20
144.6446609406726
 30
0.0
 11
331.5
 21
227.4393398282202
 31
0.0
  0
LINE
  5
7F
330
1F
100
AcDbEntity
  8
0
  6
DOT
 62
     7
100
AcDbLine
 10
313.5
 20
130.4393398282201
 30
0.0
 11
313.5
 21
144.6446609406725
 31
0.0
  0
LINE
  5
80
330
1F
100
AcDbEntity
  8
0
  6
DOT
 62
     7
100
AcDbLine
 10
311.5
 20
130.4393398282201
 30
0.0
 11
311.5
 21
144.6446609406726
 31
0.0
  0
LINE
  5
81
330
1F
100
AcDbEntity
  8
0
  6
DOT
 62
     7
100
AcDbLine
 10
313.5
 20
144.6446609406726
 30
0.0
 11
313.5
 21
227.4393398282202
 31
0.0
  0
LINE
  5
82
330
1F
100
AcDbEntity
  8
0
  6
DOT
 62
     7
100
AcDbLine
 10
311.5
 20
144.6446609406726
 30
0.0
 11
311.5
 21
227.4393398282202
 31
0.0
  0
LINE
  5
83
330
1F
100
AcDbEntity
  8
0
  6
CONTINUOUS
 62
     7
100
AcDbLine
 10
290.5
 20
148.5007396482075
 30
0.0
 11
290.5
 21
177.4393398282202
 31
0.0
  0
LINE
  5
84
330
1F
100
AcDbEntity
  8
0
  6
DOT
 62
     7
100
AcDbLine
 10
294.5
 20
177.4393398282202
 30
0.0
 11
294.5
 21
148.5007396482075
 31
0.0
  0
LINE
  5
85
330
1F
100
AcDbEntity
  8
0
  6
CONTINUOUS
 62
     7
100
AcDbLine
 10
389.4999999999999
 20
209.3779400082328
 30
0.0
 11
389.4999999999999
 21
180.4393398282202
 31
0.0
  0
LINE
  5
86
330
1F
100
AcDbEntity
  8
0
  6
DOT
 62
     7
100
AcDbLine
 10
385.4999999999999
 20
180.4393398282202
 30
0.0
 11
385.4999999999999
 21
209.3779400082328
 31
0.0
  0
LINE
  5
87
330
1F
100
AcDbEntity
  8
0
  6
CONTINUOUS
 62
     7
100
AcDbLine
 10
290.5
 20
180.4393398282202
 30
0.0
 11
290.5
 21
209.3779400082328
 31
0.0
  0
LINE
  5
88
330
1F
100
AcDbEntity
  8
0
  6
DOT
 62
     7
100
AcDbLine
 10
294.5
 20
209.3779400082328
 30
0.0
 11
294.5
 21
180.4393398282202
 31
0.0
  0
LINE
  5
89
330
1F
100
AcDbEntity
  8
0
  6
CONTINUOUS
 62
     7
100
AcDbLine
 10
389.4999999999999
 20
177.4393398282202
 30
0.0
 11
389.4999999999999
 21
148.5007396482075
 31
0.0
  0
LINE
  5
8A
330
1F
100
AcDbEntity
  8
0
  6
DOT
 62
     7
100
AcDbLine
 10
385.4999999999999
 20
148.5007396482075
 30
0.0
 11
385.4999999999999
 21
177.4393398282202
 31
0.0
  0
LINE
  5
8B
330
1F
100
AcDbEntity
  8
0
  6
DOT
 62
     7
100
AcDbLine
 10
294.5101020514433
 20
223.9894886810931
 30
0.0
 11
294.5324470068069
 21
224.0682177433485
 31
0.0
  0
LINE
  5
8C
330
1F
100
AcDbEntity
  8
0
  6
DOT
 62
     7
100
AcDbLine
 10
294.5101020514433
 20
223.9894886810931
 30
0.0
 11
294.5101020514433
 21
197.9575965394434
 31
0.0
  0
LINE
  5
8D
330
1F
100
AcDbEntity
  8
0
  6
DOT
 62
     7
100
AcDbLine
 10
353.5000000000001
 20
223.9393398282202
 30
0.0
 11
353.5000000000001
 21
133.9393398282201
 31
0.0
  0
LINE
  5
8E
330
1F
100
AcDbEntity
  8
0
  6
CONTINUOUS
 62
     7
100
AcDbLine
 10
389.4999999999999
 20
180.4393398282202
 30
0.0
 11
389.4999999999999
 21
177.4393398282202
 31
0.0
  0
LINE
  5
8F
330
1F
100
AcDbEntity
  8
0
  6
DOT
 62
     7
100
AcDbLine
 10
385.4999999999999
 20
177.4393398282202
 30
0.0
 11
385.4999999999999
 21
180.4393398282202
 31
0.0
  0
LINE
  5
90
330
1F
100
AcDbEntity
  8
0
  6
CONTINUOUS
 62
     7
100
AcDbLine
 10
290.5
 20
177.4393398282202
 30
0.0
 11
290.5
 21
180.4393398282202
 31
0.0
  0
LINE
  5
91
330
1F
100
AcDbEntity
  8
0
  6
DOT
 62
     7
100
AcDbLine
 10
294.5
 20
180.4393398282202
 30
0.0
 11
294.5
 21
177.4393398282202
 31
0.0
  0
LINE
  5
92
330
1F
100
AcDbEntity
  8
0
  6
CONTINUOUS
 62
     7
100
AcDbLine
 10
389.4999999999999
 20
148.5007396482075
 30
0.0
 11
389.4999999999999
 21
147.0865260858344
 31
0.0
  0
LINE
  5
93
330
1F
100
AcDbEntity
  8
0
  6
DOT
 62
     7
100
AcDbLine
 10
385.4999999999999
 20
147.0865260858344
 30
0.0
 11
385.4999999999999
 21
148.5007396482075
 31
0.0
  0
LINE
  5
94
330
1F
100
AcDbEntity
  8
0
  6
CONTINUOUS
 62
     7
100
AcDbLine
 10
290.5
 20
147.0865260858344
 30
0.0
 11
290.5
 21
148.5007396482075
 31
0.0
  0
LINE
  5
95
330
1F
100
AcDbEntity
  8
0
  6
DOT
 62
     7
100
AcDbLine
 10
294.5
 20
148.5007396482075
 30
0.0
 11
294.5
 21
147.0865260858344
 31
0.0
  0
LINE
  5
96
330
1F
100
AcDbEntity
  8
0
  6
CONTINUOUS
 62
     7
100
AcDbLine
 10
389.4999999999999
 20
210.7921535706059
 30
0.0
 11
389.4999999999999
 21
209.3779400082328
 31
0.0
  0
LINE
  5
97
330
1F
100
AcDbEntity
  8
0
  6
DOT
 62
     7
100
AcDbLine
 10
385.4999999999999
 20
209.3779400082328
 30
0.0
 11
385.4999999999999
 21
210.7921535706059
 31
0.0
  0
LINE
  5
98
330
1F
100
AcDbEntity
  8
0
  6
CONTINUOUS
 62
     7
100
AcDbLine
 10
290.5
 20
209.3779400082328
 30
0.0
 11
290.5
 21
210.7921535706059
 31
0.0
  0
LINE
  5
99
330
1F
100
AcDbEntity
  8
0
  6
DOT
 62
     7
100
AcDbLine
 10
294.5
 20
210.7921535706059
 30
0.0
 11
294.5
 21
209.3779400082328
 31
0.0
  0
LINE
  5
9A
330
1F
100
AcDbEntity
  8
0
  6
CONTINUOUS
 62
     7
100
AcDbLine
 10
389.4999999999999
 20
147.0865260858344
 30
0.0
 11
389.4999999999999
 21
136.583643635146
 31
0.0
  0
LINE
  5
9B
330
1F
100
AcDbEntity
  8
0
  6
DOT
 62
     7
100
AcDbLine
 10
385.4999999999999
 20
136.583643635146
 30
0.0
 11
385.4999999999999
 21
147.0865260858344
 31
0.0
  0
LINE
  5
9C
330
1F
100
AcDbEntity
  8
0
  6
CONTINUOUS
 62
     7
100
AcDbLine
 10
290.5
 20
136.583643635146
 30
0.0
 11
290.5
 21
147.0865260858344
 31
0.0
  0
LINE
  5
9D
330
1F
100
AcDbEntity
  8
0
  6
DOT
 62
     7
100
AcDbLine
 10
294.5
 20
147.0865260858344
 30
0.0
 11
294.5
 21
136.583643635146
 31
0.0
  0
LINE
  5
9E
330
1F
100
AcDbEntity
  8
0
  6
CONTINUOUS
 62
     7
100
AcDbLine
 10
389.4999999999999
 20
221.365746699413
 30
0.0
 11
389.4999999999999
 21
210.7921535706059
 31
0.0
  0
LINE
  5
9F
330
1F
100
AcDbEntity
  8
0
  6
DOT
 62
     7
100
AcDbLine
 10
385.4999999999999
 20
210.7921535706059
 30
0.0
 11
385.4999999999999
 21
221.365746699413
 31
0.0
  0
LINE
  5
A0
330
1F
100
AcDbEntity
  8
0
  6
CONTINUOUS
 62
     7
100
AcDbLine
 10
290.5
 20
210.7921535706059
 30
0.0
 11
290.5
 21
221.365746699413
 31
0.0
  0
LINE
  5
A1
330
1F
100
AcDbEntity
  8
0
  6
DOT
 62
     7
100
AcDbLine
 10
294.5
 20
221.365746699413
 30
0.0
 11
294.5
 21
210.7921535706059
 31
0.0
  0
LINE
  5
A2
330
1F
100
AcDbEntity
  8
0
  6
CONTINUOUS
 62
     7
100
AcDbLine
 10
389.4999999999999
 20
223.840620433566
 30
0.0
 11
389.4999999999999
 21
222.4264068711929
 31
0.0
  0
LINE
  5
A3
330
1F
100
AcDbEntity
  8
0
  6
DOT
 62
     7
100
AcDbLine
 10
385.4999999999999
 20
222.4264068711929
 30
0.0
 11
385.4999999999999
 21
223.840620433566
 31
0.0
  0
LINE
  5
A4
330
1F
100
AcDbEntity
  8
0
  6
CONTINUOUS
 62
     7
100
AcDbLine
 10
389.4999999999999
 20
222.4264068711929
 30
0.0
 11
389.4999999999999
 21
221.365746699413
 31
0.0
  0
LINE
  5
A5
330
1F
100
AcDbEntity
  8
0
  6
DOT
 62
     7
100
AcDbLine
 10
385.4999999999999
 20
221.365746699413
 30
0.0
 11
385.4999999999999
 21
222.4264068711929
 31
0.0
  0
LINE
  5
A6
330
1F
100
AcDbEntity
  8
0
  6
CONTINUOUS
 62
     7
100
AcDbLine
 10
290.5
 20
221.365746699413
 30
0.0
 11
290.5
 21
222.4264068711929
 31
0.0
  0
LINE
  5
A7
330
1F
100
AcDbEntity
  8
0
  6
DOT
 62
     7
100
AcDbLine
 10
294.5
 20
222.4264068711929
 30
0.0
 11
294.5
 21
221.365746699413
 31
0.0
  0
LINE
  5
A8
330
1F
100
AcDbEntity
  8
0
  6
CONTINUOUS
 62
     7
100
AcDbLine
 10
290.5
 20
222.4264068711929
 30
0.0
 11
290.5
 21
223.840620433566
 31
0.0
  0
LINE
  5
A9
330
1F
100
AcDbEntity
  8
0
  6
DOT
 62
     7
100
AcDbLine
 10
294.5
 20
223.840620433566
 30
0.0
 11
294.5
 21
222.4264068711929
 31
0.0
  0
LINE
  5
AA
330
1F
100
AcDbEntity
  8
0
  6
CONTINUOUS
 62
     7
100
AcDbLine
 10
389.4999999999999
 20
136.583643635146
 30
0.0
 11
389.4999999999999
 21
136.159379566434
 31
0.0
  0
LINE
  5
AB
330
1F
100
AcDbEntity
  8
0
  6
DOT
 62
     7
100
AcDbLine
 10
385.4999999999999
 20
136.159379566434
 30
0.0
 11
385.4999999999999
 21
136.5836436351459
 31
0.0
  0
LINE
  5
AC
330
1F
100
AcDbEntity
  8
0
  6
CONTINUOUS
 62
     7
100
AcDbLine
 10
290.5
 20
136.159379566434
 30
0.0
 11
290.5
 21
136.5836436351459
 31
0.0
  0
LINE
  5
AD
330
1F
100
AcDbEntity
  8
0
  6
DOT
 62
     7
100
AcDbLine
 10
294.5
 20
136.583643635146
 30
0.0
 11
294.5
 21
136.159379566434
 31
0.0
  0
LINE
  5
AE
330
1F
100
AcDbEntity
  8
0
  6
CONTINUOUS
 62
     7
100
AcDbLine
 10
389.4999999999999
 20
233.3535533905933
 30
0.0
 11
389.4999999999999
 21
223.840620433566
 31
0.0
  0
LINE
  5
AF
330
1F
100
AcDbEntity
  8
0
  6
DOT
 62
     7
100
AcDbLine
 10
385.4999999999999
 20
223.840620433566
 30
0.0
 11
385.4999999999999
 21
233.3535533905933
 31
0.0
  0
LINE
  5
B0
330
1F
100
AcDbEntity
  8
0
  6
CONTINUOUS
 62
     7
100
AcDbLine
 10
290.5
 20
223.840620433566
 30
0.0
 11
290.5
 21
233.3535533905933
 31
0.0
  0
LINE
  5
B1
330
1F
100
AcDbEntity
  8
0
  6
DOT
 62
     7
100
AcDbLine
 10
294.5
 20
233.3535533905933
 30
0.0
 11
294.5
 21
223.840620433566
 31
0.0
  0
LINE
  5
B2
330
1F
100
AcDbEntity
  8
0
  6
CONTINUOUS
 62
     7
100
AcDbLine
 10
389.4999999999999
 20
135.0280087165356
 30
0.0
 11
389.4999999999999
 21
124.5251262658471
 31
0.0
  0
LINE
  5
B3
330
1F
100
AcDbEntity
  8
0
  6
DOT
 62
     7
100
AcDbLine
 10
385.4999999999999
 20
124.5251262658471
 30
0.0
 11
385.4999999999999
 21
135.0280087165356
 31
0.0
  0
LINE
  5
B4
330
1F
100
AcDbEntity
  8
0
  6
CONTINUOUS
 62
     7
100
AcDbLine
 10
389.4999999999999
 20
136.159379566434
 30
0.0
 11
389.4999999999999
 21
135.0280087165356
 31
0.0
  0
LINE
  5
B5
330
1F
100
AcDbEntity
  8
0
  6
DOT
 62
     7
100
AcDbLine
 10
385.4999999999999
 20
135.0280087165356
 30
0.0
 11
385.4999999999999
 21
136.159379566434
 31
0.0
  0
LINE
  5
B6
330
1F
100
AcDbEntity
  8
0
  6
CONTINUOUS
 62
     7
100
AcDbLine
 10
290.5
 20
124.5251262658471
 30
0.0
 11
290.5
 21
135.0280087165356
 31
0.0
  0
LINE
  5
B7
330
1F
100
AcDbEntity
  8
0
  6
DOT
 62
     7
100
AcDbLine
 10
294.5
 20
135.0280087165356
 30
0.0
 11
294.5
 21
124.5251262658471
 31
0.0
  0
LINE
  5
B8
330
1F
100
AcDbEntity
  8
0
  6
CONTINUOUS
 62
     7
100
AcDbLine
 10
290.5
 20
135.0280087165356
 30
0.0
 11
290.5
 21
136.159379566434
 31
0.0
  0
LINE
  5
B9
330
1F
100
AcDbEntity
  8
0
  6
DOT
 62
     7
100
AcDbLine
 10
294.5
 20
136.159379566434
 30
0.0
 11
294.5
 21
135.0280087165356
 31
0.0
  0
LINE
  5
BA
330
1F
100
AcDbEntity
  8
0
  6
CONTINUOUS
 62
     7
100
AcDbLine
 10
389.4999999999999
 20
124.5251262658471
 30
0.0
 11
389.4999999999999
 21
123.9393398282202
 31
0.0
  0
LINE
  5
BB
330
1F
100
AcDbEntity
  8
0
  6
DOT
 62
     7
100
AcDbLine
 10
385.4999999999999
 20
123.9393398282202
 30
0.0
 11
385.4999999999999
 21
124.5251262658471
 31
0.0
  0
LINE
  5
BC
330
1F
100
AcDbEntity
  8
0
  6
CONTINUOUS
 62
     7
100
AcDbLine
 10
290.5
 20
123.9393398282202
 30
0.0
 11
294.5
 21
123.9393398282202
 31
0.0
  0
LINE
  5
BD
330
1F
100
AcDbEntity
  8
0
  6
CONTINUOUS
 62
     7
100
AcDbLine
 10
290.5
 20
123.9393398282202
 30
0.0
 11
290.5
 21
124.5251262658471
 31
0.0
  0
LINE
  5
BE
330
1F
100
AcDbEntity
  8
0
  6
DOT
 62
     7
100
AcDbLine
 10
294.5
 20
124.5251262658471
 30
0.0
 11
294.5
 21
123.9393398282202
 31
0.0
  0
LINE
  5
BF
330
1F
100
AcDbEntity
  8
0
  6
CONTINUOUS
 62
     7
100
AcDbLine
 10
389.4999999999999
 20
233.9393398282202
 30
0.0
 11
389.4999999999999
 21
233.3535533905933
 31
0.0
  0
LINE
  5
C0
330
1F
100
AcDbEntity
  8
0
  6
DOT
 62
     7
100
AcDbLine
 10
385.4999999999999
 20
233.3535533905933
 30
0.0
 11
385.4999999999999
 21
233.9393398282202
 31
0.0
  0
LINE
  5
C1
330
1F
100
AcDbEntity
  8
0
  6
CONTINUOUS
 62
     7
100
AcDbLine
 10
290.5
 20
233.9393398282202
 30
0.0
 11
294.5
 21
233.9393398282202
 31
0.0
  0
LINE
  5
C2
330
1F
100
AcDbEntity
  8
0
  6
CONTINUOUS
 62
     7
100
AcDbLine
 10
290.5
 20
233.3535533905933
 30
0.0
 11
290.5
 21
233.9393398282202
 31
0.0
  0
LINE
  5
C3
330
1F
100
AcDbEntity
  8
0
  6
DOT
 62
     7
100
AcDbLine
 10
294.5
 20
233.9393398282202
 30
0.0
 11
294.5
 21
233.3535533905933
 31
0.0
  0
LINE
  5
C4
330
1F
100
AcDbEntity
  8
0
  6
DOT
 62
     7
100
AcDbLine
 10
301.5535390725763
 20
224.0682177433973
 30
0.0
 11
301.5834848610088
 21
223.9894886810932
 31
0.0
  0
ARC
  5
C5
330
1F
100
AcDbEntity
  8
0
  6
DOT
 62
     7
100
AcDbCircle
 10
383.4999999999999
 20
129.1299387514617
 30
0.0
 40
2.000000000000008
100
AcDbArc
 50
0.0
 51
60.0
  0
ARC
  5
C6
330
1F
100
AcDbEntity
  8
0
  6
DOT
 62
     7
100
AcDbCircle
 10
383.4999999999999
 20
228.7487409049787
 30
0.0
 40
2.000000000000002
100
AcDbArc
 50
300.0
 51
0.0
  0
ARC
  5
C7
330
1F
100
AcDbEntity
  8
0
  6
DOT
 62
     7
100
AcDbCircle
 10
302.5
 20
130.4393398282201
 30
0.0
 40
1.000000000000001
100
AcDbArc
 50
179.9999999999989
 51
0.0000000000002842
  0
ARC
  5
C8
330
1F
100
AcDbEntity
  8
0
  6
DOT
 62
     7
100
AcDbCircle
 10
302.5
 20
227.4393398282202
 30
0.0
 40
1.000000000000001
100
AcDbArc
 50
359.9999999999997
 51
180.0000000000011
  0
ARC
  5
C9
330
1F
100
AcDbEntity
  8
0
  6
DOT
 62
     7
100
AcDbCircle
 10
322.5
 20
130.4393398282201
 30
0.0
 40
1.000000000000001
100
AcDbArc
 50
179.9999999999989
 51
0.0000000000002842
  0
ARC
  5
CA
330
1F
100
AcDbEntity
  8
0
  6
DOT
 62
     7
100
AcDbCircle
 10
322.5
 20
227.4393398282202
 30
0.0
 40
1.000000000000001
100
AcDbArc
 50
359.9999999999997
 51
180.0000000000011
  0
ARC
  5
CB
330
1F
100
AcDbEntity
  8
0
  6
DOT
 62
     7
100
AcDbCircle
 10
332.5
 20
130.4393398282201
 30
0.0
 40
1.000000000000001
100
AcDbArc
 50
179.9999999999989
 51
0.0000000000002842
  0
ARC
  5
CC
330
1F
100
AcDbEntity
  8
0
  6
DOT
 62
     7
100
AcDbCircle
 10
332.5
 20
227.4393398282202
 30
0.0
 40
1.000000000000001
100
AcDbArc
 50
359.9999999999997
 51
180.0000000000011
  0
ARC
  5
CD
330
1F
100
AcDbEntity
  8
0
  6
DOT
 62
     7
100
AcDbCircle
 10
312.5
 20
130.4393398282201
 30
0.0
 40
1.000000000000001
100
AcDbArc
 50
179.9999999999989
 51
0.0000000000002842
  0
ARC
  5
CE
330
1F
100
AcDbEntity
  8
0
  6
DOT
 62
     7
100
AcDbCircle
 10
312.5
 20
227.4393398282202
 30
0.0
 40
1.000000000000001
100
AcDbArc
 50
359.9999999999997
 51
180.0000000000011
  0
ARC
  5
CF
330
1F
100
AcDbEntity
  8
0
  6
DOT
 62
     7
100
AcDbCircle
 10
295.0
 20
227.9393398282202
 30
0.0
 40
0.5000000000000004
100
AcDbArc
 50
180.0
 51
270.0
  0
ARC
  5
D0
330
1F
100
AcDbEntity
  8
0
  6
DOT
 62
     7
100
AcDbCircle
 10
295.0
 20
129.9393398282201
 30
0.0
 40
0.5000000000000004
100
AcDbArc
 50
90.0
 51
180.0000000000006
  0
LINE
  5
D1
330
1F
100
AcDbEntity
  8
0
  6
DOT
 62
     7
100
AcDbLine
 10
311.5
 20
227.4393398282202
 30
0.0
 11
303.5
 21
227.4393398282202
 31
0.0
  0
LINE
  5
D2
330
1F
100
AcDbEntity
  8
0
  6
DOT
 62
     7
100
AcDbLine
 10
303.5
 20
130.4393398282201
 30
0.0
 11
311.5
 21
130.4393398282201
 31
0.0
  0
LINE
  5
D3
330
1F
100
AcDbEntity
  8
0
  6
DOT
 62
     7
100
AcDbLine
 10
321.5
 20
227.4393398282202
 30
0.0
 11
313.5
 21
227.4393398282202
 31
0.0
  0
LINE
  5
D4
330
1F
100
AcDbEntity
  8
0
  6
DOT
 62
     7
100
AcDbLine
 10
313.5
 20
130.4393398282201
 30
0.0
 11
321.5
 21
130.4393398282201
 31
0.0
  0
LINE
  5
D5
330
1F
100
AcDbEntity
  8
0
  6
DOT
 62
     7
100
AcDbLine
 10
331.5
 20
227.4393398282202
 30
0.0
 11
323.5
 21
227.4393398282202
 31
0.0
  0
LINE
  5
D6
330
1F
100
AcDbEntity
  8
0
  6
DOT
 62
     7
100
AcDbLine
 10
323.5
 20
130.4393398282201
 30
0.0
 11
331.5
 21
130.4393398282201
 31
0.0
  0
LINE
  5
D7
330
1F
100
AcDbEntity
  8
0
  6
DOT
 62
     7
100
AcDbLine
 10
349.9999999999999
 20
227.4393398282202
 30
0.0
 11
333.4999999999999
 21
227.4393398282202
 31
0.0
  0
LINE
  5
D8
330
1F
100
AcDbEntity
  8
0
  6
DOT
 62
     7
100
AcDbLine
 10
333.5
 20
130.4393398282201
 30
0.0
 11
350.0
 21
130.4393398282201
 31
0.0
  0
ARC
  5
D9
330
1F
100
AcDbEntity
  8
0
  6
DOT
 62
     7
100
AcDbCircle
 10
349.9999999999999
 20
223.9393398282202
 30
0.0
 40
3.500000000000003
100
AcDbArc
 50
0.0
 51
90.0
  0
ARC
  5
DA
330
1F
100
AcDbEntity
  8
0
  6
DOT
 62
     7
100
AcDbCircle
 10
349.9999999999999
 20
133.9393398282201
 30
0.0
 40
3.499999999999975
100
AcDbArc
 50
270.0
 51
0.0000000000001137
  0
LINE
  5
DB
330
1F
100
AcDbEntity
  8
0
  6
DOT
 62
     7
100
AcDbLine
 10
384.4999999999999
 20
227.0166900974098
 30
0.0
 11
378.9089653438087
 21
223.7887047336092
 31
0.0
  0
LINE
  5
DC
330
1F
100
AcDbEntity
  8
0
  6
DOT
 62
     7
100
AcDbLine
 10
378.9089653438087
 20
134.0899749228311
 30
0.0
 11
384.4999999999999
 21
130.8619895590305
 31
0.0
  0
LINE
  5
DD
330
1F
100
AcDbEntity
  8
0
  6
DOT
 62
     7
100
AcDbLine
 10
301.5
 20
227.4393398282202
 30
0.0
 11
295.0
 21
227.4393398282202
 31
0.0
  0
LINE
  5
DE
330
1F
100
AcDbEntity
  8
0
  6
DOT
 62
     7
100
AcDbLine
 10
295.0
 20
130.4393398282201
 30
0.0
 11
301.5
 21
130.4393398282201
 31
0.0
  0
ARC
  5
DF
330
1F
100
AcDbEntity
  8
0
  6
DOT
 62
     7
100
AcDbCircle
 10
366.4089653438087
 20
245.4393398282202
 30
0.0
 40
25.0
100
AcDbArc
 50
270.0
 51
300.0
  0
ARC
  5
E0
330
1F
100
AcDbEntity
  8
0
  6
DOT
 62
     7
100
AcDbCircle
 10
366.4089653438087
 20
112.4393398282201
 30
0.0
 40
25.00000000000002
100
AcDbArc
 50
60.0
 51
90.0
  0
ARC
  5
E1
330
1F
100
AcDbEntity
  8
0
  6
DOT
 62
     7
100
AcDbCircle
 10
354.5000000000001
 20
221.4393398282202
 30
0.0
 40
1.000000000000001
100
AcDbArc
 50
180.0
 51
270.0
  0
ARC
  5
E2
330
1F
100
AcDbEntity
  8
0
  6
DOT
 62
     7
100
AcDbCircle
 10
354.5000000000001
 20
136.4393398282201
 30
0.0
 40
1.000000000000001
100
AcDbArc
 50
90.0
 51
180.0000000000004
  0
LINE
  5
E3
330
1F
100
AcDbEntity
  8
0
  6
DOT
 62
     7
100
AcDbLine
 10
366.4089653438087
 20
220.4393398282202
 30
0.0
 11
354.5000000000001
 21
220.4393398282202
 31
0.0
  0
LINE
  5
E4
330
1F
100
AcDbEntity
  8
0
  6
DOT
 62
     7
100
AcDbLine
 10
354.5000000000001
 20
137.4393398282201
 30
0.0
 11
366.4089653438087
 21
137.4393398282201
 31
0.0
  0
ARC
  5
E5
330
1F
100
AcDbEntity
  8
0
  6
CONTINUOUS
 62
     7
100
AcDbCircle
 10
510.4386001800125
 20
231.9393398282201
 30
0.0
 40
2.000000000000003
100
AcDbArc
 50
44.9999999999994
 51
90.0
  0
LINE
  5
E6
330
1F
100
AcDbEntity
  8
0
  6
CONTINUOUS
 62
     7
100
AcDbLine
 10
522.4264068711927
 20
222.7799602617861
 30
0.0
 11
511.8528137423855
 21
233.3535533905932
 31
0.0
  0
LINE
  5
E7
330
1F
100
AcDbEntity
  8
0
  6
CONTINUOUS
 62
     7
100
AcDbLine
 10
523.4870670429726
 20
223.840620433566
 30
0.0
 11
522.4264068711927
 21
222.7799602617861
 31
0.0
  0
LINE
  5
E8
330
1F
100
AcDbEntity
  8
0
  6
CONTINUOUS
 62
     7
100
AcDbLine
 10
524.9012806053457
 20
222.4264068711929
 30
0.0
 11
523.4870670429725
 21
223.840620433566
 31
0.0
  0
LINE
  5
E9
330
1F
100
AcDbEntity
  8
0
  6
CONTINUOUS
 62
     7
100
AcDbLine
 10
523.840620433566
 20
221.365746699413
 30
0.0
 11
524.9012806053457
 21
222.4264068711929
 31
0.0
  0
LINE
  5
EA
330
1F
100
AcDbEntity
  8
0
  6
CONTINUOUS
 62
     7
100
AcDbLine
 10
534.4142135623731
 20
210.7921535706058
 30
0.0
 11
523.840620433566
 21
221.365746699413
 31
0.0
  0
ARC
  5
EB
330
1F
100
AcDbEntity
  8
0
  6
CONTINUOUS
 62
     7
100
AcDbCircle
 10
532.9999999999999
 20
209.3779400082328
 30
0.0
 40
2.000000000000002
100
AcDbArc
 50
0.000000000000423
 51
45.0
  0
ARC
  5
EC
330
1F
100
AcDbEntity
  8
0
  6
CONTINUOUS
 62
     7
100
AcDbCircle
 10
534.9999999999999
 20
178.9393398282202
 30
0.0
 40
1.59999999999999
100
AcDbArc
 50
90.0
 51
270.0000000000002
  0
ARC
  5
ED
330
1F
100
AcDbEntity
  8
0
  6
CONTINUOUS
 62
     7
100
AcDbCircle
 10
532.9999999999999
 20
148.5007396482076
 30
0.0
 40
2.000000000000003
100
AcDbArc
 50
314.9999999999993
 51
0.0000000000001705
  0
LINE
  5
EE
330
1F
100
AcDbEntity
  8
0
  6
CONTINUOUS
 62
     7
100
AcDbLine
 10
523.9113311116845
 20
136.583643635146
 30
0.0
 11
534.414213562373
 21
147.0865260858344
 31
0.0
  0
LINE
  5
EF
330
1F
100
AcDbEntity
  8
0
  6
CONTINUOUS
 62
     7
100
AcDbLine
 10
522.7799602617862
 20
137.7150144850444
 30
0.0
 11
523.9113311116846
 21
136.583643635146
 31
0.0
  0
LINE
  5
F0
330
1F
100
AcDbEntity
  8
0
  6
CONTINUOUS
 62
     7
100
AcDbLine
 10
521.2243253431757
 20
136.159379566434
 30
0.0
 11
522.7799602617861
 21
137.7150144850444
 31
0.0
  0
LINE
  5
F1
330
1F
100
AcDbEntity
  8
0
  6
CONTINUOUS
 62
     7
100
AcDbLine
 10
522.3556961930742
 20
135.0280087165356
 30
0.0
 11
521.2243253431758
 21
136.159379566434
 31
0.0
  0
LINE
  5
F2
330
1F
100
AcDbEntity
  8
0
  6
CONTINUOUS
 62
     7
100
AcDbLine
 10
511.8528137423855
 20
124.5251262658471
 30
0.0
 11
522.3556961930742
 21
135.0280087165356
 31
0.0
  0
ARC
  5
F3
330
1F
100
AcDbEntity
  8
0
  6
CONTINUOUS
 62
     7
100
AcDbCircle
 10
510.4386001800125
 20
125.9393398282202
 30
0.0
 40
2.000000000000002
100
AcDbArc
 50
270.0
 51
315.0
  0
ARC
  5
F4
330
1F
100
AcDbEntity
  8
0
  6
CONTINUOUS
 62
     7
100
AcDbCircle
 10
480.0
 20
123.9393398282202
 30
0.0
 40
1.600000000000001
100
AcDbArc
 50
359.9999999999998
 51
180.0000000000002
  0
ARC
  5
F5
330
1F
100
AcDbEntity
  8
0
  6
CONTINUOUS
 62
     7
100
AcDbCircle
 10
449.5613998199874
 20
125.9393398282202
 30
0.0
 40
2.000000000000003
100
AcDbArc
 50
224.9999999999991
 51
270.0
  0
LINE
  5
F6
330
1F
100
AcDbEntity
  8
0
  6
CONTINUOUS
 62
     7
100
AcDbLine
 10
437.6443038069258
 20
135.0280087165356
 30
0.0
 11
448.1471862576143
 21
124.5251262658471
 31
0.0
  0
LINE
  5
F7
330
1F
100
AcDbEntity
  8
0
  6
CONTINUOUS
 62
     7
100
AcDbLine
 10
438.7756746568243
 20
136.159379566434
 30
0.0
 11
437.6443038069258
 21
135.0280087165356
 31
0.0
  0
LINE
  5
F8
330
1F
100
AcDbEntity
  8
0
  6
CONTINUOUS
 62
     7
100
AcDbLine
 10
437.2200397382139
 20
137.7150144850444
 30
0.0
 11
438.7756746568243
 21
136.159379566434
 31
0.0
  0
LINE
  5
F9
330
1F
100
AcDbEntity
  8
0
  6
CONTINUOUS
 62
     7
100
AcDbLine
 10
436.0886688883154
 20
136.583643635146
 30
0.0
 11
437.2200397382139
 21
137.7150144850444
 31
0.0
  0
LINE
  5
FA
330
1F
100
AcDbEntity
  8
0
  6
CONTINUOUS
 62
     7
100
AcDbLine
 10
425.5857864376269
 20
147.0865260858345
 30
0.0
 11
436.0886688883154
 21
136.583643635146
 31
0.0
  0
ARC
  5
FB
330
1F
100
AcDbEntity
  8
0
  6
CONTINUOUS
 62
     7
100
AcDbCircle
 10
427.0
 20
148.5007396482076
 30
0.0
 40
2.000000000000009
100
AcDbArc
 50
180.0000000000003
 51
225.0000000000002
  0
ARC
  5
FC
330
1F
100
AcDbEntity
  8
0
  6
CONTINUOUS
 62
     7
100
AcDbCircle
 10
427.0
 20
209.3779400082328
 30
0.0
 40
2.000000000000003
100
AcDbArc
 50
134.9999999999994
 51
180.0
  0
LINE
  5
FD
330
1F
100
AcDbEntity
  8
0
  6
CONTINUOUS
 62
     7
100
AcDbLine
 10
436.159379566434
 20
221.365746699413
 30
0.0
 11
425.5857864376269
 21
210.7921535706059
 31
0.0
  0
LINE
  5
FE
330
1F
100
AcDbEntity
  8
0
  6
CONTINUOUS
 62
     7
100
AcDbLine
 10
435.0987193946542
 20
222.4264068711929
 30
0.0
 11
436.159379566434
 21
221.365746699413
 31
0.0
  0
LINE
  5
FF
330
1F
100
AcDbEntity
  8
0
  6
CONTINUOUS
 62
     7
100
AcDbLine
 10
436.5129329570273
 20
223.840620433566
 30
0.0
 11
435.0987193946542
 21
222.4264068711929
 31
0.0
  0
LINE
  5
100
330
1F
100
AcDbEntity
  8
0
  6
CONTINUOUS
 62
     7
100
AcDbLine
 10
437.5735931288071
 20
222.7799602617861
 30
0.0
 11
436.5129329570273
 21
223.840620433566
 31
0.0
  0
LINE
  5
101
330
1F
100
AcDbEntity
  8
0
  6
CONTINUOUS
 62
     7
100
AcDbLine
 10
448.1471862576143
 20
233.3535533905933
 30
0.0
 11
437.5735931288071
 21
222.7799602617861
 31
0.0
  0
ARC
  5
102
330
1F
100
AcDbEntity
  8
0
  6
CONTINUOUS
 62
     7
100
AcDbCircle
 10
449.5613998199874
 20
231.9393398282202
 30
0.0
 40
2.000000000000002
100
AcDbArc
 50
89.99999999999987
 51
134.9999999999995
  0
CIRCLE
  5
103
330
1F
100
AcDbEntity
  8
0
  6
CONTINUOUS
 62
     7
100
AcDbCircle
 10
480.0
 20
178.9393398282202
 30
0.0
 40
38.53521478594426
  0
LINE
  5
104
330
1F
100
AcDbEntity
  8
0
  6
CONTINUOUS
 62
     7
100
AcDbLine
 10
741.2243253431756
 20
136.159379566434
 30
0.0
 11
742.7799602617861
 21
137.7150144850444
 31
0.0
  0
LINE
  5
105
330
1F
100
AcDbEntity
  8
0
  6
CENTER
 62
     1
100
AcDbLine
 10
590.0
 20
110.0
 30
0.0
 11
590.0
 21
245.0
 31
0.0
  0
LINE
  5
107
330
1F
100
AcDbEntity
  8
0
  6
CONTINUOUS
 62
     7
100
AcDbLine
 10
645.0
 20
178.9393398282202
 30
0.0
 11
645.0
 21
123.9393398282202
 31
0.0
  0
LINE
  5
108
330
1F
100
AcDbEntity
  8
0
  6
CONTINUOUS
 62
     7
100
AcDbLine
 10
645.0
 20
233.9393398282201
 30
0.0
 11
645.0
 21
178.9393398282202
 31
0.0
  0
ARC
  5
109
330
1F
100
AcDbEntity
  8
0
  6
CONTINUOUS
 62
     7
100
AcDbCircle
 10
642.9999999999999
 20
148.5007396482076
 30
0.0
 40
1.999999999999973
100
AcDbArc
 50
314.9999999999983
 51
359.9999999999991
  0
LINE
  5
10A
330
1F
100
AcDbEntity
  8
0
  6
CONTINUOUS
 62
     7
100
AcDbLine
 10
590.0
 20
233.9393398282202
 30
0.0
 11
535.0
 21
233.9393398282201
 31
0.0
  0
LINE
  5
10B
330
1F
100
AcDbEntity
  8
0
  6
CONTINUOUS
 62
     7
100
AcDbLine
 10
534.4142135623731
 20
320.7921535706059
 30
0.0
 11
523.840620433566
 21
331.365746699413
 31
0.0
  0
LINE
  5
10C
330
1F
100
AcDbEntity
  8
0
  6
CONTINUOUS
 62
     7
100
AcDbLine
 10
742.3556961930742
 20
135.0280087165356
 30
0.0
 11
741.2243253431757
 21
136.159379566434
 31
0.0
  0
LINE
  5
10D
330
1F
100
AcDbEntity
  8
0
  6
CONTINUOUS
 62
     7
100
AcDbLine
 10
534.9999999999999
 20
123.9393398282202
 30
0.0
 11
534.9999999999999
 21
178.9393398282202
 31
0.0
  0
ARC
  5
10E
330
1F
100
AcDbEntity
  8
0
  6
CONTINUOUS
 62
     7
100
AcDbCircle
 10
620.4386001800125
 20
125.9393398282202
 30
0.0
 40
2.000000000000002
100
AcDbArc
 50
270.0
 51
315.0
  0
LINE
  5
10F
330
1F
100
AcDbEntity
  8
0
  6
CONTINUOUS
 62
     7
100
AcDbLine
 10
699.9999999999999
 20
123.9393398282202
 30
0.0
 11
754.9999999999999
 21
123.9393398282202
 31
0.0
  0
LINE
  5
110
330
1F
100
AcDbEntity
  8
0
  6
CONTINUOUS
 62
     7
100
AcDbLine
 10
535.5857864376269
 20
147.0865260858345
 30
0.0
 11
546.0886688883154
 21
136.583643635146
 31
0.0
  0
LINE
  5
111
330
1F
100
AcDbEntity
  8
0
  6
CONTINUOUS
 62
     7
100
AcDbLine
 10
425.0
 20
123.9393398282202
 30
0.0
 11
480.0
 21
123.9393398282202
 31
0.0
  0
LINE
  5
112
330
1F
100
AcDbEntity
  8
0
  6
CONTINUOUS
 62
     7
100
AcDbLine
 10
546.159379566434
 20
221.365746699413
 30
0.0
 11
535.5857864376269
 21
210.7921535706059
 31
0.0
  0
LINE
  5
113
330
1F
100
AcDbEntity
  8
0
  6
CONTINUOUS
 62
     7
100
AcDbLine
 10
294.5
 20
123.9393398282202
 30
0.0
 11
389.4999999999999
 21
123.9393398282202
 31
0.0
  0
LINE
  5
114
330
1F
100
AcDbEntity
  8
0
  6
CONTINUOUS
 62
     7
100
AcDbLine
 10
644.9999999999999
 20
123.9393398282202
 30
0.0
 11
644.9999999999999
 21
178.9393398282202
 31
0.0
  0
LINE
  5
115
330
1F
100
AcDbEntity
  8
0
  6
CONTINUOUS
 62
     7
100
AcDbLine
 10
632.3556961930742
 20
135.0280087165356
 30
0.0
 11
631.2243253431757
 21
136.159379566434
 31
0.0
  0
ARC
  5
116
330
1F
100
AcDbEntity
  8
0
  6
CONTINUOUS
 62
     7
100
AcDbCircle
 10
644.9999999999999
 20
178.9393398282202
 30
0.0
 40
1.59999999999999
100
AcDbArc
 50
89.99999999999966
 51
270.0
  0
LINE
  5
117
330
1F
100
AcDbEntity
  8
0
  6
CONTINUOUS
 62
     7
100
AcDbLine
 10
645.0
 20
178.9393398282202
 30
0.0
 11
645.0
 21
123.9393398282202
 31
0.0
  0
ARC
  5
118
330
1F
100
AcDbEntity
  8
0
  6
CONTINUOUS
 62
     7
100
AcDbCircle
 10
730.4386001800125
 20
231.9393398282201
 30
0.0
 40
2.000000000000032
100
AcDbArc
 50
44.99999999999888
 51
89.99999999999947
  0
ARC
  5
119
330
1F
100
AcDbEntity
  8
0
  6
CONTINUOUS
 62
     7
100
AcDbCircle
 10
537.0
 20
209.3779400082328
 30
0.0
 40
2.000000000000052
100
AcDbArc
 50
135.0000000000006
 51
180.0000000000012
  0
LINE
  5
11A
330
1F
100
AcDbEntity
  8
0
  6
CONTINUOUS
 62
     7
100
AcDbLine
 10
590.0000000000001
 20
123.9393398282202
 30
0.0
 11
644.9999999999999
 21
123.9393398282202
 31
0.0
  0
LINE
  5
11B
330
1F
100
AcDbEntity
  8
0
  6
CONTINUOUS
 62
     7
100
AcDbLine
 10
535.0
 20
123.9393398282202
 30
0.0
 11
590.0000000000001
 21
123.9393398282202
 31
0.0
  0
LINE
  5
11C
330
1F
100
AcDbEntity
  8
0
  6
CONTINUOUS
 62
     7
100
AcDbLine
 10
480.0
 20
233.9393398282202
 30
0.0
 11
425.0
 21
233.9393398282201
 31
0.0
  0
LINE
  5
11D
330
1F
100
AcDbEntity
  8
0
  6
CONTINUOUS
 62
     7
100
AcDbLine
 10
535.0
 20
178.9393398282202
 30
0.0
 11
535.0
 21
123.9393398282202
 31
0.0
  0
LINE
  5
11E
330
1F
100
AcDbEntity
  8
0
  6
CONTINUOUS
 62
     7
100
AcDbLine
 10
548.7756746568243
 20
136.159379566434
 30
0.0
 11
547.6443038069258
 21
135.0280087165356
 31
0.0
  0
LINE
  5
11F
330
1F
100
AcDbEntity
  8
0
  6
CONTINUOUS
 62
     7
100
AcDbLine
 10
547.5735931288071
 20
222.7799602617861
 30
0.0
 11
546.5129329570273
 21
223.840620433566
 31
0.0
  0
LINE
  5
120
330
1F
100
AcDbEntity
  8
0
  6
CONTINUOUS
 62
     7
100
AcDbLine
 10
547.2200397382138
 20
137.7150144850444
 30
0.0
 11
548.7756746568243
 21
136.159379566434
 31
0.0
  0
LINE
  5
121
330
1F
100
AcDbEntity
  8
0
  6
CONTINUOUS
 62
     7
100
AcDbLine
 10
545.0987193946543
 20
222.4264068711929
 30
0.0
 11
546.1593795664342
 21
221.365746699413
 31
0.0
  0
LINE
  5
122
330
1F
100
AcDbEntity
  8
0
  6
CONTINUOUS
 62
     7
100
AcDbLine
 10
480.0
 20
123.9393398282202
 30
0.0
 11
534.9999999999999
 21
123.9393398282202
 31
0.0
  0
LINE
  5
123
330
1F
100
AcDbEntity
  8
0
  6
CONTINUOUS
 62
     7
100
AcDbLine
 10
632.7799602617862
 20
137.7150144850444
 30
0.0
 11
633.9113311116846
 21
136.583643635146
 31
0.0
  0
LINE
  5
124
330
1F
100
AcDbEntity
  8
0
  6
CONTINUOUS
 62
     7
100
AcDbLine
 10
743.8406204335658
 20
221.365746699413
 30
0.0
 11
744.9012806053457
 21
222.4264068711929
 31
0.0
  0
LINE
  5
125
330
1F
100
AcDbEntity
  8
0
  6
CONTINUOUS
 62
     7
100
AcDbLine
 10
644.9999999999999
 20
178.9393398282202
 30
0.0
 11
644.9999999999999
 21
233.9393398282201
 31
0.0
  0
ARC
  5
126
330
1F
100
AcDbEntity
  8
0
  6
CONTINUOUS
 62
     7
100
AcDbCircle
 10
559.5613998199874
 20
231.9393398282202
 30
0.0
 40
2.000000000000002
100
AcDbArc
 50
90.0
 51
134.9999999999996
  0
LINE
  5
127
330
1F
100
AcDbEntity
  8
0
  6
CONTINUOUS
 62
     7
100
AcDbLine
 10
294.5
 20
233.9393398282202
 30
0.0
 11
389.4999999999999
 21
233.9393398282202
 31
0.0
  0
LINE
  5
128
330
1F
100
AcDbEntity
  8
0
  6
CONTINUOUS
 62
     7
100
AcDbLine
 10
535.0
 20
233.9393398282201
 30
0.0
 11
535.0
 21
178.9393398282202
 31
0.0
  0
CIRCLE
  5
129
330
1F
100
AcDbEntity
  8
0
  6
CONTINUOUS
 62
     7
100
AcDbCircle
 10
590.0
 20
178.9393398282202
 30
0.0
 40
38.53521478594425
  0
LINE
  5
12A
330
1F
100
AcDbEntity
  8
0
  6
CONTINUOUS
 62
     7
100
AcDbLine
 10
633.9113311116845
 20
136.583643635146
 30
0.0
 11
644.4142135623729
 21
147.0865260858344
 31
0.0
  0
LINE
  5
12B
330
1F
100
AcDbEntity
  8
0
  6
CENTER
 62
     1
100
AcDbLine
 10
480.0
 20
110.0
 30
0.0
 11
480.0
 21
245.0
 31
0.0
  0
LINE
  5
12C
330
1F
100
AcDbEntity
  8
0
  6
CONTINUOUS
 62
     7
100
AcDbLine
 10
744.9012806053456
 20
222.4264068711929
 30
0.0
 11
743.4870670429725
 21
223.840620433566
 31
0.0
  0
LINE
  5
12D
330
1F
100
AcDbEntity
  8
0
  6
CONTINUOUS
 62
     7
100
AcDbLine
 10
546.5129329570273
 20
223.840620433566
 30
0.0
 11
545.0987193946542
 21
222.4264068711929
 31
0.0
  0
LINE
  5
12E
330
1F
100
AcDbEntity
  8
0
  6
CONTINUOUS
 62
     7
100
AcDbLine
 10
754.9999999999999
 20
233.9393398282201
 30
0.0
 11
699.9999999999999
 21
233.9393398282202
 31
0.0
  0
ARC
  5
12F
330
1F
100
AcDbEntity
  8
0
  6
CONTINUOUS
 62
     7
100
AcDbCircle
 10
699.9999999999999
 20
123.9393398282202
 30
0.0
 40
1.599999999999935
100
AcDbArc
 50
359.9999999999997
 51
180.0
  0
LINE
  5
130
330
1F
100
AcDbEntity
  8
0
  6
CONTINUOUS
 62
     7
100
AcDbLine
 10
546.0886688883154
 20
136.583643635146
 30
0.0
 11
547.2200397382138
 21
137.7150144850444
 31
0.0
  0
LINE
  5
131
330
1F
100
AcDbEntity
  8
0
  6
CENTER
 62
     1
100
AcDbLine
 10
414.9999999999999
 20
178.9393398282202
 30
0.0
 11
544.9999999999999
 21
178.9393398282202
 31
0.0
  0
LINE
  5
132
330
1F
100
AcDbEntity
  8
0
  6
CONTINUOUS
 62
     7
100
AcDbLine
 10
425.0
 20
233.9393398282201
 30
0.0
 11
425.0
 21
178.9393398282202
 31
0.0
  0
ARC
  5
133
330
1F
100
AcDbEntity
  8
0
  6
CONTINUOUS
 62
     7
100
AcDbCircle
 10
642.9999999999999
 20
209.3779400082328
 30
0.0
 40
2.000000000000002
100
AcDbArc
 50
0.0000000000007951
 51
45.00000000000037
  0
LINE
  5
134
330
1F
100
AcDbEntity
  8
0
  6
CONTINUOUS
 62
     7
100
AcDbLine
 10
631.2243253431756
 20
136.159379566434
 30
0.0
 11
632.7799602617861
 21
137.7150144850444
 31
0.0
  0
ARC
  5
135
330
1F
100
AcDbEntity
  8
0
  6
CONTINUOUS
 62
     7
100
AcDbCircle
 10
559.5613998199874
 20
125.9393398282202
 30
0.0
 40
2.000000000000022
100
AcDbArc
 50
224.9999999999986
 51
269.9999999999994
  0
ARC
  5
136
330
1F
100
AcDbEntity
  8
0
  6
CONTINUOUS
 62
     7
100
AcDbCircle
 10
590.0
 20
123.9393398282202
 30
0.0
 40
1.599999999999935
100
AcDbArc
 50
359.9999999999997
 51
180.0
  0
LINE
  5
137
330
1F
100
AcDbEntity
  8
0
  6
DOT
 62
     1
100
AcDbLine
 10
284.9999999999999
 20
178.9393398282202
 30
0.0
 11
394.9999999999999
 21
178.9393398282202
 31
0.0
  0
LINE
  5
138
330
1F
100
AcDbEntity
  8
0
  6
CONTINUOUS
 62
     7
100
AcDbLine
 10
534.9999999999999
 20
178.9393398282202
 30
0.0
 11
534.9999999999999
 21
233.9393398282201
 31
0.0
  0
LINE
  5
139
330
1F
100
AcDbEntity
  8
0
  6
CENTER
 62
     1
100
AcDbLine
 10
524.9999999999999
 20
178.9393398282202
 30
0.0
 11
654.9999999999999
 21
178.9393398282202
 31
0.0
  0
LINE
  5
13A
330
1F
100
AcDbEntity
  8
0
  6
CONTINUOUS
 62
     7
100
AcDbLine
 10
645.0
 20
233.9393398282201
 30
0.0
 11
645.0
 21
178.9393398282202
 31
0.0
  0
LINE
  5
13B
330
1F
100
AcDbEntity
  8
0
  6
CONTINUOUS
 62
     7
100
AcDbLine
 10
743.4870670429726
 20
223.840620433566
 30
0.0
 11
742.4264068711927
 21
222.7799602617861
 31
0.0
  0
LINE
  5
13C
330
1F
100
AcDbEntity
  8
0
  6
CONTINUOUS
 62
     7
100
AcDbLine
 10
425.0
 20
178.9393398282202
 30
0.0
 11
425.0
 21
123.9393398282202
 31
0.0
  0
LINE
  5
13D
330
1F
100
AcDbEntity
  8
0
  6
CONTINUOUS
 62
     7
100
AcDbLine
 10
558.1471862576143
 20
233.3535533905933
 30
0.0
 11
547.5735931288071
 21
222.7799602617861
 31
0.0
  0
LINE
  5
13E
330
1F
100
AcDbEntity
  8
0
  6
CONTINUOUS
 62
     7
100
AcDbLine
 10
547.6443038069258
 20
135.0280087165356
 30
0.0
 11
558.1471862576143
 21
124.5251262658471
 31
0.0
  0
ARC
  5
13F
330
1F
100
AcDbEntity
  8
0
  6
CONTINUOUS
 62
     7
100
AcDbCircle
 10
537.0
 20
148.5007396482076
 30
0.0
 40
2.000000000000002
100
AcDbArc
 50
180.0
 51
224.9999999999999
  0
LINE
  5
140
330
1F
100
AcDbEntity
  8
0
  6
CONTINUOUS
 62
     7
100
AcDbLine
 10
524.9012806053457
 20
332.4264068711929
 30
0.0
 11
523.4870670429725
 21
333.8406204335659
 31
0.0
  0
LINE
  5
141
330
1F
100
AcDbEntity
  8
0
  6
CONTINUOUS
 62
     7
100
AcDbLine
 10
742.4264068711927
 20
222.7799602617861
 30
0.0
 11
731.8528137423856
 21
233.3535533905932
 31
0.0
  0
LINE
  5
142
330
1F
100
AcDbEntity
  8
0
  6
CONTINUOUS
 62
     7
100
AcDbLine
 10
656.0886688883154
 20
136.583643635146
 30
0.0
 11
657.2200397382138
 21
137.7150144850444
 31
0.0
  0
LINE
  5
143
330
1F
100
AcDbEntity
  8
0
  6
CONTINUOUS
 62
     7
100
AcDbLine
 10
645.0
 20
233.9393398282201
 30
0.0
 11
645.0
 21
178.9393398282202
 31
0.0
  0
LINE
  5
144
330
1F
100
AcDbEntity
  8
0
  6
CONTINUOUS
 62
     7
100
AcDbLine
 10
621.8528137423856
 20
124.5251262658471
 30
0.0
 11
632.3556961930742
 21
135.0280087165356
 31
0.0
  0
ARC
  5
145
330
1F
100
AcDbEntity
  8
0
  6
CONTINUOUS
 62
     7
100
AcDbCircle
 10
559.5613998199874
 20
341.9393398282202
 30
0.0
 40
2.000000000000002
100
AcDbArc
 50
90.0
 51
134.9999999999996
  0
ARC
  5
146
330
1F
100
AcDbEntity
  8
0
  6
CONTINUOUS
 62
     7
100
AcDbCircle
 10
754.9999999999999
 20
178.9393398282202
 30
0.0
 40
1.59999999999999
100
AcDbArc
 50
89.99999999999966
 51
270.0
  0
LINE
  5
147
330
1F
100
AcDbEntity
  8
0
  6
CONTINUOUS
 62
     7
100
AcDbLine
 10
534.9999999999999
 20
343.9393398282202
 30
0.0
 11
480.0
 21
343.9393398282202
 31
0.0
  0
ARC
  5
148
330
1F
100
AcDbEntity
  8
0
  6
CONTINUOUS
 62
     7
100
AcDbCircle
 10
647.0
 20
209.3779400082328
 30
0.0
 40
2.000000000000052
100
AcDbArc
 50
135.0000000000006
 51
180.0000000000012
  0
LINE
  5
149
330
1F
100
AcDbEntity
  8
0
  6
CENTER
 62
     1
100
AcDbLine
 10
699.9999999999999
 20
110.0
 30
0.0
 11
699.9999999999999
 21
245.0
 31
0.0
  0
LINE
  5
14A
330
1F
100
AcDbEntity
  8
0
  6
CONTINUOUS
 62
     7
100
AcDbLine
 10
657.5735931288071
 20
222.7799602617861
 30
0.0
 11
656.5129329570273
 21
223.840620433566
 31
0.0
  0
LINE
  5
14B
330
1F
100
AcDbEntity
  8
0
  6
CONTINUOUS
 62
     7
100
AcDbLine
 10
755.0
 20
233.9393398282201
 30
0.0
 11
755.0
 21
178.9393398282202
 31
0.0
  0
LINE
  5
14C
330
1F
100
AcDbEntity
  8
0
  6
CONTINUOUS
 62
     7
100
AcDbLine
 10
645.0
 20
123.9393398282202
 30
0.0
 11
700.0
 21
123.9393398282202
 31
0.0
  0
LINE
  5
14D
330
1F
100
AcDbEntity
  8
0
  6
CONTINUOUS
 62
     7
100
AcDbLine
 10
731.8528137423856
 20
124.5251262658471
 30
0.0
 11
742.3556961930742
 21
135.0280087165356
 31
0.0
  0
LINE
  5
14E
330
1F
100
AcDbEntity
  8
0
  6
CONTINUOUS
 62
     7
100
AcDbLine
 10
535.0
 20
343.9393398282202
 30
0.0
 11
535.0
 21
288.9393398282201
 31
0.0
  0
LINE
  5
14F
330
1F
100
AcDbEntity
  8
0
  6
CONTINUOUS
 62
     7
100
AcDbLine
 10
633.9113311116845
 20
246.583643635146
 30
0.0
 11
644.4142135623729
 21
257.0865260858344
 31
0.0
  0
LINE
  5
150
330
1F
100
AcDbEntity
  8
0
  6
CONTINUOUS
 62
     7
100
AcDbLine
 10
633.840620433566
 20
331.365746699413
 30
0.0
 11
634.9012806053457
 21
332.4264068711929
 31
0.0
  0
CIRCLE
  5
151
330
1F
100
AcDbEntity
  8
0
  6
CONTINUOUS
 62
     7
100
AcDbCircle
 10
590.0
 20
288.9393398282202
 30
0.0
 40
38.53521478594423
  0
LINE
  5
152
330
1F
100
AcDbEntity
  8
0
  6
CONTINUOUS
 62
     7
100
AcDbLine
 10
535.0
 20
288.9393398282202
 30
0.0
 11
535.0
 21
233.9393398282202
 31
0.0
  0
LINE
  5
153
330
1F
100
AcDbEntity
  8
0
  6
CONTINUOUS
 62
     7
100
AcDbLine
 10
547.2200397382138
 20
247.7150144850445
 30
0.0
 11
548.7756746568243
 21
246.159379566434
 31
0.0
  0
ARC
  5
154
330
1F
100
AcDbEntity
  8
0
  6
CONTINUOUS
 62
     7
100
AcDbCircle
 10
642.9999999999999
 20
319.3779400082328
 30
0.0
 40
2.000000000000002
100
AcDbArc
 50
0.0
 51
44.99999999999957
  0
ARC
  5
155
330
1F
100
AcDbEntity
  8
0
  6
CONTINUOUS
 62
     7
100
AcDbCircle
 10
669.5613998199874
 20
231.9393398282202
 30
0.0
 40
2.000000000000002
100
AcDbArc
 50
90.0
 51
134.9999999999996
  0
LINE
  5
156
330
1F
100
AcDbEntity
  8
0
  6
CONTINUOUS
 62
     7
100
AcDbLine
 10
523.4870670429726
 20
333.8406204335659
 30
0.0
 11
522.4264068711927
 21
332.7799602617861
 31
0.0
  0
ARC
  5
157
330
1F
100
AcDbEntity
  8
0
  6
CONTINUOUS
 62
     7
100
AcDbCircle
 10
620.4386001800125
 20
235.9393398282202
 30
0.0
 40
2.000000000000002
100
AcDbArc
 50
270.0
 51
315.0
  0
LINE
  5
158
330
1F
100
AcDbEntity
  8
0
  6
CONTINUOUS
 62
     7
100
AcDbLine
 10
535.0
 20
288.9393398282202
 30
0.0
 11
535.0
 21
233.9393398282202
 31
0.0
  0
LINE
  5
159
330
1F
100
AcDbEntity
  8
0
  6
CONTINUOUS
 62
     7
100
AcDbLine
 10
645.0
 20
343.9393398282202
 30
0.0
 11
645.0
 21
288.9393398282201
 31
0.0
  0
LINE
  5
15A
330
1F
100
AcDbEntity
  8
0
  6
CONTINUOUS
 62
     7
100
AcDbLine
 10
558.1471862576143
 20
343.3535533905933
 30
0.0
 11
547.5735931288071
 21
332.7799602617861
 31
0.0
  0
LINE
  5
15B
330
1F
100
AcDbEntity
  8
0
  6
CONTINUOUS
 62
     7
100
AcDbLine
 10
644.9999999999999
 20
288.9393398282202
 30
0.0
 11
644.9999999999999
 21
343.9393398282202
 31
0.0
  0
LINE
  5
15C
330
1F
100
AcDbEntity
  8
0
  6
CONTINUOUS
 62
     7
100
AcDbLine
 10
632.4264068711927
 20
332.7799602617861
 30
0.0
 11
621.8528137423856
 21
343.3535533905933
 31
0.0
  0
LINE
  5
15D
330
1F
100
AcDbEntity
  8
0
  6
CONTINUOUS
 62
     7
100
AcDbLine
 10
699.9999999999999
 20
233.9393398282202
 30
0.0
 11
645.0
 21
233.9393398282201
 31
0.0
  0
LINE
  5
15E
330
1F
100
AcDbEntity
  8
0
  6
CONTINUOUS
 62
     7
100
AcDbLine
 10
656.5129329570273
 20
223.840620433566
 30
0.0
 11
655.0987193946543
 21
222.4264068711929
 31
0.0
  0
ARC
  5
15F
330
1F
100
AcDbEntity
  8
0
  6
CONTINUOUS
 62
     7
100
AcDbCircle
 10
510.4386001800125
 20
341.9393398282202
 30
0.0
 40
2.000000000000032
100
AcDbArc
 50
44.99999999999888
 51
89.99999999999947
  0
LINE
  5
160
330
1F
100
AcDbEntity
  8
0
  6
CONTINUOUS
 62
     7
100
AcDbLine
 10
755.0
 20
178.9393398282202
 30
0.0
 11
755.0
 21
123.9393398282202
 31
0.0
  0
ARC
  5
161
330
1F
100
AcDbEntity
  8
0
  6
CONTINUOUS
 62
     7
100
AcDbCircle
 10
730.4386001800125
 20
125.9393398282202
 30
0.0
 40
2.000000000000002
100
AcDbArc
 50
270.0
 51
315.0
  0
LINE
  5
162
330
1F
100
AcDbEntity
  8
0
  6
CONTINUOUS
 62
     7
100
AcDbLine
 10
743.9113311116845
 20
136.583643635146
 30
0.0
 11
754.4142135623729
 21
147.0865260858344
 31
0.0
  0
LINE
  5
163
330
1F
100
AcDbEntity
  8
0
  6
CONTINUOUS
 62
     7
100
AcDbLine
 10
644.9999999999999
 20
288.9393398282202
 30
0.0
 11
644.9999999999999
 21
343.9393398282202
 31
0.0
  0
ARC
  5
164
330
1F
100
AcDbEntity
  8
0
  6
CONTINUOUS
 62
     7
100
AcDbCircle
 10
644.9999999999999
 20
288.9393398282202
 30
0.0
 40
1.59999999999999
100
AcDbArc
 50
89.99999999999966
 51
270.0
  0
LINE
  5
165
330
1F
100
AcDbEntity
  8
0
  6
CONTINUOUS
 62
     7
100
AcDbLine
 10
644.9999999999999
 20
233.9393398282202
 30
0.0
 11
644.9999999999999
 21
288.9393398282202
 31
0.0
  0
LINE
  5
166
330
1F
100
AcDbEntity
  8
0
  6
CONTINUOUS
 62
     7
100
AcDbLine
 10
632.7799602617862
 20
247.7150144850445
 30
0.0
 11
633.9113311116846
 21
246.583643635146
 31
0.0
  0
ARC
  5
167
330
1F
100
AcDbEntity
  8
0
  6
CONTINUOUS
 62
     7
100
AcDbCircle
 10
642.9999999999999
 20
258.5007396482076
 30
0.0
 40
1.999999999999993
100
AcDbArc
 50
314.9999999999978
 51
359.9999999999986
  0
LINE
  5
168
330
1F
100
AcDbEntity
  8
0
  6
CONTINUOUS
 62
     7
100
AcDbLine
 10
645.0
 20
288.9393398282202
 30
0.0
 11
645.0
 21
233.9393398282202
 31
0.0
  0
ARC
  5
169
330
1F
100
AcDbEntity
  8
0
  6
CONTINUOUS
 62
     7
100
AcDbCircle
 10
642.9999999999999
 20
258.5007396482076
 30
0.0
 40
1.999999999999993
100
AcDbArc
 50
314.9999999999978
 51
359.9999999999986
  0
LINE
  5
16A
330
1F
100
AcDbEntity
  8
0
  6
CONTINUOUS
 62
     7
100
AcDbLine
 10
645.0
 20
288.9393398282202
 30
0.0
 11
645.0
 21
233.9393398282202
 31
0.0
  0
LINE
  5
16B
330
1F
100
AcDbEntity
  8
0
  6
CENTER
 62
     1
100
AcDbLine
 10
635.0
 20
178.9393398282202
 30
0.0
 11
764.9999999999999
 21
178.9393398282202
 31
0.0
  0
LINE
  5
16C
330
1F
100
AcDbEntity
  8
0
  6
CONTINUOUS
 62
     7
100
AcDbLine
 10
754.9999999999999
 20
123.9393398282202
 30
0.0
 11
754.9999999999999
 21
178.9393398282202
 31
0.0
  0
LINE
  5
16D
330
1F
100
AcDbEntity
  8
0
  6
CONTINUOUS
 62
     7
100
AcDbLine
 10
547.5735931288071
 20
332.7799602617861
 30
0.0
 11
546.5129329570273
 21
333.8406204335659
 31
0.0
  0
LINE
  5
16E
330
1F
100
AcDbEntity
  8
0
  6
CONTINUOUS
 62
     7
100
AcDbLine
 10
645.0
 20
178.9393398282202
 30
0.0
 11
645.0
 21
123.9393398282202
 31
0.0
  0
LINE
  5
16F
330
1F
100
AcDbEntity
  8
0
  6
CONTINUOUS
 62
     7
100
AcDbLine
 10
657.2200397382138
 20
137.7150144850444
 30
0.0
 11
658.7756746568243
 21
136.159379566434
 31
0.0
  0
LINE
  5
170
330
1F
100
AcDbEntity
  8
0
  6
CONTINUOUS
 62
     7
100
AcDbLine
 10
658.7756746568243
 20
136.159379566434
 30
0.0
 11
657.6443038069258
 21
135.0280087165356
 31
0.0
  0
ARC
  5
171
330
1F
100
AcDbEntity
  8
0
  6
CONTINUOUS
 62
     7
100
AcDbCircle
 10
647.0
 20
148.5007396482076
 30
0.0
 40
2.000000000000002
100
AcDbArc
 50
180.0
 51
224.9999999999999
  0
LINE
  5
172
330
1F
100
AcDbEntity
  8
0
  6
CONTINUOUS
 62
     7
100
AcDbLine
 10
668.1471862576143
 20
233.3535533905933
 30
0.0
 11
657.5735931288071
 21
222.7799602617861
 31
0.0
  0
LINE
  5
173
330
1F
100
AcDbEntity
  8
0
  6
CONTINUOUS
 62
     7
100
AcDbLine
 10
657.6443038069258
 20
135.0280087165356
 30
0.0
 11
668.1471862576143
 21
124.5251262658471
 31
0.0
  0
CIRCLE
  5
174
330
1F
100
AcDbEntity
  8
0
  6
CONTINUOUS
 62
     7
100
AcDbCircle
 10
699.9999999999999
 20
178.9393398282202
 30
0.0
 40
38.53521478594425
  0
LINE
  5
175
330
1F
100
AcDbEntity
  8
0
  6
CONTINUOUS
 62
     7
100
AcDbLine
 10
655.0987193946543
 20
222.4264068711929
 30
0.0
 11
656.159379566434
 21
221.365746699413
 31
0.0
  0
LINE
  5
176
330
1F
100
AcDbEntity
  8
0
  6
CONTINUOUS
 62
     7
100
AcDbLine
 10
742.7799602617862
 20
137.7150144850444
 30
0.0
 11
743.9113311116846
 21
136.583643635146
 31
0.0
  0
LINE
  5
177
330
1F
100
AcDbEntity
  8
0
  6
CONTINUOUS
 62
     7
100
AcDbLine
 10
754.9999999999999
 20
178.9393398282202
 30
0.0
 11
754.9999999999999
 21
233.9393398282201
 31
0.0
  0
LINE
  5
178
330
1F
100
AcDbEntity
  8
0
  6
CONTINUOUS
 62
     7
100
AcDbLine
 10
523.840620433566
 20
331.365746699413
 30
0.0
 11
524.9012806053457
 21
332.4264068711929
 31
0.0
  0
LINE
  5
179
330
1F
100
AcDbEntity
  8
0
  6
CONTINUOUS
 62
     7
100
AcDbLine
 10
656.159379566434
 20
221.365746699413
 30
0.0
 11
645.5857864376269
 21
210.7921535706059
 31
0.0
  0
ARC
  5
17A
330
1F
100
AcDbEntity
  8
0
  6
CONTINUOUS
 62
     7
100
AcDbCircle
 10
752.9999999999999
 20
148.5007396482076
 30
0.0
 40
1.999999999999973
100
AcDbArc
 50
314.9999999999983
 51
359.9999999999991
  0
LINE
  5
17B
330
1F
100
AcDbEntity
  8
0
  6
CONTINUOUS
 62
     7
100
AcDbLine
 10
645.5857864376269
 20
147.0865260858345
 30
0.0
 11
656.0886688883154
 21
136.583643635146
 31
0.0
  0
ARC
  5
17C
330
1F
100
AcDbEntity
  8
0
  6
CONTINUOUS
 62
     7
100
AcDbCircle
 10
752.9999999999999
 20
209.3779400082328
 30
0.0
 40
2.000000000000002
100
AcDbArc
 50
0.0000000000007951
 51
45.00000000000037
  0
LINE
  5
17D
330
1F
100
AcDbEntity
  8
0
  6
CONTINUOUS
 62
     7
100
AcDbLine
 10
522.4264068711927
 20
332.7799602617861
 30
0.0
 11
511.8528137423855
 21
343.3535533905933
 31
0.0
  0
ARC
  5
17E
330
1F
100
AcDbEntity
  8
0
  6
CONTINUOUS
 62
     7
100
AcDbCircle
 10
559.5613998199874
 20
235.9393398282202
 30
0.0
 40
2.000000000000032
100
AcDbArc
 50
224.9999999999989
 51
269.9999999999997
  0
ARC
  5
17F
330
1F
100
AcDbEntity
  8
0
  6
CONTINUOUS
 62
     7
100
AcDbCircle
 10
537.0
 20
319.3779400082328
 30
0.0
 40
2.000000000000071
100
AcDbArc
 50
135.0
 51
180.0000000000006
  0
LINE
  5
180
330
1F
100
AcDbEntity
  8
0
  6
CENTER
 62
     1
100
AcDbLine
 10
480.0
 20
220.0
 30
0.0
 11
480.0
 21
355.0
 31
0.0
  0
LINE
  5
181
330
1F
100
AcDbEntity
  8
0
  6
CENTER
 62
     1
100
AcDbLine
 10
524.9999999999999
 20
288.9393398282202
 30
0.0
 11
654.9999999999999
 21
288.9393398282202
 31
0.0
  0
ARC
  5
182
330
1F
100
AcDbEntity
  8
0
  6
CONTINUOUS
 62
     7
100
AcDbCircle
 10
669.5613998199874
 20
125.9393398282202
 30
0.0
 40
2.000000000000022
100
AcDbArc
 50
224.9999999999986
 51
269.9999999999994
  0
LINE
  5
183
330
1F
100
AcDbEntity
  8
0
  6
CONTINUOUS
 62
     7
100
AcDbLine
 10
546.5129329570273
 20
333.8406204335659
 30
0.0
 11
545.0987193946542
 21
332.4264068711929
 31
0.0
  0
LINE
  5
184
330
1F
100
AcDbEntity
  8
0
  6
CONTINUOUS
 62
     7
100
AcDbLine
 10
754.414213562373
 20
210.7921535706058
 30
0.0
 11
743.8406204335658
 21
221.365746699413
 31
0.0
  0
LINE
  5
185
330
1F
100
AcDbEntity
  8
0
  6
CONTINUOUS
 62
     7
100
AcDbLine
 10
632.3556961930742
 20
245.0280087165356
 30
0.0
 11
631.2243253431757
 21
246.159379566434
 31
0.0
  0
ARC
  5
186
330
1F
100
AcDbEntity
  8
0
  6
CONTINUOUS
 62
     7
100
AcDbCircle
 10
644.9999999999999
 20
288.9393398282202
 30
0.0
 40
1.59999999999999
100
AcDbArc
 50
89.99999999999966
 51
270.0
  0
LINE
  5
187
330
1F
100
AcDbEntity
  8
0
  6
CONTINUOUS
 62
     7
100
AcDbLine
 10
633.4870670429726
 20
333.8406204335659
 30
0.0
 11
632.4264068711927
 21
332.7799602617861
 31
0.0
  0
LINE
  5
188
330
1F
100
AcDbEntity
  8
0
  6
CONTINUOUS
 62
     7
100
AcDbLine
 10
644.9999999999999
 20
343.9393398282202
 30
0.0
 11
590.0
 21
343.9393398282202
 31
0.0
  0
LINE
  5
189
330
1F
100
AcDbEntity
  8
0
  6
CONTINUOUS
 62
     7
100
AcDbLine
 10
545.0987193946543
 20
332.4264068711929
 30
0.0
 11
546.1593795664342
 21
331.365746699413
 31
0.0
  0
LINE
  5
18A
330
1F
100
AcDbEntity
  8
0
  6
CONTINUOUS
 62
     7
100
AcDbLine
 10
645.0
 20
343.9393398282202
 30
0.0
 11
645.0
 21
288.9393398282201
 31
0.0
  0
LINE
  5
18B
330
1F
100
AcDbEntity
  8
0
  6
CONTINUOUS
 62
     7
100
AcDbLine
 10
644.9999999999999
 20
233.9393398282202
 30
0.0
 11
644.9999999999999
 21
288.9393398282202
 31
0.0
  0
ARC
  5
18C
330
1F
100
AcDbEntity
  8
0
  6
CONTINUOUS
 62
     7
100
AcDbCircle
 10
642.9999999999999
 20
319.3779400082328
 30
0.0
 40
2.000000000000002
100
AcDbArc
 50
0.0
 51
44.99999999999957
  0
LINE
  5
18D
330
1F
100
AcDbEntity
  8
0
  6
CONTINUOUS
 62
     7
100
AcDbLine
 10
590.0000000000001
 20
233.9393398282202
 30
0.0
 11
644.9999999999999
 21
233.9393398282202
 31
0.0
  0
LINE
  5
18E
330
1F
100
AcDbEntity
  8
0
  6
CONTINUOUS
 62
     7
100
AcDbLine
 10
535.5857864376269
 20
257.0865260858345
 30
0.0
 11
546.0886688883154
 21
246.583643635146
 31
0.0
  0
LINE
  5
18F
330
1F
100
AcDbEntity
  8
0
  6
CONTINUOUS
 62
     7
100
AcDbLine
 10
535.0
 20
343.9393398282202
 30
0.0
 11
535.0
 21
288.9393398282201
 31
0.0
  0
LINE
  5
190
330
1F
100
AcDbEntity
  8
0
  6
CONTINUOUS
 62
     7
100
AcDbLine
 10
437.5735931288071
 20
332.7799602617861
 30
0.0
 11
436.5129329570273
 21
333.8406204335659
 31
0.0
  0
LINE
  5
191
330
1F
100
AcDbEntity
  8
0
  6
CONTINUOUS
 62
     7
100
AcDbLine
 10
754.9999999999999
 20
343.9393398282202
 30
0.0
 11
699.9999999999999
 21
343.9393398282202
 31
0.0
  0
LINE
  5
192
330
1F
100
AcDbEntity
  8
0
  6
CENTER
 62
     1
100
AcDbLine
 10
414.9999999999999
 20
288.9393398282202
 30
0.0
 11
544.9999999999999
 21
288.9393398282202
 31
0.0
  0
ARC
  5
193
330
1F
100
AcDbEntity
  8
0
  6
CONTINUOUS
 62
     7
100
AcDbCircle
 10
537.0
 20
258.5007396482076
 30
0.0
 40
2.000000000000002
100
AcDbArc
 50
180.0
 51
224.9999999999999
  0
LINE
  5
194
330
1F
100
AcDbEntity
  8
0
  6
CONTINUOUS
 62
     7
100
AcDbLine
 10
435.0987193946542
 20
332.4264068711929
 30
0.0
 11
436.159379566434
 21
331.365746699413
 31
0.0
  0
LINE
  5
195
330
1F
100
AcDbEntity
  8
0
  6
CONTINUOUS
 62
     7
100
AcDbLine
 10
548.7756746568243
 20
246.159379566434
 30
0.0
 11
547.6443038069258
 21
245.0280087165355
 31
0.0
  0
LINE
  5
196
330
1F
100
AcDbEntity
  8
0
  6
CONTINUOUS
 62
     7
100
AcDbLine
 10
546.159379566434
 20
331.365746699413
 30
0.0
 11
535.5857864376269
 21
320.7921535706059
 31
0.0
  0
ARC
  5
197
330
1F
100
AcDbEntity
  8
0
  6
CONTINUOUS
 62
     7
100
AcDbCircle
 10
590.0
 20
233.9393398282202
 30
0.0
 40
1.599999999999935
100
AcDbArc
 50
359.9999999999997
 51
180.0
  0
LINE
  5
198
330
1F
100
AcDbEntity
  8
0
  6
CONTINUOUS
 62
     7
100
AcDbLine
 10
631.2243253431756
 20
246.159379566434
 30
0.0
 11
632.7799602617861
 21
247.7150144850444
 31
0.0
  0
LINE
  5
199
330
1F
100
AcDbEntity
  8
0
  6
CONTINUOUS
 62
     7
100
AcDbLine
 10
634.9012806053456
 20
332.4264068711929
 30
0.0
 11
633.4870670429725
 21
333.8406204335659
 31
0.0
  0
LINE
  5
19A
330
1F
100
AcDbEntity
  8
0
  6
CONTINUOUS
 62
     7
100
AcDbLine
 10
644.414213562373
 20
320.7921535706059
 30
0.0
 11
633.840620433566
 21
331.365746699413
 31
0.0
  0
LINE
  5
19B
330
1F
100
AcDbEntity
  8
0
  6
CONTINUOUS
 62
     7
100
AcDbLine
 10
547.6443038069258
 20
245.0280087165356
 30
0.0
 11
558.1471862576143
 21
234.5251262658471
 31
0.0
  0
LINE
  5
19C
330
1F
100
AcDbEntity
  8
0
  6
CONTINUOUS
 62
     7
100
AcDbLine
 10
546.0886688883154
 20
246.583643635146
 30
0.0
 11
547.2200397382138
 21
247.7150144850444
 31
0.0
  0
LINE
  5
19D
330
1F
100
AcDbEntity
  8
0
  6
CONTINUOUS
 62
     7
100
AcDbLine
 10
480.0
 20
343.9393398282202
 30
0.0
 11
425.0
 21
343.9393398282202
 31
0.0
  0
LINE
  5
19E
330
1F
100
AcDbEntity
  8
0
  6
CONTINUOUS
 62
     7
100
AcDbLine
 10
436.159379566434
 20
331.365746699413
 30
0.0
 11
425.5857864376269
 21
320.7921535706059
 31
0.0
  0
ARC
  5
19F
330
1F
100
AcDbEntity
  8
0
  6
CONTINUOUS
 62
     7
100
AcDbCircle
 10
730.4386001800125
 20
341.9393398282202
 30
0.0
 40
2.000000000000032
100
AcDbArc
 50
44.99999999999888
 51
89.99999999999947
  0
LINE
  5
1A0
330
1F
100
AcDbEntity
  8
0
  6
CONTINUOUS
 62
     7
100
AcDbLine
 10
448.1471862576143
 20
343.3535533905933
 30
0.0
 11
437.5735931288071
 21
332.7799602617861
 31
0.0
  0
LINE
  5
1A1
330
1F
100
AcDbEntity
  8
0
  6
CENTER
 62
     1
100
AcDbLine
 10
590.0
 20
220.0
 30
0.0
 11
590.0
 21
355.0
 31
0.0
  0
LINE
  5
1A2
330
1F
100
AcDbEntity
  8
0
  6
CONTINUOUS
 62
     7
100
AcDbLine
 10
621.8528137423856
 20
234.5251262658471
 30
0.0
 11
632.3556961930742
 21
245.0280087165356
 31
0.0
  0
ARC
  5
1A3
330
1F
100
AcDbEntity
  8
0
  6
CONTINUOUS
 62
     7
100
AcDbCircle
 10
449.5613998199874
 20
341.9393398282202
 30
0.0
 40
2.000000000000002
100
AcDbArc
 50
90.0
 51
134.9999999999996
  0
LINE
  5
1A4
330
1F
100
AcDbEntity
  8
0
  6
CONTINUOUS
 62
     7
100
AcDbLine
 10
535.0
 20
233.9393398282202
 30
0.0
 11
590.0000000000001
 21
233.9393398282201
 31
0.0
  0
CIRCLE
  5
1A5
330
1F
100
AcDbEntity
  8
0
  6
CONTINUOUS
 62
     7
100
AcDbCircle
 10
480.0
 20
288.9393398282202
 30
0.0
 40
38.53521478594423
  0
LINE
  5
1A6
330
1F
100
AcDbEntity
  8
0
  6
CONTINUOUS
 62
     7
100
AcDbLine
 10
436.5129329570273
 20
333.8406204335659
 30
0.0
 11
435.0987193946542
 21
332.4264068711929
 31
0.0
  0
ARC
  5
1A7
330
1F
100
AcDbEntity
  8
0
  6
CONTINUOUS
 62
     7
100
AcDbCircle
 10
620.4386001800125
 20
341.9393398282202
 30
0.0
 40
2.000000000000032
100
AcDbArc
 50
44.99999999999888
 51
89.99999999999947
  0
ARC
  5
1A8
330
1F
100
AcDbEntity
  8
0
  6
CONTINUOUS
 62
     7
100
AcDbCircle
 10
642.9999999999999
 20
209.3779400082328
 30
0.0
 40
2.000000000000002
100
AcDbArc
 50
0.0000000000007951
 51
45.00000000000037
  0
ARC
  5
1A9
330
1F
100
AcDbEntity
  8
0
  6
CONTINUOUS
 62
     7
100
AcDbCircle
 10
620.4386001800125
 20
231.9393398282201
 30
0.0
 40
2.000000000000032
100
AcDbArc
 50
44.99999999999888
 51
89.99999999999947
  0
LINE
  5
1AA
330
1F
100
AcDbEntity
  8
0
  6
CONTINUOUS
 62
     7
100
AcDbLine
 10
535.0
 20
178.9393398282202
 30
0.0
 11
535.0
 21
123.9393398282202
 31
0.0
  0
LINE
  5
1AB
330
1F
100
AcDbEntity
  8
0
  6
CONTINUOUS
 62
     7
100
AcDbLine
 10
634.9012806053456
 20
222.4264068711929
 30
0.0
 11
633.4870670429725
 21
223.840620433566
 31
0.0
  0
LINE
  5
1AC
330
1F
100
AcDbEntity
  8
0
  6
CONTINUOUS
 62
     7
100
AcDbLine
 10
633.4870670429726
 20
223.840620433566
 30
0.0
 11
632.4264068711927
 21
222.7799602617861
 31
0.0
  0
LINE
  5
1AD
330
1F
100
AcDbEntity
  8
0
  6
CONTINUOUS
 62
     7
100
AcDbLine
 10
534.9999999999999
 20
233.9393398282201
 30
0.0
 11
480.0
 21
233.9393398282202
 31
0.0
  0
ARC
  5
1AE
330
1F
100
AcDbEntity
  8
0
  6
CONTINUOUS
 62
     7
100
AcDbCircle
 10
644.9999999999999
 20
178.9393398282202
 30
0.0
 40
1.59999999999999
100
AcDbArc
 50
89.99999999999966
 51
270.0
  0
LINE
  5
1AF
330
1F
100
AcDbEntity
  8
0
  6
CONTINUOUS
 62
     7
100
AcDbLine
 10
644.9999999999999
 20
123.9393398282202
 30
0.0
 11
644.9999999999999
 21
178.9393398282202
 31
0.0
  0
LINE
  5
1B0
330
1F
100
AcDbEntity
  8
0
  6
CONTINUOUS
 62
     7
100
AcDbLine
 10
644.414213562373
 20
210.7921535706058
 30
0.0
 11
633.840620433566
 21
221.365746699413
 31
0.0
  0
LINE
  5
1B1
330
1F
100
AcDbEntity
  8
0
  6
CONTINUOUS
 62
     7
100
AcDbLine
 10
632.4264068711927
 20
222.7799602617861
 30
0.0
 11
621.8528137423856
 21
233.3535533905932
 31
0.0
  0
ARC
  5
1B2
330
1F
100
AcDbEntity
  8
0
  6
CONTINUOUS
 62
     7
100
AcDbCircle
 10
642.9999999999999
 20
148.5007396482076
 30
0.0
 40
1.999999999999973
100
AcDbArc
 50
314.9999999999983
 51
359.9999999999991
  0
LINE
  5
1B3
330
1F
100
AcDbEntity
  8
0
  6
CONTINUOUS
 62
     7
100
AcDbLine
 10
644.9999999999999
 20
233.9393398282201
 30
0.0
 11
590.0
 21
233.9393398282202
 31
0.0
  0
LINE
  5
1B4
330
1F
100
AcDbEntity
  8
0
  6
CONTINUOUS
 62
     7
100
AcDbLine
 10
535.0
 20
233.9393398282201
 30
0.0
 11
535.0
 21
178.9393398282202
 31
0.0
  0
LINE
  5
1B5
330
1F
100
AcDbEntity
  8
0
  6
CONTINUOUS
 62
     7
100
AcDbLine
 10
644.9999999999999
 20
178.9393398282202
 30
0.0
 11
644.9999999999999
 21
233.9393398282201
 31
0.0
  0
LINE
  5
1B6
330
1F
100
AcDbEntity
  8
0
  6
CONTINUOUS
 62
     7
100
AcDbLine
 10
633.840620433566
 20
221.365746699413
 30
0.0
 11
634.9012806053457
 21
222.4264068711929
 31
0.0
  0
LINE
  5
1B7
330
1F
100
AcDbEntity
  8
0
  6
CONTINUOUS
 62
     7
100
AcDbLine
 10
290.5
 20
233.9393398282202
 30
0.0
 11
290.5
 21
234.5251262658471
 31
0.0
  0
LINE
  5
1B8
330
1F
100
AcDbEntity
  8
0
  6
CONTINUOUS
 62
     7
100
AcDbLine
 10
294.5
 20
343.9393398282202
 30
0.0
 11
389.4999999999999
 21
343.9393398282202
 31
0.0
  0
ARC
  5
1B9
330
1F
100
AcDbEntity
  8
0
  6
DOT
 62
     7
100
AcDbCircle
 10
312.5
 20
337.4393398282202
 30
0.0
 40
1.000000000000001
100
AcDbArc
 50
0.0
 51
180.0000000000014
  0
ARC
  5
1BA
330
1F
100
AcDbEntity
  8
0
  6
DOT
 62
     7
100
AcDbCircle
 10
332.5
 20
240.4393398282201
 30
0.0
 40
1.000000000000001
100
AcDbArc
 50
180.0
 51
0.0000000000014211
  0
LINE
  5
1BB
330
1F
100
AcDbEntity
  8
0
  6
DOT
 62
     7
100
AcDbLine
 10
294.5
 20
319.3779400082328
 30
0.0
 11
294.5
 21
290.4393398282202
 31
0.0
  0
LINE
  5
1BC
330
1F
100
AcDbEntity
  8
0
  6
CONTINUOUS
 62
     7
100
AcDbLine
 10
389.4999999999999
 20
290.4393398282202
 30
0.0
 11
389.4999999999999
 21
287.4393398282202
 31
0.0
  0
LINE
  5
1BD
330
1F
100
AcDbEntity
  8
0
  6
CONTINUOUS
 62
     7
100
AcDbLine
 10
290.5
 20
246.159379566434
 30
0.0
 11
290.5
 21
246.5836436351459
 31
0.0
  0
LINE
  5
1BE
330
1F
100
AcDbEntity
  8
0
  6
DOT
 62
     7
100
AcDbLine
 10
385.4999999999999
 20
245.0280087165356
 30
0.0
 11
385.4999999999999
 21
246.159379566434
 31
0.0
  0
LINE
  5
1BF
330
1F
100
AcDbEntity
  8
0
  6
DOT
 62
     7
100
AcDbLine
 10
321.5
 20
240.4393398282201
 30
0.0
 11
321.5
 21
254.6446609406726
 31
0.0
  0
LINE
  5
1C0
330
1F
100
AcDbEntity
  8
0
  6
DOT
 62
     7
100
AcDbLine
 10
294.5
 20
245.0280087165356
 30
0.0
 11
294.5
 21
234.5251262658471
 31
0.0
  0
LINE
  5
1C1
330
1F
100
AcDbEntity
  8
0
  6
DOT
 62
     7
100
AcDbLine
 10
294.5
 20
332.4264068711929
 30
0.0
 11
294.5
 21
331.365746699413
 31
0.0
  0
LINE
  5
1C2
330
1F
100
AcDbEntity
  8
0
  6
CONTINUOUS
 62
     7
100
AcDbLine
 10
290.5
 20
290.4393398282202
 30
0.0
 11
290.5
 21
319.3779400082328
 31
0.0
  0
LINE
  5
1C3
330
1F
100
AcDbEntity
  8
0
  6
DOT
 62
     7
100
AcDbLine
 10
331.5
 20
240.4393398282201
 30
0.0
 11
331.5
 21
254.6446609406726
 31
0.0
  0
LINE
  5
1C4
330
1F
100
AcDbEntity
  8
0
  6
DOT
 62
     7
100
AcDbLine
 10
303.5
 20
254.6446609406726
 30
0.0
 11
303.5
 21
337.4393398282202
 31
0.0
  0
LINE
  5
1C5
330
1F
100
AcDbEntity
  8
0
  6
DOT
 62
     7
100
AcDbLine
 10
301.5
 20
334.0682177434065
 30
0.0
 11
301.5
 21
337.4393398282202
 31
0.0
  0
ARC
  5
1C6
330
1F
100
AcDbEntity
  8
0
  6
DOT
 62
     7
100
AcDbCircle
 10
349.9999999999999
 20
333.9393398282202
 30
0.0
 40
3.500000000000003
100
AcDbArc
 50
0.0
 51
90.0
  0
LINE
  5
1C7
330
1F
100
AcDbEntity
  8
0
  6
DOT
 62
     7
100
AcDbLine
 10
323.5
 20
240.4393398282201
 30
0.0
 11
323.5
 21
254.6446609406725
 31
0.0
  0
LINE
  5
1C8
330
1F
100
AcDbEntity
  8
0
  6
CONTINUOUS
 62
     7
100
AcDbLine
 10
290.5
 20
234.5251262658471
 30
0.0
 11
290.5
 21
245.0280087165356
 31
0.0
  0
LINE
  5
1C9
330
1F
100
AcDbEntity
  8
0
  6
DOT
 62
     7
100
AcDbLine
 10
323.5
 20
254.6446609406726
 30
0.0
 11
323.5
 21
337.4393398282202
 31
0.0
  0
LINE
  5
1CA
330
1F
100
AcDbEntity
  8
0
  6
DOT
 62
     7
100
AcDbLine
 10
385.4999999999999
 20
332.4264068711929
 30
0.0
 11
385.4999999999999
 21
333.8406204335659
 31
0.0
  0
LINE
  5
1CB
330
1F
100
AcDbEntity
  8
0
  6
DOT
 62
     7
100
AcDbLine
 10
385.4999999999999
 20
319.3779400082328
 30
0.0
 11
385.4999999999999
 21
320.7921535706059
 31
0.0
  0
LINE
  5
1CC
330
1F
100
AcDbEntity
  8
0
  6
CONTINUOUS
 62
     7
100
AcDbLine
 10
290.5
 20
333.8406204335659
 30
0.0
 11
290.5
 21
343.3535533905933
 31
0.0
  0
LINE
  5
1CD
330
1F
100
AcDbEntity
  8
0
  6
CONTINUOUS
 62
     7
100
AcDbLine
 10
290.5
 20
320.7921535706059
 30
0.0
 11
290.5
 21
331.365746699413
 31
0.0
  0
LINE
  5
1CE
330
1F
100
AcDbEntity
  8
0
  6
DOT
 62
     7
100
AcDbLine
 10
385.4999999999999
 20
234.5251262658471
 30
0.0
 11
385.4999999999999
 21
245.0280087165356
 31
0.0
  0
LINE
  5
1CF
330
1F
100
AcDbEntity
  8
0
  6
DOT
 62
     7
100
AcDbLine
 10
313.5
 20
240.4393398282201
 30
0.0
 11
313.5
 21
254.6446609406725
 31
0.0
  0
LINE
  5
1D0
330
1F
100
AcDbEntity
  8
0
  6
DOT
 62
     7
100
AcDbLine
 10
385.4999999999999
 20
287.4393398282202
 30
0.0
 11
385.4999999999999
 21
290.4393398282202
 31
0.0
  0
LINE
  5
1D1
330
1F
100
AcDbEntity
  8
0
  6
CONTINUOUS
 62
     7
100
AcDbLine
 10
290.5
 20
257.0865260858344
 30
0.0
 11
290.5
 21
258.5007396482075
 31
0.0
  0
LINE
  5
1D2
330
1F
100
AcDbEntity
  8
0
  6
DOT
 62
     7
100
AcDbLine
 10
301.5834848610088
 20
307.9575965394434
 30
0.0
 11
301.5834848610088
 21
333.9894886810931
 31
0.0
  0
LINE
  5
1D3
330
1F
100
AcDbEntity
  8
0
  6
CONTINUOUS
 62
     7
100
AcDbLine
 10
290.5
 20
246.583643635146
 30
0.0
 11
290.5
 21
257.0865260858344
 31
0.0
  0
ARC
  5
1D4
330
1F
100
AcDbEntity
  8
0
  6
DOT
 62
     7
100
AcDbCircle
 10
383.4999999999999
 20
338.7487409049787
 30
0.0
 40
2.000000000000002
100
AcDbArc
 50
300.0
 51
0.0
  0
LINE
  5
1D5
330
1F
100
AcDbEntity
  8
0
  6
DOT
 62
     7
100
AcDbLine
 10
333.5
 20
240.4393398282201
 30
0.0
 11
350.0
 21
240.4393398282201
 31
0.0
  0
ARC
  5
1D6
330
1F
100
AcDbEntity
  8
0
  6
DOT
 62
     7
100
AcDbCircle
 10
366.4089653438087
 20
355.4393398282202
 30
0.0
 40
25.0
100
AcDbArc
 50
270.0
 51
300.0
  0
ARC
  5
1D7
330
1F
100
AcDbEntity
  8
0
  6
DOT
 62
     7
100
AcDbCircle
 10
312.5
 20
240.4393398282201
 30
0.0
 40
1.000000000000001
100
AcDbArc
 50
180.0
 51
0.0000000000014211
  0
LINE
  5
1D8
330
1F
100
AcDbEntity
  8
0
  6
DOT
 62
     7
100
AcDbLine
 10
294.5
 20
287.4393398282202
 30
0.0
 11
294.5
 21
258.5007396482076
 31
0.0
  0
LINE
  5
1D9
330
1F
100
AcDbEntity
  8
0
  6
DOT
 62
     7
100
AcDbLine
 10
333.5
 20
254.6446609406726
 30
0.0
 11
333.5
 21
337.4393398282202
 31
0.0
  0
LINE
  5
1DA
330
1F
100
AcDbEntity
  8
0
  6
DOT
 62
     7
100
AcDbLine
 10
294.5
 20
343.3535533905933
 30
0.0
 11
294.5
 21
333.8406204335659
 31
0.0
  0
LINE
  5
1DB
330
1F
100
AcDbEntity
  8
0
  6
DOT
 62
     7
100
AcDbLine
 10
294.5
 20
320.7921535706059
 30
0.0
 11
294.5
 21
319.3779400082328
 31
0.0
  0
LINE
  5
1DC
330
1F
100
AcDbEntity
  8
0
  6
CONTINUOUS
 62
     7
100
AcDbLine
 10
389.4999999999999
 20
319.3779400082328
 30
0.0
 11
389.4999999999999
 21
290.4393398282202
 31
0.0
  0
LINE
  5
1DD
330
1F
100
AcDbEntity
  8
0
  6
CONTINUOUS
 62
     7
100
AcDbLine
 10
389.4999999999999
 20
245.0280087165356
 30
0.0
 11
389.4999999999999
 21
234.5251262658471
 31
0.0
  0
LINE
  5
1DE
330
1F
100
AcDbEntity
  8
0
  6
CONTINUOUS
 62
     7
100
AcDbLine
 10
389.4999999999999
 20
257.0865260858344
 30
0.0
 11
389.4999999999999
 21
246.583643635146
 31
0.0
  0
LINE
  5
1DF
330
1F
100
AcDbEntity
  8
0
  6
DOT
 62
     7
100
AcDbLine
 10
294.5
 20
258.5007396482075
 30
0.0
 11
294.5
 21
257.0865260858344
 31
0.0
  0
LINE
  5
1E0
330
1F
100
AcDbEntity
  8
0
  6
CONTINUOUS
 62
     7
100
AcDbLine
 10
290.5
 20
258.5007396482075
 30
0.0
 11
290.5
 21
287.4393398282201
 31
0.0
  0
LINE
  5
1E1
330
1F
100
AcDbEntity
  8
0
  6
DOT
 62
     7
100
AcDbLine
 10
303.5
 20
240.4393398282201
 30
0.0
 11
303.5
 21
254.6446609406725
 31
0.0
  0
LINE
  5
1E2
330
1F
100
AcDbEntity
  8
0
  6
CONTINUOUS
 62
     7
100
AcDbLine
 10
389.4999999999999
 20
343.3535533905933
 30
0.0
 11
389.4999999999999
 21
333.8406204335659
 31
0.0
  0
ARC
  5
1E3
330
1F
100
AcDbEntity
  8
0
  6
DOT
 62
     7
100
AcDbCircle
 10
322.5
 20
337.4393398282202
 30
0.0
 40
1.000000000000001
100
AcDbArc
 50
0.0
 51
180.0000000000014
  0
LINE
  5
1E4
330
1F
100
AcDbEntity
  8
0
  6
CONTINUOUS
 62
     7
100
AcDbLine
 10
389.4999999999999
 20
246.583643635146
 30
0.0
 11
389.4999999999999
 21
246.159379566434
 31
0.0
  0
LINE
  5
1E5
330
1F
100
AcDbEntity
  8
0
  6
DOT
 62
     7
100
AcDbLine
 10
301.5
 20
240.4393398282201
 30
0.0
 11
301.5
 21
307.0578369376198
 31
0.0
  0
LINE
  5
1E6
330
1F
100
AcDbEntity
  8
0
  6
DOT
 62
     7
100
AcDbLine
 10
294.5
 20
246.159379566434
 30
0.0
 11
294.5
 21
245.0280087165355
 31
0.0
  0
LINE
  5
1E7
330
1F
100
AcDbEntity
  8
0
  6
DOT
 62
     7
100
AcDbLine
 10
321.5
 20
254.6446609406726
 30
0.0
 11
321.5
 21
337.4393398282202
 31
0.0
  0
LINE
  5
1E8
330
1F
100
AcDbEntity
  8
0
  6
DOT
 62
     7
100
AcDbLine
 10
353.5000000000001
 20
333.9393398282202
 30
0.0
 11
353.5000000000001
 21
243.9393398282201
 31
0.0
  0
LINE
  5
1E9
330
1F
100
AcDbEntity
  8
0
  6
DOT
 62
     7
100
AcDbLine
 10
301.5834848610088
 20
307.9575965394434
 30
0.0
 11
301.5
 21
307.0578369376197
 31
0.0
  0
ARC
  5
1EA
330
1F
100
AcDbEntity
  8
0
  6
DOT
 62
     7
100
AcDbCircle
 10
354.5000000000001
 20
246.4393398282201
 30
0.0
 40
1.000000000000001
100
AcDbArc
 50
89.99999999999955
 51
180.0
  0
LINE
  5
1EB
330
1F
100
AcDbEntity
  8
0
  6
CONTINUOUS
 62
     7
100
AcDbLine
 10
389.4999999999999
 20
343.9393398282202
 30
0.0
 11
389.4999999999999
 21
343.3535533905933
 31
0.0
  0
LINE
  5
1EC
330
1F
100
AcDbEntity
  8
0
  6
CONTINUOUS
 62
     7
100
AcDbLine
 10
290.5
 20
343.3535533905933
 30
0.0
 11
290.5
 21
343.9393398282202
 31
0.0
  0
ARC
  5
1ED
330
1F
100
AcDbEntity
  8
0
  6
DOT
 62
     7
100
AcDbCircle
 10
295.0
 20
337.9393398282202
 30
0.0
 40
0.5000000000000004
100
AcDbArc
 50
180.0
 51
270.0
  0
LINE
  5
1EE
330
1F
100
AcDbEntity
  8
0
  6
DOT
 62
     7
100
AcDbLine
 10
385.4999999999999
 20
258.5007396482075
 30
0.0
 11
385.4999999999999
 21
287.4393398282201
 31
0.0
  0
LINE
  5
1EF
330
1F
100
AcDbEntity
  8
0
  6
DOT
 62
     7
100
AcDbLine
 10
311.5
 20
240.4393398282201
 30
0.0
 11
311.5
 21
254.6446609406726
 31
0.0
  0
LINE
  5
1F0
330
1F
100
AcDbEntity
  8
0
  6
CONTINUOUS
 62
     7
100
AcDbLine
 10
294.5
 20
343.9393398282202
 30
0.0
 11
389.4999999999999
 21
343.9393398282202
 31
0.0
  0
ARC
  5
1F1
330
1F
100
AcDbEntity
  8
0
  6
DOT
 62
     7
100
AcDbCircle
 10
354.5000000000001
 20
331.4393398282202
 30
0.0
 40
1.000000000000001
100
AcDbArc
 50
180.0
 51
270.0
  0
LINE
  5
1F2
330
1F
100
AcDbEntity
  8
0
  6
CONTINUOUS
 62
     7
100
AcDbLine
 10
389.4999999999999
 20
246.159379566434
 30
0.0
 11
389.4999999999999
 21
245.0280087165355
 31
0.0
  0
LINE
  5
1F3
330
1F
100
AcDbEntity
  8
0
  6
CONTINUOUS
 62
     7
100
AcDbLine
 10
290.5
 20
343.9393398282202
 30
0.0
 11
294.5
 21
343.9393398282202
 31
0.0
  0
LINE
  5
1F4
330
1F
100
AcDbEntity
  8
0
  6
CONTINUOUS
 62
     7
100
AcDbLine
 10
294.5
 20
343.9393398282202
 30
0.0
 11
389.4999999999999
 21
343.9393398282202
 31
0.0
  0
LINE
  5
1F5
330
1F
100
AcDbEntity
  8
0
  6
CONTINUOUS
 62
     7
100
AcDbLine
 10
290.5
 20
343.9393398282202
 30
0.0
 11
294.5
 21
343.9393398282202
 31
0.0
  0
LINE
  5
1F6
330
1F
100
AcDbEntity
  8
0
  6
CONTINUOUS
 62
     7
100
AcDbLine
 10
389.4999999999999
 20
343.9393398282202
 30
0.0
 11
389.4999999999999
 21
343.3535533905933
 31
0.0
  0
LINE
  5
1F7
330
1F
100
AcDbEntity
  8
0
  6
DOT
 62
     7
100
AcDbLine
 10
294.5
 20
234.5251262658471
 30
0.0
 11
294.5
 21
233.9393398282202
 31
0.0
  0
ARC
  5
1F8
330
1F
100
AcDbEntity
  8
0
  6
DOT
 62
     7
100
AcDbCircle
 10
322.5
 20
240.4393398282201
 30
0.0
 40
1.000000000000001
100
AcDbArc
 50
180.0
 51
0.0000000000014211
  0
LINE
  5
1F9
330
1F
100
AcDbEntity
  8
0
  6
DOT
 62
     7
100
AcDbLine
 10
354.5000000000001
 20
247.4393398282201
 30
0.0
 11
366.4089653438087
 21
247.4393398282201
 31
0.0
  0
LINE
  5
1FA
330
1F
100
AcDbEntity
  8
0
  6
DOT
 62
     7
100
AcDbLine
 10
321.5
 20
337.4393398282202
 30
0.0
 11
313.5
 21
337.4393398282202
 31
0.0
  0
LINE
  5
1FB
330
1F
100
AcDbEntity
  8
0
  6
DOT
 62
     7
100
AcDbLine
 10
303.5
 20
240.4393398282201
 30
0.0
 11
311.5
 21
240.4393398282201
 31
0.0
  0
LINE
  5
1FC
330
1F
100
AcDbEntity
  8
0
  6
DOT
 62
     7
100
AcDbLine
 10
331.5
 20
337.4393398282202
 30
0.0
 11
323.5
 21
337.4393398282202
 31
0.0
  0
LINE
  5
1FD
330
1F
100
AcDbEntity
  8
0
  6
DOT
 62
     7
100
AcDbLine
 10
301.5535390725763
 20
334.0682177433973
 30
0.0
 11
301.5834848610088
 21
333.9894886810932
 31
0.0
  0
LINE
  5
1FE
330
1F
100
AcDbEntity
  8
0
  6
CONTINUOUS
 62
     7
100
AcDbLine
 10
294.5
 20
343.9393398282202
 30
0.0
 11
389.4999999999999
 21
343.9393398282202
 31
0.0
  0
LINE
  5
1FF
330
1F
100
AcDbEntity
  8
0
  6
DOT
 62
     7
100
AcDbLine
 10
294.5
 20
343.9393398282202
 30
0.0
 11
294.5
 21
343.3535533905933
 31
0.0
  0
LINE
  5
200
330
1F
100
AcDbEntity
  8
0
  6
DOT
 62
     7
100
AcDbLine
 10
294.5
 20
343.9393398282202
 30
0.0
 11
294.5
 21
343.3535533905933
 31
0.0
  0
LINE
  5
201
330
1F
100
AcDbEntity
  8
0
  6
DOT
 62
     7
100
AcDbLine
 10
366.4089653438087
 20
330.4393398282202
 30
0.0
 11
354.5000000000001
 21
330.4393398282202
 31
0.0
  0
ARC
  5
202
330
1F
100
AcDbEntity
  8
0
  6
DOT
 62
     7
100
AcDbCircle
 10
366.4089653438087
 20
222.4393398282201
 30
0.0
 40
25.00000000000002
100
AcDbArc
 50
60.0
 51
90.0
  0
LINE
  5
203
330
1F
100
AcDbEntity
  8
0
  6
DOT
 62
     7
100
AcDbLine
 10
311.5
 20
337.4393398282202
 30
0.0
 11
303.5
 21
337.4393398282202
 31
0.0
  0
LINE
  5
204
330
1F
100
AcDbEntity
  8
0
  6
CONTINUOUS
 62
     7
100
AcDbLine
 10
294.5
 20
233.9393398282202
 30
0.0
 11
389.4999999999999
 21
233.9393398282202
 31
0.0
  0
LINE
  5
205
330
1F
100
AcDbEntity
  8
0
  6
DOT
 62
     7
100
AcDbLine
 10
313.5
 20
240.4393398282201
 30
0.0
 11
321.5
 21
240.4393398282201
 31
0.0
  0
ARC
  5
206
330
1F
100
AcDbEntity
  8
0
  6
DOT
 62
     7
100
AcDbCircle
 10
302.5
 20
337.4393398282202
 30
0.0
 40
1.000000000000001
100
AcDbArc
 50
0.0
 51
180.0000000000014
  0
LINE
  5
207
330
1F
100
AcDbEntity
  8
0
  6
DOT
 62
     7
100
AcDbLine
 10
385.4999999999999
 20
343.3535533905933
 30
0.0
 11
385.4999999999999
 21
343.9393398282202
 31
0.0
  0
LINE
  5
208
330
1F
100
AcDbEntity
  8
0
  6
DOT
 62
     7
100
AcDbLine
 10
378.9089653438087
 20
244.0899749228311
 30
0.0
 11
384.4999999999999
 21
240.8619895590305
 31
0.0
  0
LINE
  5
209
330
1F
100
AcDbEntity
  8
0
  6
CONTINUOUS
 62
     7
100
AcDbLine
 10
290.5
 20
343.9393398282202
 30
0.0
 11
294.5
 21
343.9393398282202
 31
0.0
  0
ARC
  5
20A
330
1F
100
AcDbEntity
  8
0
  6
DOT
 62
     7
100
AcDbCircle
 10
349.9999999999999
 20
243.9393398282201
 30
0.0
 40
3.500000000000003
100
AcDbArc
 50
270.0
 51
0.0000000000001137
  0
ARC
  5
20B
330
1F
100
AcDbEntity
  8
0
  6
DOT
 62
     7
100
AcDbCircle
 10
295.0
 20
239.9393398282201
 30
0.0
 40
0.5000000000000004
100
AcDbArc
 50
89.99999999999943
 51
180.0
  0
LINE
  5
20C
330
1F
100
AcDbEntity
  8
0
  6
CONTINUOUS
 62
     7
100
AcDbLine
 10
389.4999999999999
 20
234.5251262658471
 30
0.0
 11
389.4999999999999
 21
233.9393398282202
 31
0.0
  0
LINE
  5
20D
330
1F
100
AcDbEntity
  8
0
  6
DOT
 62
     7
100
AcDbLine
 10
385.4999999999999
 20
233.9393398282202
 30
0.0
 11
385.4999999999999
 21
234.5251262658471
 31
0.0
  0
LINE
  5
20E
330
1F
100
AcDbEntity
  8
0
  6
CONTINUOUS
 62
     7
100
AcDbLine
 10
290.5
 20
343.9393398282202
 30
0.0
 11
294.5
 21
343.9393398282202
 31
0.0
  0
LINE
  5
20F
330
1F
100
AcDbEntity
  8
0
  6
DOT
 62
     1
100
AcDbLine
 10
284.9999999999999
 20
288.9393398282202
 30
0.0
 11
394.9999999999999
 21
288.9393398282202
 31
0.0
  0
LINE
  5
210
330
1F
100
AcDbEntity
  8
0
  6
DOT
 62
     7
100
AcDbLine
 10
385.4999999999999
 20
343.3535533905933
 30
0.0
 11
385.4999999999999
 21
343.9393398282202
 31
0.0
  0
ARC
  5
211
330
1F
100
AcDbEntity
  8
0
  6
DOT
 62
     7
100
AcDbCircle
 10
302.5
 20
240.4393398282201
 30
0.0
 40
1.000000000000001
100
AcDbArc
 50
180.0
 51
0.0000000000014211
  0
ARC
  5
212
330
1F
100
AcDbEntity
  8
0
  6
DOT
 62
     7
100
AcDbCircle
 10
383.4999999999999
 20
239.1299387514617
 30
0.0
 40
2.000000000000008
100
AcDbArc
 50
0.0000000000001137
 51
60.00000000000011
  0
LINE
  5
213
330
1F
100
AcDbEntity
  8
0
  6
CONTINUOUS
 62
     7
100
AcDbLine
 10
290.5
 20
343.3535533905933
 30
0.0
 11
290.5
 21
343.9393398282202
 31
0.0
  0
LINE
  5
214
330
1F
100
AcDbEntity
  8
0
  6
DOT
 62
     7
100
AcDbLine
 10
301.5
 20
337.4393398282202
 30
0.0
 11
295.0
 21
337.4393398282202
 31
0.0
  0
LINE
  5
215
330
1F
100
AcDbEntity
  8
0
  6
DOT
 62
     7
100
AcDbLine
 10
349.9999999999999
 20
337.4393398282202
 30
0.0
 11
333.4999999999999
 21
337.4393398282202
 31
0.0
  0
ARC
  5
216
330
1F
100
AcDbEntity
  8
0
  6
DOT
 62
     7
100
AcDbCircle
 10
332.5
 20
337.4393398282202
 30
0.0
 40
1.000000000000001
100
AcDbArc
 50
0.0
 51
180.0000000000014
  0
LINE
  5
217
330
1F
100
AcDbEntity
  8
0
  6
CONTINUOUS
 62
     7
100
AcDbLine
 10
290.5
 20
245.0280087165356
 30
0.0
 11
290.5
 21
246.159379566434
 31
0.0
  0
LINE
  5
218
330
1F
100
AcDbEntity
  8
0
  6
DOT
 62
     7
100
AcDbLine
 10
323.5
 20
240.4393398282201
 30
0.0
 11
331.5
 21
240.4393398282201
 31
0.0
  0
LINE
  5
219
330
1F
100
AcDbEntity
  8
0
  6
CONTINUOUS
 62
     7
100
AcDbLine
 10
290.5
 20
233.9393398282202
 30
0.0
 11
294.5
 21
233.9393398282202
 31
0.0
  0
LINE
  5
21A
330
1F
100
AcDbEntity
  8
0
  6
CONTINUOUS
 62
     7
100
AcDbLine
 10
290.5
 20
343.9393398282202
 30
0.0
 11
294.5
 21
343.9393398282202
 31
0.0
  0
LINE
  5
21B
330
1F
100
AcDbEntity
  8
0
  6
DOT
 62
     7
100
AcDbLine
 10
295.0
 20
240.4393398282201
 30
0.0
 11
301.5
 21
240.4393398282201
 31
0.0
  0
LINE
  5
21C
330
1F
100
AcDbEntity
  8
0
  6
CONTINUOUS
 62
     7
100
AcDbLine
 10
294.5
 20
343.9393398282202
 30
0.0
 11
389.4999999999999
 21
343.9393398282202
 31
0.0
  0
LINE
  5
21D
330
1F
100
AcDbEntity
  8
0
  6
DOT
 62
     7
100
AcDbLine
 10
384.4999999999999
 20
337.0166900974098
 30
0.0
 11
378.9089653438087
 21
333.7887047336092
 31
0.0
  0
LINE
  5
21E
330
1F
100
AcDbEntity
  8
0
  6
CONTINUOUS
 62
     7
100
AcDbLine
 10
645.5857864376269
 20
257.0865260858345
 30
0.0
 11
656.0886688883154
 21
246.583643635146
 31
0.0
  0
LINE
  5
21F
330
1F
100
AcDbEntity
  8
0
  6
CONTINUOUS
 62
     7
100
AcDbLine
 10
522.7799602617862
 20
247.7150144850445
 30
0.0
 11
523.9113311116846
 21
246.583643635146
 31
0.0
  0
ARC
  5
220
330
1F
100
AcDbEntity
  8
0
  6
CONTINUOUS
 62
     7
100
AcDbCircle
 10
730.4386001800125
 20
235.9393398282202
 30
0.0
 40
2.000000000000002
100
AcDbArc
 50
270.0
 51
315.0
  0
LINE
  5
221
330
1F
100
AcDbEntity
  8
0
  6
CONTINUOUS
 62
     7
100
AcDbLine
 10
438.7756746568243
 20
246.159379566434
 30
0.0
 11
437.6443038069258
 21
245.0280087165355
 31
0.0
  0
ARC
  5
222
330
1F
100
AcDbEntity
  8
0
  6
CONTINUOUS
 62
     7
100
AcDbCircle
 10
752.9999999999999
 20
319.3779400082328
 30
0.0
 40
2.000000000000002
100
AcDbArc
 50
0.0
 51
44.99999999999957
  0
CIRCLE
  5
223
330
1F
100
AcDbEntity
  8
0
  6
CONTINUOUS
 62
     7
100
AcDbCircle
 10
699.9999999999999
 20
288.9393398282202
 30
0.0
 40
38.53521478594423
  0
LINE
  5
224
330
1F
100
AcDbEntity
  8
0
  6
CONTINUOUS
 62
     7
100
AcDbLine
 10
668.1471862576143
 20
343.3535533905933
 30
0.0
 11
657.5735931288071
 21
332.7799602617861
 31
0.0
  0
LINE
  5
225
330
1F
100
AcDbEntity
  8
0
  6
CONTINUOUS
 62
     7
100
AcDbLine
 10
658.7756746568243
 20
246.159379566434
 30
0.0
 11
657.6443038069258
 21
245.0280087165355
 31
0.0
  0
LINE
  5
226
330
1F
100
AcDbEntity
  8
0
  6
CONTINUOUS
 62
     7
100
AcDbLine
 10
742.4264068711927
 20
332.7799602617861
 30
0.0
 11
731.8528137423856
 21
343.3535533905933
 31
0.0
  0
LINE
  5
227
330
1F
100
AcDbEntity
  8
0
  6
CONTINUOUS
 62
     7
100
AcDbLine
 10
511.8528137423855
 20
234.5251262658471
 30
0.0
 11
522.3556961930742
 21
245.0280087165356
 31
0.0
  0
LINE
  5
228
330
1F
100
AcDbEntity
  8
0
  6
CONTINUOUS
 62
     7
100
AcDbLine
 10
425.0
 20
288.9393398282202
 30
0.0
 11
425.0
 21
233.9393398282202
 31
0.0
  0
LINE
  5
229
330
1F
100
AcDbEntity
  8
0
  6
CONTINUOUS
 62
     7
100
AcDbLine
 10
743.4870670429726
 20
333.8406204335659
 30
0.0
 11
742.4264068711927
 21
332.7799602617861
 31
0.0
  0
LINE
  5
22A
330
1F
100
AcDbEntity
  8
0
  6
CONTINUOUS
 62
     7
100
AcDbLine
 10
294.5
 20
233.9393398282202
 30
0.0
 11
389.4999999999999
 21
233.9393398282202
 31
0.0
  0
LINE
  5
22B
330
1F
100
AcDbEntity
  8
0
  6
CONTINUOUS
 62
     7
100
AcDbLine
 10
742.3556961930742
 20
245.0280087165356
 30
0.0
 11
741.2243253431757
 21
246.159379566434
 31
0.0
  0
ARC
  5
22C
330
1F
100
AcDbEntity
  8
0
  6
CONTINUOUS
 62
     7
100
AcDbCircle
 10
449.5613998199874
 20
341.9393398282202
 30
0.0
 40
2.000000000000002
100
AcDbArc
 50
90.0
 51
134.9999999999996
  0
ARC
  5
22D
330
1F
100
AcDbEntity
  8
0
  6
CONTINUOUS
 62
     7
100
AcDbCircle
 10
534.9999999999999
 20
288.9393398282202
 30
0.0
 40
1.59999999999999
100
AcDbArc
 50
89.99999999999966
 51
270.0
  0
LINE
  5
22E
330
1F
100
AcDbEntity
  8
0
  6
CONTINUOUS
 62
     7
100
AcDbLine
 10
645.0
 20
288.9393398282202
 30
0.0
 11
645.0
 21
233.9393398282202
 31
0.0
  0
ARC
  5
22F
330
1F
100
AcDbEntity
  8
0
  6
CONTINUOUS
 62
     7
100
AcDbCircle
 10
532.9999999999999
 20
258.5007396482076
 30
0.0
 40
1.999999999999993
100
AcDbArc
 50
314.9999999999978
 51
359.9999999999986
  0
LINE
  5
230
330
1F
100
AcDbEntity
  8
0
  6
CONTINUOUS
 62
     7
100
AcDbLine
 10
534.9999999999999
 20
233.9393398282202
 30
0.0
 11
534.9999999999999
 21
288.9393398282202
 31
0.0
  0
ARC
  5
231
330
1F
100
AcDbEntity
  8
0
  6
CONTINUOUS
 62
     7
100
AcDbCircle
 10
559.5613998199874
 20
341.9393398282202
 30
0.0
 40
2.000000000000002
100
AcDbArc
 50
90.0
 51
134.9999999999996
  0
LINE
  5
232
330
1F
100
AcDbEntity
  8
0
  6
CONTINUOUS
 62
     7
100
AcDbLine
 10
755.0
 20
288.9393398282202
 30
0.0
 11
755.0
 21
233.9393398282202
 31
0.0
  0
ARC
  5
233
330
1F
100
AcDbEntity
  8
0
  6
CONTINUOUS
 62
     7
100
AcDbCircle
 10
754.9999999999999
 20
288.9393398282202
 30
0.0
 40
1.59999999999999
100
AcDbArc
 50
89.99999999999966
 51
270.0
  0
LINE
  5
234
330
1F
100
AcDbEntity
  8
0
  6
CONTINUOUS
 62
     7
100
AcDbLine
 10
436.0886688883154
 20
246.583643635146
 30
0.0
 11
437.2200397382139
 21
247.7150144850444
 31
0.0
  0
LINE
  5
235
330
1F
100
AcDbEntity
  8
0
  6
CONTINUOUS
 62
     7
100
AcDbLine
 10
655.0987193946543
 20
332.4264068711929
 30
0.0
 11
656.159379566434
 21
331.365746699413
 31
0.0
  0
LINE
  5
236
330
1F
100
AcDbEntity
  8
0
  6
CONTINUOUS
 62
     7
100
AcDbLine
 10
480.0
 20
343.9393398282202
 30
0.0
 11
425.0
 21
343.9393398282202
 31
0.0
  0
ARC
  5
237
330
1F
100
AcDbEntity
  8
0
  6
CONTINUOUS
 62
     7
100
AcDbCircle
 10
669.5613998199874
 20
235.9393398282202
 30
0.0
 40
2.000000000000032
100
AcDbArc
 50
224.9999999999989
 51
269.9999999999997
  0
LINE
  5
238
330
1F
100
AcDbEntity
  8
0
  6
CONTINUOUS
 62
     7
100
AcDbLine
 10
290.5
 20
233.9393398282202
 30
0.0
 11
294.5
 21
233.9393398282202
 31
0.0
  0
ARC
  5
239
330
1F
100
AcDbEntity
  8
0
  6
CONTINUOUS
 62
     7
100
AcDbCircle
 10
730.4386001800125
 20
341.9393398282202
 30
0.0
 40
2.000000000000032
100
AcDbArc
 50
44.99999999999888
 51
89.99999999999947
  0
ARC
  5
23A
330
1F
100
AcDbEntity
  8
0
  6
CONTINUOUS
 62
     7
100
AcDbCircle
 10
427.0
 20
258.5007396482076
 30
0.0
 40
2.000000000000002
100
AcDbArc
 50
180.0
 51
224.9999999999999
  0
ARC
  5
23B
330
1F
100
AcDbEntity
  8
0
  6
CONTINUOUS
 62
     7
100
AcDbCircle
 10
647.0
 20
258.5007396482076
 30
0.0
 40
2.000000000000002
100
AcDbArc
 50
180.0
 51
224.9999999999999
  0
LINE
  5
23C
330
1F
100
AcDbEntity
  8
0
  6
CENTER
 62
     1
100
AcDbLine
 10
635.0
 20
288.9393398282202
 30
0.0
 11
764.9999999999999
 21
288.9393398282202
 31
0.0
  0
LINE
  5
23D
330
1F
100
AcDbEntity
  8
0
  6
CONTINUOUS
 62
     7
100
AcDbLine
 10
645.0
 20
233.9393398282202
 30
0.0
 11
700.0
 21
233.9393398282201
 31
0.0
  0
LINE
  5
23E
330
1F
100
AcDbEntity
  8
0
  6
CONTINUOUS
 62
     7
100
AcDbLine
 10
523.9113311116845
 20
246.583643635146
 30
0.0
 11
534.414213562373
 21
257.0865260858344
 31
0.0
  0
LINE
  5
23F
330
1F
100
AcDbEntity
  8
0
  6
CONTINUOUS
 62
     7
100
AcDbLine
 10
534.9999999999999
 20
288.9393398282202
 30
0.0
 11
534.9999999999999
 21
343.9393398282202
 31
0.0
  0
LINE
  5
240
330
1F
100
AcDbEntity
  8
0
  6
CONTINUOUS
 62
     7
100
AcDbLine
 10
437.2200397382139
 20
247.7150144850445
 30
0.0
 11
438.7756746568243
 21
246.159379566434
 31
0.0
  0
ARC
  5
241
330
1F
100
AcDbEntity
  8
0
  6
CONTINUOUS
 62
     7
100
AcDbCircle
 10
532.9999999999999
 20
319.3779400082328
 30
0.0
 40
2.000000000000002
100
AcDbArc
 50
0.0
 51
44.99999999999957
  0
LINE
  5
242
330
1F
100
AcDbEntity
  8
0
  6
CONTINUOUS
 62
     7
100
AcDbLine
 10
425.5857864376269
 20
257.0865260858345
 30
0.0
 11
436.0886688883154
 21
246.583643635146
 31
0.0
  0
LINE
  5
243
330
1F
100
AcDbEntity
  8
0
  6
CONTINUOUS
 62
     7
100
AcDbLine
 10
699.9999999999999
 20
343.9393398282202
 30
0.0
 11
645.0
 21
343.9393398282202
 31
0.0
  0
ARC
  5
244
330
1F
100
AcDbEntity
  8
0
  6
CONTINUOUS
 62
     7
100
AcDbCircle
 10
620.4386001800125
 20
341.9393398282202
 30
0.0
 40
2.000000000000032
100
AcDbArc
 50
44.99999999999888
 51
89.99999999999947
  0
ARC
  5
245
330
1F
100
AcDbEntity
  8
0
  6
CONTINUOUS
 62
     7
100
AcDbCircle
 10
669.5613998199874
 20
341.9393398282202
 30
0.0
 40
2.000000000000002
100
AcDbArc
 50
90.0
 51
134.9999999999996
  0
LINE
  5
246
330
1F
100
AcDbEntity
  8
0
  6
CONTINUOUS
 62
     7
100
AcDbLine
 10
743.8406204335658
 20
331.365746699413
 30
0.0
 11
744.9012806053457
 21
332.4264068711929
 31
0.0
  0
LINE
  5
247
330
1F
100
AcDbEntity
  8
0
  6
CONTINUOUS
 62
     7
100
AcDbLine
 10
755.0
 20
343.9393398282202
 30
0.0
 11
755.0
 21
288.9393398282201
 31
0.0
  0
LINE
  5
248
330
1F
100
AcDbEntity
  8
0
  6
CONTINUOUS
 62
     7
100
AcDbLine
 10
754.9999999999999
 20
233.9393398282202
 30
0.0
 11
754.9999999999999
 21
288.9393398282202
 31
0.0
  0
ARC
  5
249
330
1F
100
AcDbEntity
  8
0
  6
CONTINUOUS
 62
     7
100
AcDbCircle
 10
449.5613998199874
 20
235.9393398282202
 30
0.0
 40
1.999999999999993
100
AcDbArc
 50
225.0
 51
270.0000000000007
  0
LINE
  5
24A
330
1F
100
AcDbEntity
  8
0
  6
CONTINUOUS
 62
     7
100
AcDbLine
 10
425.0
 20
233.9393398282202
 30
0.0
 11
480.0
 21
233.9393398282201
 31
0.0
  0
ARC
  5
24B
330
1F
100
AcDbEntity
  8
0
  6
CONTINUOUS
 62
     7
100
AcDbCircle
 10
427.0
 20
319.3779400082328
 30
0.0
 40
2.000000000000032
100
AcDbArc
 50
134.9999999999989
 51
179.9999999999995
  0
LINE
  5
24C
330
1F
100
AcDbEntity
  8
0
  6
CONTINUOUS
 62
     7
100
AcDbLine
 10
425.0
 20
343.9393398282202
 30
0.0
 11
425.0
 21
288.9393398282201
 31
0.0
  0
ARC
  5
24D
330
1F
100
AcDbEntity
  8
0
  6
CONTINUOUS
 62
     7
100
AcDbCircle
 10
480.0
 20
233.9393398282202
 30
0.0
 40
1.59999999999999
100
AcDbArc
 50
359.9999999999997
 51
180.0
  0
ARC
  5
24E
330
1F
100
AcDbEntity
  8
0
  6
CONTINUOUS
 62
     7
100
AcDbCircle
 10
669.5613998199874
 20
341.9393398282202
 30
0.0
 40
2.000000000000002
100
AcDbArc
 50
90.0
 51
134.9999999999996
  0
LINE
  5
24F
330
1F
100
AcDbEntity
  8
0
  6
CENTER
 62
     1
100
AcDbLine
 10
699.9999999999999
 20
220.0
 30
0.0
 11
699.9999999999999
 21
355.0
 31
0.0
  0
LINE
  5
250
330
1F
100
AcDbEntity
  8
0
  6
CONTINUOUS
 62
     7
100
AcDbLine
 10
731.8528137423856
 20
234.5251262658471
 30
0.0
 11
742.3556961930742
 21
245.0280087165356
 31
0.0
  0
ARC
  5
251
330
1F
100
AcDbEntity
  8
0
  6
CONTINUOUS
 62
     7
100
AcDbCircle
 10
699.9999999999999
 20
233.9393398282202
 30
0.0
 40
1.599999999999935
100
AcDbArc
 50
359.9999999999997
 51
180.0
  0
LINE
  5
252
330
1F
100
AcDbEntity
  8
0
  6
CONTINUOUS
 62
     7
100
AcDbLine
 10
590.0
 20
343.9393398282202
 30
0.0
 11
535.0
 21
343.9393398282202
 31
0.0
  0
ARC
  5
253
330
1F
100
AcDbEntity
  8
0
  6
CONTINUOUS
 62
     7
100
AcDbCircle
 10
510.4386001800125
 20
341.9393398282202
 30
0.0
 40
2.000000000000032
100
AcDbArc
 50
44.99999999999888
 51
89.99999999999947
  0
LINE
  5
254
330
1F
100
AcDbEntity
  8
0
  6
CONTINUOUS
 62
     7
100
AcDbLine
 10
754.9999999999999
 20
288.9393398282202
 30
0.0
 11
754.9999999999999
 21
343.9393398282202
 31
0.0
  0
LINE
  5
255
330
1F
100
AcDbEntity
  8
0
  6
CONTINUOUS
 62
     7
100
AcDbLine
 10
744.9012806053456
 20
332.4264068711929
 30
0.0
 11
743.4870670429725
 21
333.8406204335659
 31
0.0
  0
ARC
  5
256
330
1F
100
AcDbEntity
  8
0
  6
CONTINUOUS
 62
     7
100
AcDbCircle
 10
752.9999999999999
 20
258.5007396482076
 30
0.0
 40
1.999999999999993
100
AcDbArc
 50
314.9999999999978
 51
359.9999999999986
  0
LINE
  5
257
330
1F
100
AcDbEntity
  8
0
  6
CONTINUOUS
 62
     7
100
AcDbLine
 10
645.0
 20
343.9393398282202
 30
0.0
 11
645.0
 21
288.9393398282201
 31
0.0
  0
LINE
  5
258
330
1F
100
AcDbEntity
  8
0
  6
CONTINUOUS
 62
     7
100
AcDbLine
 10
521.2243253431757
 20
246.159379566434
 30
0.0
 11
522.7799602617861
 21
247.7150144850444
 31
0.0
  0
LINE
  5
259
330
1F
100
AcDbEntity
  8
0
  6
CONTINUOUS
 62
     7
100
AcDbLine
 10
480.0
 20
233.9393398282202
 30
0.0
 11
534.9999999999999
 21
233.9393398282202
 31
0.0
  0
LINE
  5
25A
330
1F
100
AcDbEntity
  8
0
  6
CONTINUOUS
 62
     7
100
AcDbLine
 10
522.3556961930742
 20
245.0280087165356
 30
0.0
 11
521.2243253431758
 21
246.159379566434
 31
0.0
  0
LINE
  5
25B
330
1F
100
AcDbEntity
  8
0
  6
CONTINUOUS
 62
     7
100
AcDbLine
 10
754.414213562373
 20
320.7921535706059
 30
0.0
 11
743.8406204335658
 21
331.365746699413
 31
0.0
  0
ARC
  5
25C
330
1F
100
AcDbEntity
  8
0
  6
CONTINUOUS
 62
     7
100
AcDbCircle
 10
510.4386001800125
 20
235.9393398282202
 30
0.0
 40
2.000000000000002
100
AcDbArc
 50
270.0
 51
315.0
  0
LINE
  5
25D
330
1F
100
AcDbEntity
  8
0
  6
CONTINUOUS
 62
     7
100
AcDbLine
 10
437.6443038069258
 20
245.0280087165356
 30
0.0
 11
448.1471862576143
 21
234.5251262658471
 31
0.0
  0
LINE
  5
25E
330
1F
100
AcDbEntity
  8
0
  6
CONTINUOUS
 62
     7
100
AcDbLine
 10
699.9999999999999
 20
343.9393398282202
 30
0.0
 11
754.9999999999999
 21
343.9393398282202
 31
0.0
  0
LINE
  5
25F
330
1F
100
AcDbEntity
  8
0
  6
CONTINUOUS
 62
     7
100
AcDbLine
 10
534.9999999999999
 20
343.9393398282202
 30
0.0
 11
480.0
 21
343.9393398282202
 31
0.0
  0
LINE
  5
260
330
1F
100
AcDbEntity
  8
0
  6
DOT
 62
     7
100
AcDbLine
 10
294.5
 20
246.583643635146
 30
0.0
 11
294.5
 21
246.159379566434
 31
0.0
  0
LINE
  5
261
330
1F
100
AcDbEntity
  8
0
  6
CONTINUOUS
 62
     7
100
AcDbLine
 10
290.5
 20
319.3779400082328
 30
0.0
 11
290.5
 21
320.7921535706059
 31
0.0
  0
LINE
  5
262
330
1F
100
AcDbEntity
  8
0
  6
CONTINUOUS
 62
     7
100
AcDbLine
 10
657.5735931288071
 20
332.7799602617861
 30
0.0
 11
656.5129329570273
 21
333.8406204335659
 31
0.0
  0
LINE
  5
263
330
1F
100
AcDbEntity
  8
0
  6
DOT
 62
     7
100
AcDbLine
 10
385.4999999999999
 20
290.4393398282202
 30
0.0
 11
385.4999999999999
 21
319.3779400082328
 31
0.0
  0
LINE
  5
264
330
1F
100
AcDbEntity
  8
0
  6
CONTINUOUS
 62
     7
100
AcDbLine
 10
699.9999999999999
 20
343.9393398282202
 30
0.0
 11
645.0
 21
343.9393398282202
 31
0.0
  0
LINE
  5
265
330
1F
100
AcDbEntity
  8
0
  6
CONTINUOUS
 62
     7
100
AcDbLine
 10
644.9999999999999
 20
343.9393398282202
 30
0.0
 11
590.0
 21
343.9393398282202
 31
0.0
  0
LINE
  5
266
330
1F
100
AcDbEntity
  8
0
  6
CONTINUOUS
 62
     7
100
AcDbLine
 10
656.5129329570273
 20
333.8406204335659
 30
0.0
 11
655.0987193946543
 21
332.4264068711929
 31
0.0
  0
LINE
  5
267
330
1F
100
AcDbEntity
  8
0
  6
CONTINUOUS
 62
     7
100
AcDbLine
 10
290.5
 20
331.365746699413
 30
0.0
 11
290.5
 21
332.4264068711929
 31
0.0
  0
LINE
  5
268
330
1F
100
AcDbEntity
  8
0
  6
CONTINUOUS
 62
     7
100
AcDbLine
 10
290.5
 20
287.4393398282202
 30
0.0
 11
290.5
 21
290.4393398282202
 31
0.0
  0
LINE
  5
269
330
1F
100
AcDbEntity
  8
0
  6
CONTINUOUS
 62
     7
100
AcDbLine
 10
741.2243253431756
 20
246.159379566434
 30
0.0
 11
742.7799602617861
 21
247.7150144850444
 31
0.0
  0
LINE
  5
26A
330
1F
100
AcDbEntity
  8
0
  6
DOT
 62
     7
100
AcDbLine
 10
294.5
 20
331.365746699413
 30
0.0
 11
294.5
 21
320.7921535706059
 31
0.0
  0
LINE
  5
26B
330
1F
100
AcDbEntity
  8
0
  6
DOT
 62
     7
100
AcDbLine
 10
294.5101020514433
 20
333.9894886810931
 30
0.0
 11
294.5101020514433
 21
307.9575965394434
 31
0.0
  0
LINE
  5
26C
330
1F
100
AcDbEntity
  8
0
  6
CONTINUOUS
 62
     7
100
AcDbLine
 10
743.9113311116845
 20
246.583643635146
 30
0.0
 11
754.4142135623729
 21
257.0865260858344
 31
0.0
  0
LINE
  5
26D
330
1F
100
AcDbEntity
  8
0
  6
DOT
 62
     7
100
AcDbLine
 10
333.5
 20
240.4393398282201
 30
0.0
 11
333.5
 21
254.6446609406725
 31
0.0
  0
LINE
  5
26E
330
1F
100
AcDbEntity
  8
0
  6
CONTINUOUS
 62
     7
100
AcDbLine
 10
535.0
 20
343.9393398282202
 30
0.0
 11
590.0000000000001
 21
343.9393398282202
 31
0.0
  0
LINE
  5
26F
330
1F
100
AcDbEntity
  8
0
  6
CONTINUOUS
 62
     7
100
AcDbLine
 10
389.4999999999999
 20
333.8406204335659
 30
0.0
 11
389.4999999999999
 21
332.4264068711929
 31
0.0
  0
LINE
  5
270
330
1F
100
AcDbEntity
  8
0
  6
DOT
 62
     7
100
AcDbLine
 10
294.5
 20
333.8406204335659
 30
0.0
 11
294.5
 21
332.4264068711929
 31
0.0
  0
LINE
  5
271
330
1F
100
AcDbEntity
  8
0
  6
DOT
 62
     7
100
AcDbLine
 10
385.4999999999999
 20
331.365746699413
 30
0.0
 11
385.4999999999999
 21
332.4264068711929
 31
0.0
  0
LINE
  5
272
330
1F
100
AcDbEntity
  8
0
  6
CONTINUOUS
 62
     7
100
AcDbLine
 10
590.0000000000001
 20
343.9393398282202
 30
0.0
 11
644.9999999999999
 21
343.9393398282202
 31
0.0
  0
LINE
  5
273
330
1F
100
AcDbEntity
  8
0
  6
DOT
 62
     7
100
AcDbLine
 10
385.4999999999999
 20
333.8406204335659
 30
0.0
 11
385.4999999999999
 21
343.3535533905933
 31
0.0
  0
LINE
  5
274
330
1F
100
AcDbEntity
  8
0
  6
DOT
 62
     7
100
AcDbLine
 10
385.4999999999999
 20
246.159379566434
 30
0.0
 11
385.4999999999999
 21
246.5836436351459
 31
0.0
  0
LINE
  5
275
330
1F
100
AcDbEntity
  8
0
  6
DOT
 62
     7
100
AcDbLine
 10
313.5
 20
254.6446609406726
 30
0.0
 11
313.5
 21
337.4393398282202
 31
0.0
  0
LINE
  5
276
330
1F
100
AcDbEntity
  8
0
  6
DOT
 62
     7
100
AcDbLine
 10
294.5
 20
290.4393398282202
 30
0.0
 11
294.5
 21
287.4393398282202
 31
0.0
  0
LINE
  5
277
330
1F
100
AcDbEntity
  8
0
  6
DOT
 62
     7
100
AcDbLine
 10
294.5
 20
257.0865260858344
 30
0.0
 11
294.5
 21
246.583643635146
 31
0.0
  0
LINE
  5
278
330
1F
100
AcDbEntity
  8
0
  6
CONTINUOUS
 62
     7
100
AcDbLine
 10
657.6443038069258
 20
245.0280087165356
 30
0.0
 11
668.1471862576143
 21
234.5251262658471
 31
0.0
  0
LINE
  5
279
330
1F
100
AcDbEntity
  8
0
  6
CONTINUOUS
 62
     7
100
AcDbLine
 10
657.2200397382138
 20
247.7150144850445
 30
0.0
 11
658.7756746568243
 21
246.159379566434
 31
0.0
  0
LINE
  5
27A
330
1F
100
AcDbEntity
  8
0
  6
CONTINUOUS
 62
     7
100
AcDbLine
 10
742.7799602617862
 20
247.7150144850445
 30
0.0
 11
743.9113311116846
 21
246.583643635146
 31
0.0
  0
LINE
  5
27B
330
1F
100
AcDbEntity
  8
0
  6
CONTINUOUS
 62
     7
100
AcDbLine
 10
645.0
 20
343.9393398282202
 30
0.0
 11
700.0
 21
343.9393398282202
 31
0.0
  0
ARC
  5
27C
330
1F
100
AcDbEntity
  8
0
  6
CONTINUOUS
 62
     7
100
AcDbCircle
 10
647.0
 20
319.3779400082328
 30
0.0
 40
2.000000000000071
100
AcDbArc
 50
135.0
 51
180.0000000000006
  0
LINE
  5
27D
330
1F
100
AcDbEntity
  8
0
  6
CONTINUOUS
 62
     7
100
AcDbLine
 10
389.4999999999999
 20
331.365746699413
 30
0.0
 11
389.4999999999999
 21
320.7921535706059
 31
0.0
  0
LINE
  5
27E
330
1F
100
AcDbEntity
  8
0
  6
DOT
 62
     7
100
AcDbLine
 10
385.4999999999999
 20
246.583643635146
 30
0.0
 11
385.4999999999999
 21
257.0865260858344
 31
0.0
  0
LINE
  5
27F
330
1F
100
AcDbEntity
  8
0
  6
DOT
 62
     7
100
AcDbLine
 10
294.5101020514433
 20
333.9894886810931
 30
0.0
 11
294.5324470068069
 21
334.0682177433485
 31
0.0
  0
LINE
  5
280
330
1F
100
AcDbEntity
  8
0
  6
CONTINUOUS
 62
     7
100
AcDbLine
 10
389.4999999999999
 20
320.7921535706059
 30
0.0
 11
389.4999999999999
 21
319.3779400082328
 31
0.0
  0
LINE
  5
281
330
1F
100
AcDbEntity
  8
0
  6
CONTINUOUS
 62
     7
100
AcDbLine
 10
754.9999999999999
 20
343.9393398282202
 30
0.0
 11
699.9999999999999
 21
343.9393398282202
 31
0.0
  0
LINE
  5
282
330
1F
100
AcDbEntity
  8
0
  6
CONTINUOUS
 62
     7
100
AcDbLine
 10
699.9999999999999
 20
233.9393398282202
 30
0.0
 11
754.9999999999999
 21
233.9393398282202
 31
0.0
  0
LINE
  5
283
330
1F
100
AcDbEntity
  8
0
  6
CONTINUOUS
 62
     7
100
AcDbLine
 10
389.4999999999999
 20
287.4393398282202
 30
0.0
 11
389.4999999999999
 21
258.5007396482076
 31
0.0
  0
LINE
  5
284
330
1F
100
AcDbEntity
  8
0
  6
CONTINUOUS
 62
     7
100
AcDbLine
 10
656.159379566434
 20
331.365746699413
 30
0.0
 11
645.5857864376269
 21
320.7921535706059
 31
0.0
  0
LINE
  5
285
330
1F
100
AcDbEntity
  8
0
  6
CONTINUOUS
 62
     7
100
AcDbLine
 10
425.0
 20
343.9393398282202
 30
0.0
 11
480.0
 21
343.9393398282202
 31
0.0
  0
LINE
  5
286
330
1F
100
AcDbEntity
  8
0
  6
CONTINUOUS
 62
     7
100
AcDbLine
 10
480.0
 20
343.9393398282202
 30
0.0
 11
534.9999999999999
 21
343.9393398282202
 31
0.0
  0
LINE
  5
287
330
1F
100
AcDbEntity
  8
0
  6
CONTINUOUS
 62
     7
100
AcDbLine
 10
389.4999999999999
 20
332.4264068711929
 30
0.0
 11
389.4999999999999
 21
331.365746699413
 31
0.0
  0
LINE
  5
288
330
1F
100
AcDbEntity
  8
0
  6
CONTINUOUS
 62
     7
100
AcDbLine
 10
656.0886688883154
 20
246.583643635146
 30
0.0
 11
657.2200397382138
 21
247.7150144850444
 31
0.0
  0
LINE
  5
289
330
1F
100
AcDbEntity
  8
0
  6
DOT
 62
     7
100
AcDbLine
 10
385.4999999999999
 20
257.0865260858344
 30
0.0
 11
385.4999999999999
 21
258.5007396482075
 31
0.0
  0
LINE
  5
28A
330
1F
100
AcDbEntity
  8
0
  6
DOT
 62
     7
100
AcDbLine
 10
331.5
 20
254.6446609406726
 30
0.0
 11
331.5
 21
337.4393398282202
 31
0.0
  0
LINE
  5
28B
330
1F
100
AcDbEntity
  8
0
  6
CONTINUOUS
 62
     7
100
AcDbLine
 10
389.4999999999999
 20
258.5007396482075
 30
0.0
 11
389.4999999999999
 21
257.0865260858344
 31
0.0
  0
LINE
  5
28C
330
1F
100
AcDbEntity
  8
0
  6
CONTINUOUS
 62
     7
100
AcDbLine
 10
290.5
 20
332.4264068711929
 30
0.0
 11
290.5
 21
333.8406204335659
 31
0.0
  0
LINE
  5
28D
330
1F
100
AcDbEntity
  8
0
  6
DOT
 62
     7
100
AcDbLine
 10
311.5
 20
254.6446609406726
 30
0.0
 11
311.5
 21
337.4393398282202
 31
0.0
  0
LINE
  5
28E
330
1F
100
AcDbEntity
  8
0
  6
DOT
 62
     7
100
AcDbLine
 10
385.4999999999999
 20
320.7921535706059
 30
0.0
 11
385.4999999999999
 21
331.365746699413
 31
0.0
  0
ENDSEC
  0
SECTION
  2
OBJECTS
  0
DICTIONARY
  5
C
330
0
100
AcDbDictionary
  3
ACAD_GROUP
350
D
  3
ACAD_LAYOUT
350
1A
  3
ACAD_MATERIAL
350
43
  3
ACAD_MLEADERSTYLE
350
6B
  3
ACAD_MLINESTYLE
350
17
  3
ACAD_PLOTSETTINGS
350
19
  3
ACAD_SCALELIST
350
47
  3
ACAD_VISUALSTYLE
350
2A
  3
ACDBHEADERROUNDTRIPXREC
350
28F
  3
ACDBVARIABLEDICTIONARY
350
2B0
  0
DICTIONARY
  5
2B7
330
8
100
AcDbDictionary
280
     1
  3
ACAD_XREC_ROUNDTRIP
360
2B8
  0
DICTIONARY
  5
D
102
{ACAD_REACTORS
330
C
102
}
330
C
100
AcDbDictionary
  0
DICTIONARY
  5
1A
102
{ACAD_REACTORS
330
C
102
}
330
C
100
AcDbDictionary
  0
DICTIONARY
  5
43
102
{ACAD_REACTORS
330
C
102
}
330
C
100
AcDbDictionary
  3
BYBLOCK
350
45
  3
BYLAYER
350
44
  3
GLOBAL
350
46
  0
DICTIONARY
  5
6B
102
{ACAD_REACTORS
330
C
102
}
330
C
100
AcDbDictionary
  3
STANDARD
350
6C
  0
DICTIONARY
  5
17
102
{ACAD_REACTORS
330
C
102
}
330
C
100
AcDbDictionary
  3
STANDARD
350
18
  0
DICTIONARY
  5
19
102
{ACAD_REACTORS
330
C
102
}
330
C
100
AcDbDictionary
  0
DICTIONARY
  5
47
102
{ACAD_REACTORS
330
C
102
}
330
C
100
AcDbDictionary
  3
A0
350
48
  3
A1
350
49
  3
A2
350
4A
  3
A3
350
4B
  3
A4
350
4C
  3
A5
350
4D
  3
A6
350
4E
  3
A7
350
4F
  3
A8
350
50
  3
A9
350
51
  3
B0
350
52
  3
B1
350
53
  3
B2
350
54
  3
B3
350
55
  3
B4
350
56
  3
B5
350
57
  3
B6
350
58
  3
B7
350
59
  3
B8
350
5A
  3
B9
350
5B
  3
C0
350
5C
  3
C1
350
5D
  3
C2
350
5E
  3
C3
350
5F
  3
C4
350
60
  3
C5
350
61
  3
C6
350
62
  3
C7
350
63
  3
C8
350
64
  3
C9
350
65
  3
D0
350
66
  3
D1
350
67
  3
D2
350
68
  0
DICTIONARY
  5
2A
102
{ACAD_REACTORS
330
C
102
}
330
C
100
AcDbDictionary
  3
2DWIREFRAME
350
2F
  3
BASIC
350
32
  3
BRIGHTEN
350
36
  3
COLORCHANGE
350
3A
  3
CONCEPTUAL
350
34
  3
DIM
350
35
  3
EDGECOLOROFF
350
3D
  3
FACEPATTERN
350
39
  3
FLAT
350
2B
  3
FLATWITHEDGES
350
2C
  3
GOURAUD
350
2D
  3
GOURAUDWITHEDGES
350
2E
  3
HIDDEN
350
31
  3
JITTEROFF
350
3B
  3
LINEPATTERN
350
38
  3
OVERHANGOFF
350
3C
  3
REALISTIC
350
33
  3
SHADED
350
42
  3
SHADED_WITH_EDGES
350
41
  3
SHADES_OF_GRAY
350
3E
  3
SKETCHY
350
3F
  3
THICKEN
350
37
  3
WIREFRAME
350
30
  3
X-RAY
350
40
  0
DICTIONARY
  5
28F
102
{ACAD_REACTORS
330
C
102
}
330
C
100
AcDbDictionary
  3
CEPSNID
350
299
  3
CEPSNTYPE
350
298
  3
DIMSTYLEDATA
350
2AF
  3
FINGERPRINTGUID
350
29A
  3
HYPERLINKBASE
350
292
  3
INSUNITS
350
297
  3
LAYOUTDICT
350
294
  3
LWETCUNION
350
296
  3
PLOTSETDICT
350
295
  3
PSVPSCALE
350
29C
  3
PUCSBASE
350
29F
  3
PUCSORGBACK
350
2A5
  3
PUCSORGBOTTOM
350
2A1
  3
PUCSORGFRONT
350
2A4
  3
PUCSORGLEFT
350
2A2
  3
PUCSORGRIGHT
350
2A3
  3
PUCSORGTOP
350
2A0
  3
PUCSORTHOREF
350
29D
  3
PUCSORTHOVIEW
350
29E
  3
STYLESHEET
350
293
  3
TSTACKALIGN
350
290
  3
TSTACKSIZE
350
291
  3
UCSBASE
350
2A8
  3
UCSORGBACK
350
2AE
  3
UCSORGBOTTOM
350
2AA
  3
UCSORGFRONT
350
2AD
  3
UCSORGLEFT
350
2AB
  3
UCSORGRIGHT
350
2AC
  3
UCSORGTOP
350
2A9
  3
UCSORTHOREF
350
2A6
  3
UCSORTHOVIEW
350
2A7
  3
VERSIONGUID
350
29B
  0
DICTIONARY
  5
2B0
102
{ACAD_REACTORS
330
C
102
}
330
C
100
AcDbDictionary
  3
CANNOSCALE
350
2B9
  3
CMLEADERSTYLE
350
2B2
  3
CTABLESTYLE
350
2B1
  3
DIMASSOC
350
2B5
  3
HIDETEXT
350
2B6
  3
MSLTSCALE
350
2BA
  0
XRECORD
  5
2B8
102
{ACAD_REACTORS
330
2B7
102
}
330
2B7
100
AcDbXrecord
102
VTR_0.000_0.000_1.000_1.000_VISUALSTYLE
340
2F
102
VTR_0.000_0.000_1.000_1.000_GRIDDISPLAY
 70
     3
102
VTR_0.000_0.000_1.000_1.000_GRIDMAJOR
 70
     5
102
VTR_0.000_0.000_1.000_1.000_DEFAULTLIGHTING
280
     1
102
VTR_0.000_0.000_1.000_1.000_DEFAULTLIGHTINGTYPE
 70
     1
102
VTR_0.000_0.000_1.000_1.000_BRIGHTNESS
141
0.0
102
VTR_0.000_0.000_1.000_1.000_CONTRAST
142
0.0
  0
MATERIAL
  5
45
102
{ACAD_REACTORS
330
43
102
}
102
{ACAD_XDICTIONARY
360
2BD
102
}
330
43
100
AcDbMaterial
  1
BYBLOCK
  0
MATERIAL
  5
44
102
{ACAD_REACTORS
330
43
102
}
102
{ACAD_XDICTIONARY
360
2BB
102
}
330
43
100
AcDbMaterial
  1
BYLAYER
  0
MATERIAL
  5
46
102
{ACAD_REACTORS
330
43
102
}
102
{ACAD_XDICTIONARY
360
2BF
102
}
330
43
100
AcDbMaterial
  1
GLOBAL
  0
ACAD_PROXY_OBJECT
  5
6C
102
{ACAD_REACTORS
330
6B
102
}
330
6B
100
AcDbProxyObject
 90
      499
 91
      505
 93
      610
310
40901902A4063FBFFFFFE056BD1B81E855B9FC0AD7A3703D0AD73F4214DD185B99185C9900AD7A3703D0AC73F90141901A02B5E8DC0F42B1CFC02B5E8DC0F42B1CFE5764000000000000300FC0
340
14
340
0
340
11
340
0
 94
        0
1001
ACAD_MLEADERVER
1070
     2
  0
MLINESTYLE
  5
18
102
{ACAD_REACTORS
330
17
102
}
330
17
100
AcDbMlineStyle
  2
Standard
 70
     0
  3

 62
   256
 51
90.0
 52
90.0
 71
     2
 49
0.5
 62
   256
  6
BYLAYER
 49
-0.5
 62
   256
  6
BYLAYER
  0
ACAD_PROXY_OBJECT
  5
48
102
{ACAD_REACTORS
330
47
102
}
330
47
100
AcDbProxyObject
 90
      499
 91
      503
 93
       41
310
903313A31580
  0
ACAD_PROXY_OBJECT
  5
49
102
{ACAD_REACTORS
330
47
102
}
330
47
100
AcDbProxyObject
 90
      499
 91
      503
 93
      105
310
903313A324000000000000004000
  0
ACAD_PROXY_OBJECT
  5
4A
102
{ACAD_REACTORS
330
47
102
}
330
47
100
AcDbProxyObject
 90
      499
 91
      503
 93
      105
310
903313A344000000000000104000
  0
ACAD_PROXY_OBJECT
  5
4B
102
{ACAD_REACTORS
330
47
102
}
330
47
100
AcDbProxyObject
 90
      499
 91
      503
 93
      105
310
903313A354000000000000144000
  0
ACAD_PROXY_OBJECT
  5
4C
102
{ACAD_REACTORS
330
47
102
}
330
47
100
AcDbProxyObject
 90
      499
 91
      503
 93
      105
310
903313A384000000000000204000
  0
ACAD_PROXY_OBJECT
  5
4D
102
{ACAD_REACTORS
330
47
102
}
330
47
100
AcDbProxyObject
 90
      499
 91
      503
 93
      113
310
904313A31304000000000000244000
  0
ACAD_PROXY_OBJECT
  5
4E
102
{ACAD_REACTORS
330
47
102
}
330
47
100
AcDbProxyObject
 90
      499
 91
      503
 93
      113
310
904313A31364000000000000304000
  0
ACAD_PROXY_OBJECT
  5
4F
102
{ACAD_REACTORS
330
47
102
}
330
47
100
AcDbProxyObject
 90
      499
 91
      503
 93
      113
310
904313A32304000000000000344000
  0
ACAD_PROXY_OBJECT
  5
50
102
{ACAD_REACTORS
330
47
102
}
330
47
100
AcDbProxyObject
 90
      499
 91
      503
 93
      113
310
904313A333040000000000003E4000
  0
ACAD_PROXY_OBJECT
  5
51
102
{ACAD_REACTORS
330
47
102
}
330
47
100
AcDbProxyObject
 90
      499
 91
      503
 93
      113
310
904313A34304000000000000444000
  0
ACAD_PROXY_OBJECT
  5
52
102
{ACAD_REACTORS
330
47
102
}
330
47
100
AcDbProxyObject
 90
      499
 91
      503
 93
      113
310
904313A35304000000000000494000
  0
ACAD_PROXY_OBJECT
  5
53
102
{ACAD_REACTORS
330
47
102
}
330
47
100
AcDbProxyObject
 90
      499
 91
      503
 93
      121
310
905313A3130304000000000000594000
  0
ACAD_PROXY_OBJECT
  5
54
102
{ACAD_REACTORS
330
47
102
}
330
47
100
AcDbProxyObject
 90
      499
 91
      503
 93
      105
310
903323A310000000000000010100
  0
ACAD_PROXY_OBJECT
  5
55
102
{ACAD_REACTORS
330
47
102
}
330
47
100
AcDbProxyObject
 90
      499
 91
      503
 93
      105
310
903343A310000000000000410100
  0
ACAD_PROXY_OBJECT
  5
56
102
{ACAD_REACTORS
330
47
102
}
330
47
100
AcDbProxyObject
 90
      499
 91
      503
 93
      105
310
903383A310000000000000810100
  0
ACAD_PROXY_OBJECT
  5
57
102
{ACAD_REACTORS
330
47
102
}
330
47
100
AcDbProxyObject
 90
      499
 91
      503
 93
      113
310
90431303A310000000000000910100
  0
ACAD_PROXY_OBJECT
  5
58
102
{ACAD_REACTORS
330
47
102
}
330
47
100
AcDbProxyObject
 90
      499
 91
      503
 93
      121
310
9053130303A310000000000001650100
  0
ACAD_PROXY_OBJECT
  5
59
102
{ACAD_REACTORS
330
47
102
}
330
47
100
AcDbProxyObject
 90
      499
 91
      503
 93
      257
310
90E312F31323822203D2031272D3022000000000000200FC000000000000284000
  0
ACAD_PROXY_OBJECT
  5
5A
102
{ACAD_REACTORS
330
47
102
}
330
47
100
AcDbProxyObject
 90
      499
 91
      503
 93
      249
310
90D312F363422203D2031272D3022000000000000240FC000000000000284000
  0
ACAD_PROXY_OBJECT
  5
5B
102
{ACAD_REACTORS
330
47
102
}
330
47
100
AcDbProxyObject
 90
      499
 91
      503
 93
      249
310
90D312F333222203D2031272D3022000000000000280FC000000000000284000
  0
ACAD_PROXY_OBJECT
  5
5C
102
{ACAD_REACTORS
330
47
102
}
330
47
100
AcDbProxyObject
 90
      499
 91
      503
 93
      249
310
90D312F313622203D2031272D30220000000000002C0FC000000000000284000
  0
ACAD_PROXY_OBJECT
  5
5D
102
{ACAD_REACTORS
330
47
102
}
330
47
100
AcDbProxyObject
 90
      499
 91
      503
 93
      249
310
90D332F333222203D2031272D30220000000000002E0FC000000000000284000
  0
ACAD_PROXY_OBJECT
  5
5E
102
{ACAD_REACTORS
330
47
102
}
330
47
100
AcDbProxyObject
 90
      499
 91
      503
 93
      241
310
90C312F3822203D2031272D3022000000000000300FC000000000000284000
  0
ACAD_PROXY_OBJECT
  5
5F
102
{ACAD_REACTORS
330
47
102
}
330
47
100
AcDbProxyObject
 90
      499
 91
      503
 93
      249
310
90D332F313622203D2031272D3022000000000000320FC000000000000284000
  0
ACAD_PROXY_OBJECT
  5
60
102
{ACAD_REACTORS
330
47
102
}
330
47
100
AcDbProxyObject
 90
      499
 91
      503
 93
      241
310
90C312F3422203D2031272D3022000000000000340FC000000000000284000
  0
ACAD_PROXY_OBJECT
  5
61
102
{ACAD_REACTORS
330
47
102
}
330
47
100
AcDbProxyObject
 90
      499
 91
      503
 93
      241
310
90C332F3822203D2031272D3022000000000000360FC000000000000284000
  0
ACAD_PROXY_OBJECT
  5
62
102
{ACAD_REACTORS
330
47
102
}
330
47
100
AcDbProxyObject
 90
      499
 91
      503
 93
      241
310
90C312F3222203D2031272D3022000000000000380FC000000000000284000
  0
ACAD_PROXY_OBJECT
  5
63
102
{ACAD_REACTORS
330
47
102
}
330
47
100
AcDbProxyObject
 90
      499
 91
      503
 93
      241
310
90C332F3422203D2031272D30220000000000003A0FC000000000000284000
  0
ACAD_PROXY_OBJECT
  5
64
102
{ACAD_REACTORS
330
47
102
}
330
47
100
AcDbProxyObject
 90
      499
 91
      503
 93
      161
310
90A3122203D2031272D30224000000000000284000
  0
ACAD_PROXY_OBJECT
  5
65
102
{ACAD_REACTORS
330
47
102
}
330
47
100
AcDbProxyObject
 90
      499
 91
      503
 93
      257
310
90E312D312F3222203D2031272D30220000000000003E0FC000000000000284000
  0
ACAD_PROXY_OBJECT
  5
66
102
{ACAD_REACTORS
330
47
102
}
330
47
100
AcDbProxyObject
 90
      499
 91
      503
 93
      225
310
90A3322203D2031272D302200000000000002100000000000000284000
  0
ACAD_PROXY_OBJECT
  5
67
102
{ACAD_REACTORS
330
47
102
}
330
47
100
AcDbProxyObject
 90
      499
 91
      503
 93
      225
310
90A3622203D2031272D302200000000000006100000000000000284000
  0
ACAD_PROXY_OBJECT
  5
68
102
{ACAD_REACTORS
330
47
102
}
330
47
100
AcDbProxyObject
 90
      499
 91
      503
 93
      249
310
90D31272D3022203D2031272D30220000000000000A100000000000000284000
  0
ACAD_PROXY_OBJECT
  5
2F
102
{ACAD_REACTORS
330
2A
102
}
330
2A
100
AcDbProxyObject
 90
      499
 91
      501
 93
      436
310
42CC9915DA5C99599C985B595049028333333333333E33F0000000000000F90107901411070040501600405405064090741402480A0340
1001
ACAD
1000
AcDbSavedByObjectVersion
1070
     0
  0
ACAD_PROXY_OBJECT
  5
32
102
{ACAD_REACTORS
330
2A
102
}
330
2A
100
AcDbProxyObject
 90
      499
 91
      501
 93
      388
310
4150985CDA58D07406404333333333333E33F0000000000000F90107A41107004050150841D405064090741402480A0350
1001
ACAD
1000
AcDbSavedByObjectVersion
1070
     0
  0
ACAD_PROXY_OBJECT
  5
36
102
{ACAD_REACTORS
330
2A
102
}
330
2A
100
AcDbProxyObject
 90
      499
 91
      501
 93
      428
310
42109C9A59DA1D195B90C409028333333333333E33F0000000000000F9010790141107004050150841D405064090741402480A029950
1001
ACAD
1000
AcDbSavedByObjectVersion
1070
     0
  0
ACAD_PROXY_OBJECT
  5
3A
102
{ACAD_REACTORS
330
2A
102
}
330
2A
100
AcDbProxyObject
 90
      499
 91
      501
 93
      452
310
42D0DBDB1BDC90DA185B99D95104090240C333333333333E33F0000000000000F90108901411070040501508421405064090741402480A0350
1001
ACAD
1000
AcDbSavedByObjectVersion
1070
     0
  0
ACAD_PROXY_OBJECT
  5
34
102
{ACAD_REACTORS
330
2A
102
}
330
2A
100
AcDbProxyObject
 90
      499
 91
      501
 93
      500
310
4290DBDB98D95C1D1D585B10940D028333333333333E33F0000000000000F90107902409070040501000000000018199010841D405064090740C02480A0340
1001
ACAD
1000
AcDbSavedByObjectVersion
1070
     0
  0
ACAD_PROXY_OBJECT
  5
35
102
{ACAD_REACTORS
330
2A
102
}
330
2A
100
AcDbProxyObject
 90
      499
 91
      501
 93
      412
310
40D11A5B50B409028333333333333E33F0000000000000F9010790141107004050150841D405064090741402480A02677FFFFFD0
1001
ACAD
1000
AcDbSavedByObjectVersion
1070
     0
  0
ACAD_PROXY_OBJECT
  5
3D
102
{ACAD_REACTORS
330
2A
102
}
330
2A
100
AcDbProxyObject
 90
      499
 91
      501
 93
      452
310
43115919D950DBDB1BDC93D999916409028333333333333E33F0000000000000F9010790141107004050150841D405064090741402480A0350
1001
ACAD
1000
AcDbSavedByObjectVersion
1070
     0
  0
ACAD_PROXY_OBJECT
  5
39
102
{ACAD_REACTORS
330
2A
102
}
330
2A
100
AcDbProxyObject
 90
      499
 91
      501
 93
      444
310
42D19858D95C185D1D195C9B90F409028333333333333E33F0000000000000F9010790141107004050150841D405064090741402480A0350
1001
ACAD
1000
AcDbSavedByObjectVersion
1070
     0
  0
ACAD_PROXY_OBJECT
  5
2B
102
{ACAD_REACTORS
330
2A
102
}
330
2A
100
AcDbProxyObject
 90
      499
 91
      501
 93
      380
310
41119B185D240901404333333333333E33F0000000000000F9010740A907004050150841D405064090741402480A1B50
1001
ACAD
1000
AcDbSavedByObjectVersion
1070
     0
  0
ACAD_PROXY_OBJECT
  5
2C
102
{ACAD_REACTORS
330
2A
102
}
330
2A
100
AcDbProxyObject
 90
      499
 91
      501
 93
      468
310
43519B185D15DA5D1A115919D95CD0140901404333333333333E33F0000000000000F90107409019070040501600405405064090741402480A1B50
1001
ACAD
1000
AcDbSavedByObjectVersion
1070
     0
  0
ACAD_PROXY_OBJECT
  5
2D
102
{ACAD_REACTORS
330
2A
102
}
330
2A
100
AcDbProxyObject
 90
      499
 91
      501
 93
      404
310
41D1DBDD5C985D5910240902404333333333333E33F0000000000000F9010740A9070040501641D405064090741402480A1B50
1001
ACAD
1000
AcDbSavedByObjectVersion
1070
     0
  0
ACAD_PROXY_OBJECT
  5
2E
102
{ACAD_REACTORS
330
2A
102
}
330
2A
100
AcDbProxyObject
 90
      499
 91
      501
 93
      492
310
4411DBDD5C985D5915DA5D1A115919D95CD0340902404333333333333E33F0000000000000F90107409019070040501600405405064090741402480A1B50
1001
ACAD
1000
AcDbSavedByObjectVersion
1070
     0
  0
ACAD_PROXY_OBJECT
  5
31
102
{ACAD_REACTORS
330
2A
102
}
330
2A
100
AcDbProxyObject
 90
      499
 91
      501
 93
      476
310
41921A5919195B90640502408333333333333E33F0000000000000F901079024090700405020000000000001110200405405064090740C02480A0340
1001
ACAD
1000
AcDbSavedByObjectVersion
1070
     0
  0
ACAD_PROXY_OBJECT
  5
3B
102
{ACAD_REACTORS
330
2A
102
}
330
2A
100
AcDbProxyObject
 90
      499
 91
      501
 93
      428
310
42529A5D1D195C93D999914409028333333333333E33F0000000000000F9010790141107004050150A41D405064090741402480A0350
1001
ACAD
1000
AcDbSavedByObjectVersion
1070
     0
  0
ACAD_PROXY_OBJECT
  5
38
102
{ACAD_REACTORS
330
2A
102
}
330
2A
100
AcDbProxyObject
 90
      499
 91
      501
 93
      444
310
42D31A5B995C185D1D195C9B90E409028333333333333E33F0000000000000F9010790141107004050750841D405064090741402483A0350
1001
ACAD
1000
AcDbSavedByObjectVersion
1070
     0
  0
ACAD_PROXY_OBJECT
  5
3C
102
{ACAD_REACTORS
330
2A
102
}
330
2A
100
AcDbProxyObject
 90
      499
 91
      501
 93
      444
310
42D3DD995C9A185B99D3D999915409028333333333333E33F0000000000000F9010790141107004050150941D405064090741402480A0350
1001
ACAD
1000
AcDbSavedByObjectVersion
1070
     0
  0
ACAD_PROXY_OBJECT
  5
33
102
{ACAD_REACTORS
330
2A
102
}
330
2A
100
AcDbProxyObject
 90
      499
 91
      501
 93
      428
310
425499585B1A5CDD1A58D08409038333333333333E33F0000000000000F9010740A907004050150800405405064090740C02480A1B40
1001
ACAD
1000
AcDbSavedByObjectVersion
1070
     0
  0
ACAD_PROXY_OBJECT
  5
42
102
{ACAD_REACTORS
330
2A
102
}
330
2A
100
AcDbProxyObject
 90
      499
 91
      501
 93
      420
310
4194DA1859195911B40902404333333333333E33F0000000000000F9010740A41107004050150800405405064090840C02480A0B40
1001
ACAD
1000
AcDbSavedByObjectVersion
1070
     0
  0
ACAD_PROXY_OBJECT
  5
41
102
{ACAD_REACTORS
330
2A
102
}
330
2A
100
AcDbProxyObject
 90
      499
 91
      501
 93
      516
310
4454DA18591959081DDA5D1A08195919D95CD1A40902404333333333333E33F0000000000000F901074090142907004050250800405405064090740C02480A0B40
1001
ACAD
1000
AcDbSavedByObjectVersion
1070
     0
  0
ACAD_PROXY_OBJECT
  5
3E
102
{ACAD_REACTORS
330
2A
102
}
330
2A
100
AcDbProxyObject
 90
      499
 91
      501
 93
      532
310
4394DA1859195CC81BD98811DC985E5174090240C333333333333E33F0000000000000F901079024090741D01000000000000111010841D405064090740C02480A0340
1001
ACAD
1000
AcDbSavedByObjectVersion
1070
     0
  0
ACAD_PROXY_OBJECT
  5
3F
102
{ACAD_REACTORS
330
2A
102
}
330
2A
100
AcDbProxyObject
 90
      499
 91
      501
 93
      476
310
41D4DAD95D18DA1E51840502408333333333333E33F0000000000000F901079024090741D01000000000000111010B41D405064090741802480A0340
1001
ACAD
1000
AcDbSavedByObjectVersion
1070
     0
  0
ACAD_PROXY_OBJECT
  5
37
102
{ACAD_REACTORS
330
2A
102
}
330
2A
100
AcDbProxyObject
 90
      499
 91
      501
 93
      412
310
41D51A1A58DAD95B90D409028333333333333E33F0000000000000F9010790141107004050150C41D405064090741402480A0350
1001
ACAD
1000
AcDbSavedByObjectVersion
1070
     0
  0
ACAD_PROXY_OBJECT
  5
30
102
{ACAD_REACTORS
330
2A
102
}
330
2A
100
AcDbProxyObject
 90
      499
 91
      501
 93
      420
310
4255DA5C99599C985B595059028333333333333E33F0000000000000F90107901411070040501600405405064090740C02480A0340
1001
ACAD
1000
AcDbSavedByObjectVersion
1070
     0
  0
ACAD_PROXY_OBJECT
  5
40
102
{ACAD_REACTORS
330
2A
102
}
330
2A
100
AcDbProxyObject
 90
      499
 91
      501
 93
      404
310
41560B54985E51940902404000000000000E03F0000000000000F9010740501907004050150841D405064090740C02480A1B40
1001
ACAD
1000
AcDbSavedByObjectVersion
1070
     0
  0
XRECORD
  5
299
102
{ACAD_REACTORS
330
28F
102
}
330
28F
100
AcDbXrecord
340
0
  0
XRECORD
  5
298
102
{ACAD_REACTORS
330
28F
102
}
330
28F
100
AcDbXrecord
 90
        0
  0
XRECORD
  5
2AF
102
{ACAD_REACTORS
330
28F
102
}
330
28F
100
AcDbXrecord
1000
DSTYLE
1002
{
1070
   179
 70
     2
1070
   171
 70
     2
1070
   143
 40
25.4
1070
   274
 70
     2
1070
    41
 40
3.0
1070
   141
 40
0.09
1070
    43
 40
0.38
1070
   278
 70
    46
1070
    44
 40
1.5
1070
    42
 40
0.0625
1070
   147
 40
1.5
1070
   272
 70
     4
1070
    73
 70
     1
1070
   172
 70
     0
1070
    74
 70
     1
1070
   283
 70
     1
1070
   340
340
6E
1070
   140
 40
3.0
1070
   284
 70
     0
1070
    78
 70
     0
1002
}
  0
XRECORD
  5
29A
102
{ACAD_REACTORS
330
28F
102
}
330
28F
100
AcDbXrecord
  1
{5551AF49-433E-4136-963E-EEFEFB05DC8E}
  0
XRECORD
  5
292
102
{ACAD_REACTORS
330
28F
102
}
330
28F
100
AcDbXrecord
  1

  0
XRECORD
  5
297
102
{ACAD_REACTORS
330
28F
102
}
330
28F
100
AcDbXrecord
 90
        4
  0
XRECORD
  5
294
102
{ACAD_REACTORS
330
28F
102
}
330
28F
100
AcDbXrecord
340
1A
  0
XRECORD
  5
296
102
{ACAD_REACTORS
330
28F
102
}
330
28F
100
AcDbXrecord
 90
    10269
  0
XRECORD
  5
295
102
{ACAD_REACTORS
330
28F
102
}
330
28F
100
AcDbXrecord
340
19
  0
XRECORD
  5
29C
102
{ACAD_REACTORS
330
28F
102
}
330
28F
100
AcDbXrecord
 40
0.0
  0
XRECORD
  5
29F
102
{ACAD_REACTORS
330
28F
102
}
330
28F
100
AcDbXrecord
340
0
  0
XRECORD
  5
2A5
102
{ACAD_REACTORS
330
28F
102
}
330
28F
100
AcDbXrecord
 10
0.0
 20
0.0
 30
0.0
  0
XRECORD
  5
2A1
102
{ACAD_REACTORS
330
28F
102
}
330
28F
100
AcDbXrecord
 10
0.0
 20
0.0
 30
0.0
  0
XRECORD
  5
2A4
102
{ACAD_REACTORS
330
28F
102
}
330
28F
100
AcDbXrecord
 10
0.0
 20
0.0
 30
0.0
  0
XRECORD
  5
2A2
102
{ACAD_REACTORS
330
28F
102
}
330
28F
100
AcDbXrecord
 10
0.0
 20
0.0
 30
0.0
  0
XRECORD
  5
2A3
102
{ACAD_REACTORS
330
28F
102
}
330
28F
100
AcDbXrecord
 10
0.0
 20
0.0
 30
0.0
  0
XRECORD
  5
2A0
102
{ACAD_REACTORS
330
28F
102
}
330
28F
100
AcDbXrecord
 10
0.0
 20
0.0
 30
0.0
  0
XRECORD
  5
29D
102
{ACAD_REACTORS
330
28F
102
}
330
28F
100
AcDbXrecord
340
0
  0
XRECORD
  5
29E
102
{ACAD_REACTORS
330
28F
102
}
330
28F
100
AcDbXrecord
 70
     0
  0
XRECORD
  5
293
102
{ACAD_REACTORS
330
28F
102
}
330
28F
100
AcDbXrecord
  1

  0
XRECORD
  5
290
102
{ACAD_REACTORS
330
28F
102
}
330
28F
100
AcDbXrecord
 90
        1
  0
XRECORD
  5
291
102
{ACAD_REACTORS
330
28F
102
}
330
28F
100
AcDbXrecord
 90
       70
  0
XRECORD
  5
2A8
102
{ACAD_REACTORS
330
28F
102
}
330
28F
100
AcDbXrecord
340
0
  0
XRECORD
  5
2AE
102
{ACAD_REACTORS
330
28F
102
}
330
28F
100
AcDbXrecord
 10
0.0
 20
0.0
 30
0.0
  0
XRECORD
  5
2AA
102
{ACAD_REACTORS
330
28F
102
}
330
28F
100
AcDbXrecord
 10
0.0
 20
0.0
 30
0.0
  0
XRECORD
  5
2AD
102
{ACAD_REACTORS
330
28F
102
}
330
28F
100
AcDbXrecord
 10
0.0
 20
0.0
 30
0.0
  0
XRECORD
  5
2AB
102
{ACAD_REACTORS
330
28F
102
}
330
28F
100
AcDbXrecord
 10
0.0
 20
0.0
 30
0.0
  0
XRECORD
  5
2AC
102
{ACAD_REACTORS
330
28F
102
}
330
28F
100
AcDbXrecord
 10
0.0
 20
0.0
 30
0.0
  0
XRECORD
  5
2A9
102
{ACAD_REACTORS
330
28F
102
}
330
28F
100
AcDbXrecord
 10
0.0
 20
0.0
 30
0.0
  0
XRECORD
  5
2A6
102
{ACAD_REACTORS
330
28F
102
}
330
28F
100
AcDbXrecord
340
0
  0
XRECORD
  5
2A7
102
{ACAD_REACTORS
330
28F
102
}
330
28F
100
AcDbXrecord
 70
     0
  0
XRECORD
  5
29B
102
{ACAD_REACTORS
330
28F
102
}
330
28F
100
AcDbXrecord
  1
{FAEB1C32-E019-11D5-929B-00C0DF256EC4}
  0
DICTIONARYVAR
  5
2B9
102
{ACAD_REACTORS
330
2B0
102
}
330
2B0
100
DictionaryVariables
280
     0
  1
1:1
  0
DICTIONARYVAR
  5
2B2
102
{ACAD_REACTORS
330
2B0
102
}
330
2B0
100
DictionaryVariables
280
     0
  1
Standard
  0
DICTIONARYVAR
  5
2B1
102
{ACAD_REACTORS
330
2B0
102
}
330
2B0
100
DictionaryVariables
280
     0
  1
Standard
  0
DICTIONARYVAR
  5
2B5
102
{ACAD_REACTORS
330
2B0
102
}
330
2B0
100
DictionaryVariables
280
     0
  1
2
  0
DICTIONARYVAR
  5
2B6
102
{ACAD_REACTORS
330
2B0
102
}
330
2B0
100
DictionaryVariables
280
     0
  1
1
  0
DICTIONARYVAR
  5
2BA
102
{ACAD_REACTORS
330
2B0
102
}
330
2B0
100
DictionaryVariables
280
     0
  1
1
  0
DICTIONARY
  5
2BD
330
45
100
AcDbDictionary
280
     1
  3
ACAD_XREC_ROUNDTRIP
360
2BE
  0
DICTIONARY
  5
2BB
330
44
100
AcDbDictionary
280
     1
  3
ACAD_XREC_ROUNDTRIP
360
2BC
  0
DICTIONARY
  5
2BF
330
46
100
AcDbDictionary
280
     1
  3
ACAD_XREC_ROUNDTRIP
360
2C0
  0
XRECORD
  5
2BE
102
{ACAD_REACTORS
330
2BD
102
}
330
2BD
100
AcDbXrecord
102
MATERIAL
148
0.0
149
0.0
149
0.0
 93
        0
 94
      127
282
     0
 72
     1
 77
     1
171
     1
175
     1
179
     1
273
     0
  0
XRECORD
  5
2BC
102
{ACAD_REACTORS
330
2BB
102
}
330
2BB
100
AcDbXrecord
102
MATERIAL
148
0.0
149
0.0
149
0.0
 93
        0
 94
      127
282
     0
 72
     1
 77
     1
171
     1
175
     1
179
     1
273
     0
  0
XRECORD
  5
2C0
102
{ACAD_REACTORS
330
2BF
102
}
330
2BF
100
AcDbXrecord
102
MATERIAL
148
0.0
149
0.0
149
0.0
 93
        0
 94
      127
282
     0
 72
     1
 77
     1
171
     1
175
     1
179
     1
273
     0
  0
ENDSEC
  0
EOF
