  0
SECTION
  2
HEADER
  9
$ACADVER
  1
AC1014
  9
$ACADMAINTVER
 70
     9
  9
$DWGCODEPAGE
  3
ANSI_932
  9
$INSBASE
 10
0.0
 20
0.0
 30
0.0
  9
$EXTMIN
 10
260.0
 20
99.04170313867701
 30
0.0
  9
$EXTMAX
 10
804.9999999999999
 20
380.0
 30
0.0
  9
$LIMMIN
 10
0.0
 20
0.0
  9
$LIMMAX
 10
12.0
 20
9.0
  9
$ORTHOMODE
 70
     0
  9
$REGENMODE
 70
     1
  9
$FILLMODE
 70
     1
  9
$QTEXTMODE
 70
     0
  9
$MIRRTEXT
 70
     1
  9
$DRAGMODE
 70
     2
  9
$LTSCALE
 40
1.0
  9
$OSMODE
 70
    37
  9
$ATTMODE
 70
     1
  9
$TEXTSIZE
 40
0.2
  9
$TRACEWID
 40
0.05
  9
$TEXTSTYLE
  7
STANDARD
  9
$CLAYER
  8
0
  9
$CELTYPE
  6
BYLAYER
  9
$CECOLOR
 62
   256
  9
$CELTSCALE
 40
1.0
  9
$DELOBJ
 70
     1
  9
$DISPSILH
 70
     0
  9
$DIMSCALE
 40
1.0
  9
$DIMASZ
 40
3.0
  9
$DIMEXO
 40
0.0625
  9
$DIMDLI
 40
0.38
  9
$DIMRND
 40
0.0
  9
$DIMDLE
 40
0.0
  9
$DIMEXE
 40
1.5
  9
$DIMTP
 40
0.0
  9
$DIMTM
 40
0.0
  9
$DIMTXT
 40
3.0
  9
$DIMCEN
 40
0.09
  9
$DIMTSZ
 40
0.0
  9
$DIMTOL
 70
     0
  9
$DIMLIM
 70
     0
  9
$DIMTIH
 70
     1
  9
$DIMTOH
 70
     1
  9
$DIMSE1
 70
     0
  9
$DIMSE2
 70
     0
  9
$DIMTAD
 70
     1
  9
$DIMZIN
 70
     0
  9
$DIMBLK
  1

  9
$DIMASO
 70
     1
  9
$DIMSHO
 70
     1
  9
$DIMPOST
  1

  9
$DIMAPOST
  1

  9
$DIMALT
 70
     0
  9
$DIMALTD
 70
     2
  9
$DIMALTF
 40
25.4
  9
$DIMLFAC
 40
1.0
  9
$DIMTOFL
 70
     0
  9
$DIMTVP
 40
0.0
  9
$DIMTIX
 70
     0
  9
$DIMSOXD
 70
     0
  9
$DIMSAH
 70
     0
  9
$DIMBLK1
  1

  9
$DIMBLK2
  1

  9
$DIMSTYLE
  2
STANDARD
  9
$DIMCLRD
 70
     0
  9
$DIMCLRE
 70
     0
  9
$DIMCLRT
 70
     0
  9
$DIMTFAC
 40
1.0
  9
$DIMGAP
 40
1.5
  9
$DIMJUST
 70
     0
  9
$DIMSD1
 70
     0
  9
$DIMSD2
 70
     0
  9
$DIMTOLJ
 70
     1
  9
$DIMTZIN
 70
     0
  9
$DIMALTZ
 70
     0
  9
$DIMALTTZ
 70
     0
  9
$DIMFIT
 70
     3
  9
$DIMUPT
 70
     0
  9
$DIMUNIT
 70
     2
  9
$DIMDEC
 70
     2
  9
$DIMTDEC
 70
     4
  9
$DIMALTU
 70
     2
  9
$DIMALTTD
 70
     2
  9
$DIMTXSTY
  7
ＭＳ_ゴシック
  9
$DIMAUNIT
 70
     0
  9
$LUNITS
 70
     2
  9
$LUPREC
 70
     4
  9
$SKETCHINC
 40
0.1
  9
$FILLETRAD
 40
0.5
  9
$AUNITS
 70
     0
  9
$AUPREC
 70
     0
  9
$MENU
  1
.
  9
$ELEVATION
 40
0.0
  9
$PELEVATION
 40
0.0
  9
$THICKNESS
 40
0.0
  9
$LIMCHECK
 70
     0
  9
$CHAMFERA
 40
0.0
  9
$CHAMFERB
 40
0.0
  9
$CHAMFERC
 40
0.0
  9
$CHAMFERD
 40
0.0
  9
$SKPOLY
 70
     0
  9
$TDCREATE
 40
2459664.487688623
  9
$TDUPDATE
 40
2459664.487688889
  9
$TDINDWG
 40
0.0000000116
  9
$TDUSRTIMER
 40
0.0000000116
  9
$USRTIMER
 70
     1
  9
$ANGBASE
 50
0.0
  9
$ANGDIR
 70
     0
  9
$PDMODE
 70
     0
  9
$PDSIZE
 40
0.0
  9
$PLINEWID
 40
0.0
  9
$COORDS
 70
     1
  9
$SPLFRAME
 70
     0
  9
$SPLINETYPE
 70
     6
  9
$SPLINESEGS
 70
     8
  9
$ATTDIA
 70
     0
  9
$ATTREQ
 70
     1
  9
$HANDLING
 70
     1
  9
$HANDSEED
  5
2B0
  9
$SURFTAB1
 70
     6
  9
$SURFTAB2
 70
     6
  9
$SURFTYPE
 70
     6
  9
$SURFU
 70
     6
  9
$SURFV
 70
     6
  9
$UCSNAME
  2

  9
$UCSORG
 10
0.0
 20
0.0
 30
0.0
  9
$UCSXDIR
 10
1.0
 20
0.0
 30
0.0
  9
$UCSYDIR
 10
0.0
 20
1.0
 30
0.0
  9
$PUCSNAME
  2

  9
$PUCSORG
 10
0.0
 20
0.0
 30
0.0
  9
$PUCSXDIR
 10
1.0
 20
0.0
 30
0.0
  9
$PUCSYDIR
 10
0.0
 20
1.0
 30
0.0
  9
$USERI1
 70
     0
  9
$USERI2
 70
     0
  9
$USERI3
 70
     0
  9
$USERI4
 70
     0
  9
$USERI5
 70
     0
  9
$USERR1
 40
0.0
  9
$USERR2
 40
0.0
  9
$USERR3
 40
0.0
  9
$USERR4
 40
0.0
  9
$USERR5
 40
0.0
  9
$WORLDVIEW
 70
     1
  9
$SHADEDGE
 70
     3
  9
$SHADEDIF
 70
    70
  9
$TILEMODE
 70
     1
  9
$MAXACTVP
 70
    64
  9
$PINSBASE
 10
0.0
 20
0.0
 30
0.0
  9
$PLIMCHECK
 70
     0
  9
$PEXTMIN
 10
1.000000000000000E+20
 20
1.000000000000000E+20
 30
1.000000000000000E+20
  9
$PEXTMAX
 10
-1.000000000000000E+20
 20
-1.000000000000000E+20
 30
-1.000000000000000E+20
  9
$PLIMMIN
 10
0.0
 20
0.0
  9
$PLIMMAX
 10
12.0
 20
9.0
  9
$UNITMODE
 70
     0
  9
$VISRETAIN
 70
     1
  9
$PLINEGEN
 70
     0
  9
$PSLTSCALE
 70
     1
  9
$TREEDEPTH
 70
  3020
  9
$PICKSTYLE
 70
     1
  9
$CMLSTYLE
  2
STANDARD
  9
$CMLJUST
 70
     0
  9
$CMLSCALE
 40
1.0
  9
$PROXYGRAPHICS
 70
     1
  9
$MEASUREMENT
 70
     1
  0
ENDSEC
  0
SECTION
  2
CLASSES
  0
CLASS
  1
ACDBDICTIONARYWDFLT
  2
AcDbDictionaryWithDefault
  3
ObjectDBX Classes
 90
        0
280
     0
281
     0
  0
CLASS
  1
VISUALSTYLE
  2
AcDbVisualStyle
  3
ObjectDBX Classes
 90
     4095
280
     0
281
     0
  0
CLASS
  1
MATERIAL
  2
AcDbMaterial
  3
ObjectDBX Classes
 90
     1153
280
     0
281
     0
  0
CLASS
  1
SCALE
  2
AcDbScale
  3
ObjectDBX Classes
 90
     1153
280
     0
281
     0
  0
CLASS
  1
TABLESTYLE
  2
AcDbTableStyle
  3
ObjectDBX Classes
 90
     4095
280
     0
281
     0
  0
CLASS
  1
MLEADERSTYLE
  2
AcDbMLeaderStyle
  3
ACDB_MLEADERSTYLE_CLASS
 90
     4095
280
     0
281
     0
  0
CLASS
  1
SUN
  2
AcDbSun
  3
SCENEOE
 90
     1153
280
     0
281
     0
  0
CLASS
  1
DICTIONARYVAR
  2
AcDbDictionaryVar
  3
ObjectDBX Classes
 90
        0
280
     0
281
     0
  0
CLASS
  1
XRECORD
  2
AcDbXrecord
  3
ObjectDBX Classes
 90
        0
280
     0
281
     0
  0
CLASS
  1
LWPOLYLINE
  2
AcDbPolyline
  3
ObjectDBX Classes
 90
        0
280
     0
281
     1
  0
CLASS
  1
HATCH
  2
AcDbHatch
  3
ObjectDBX Classes
 90
        0
280
     0
281
     1
  0
CLASS
  1
ACDBPLACEHOLDER
  2
AcDbPlaceHolder
  3
ObjectDBX Classes
 90
        0
280
     0
281
     0
  0
CLASS
  1
LAYOUT
  2
AcDbLayout
  3
ObjectDBX Classes
 90
        0
280
     0
281
     0
  0
ENDSEC
  0
SECTION
  2
TABLES
  0
TABLE
  2
VPORT
  5
8
102
{ACAD_XDICTIONARY
360
2A5
102
}
330
0
100
AcDbSymbolTable
 70
     1
  0
VPORT
  5
29
330
8
100
AcDbSymbolTableRecord
100
AcDbViewportTableRecord
  2
*ACTIVE
 70
     0
 10
0.0
 20
0.0
 11
1.0
 21
1.0
 12
532.5
 22
239.5208515693385
 13
0.0
 23
0.0
 14
0.5
 24
0.5
 15
0.5
 25
0.5
 16
0.0
 26
0.0
 36
1.0
 17
0.0
 27
0.0
 37
0.0
 40
280.958296861323
 41
1.6
 42
50.0
 43
0.0
 44
0.0
 50
0.0
 51
0.0
 71
     0
 72
   100
 73
     1
 74
     3
 75
     0
 76
     0
 77
     0
 78
     0
  0
ENDTAB
  0
TABLE
  2
LTYPE
  5
5
330
0
100
AcDbSymbolTable
 70
     3
  0
LTYPE
  5
14
330
5
100
AcDbSymbolTableRecord
100
AcDbLinetypeTableRecord
  2
BYBLOCK
 70
     0
  3

 72
    65
 73
     0
 40
0.0
  0
LTYPE
  5
15
330
5
100
AcDbSymbolTableRecord
100
AcDbLinetypeTableRecord
  2
BYLAYER
 70
     0
  3

 72
    65
 73
     0
 40
0.0
  0
LTYPE
  5
16
330
5
100
AcDbSymbolTableRecord
100
AcDbLinetypeTableRecord
  2
CONTINUOUS
 70
     0
  3
Solid line
 72
    65
 73
     0
 40
0.0
  0
LTYPE
  5
71
330
5
100
AcDbSymbolTableRecord
100
AcDbLinetypeTableRecord
  2
CENTER
 70
     0
  3

 72
    65
 73
     0
 40
0.0
  0
LTYPE
  5
74
330
5
100
AcDbSymbolTableRecord
100
AcDbLinetypeTableRecord
  2
DOT
 70
     0
  3

 72
    65
 73
     0
 40
0.0
  0
ENDTAB
  0
TABLE
  2
LAYER
  5
2
330
0
100
AcDbSymbolTable
 70
     1
  0
LAYER
  5
10
330
2
100
AcDbSymbolTableRecord
100
AcDbLayerTableRecord
  2
0
 70
     0
 62
     7
  6
CONTINUOUS
  0
ENDTAB
  0
TABLE
  2
STYLE
  5
3
330
0
100
AcDbSymbolTable
 70
     2
  0
STYLE
  5
11
330
3
100
AcDbSymbolTableRecord
100
AcDbTextStyleTableRecord
  2
STANDARD
 70
     0
 40
0.0
 41
1.0
 50
0.0
 71
     0
 42
0.2
  3
txt
  4

  0
STYLE
  5
6E
330
3
100
AcDbSymbolTableRecord
100
AcDbTextStyleTableRecord
  2
ＭＳ_ゴシック
 70
     0
 40
0.0
 41
1.0
 50
0.0
 71
     0
 42
0.2
  3
ＭＳ ゴシック.shx
  4

  0
ENDTAB
  0
TABLE
  2
VIEW
  5
6
330
0
100
AcDbSymbolTable
 70
     0
  0
ENDTAB
  0
TABLE
  2
UCS
  5
7
330
0
100
AcDbSymbolTable
 70
     0
  0
ENDTAB
  0
TABLE
  2
APPID
  5
9
330
0
100
AcDbSymbolTable
 70
     2
  0
APPID
  5
12
330
9
100
AcDbSymbolTableRecord
100
AcDbRegAppTableRecord
  2
ACAD
 70
     0
  0
APPID
  5
2AF
330
9
100
AcDbSymbolTableRecord
100
AcDbRegAppTableRecord
  2
ACAD_MLEADERVER
 70
     0
  0
ENDTAB
  0
TABLE
  2
DIMSTYLE
  5
A
330
0
100
AcDbSymbolTable
 70
     1
  0
DIMSTYLE
105
27
330
A
100
AcDbSymbolTableRecord
100
AcDbDimStyleTableRecord
  2
STANDARD
 70
     0
  3

  4

  5

  6

  7

 40
1.0
 41
0.18
 42
0.0625
 43
0.38
 44
0.18
 45
0.0
 46
0.0
 47
0.0
 48
0.0
140
0.18
141
0.09
142
0.0
143
25.4
144
1.0
145
0.0
146
1.0
147
0.09
 71
     0
 72
     0
 73
     1
 74
     1
 75
     0
 76
     0
 77
     0
 78
     0
170
     0
171
     2
172
     0
173
     0
174
     0
175
     0
176
     0
177
     0
178
     0
270
     2
271
     4
272
     4
273
     2
274
     2
340
11
275
     0
280
     0
281
     0
282
     0
283
     1
284
     0
285
     0
286
     0
287
     3
288
     0
  0
ENDTAB
  0
TABLE
  2
BLOCK_RECORD
  5
1
330
0
100
AcDbSymbolTable
 70
     0
  0
BLOCK_RECORD
  5
1F
330
1
100
AcDbSymbolTableRecord
100
AcDbBlockTableRecord
  2
*MODEL_SPACE
  0
BLOCK_RECORD
  5
1B
330
1
100
AcDbSymbolTableRecord
100
AcDbBlockTableRecord
  2
*PAPER_SPACE
  0
ENDTAB
  0
ENDSEC
  0
SECTION
  2
BLOCKS
  0
BLOCK
  5
20
330
1F
100
AcDbEntity
  8
0
100
AcDbBlockBegin
  2
*MODEL_SPACE
 70
     0
 10
0.0
 20
0.0
 30
0.0
  3
*MODEL_SPACE
  1

  0
ENDBLK
  5
21
330
1F
100
AcDbEntity
  8
0
100
AcDbBlockEnd
  0
BLOCK
  5
1C
330
1B
100
AcDbEntity
 67
     1
  8
0
100
AcDbBlockBegin
  2
*PAPER_SPACE
 70
     0
 10
0.0
 20
0.0
 30
0.0
  3
*PAPER_SPACE
  1

  0
ENDBLK
  5
1D
330
1B
100
AcDbEntity
 67
     1
  8
0
100
AcDbBlockEnd
  0
ENDSEC
  0
SECTION
  2
ENTITIES
  0
ARC
  5
6F
330
1F
100
AcDbEntity
  8
0
  6
CONTINUOUS
 62
     7
100
AcDbCircle
 10
709.5613998199873
 20
260.9393398282202
 30
0.0
 40
1.999999999999954
100
AcDbArc
 50
225.0000000000011
 51
270.0000000000019
  0
LINE
  5
70
330
1F
100
AcDbEntity
  8
0
  6
CENTER
 62
     1
100
AcDbLine
 10
630.0
 20
245.0
 30
0.0
 11
630.0
 21
380.0
 31
0.0
  0
LINE
  5
72
330
1F
100
AcDbEntity
  8
0
  6
CONTINUOUS
 62
     7
100
AcDbLine
 10
782.4264068711927
 20
357.7799602617861
 30
0.0
 11
771.8528137423857
 21
368.3535533905933
 31
0.0
  0
LINE
  5
73
330
1F
100
AcDbEntity
  8
0
  6
DOT
 62
     7
100
AcDbLine
 10
406.0
 20
270.9393398282202
 30
0.0
 11
412.0
 21
270.9393398282202
 31
0.0
  0
CIRCLE
  5
75
330
1F
100
AcDbEntity
  8
0
  6
CONTINUOUS
 62
     7
100
AcDbCircle
 10
630.0
 20
313.9393398282202
 30
0.0
 40
40.00000000000001
  0
LINE
  5
76
330
1F
100
AcDbEntity
  8
0
  6
DOT
 62
     7
100
AcDbLine
 10
356.0000000000001
 20
270.9393398282202
 30
0.0
 11
364.0000000000001
 21
270.9393398282202
 31
0.0
  0
ARC
  5
77
330
1F
100
AcDbEntity
  8
0
  6
CONTINUOUS
 62
     7
100
AcDbCircle
 10
740.0
 20
258.9393398282202
 30
0.0
 40
1.600000000000046
100
AcDbArc
 50
0.0000000000003411
 51
180.0
  0
LINE
  5
78
330
1F
100
AcDbEntity
  8
0
  6
CONTINUOUS
 62
     7
100
AcDbLine
 10
684.9999999999999
 20
313.9393398282202
 30
0.0
 11
684.9999999999999
 21
368.9393398282201
 31
0.0
  0
LINE
  5
79
330
1F
100
AcDbEntity
  8
0
  6
CONTINUOUS
 62
     7
100
AcDbLine
 10
794.9999999999999
 20
368.9393398282201
 30
0.0
 11
740.0
 21
368.9393398282201
 31
0.0
  0
LINE
  5
7A
330
1F
100
AcDbEntity
  8
0
  6
CONTINUOUS
 62
     7
100
AcDbLine
 10
782.7799602617862
 20
272.7150144850445
 30
0.0
 11
783.9113311116846
 21
271.583643635146
 31
0.0
  0
LINE
  5
7B
330
1F
100
AcDbEntity
  8
0
  6
CONTINUOUS
 62
     7
100
AcDbLine
 10
771.8528137423857
 20
259.5251262658471
 30
0.0
 11
782.3556961930742
 21
270.0280087165355
 31
0.0
  0
LINE
  5
7C
330
1F
100
AcDbEntity
  8
0
  6
CONTINUOUS
 62
     7
100
AcDbLine
 10
685.0
 20
258.9393398282202
 30
0.0
 11
740.0
 21
258.9393398282202
 31
0.0
  0
LINE
  5
7D
330
1F
100
AcDbEntity
  8
0
  6
CONTINUOUS
 62
     7
100
AcDbLine
 10
783.4870670429725
 20
358.840620433566
 30
0.0
 11
782.4264068711926
 21
357.7799602617861
 31
0.0
  0
LINE
  5
7E
330
1F
100
AcDbEntity
  8
0
  6
CONTINUOUS
 62
     7
100
AcDbLine
 10
672.7799602617862
 20
272.7150144850445
 30
0.0
 11
673.9113311116846
 21
271.583643635146
 31
0.0
  0
ARC
  5
7F
330
1F
100
AcDbEntity
  8
0
  6
CONTINUOUS
 62
     7
100
AcDbCircle
 10
792.9999999999999
 20
283.5007396482075
 30
0.0
 40
1.999999999999954
100
AcDbArc
 50
314.9999999999989
 51
359.9999999999996
  0
LINE
  5
80
330
1F
100
AcDbEntity
  8
0
  6
CENTER
 62
     1
100
AcDbLine
 10
520.0
 20
245.0
 30
0.0
 11
520.0
 21
380.0
 31
0.0
  0
LINE
  5
81
330
1F
100
AcDbEntity
  8
0
  6
CONTINUOUS
 62
     7
100
AcDbLine
 10
586.5129329570274
 20
358.840620433566
 30
0.0
 11
585.0987193946542
 21
357.4264068711929
 31
0.0
  0
ARC
  5
82
330
1F
100
AcDbEntity
  8
0
  6
CONTINUOUS
 62
     7
100
AcDbCircle
 10
682.9999999999999
 20
283.5007396482075
 30
0.0
 40
1.999999999999954
100
AcDbArc
 50
314.9999999999989
 51
359.9999999999996
  0
ARC
  5
83
330
1F
100
AcDbEntity
  8
0
  6
CONTINUOUS
 62
     7
100
AcDbCircle
 10
770.4386001800125
 20
366.9393398282201
 30
0.0
 40
2.000000000000032
100
AcDbArc
 50
44.99999999999888
 51
89.99999999999947
  0
LINE
  5
84
330
1F
100
AcDbEntity
  8
0
  6
CONTINUOUS
 62
     7
100
AcDbLine
 10
784.9012806053457
 20
357.4264068711929
 30
0.0
 11
783.4870670429725
 21
358.840620433566
 31
0.0
  0
ARC
  5
85
330
1F
100
AcDbEntity
  8
0
  6
CONTINUOUS
 62
     7
100
AcDbCircle
 10
682.9999999999999
 20
283.5007396482075
 30
0.0
 40
1.999999999999954
100
AcDbArc
 50
314.9999999999989
 51
359.9999999999996
  0
LINE
  5
86
330
1F
100
AcDbEntity
  8
0
  6
CONTINUOUS
 62
     7
100
AcDbLine
 10
270.4999999999999
 20
258.9393398282202
 30
0.0
 11
270.4999999999999
 21
368.9393398282202
 31
0.0
  0
LINE
  5
87
330
1F
100
AcDbEntity
  8
0
  6
CONTINUOUS
 62
     7
100
AcDbLine
 10
684.9999999999999
 20
258.9393398282202
 30
0.0
 11
684.9999999999999
 21
313.9393398282202
 31
0.0
  0
LINE
  5
88
330
1F
100
AcDbEntity
  8
0
  6
CONTINUOUS
 62
     7
100
AcDbLine
 10
684.9999999999999
 20
313.9393398282202
 30
0.0
 11
684.9999999999999
 21
368.9393398282201
 31
0.0
  0
LINE
  5
89
330
1F
100
AcDbEntity
  8
0
  6
CONTINUOUS
 62
     7
100
AcDbLine
 10
672.3556961930742
 20
270.0280087165356
 30
0.0
 11
671.2243253431758
 21
271.159379566434
 31
0.0
  0
ARC
  5
8A
330
1F
100
AcDbEntity
  8
0
  6
DOT
 62
     7
100
AcDbCircle
 10
405.0
 20
270.9393398282202
 30
0.0
 40
1.000000000000001
100
AcDbArc
 50
180.0
 51
0.0000000000002842
  0
LINE
  5
8B
330
1F
100
AcDbEntity
  8
0
  6
DOT
 62
     7
100
AcDbLine
 10
354.0000000000001
 20
356.9393398282202
 30
0.0
 11
349.5
 21
356.9393398282202
 31
0.0
  0
ARC
  5
8C
330
1F
100
AcDbEntity
  8
0
  6
CONTINUOUS
 62
     7
100
AcDbCircle
 10
684.9999999999999
 20
313.9393398282202
 30
0.0
 40
1.59999999999999
100
AcDbArc
 50
90.0
 51
270.0
  0
LINE
  5
8D
330
1F
100
AcDbEntity
  8
0
  6
CONTINUOUS
 62
     7
100
AcDbLine
 10
587.6443038069258
 20
270.0280087165356
 30
0.0
 11
598.1471862576142
 21
259.5251262658471
 31
0.0
  0
ARC
  5
8E
330
1F
100
AcDbEntity
  8
0
  6
DOT
 62
     7
100
AcDbCircle
 10
412.0
 20
268.9393398282202
 30
0.0
 40
2.000000000000002
100
AcDbArc
 50
0.0000000000004547
 51
90.0
  0
ARC
  5
8F
330
1F
100
AcDbEntity
  8
0
  6
CONTINUOUS
 62
     7
100
AcDbCircle
 10
577.0
 20
283.5007396482076
 30
0.0
 40
2.000000000000002
100
AcDbArc
 50
180.0
 51
225.0000000000002
  0
LINE
  5
90
330
1F
100
AcDbEntity
  8
0
  6
CONTINUOUS
 62
     7
100
AcDbLine
 10
684.9999999999999
 20
258.9393398282202
 30
0.0
 11
684.9999999999999
 21
313.9393398282202
 31
0.0
  0
LINE
  5
91
330
1F
100
AcDbEntity
  8
0
  6
CONTINUOUS
 62
     7
100
AcDbLine
 10
630.0
 20
258.9393398282202
 30
0.0
 11
684.9999999999999
 21
258.9393398282202
 31
0.0
  0
ARC
  5
92
330
1F
100
AcDbEntity
  8
0
  6
DOT
 62
     7
100
AcDbCircle
 10
412.0
 20
358.9393398282202
 30
0.0
 40
2.000000000000002
100
AcDbArc
 50
270.0000000000002
 51
0.0
  0
ARC
  5
93
330
1F
100
AcDbEntity
  8
0
  6
CONTINUOUS
 62
     7
100
AcDbCircle
 10
577.0
 20
344.3779400082328
 30
0.0
 40
2.000000000000071
100
AcDbArc
 50
135.0
 51
180.0000000000008
  0
LINE
  5
94
330
1F
100
AcDbEntity
  8
0
  6
DOT
 62
     7
100
AcDbLine
 10
349.5
 20
270.9393398282202
 30
0.0
 11
354.0000000000001
 21
270.9393398282202
 31
0.0
  0
LINE
  5
95
330
1F
100
AcDbEntity
  8
0
  6
DOT
 62
     7
100
AcDbLine
 10
364.0000000000001
 20
356.9393398282202
 30
0.0
 11
356.0000000000001
 21
356.9393398282202
 31
0.0
  0
LINE
  5
96
330
1F
100
AcDbEntity
  8
0
  6
CONTINUOUS
 62
     7
100
AcDbLine
 10
575.0
 20
258.9393398282202
 30
0.0
 11
630.0
 21
258.9393398282202
 31
0.0
  0
ARC
  5
97
330
1F
100
AcDbEntity
  8
0
  6
CONTINUOUS
 62
     7
100
AcDbCircle
 10
684.9999999999999
 20
313.9393398282202
 30
0.0
 40
1.59999999999999
100
AcDbArc
 50
90.0
 51
270.0
  0
LINE
  5
98
330
1F
100
AcDbEntity
  8
0
  6
CONTINUOUS
 62
     7
100
AcDbLine
 10
674.9012806053457
 20
357.4264068711929
 30
0.0
 11
673.4870670429725
 21
358.840620433566
 31
0.0
  0
LINE
  5
99
330
1F
100
AcDbEntity
  8
0
  6
CONTINUOUS
 62
     7
100
AcDbLine
 10
672.4264068711929
 20
357.7799602617861
 30
0.0
 11
661.8528137423857
 21
368.3535533905933
 31
0.0
  0
ARC
  5
9A
330
1F
100
AcDbEntity
  8
0
  6
CONTINUOUS
 62
     7
100
AcDbCircle
 10
630.0
 20
258.9393398282202
 30
0.0
 40
1.600000000000046
100
AcDbArc
 50
0.0000000000003411
 51
180.0
  0
ARC
  5
9B
330
1F
100
AcDbEntity
  8
0
  6
CONTINUOUS
 62
     7
100
AcDbCircle
 10
599.5613998199873
 20
260.9393398282202
 30
0.0
 40
1.999999999999954
100
AcDbArc
 50
225.0000000000011
 51
270.0000000000019
  0
LINE
  5
9C
330
1F
100
AcDbEntity
  8
0
  6
CONTINUOUS
 62
     7
100
AcDbLine
 10
586.159379566434
 20
356.365746699413
 30
0.0
 11
575.5857864376269
 21
345.7921535706059
 31
0.0
  0
LINE
  5
9D
330
1F
100
AcDbEntity
  8
0
  6
CENTER
 62
     1
100
AcDbLine
 10
564.9999999999999
 20
313.9393398282202
 30
0.0
 11
694.9999999999999
 21
313.9393398282202
 31
0.0
  0
LINE
  5
9E
330
1F
100
AcDbEntity
  8
0
  6
CONTINUOUS
 62
     7
100
AcDbLine
 10
671.2243253431757
 20
271.159379566434
 30
0.0
 11
672.7799602617861
 21
272.7150144850445
 31
0.0
  0
LINE
  5
9F
330
1F
100
AcDbEntity
  8
0
  6
CONTINUOUS
 62
     7
100
AcDbLine
 10
587.2200397382139
 20
272.7150144850444
 30
0.0
 11
588.7756746568243
 21
271.159379566434
 31
0.0
  0
ARC
  5
A0
330
1F
100
AcDbEntity
  8
0
  6
DOT
 62
     7
100
AcDbCircle
 10
405.0
 20
356.9393398282202
 30
0.0
 40
1.000000000000001
100
AcDbArc
 50
0.0
 51
180.0000000000011
  0
LINE
  5
A1
330
1F
100
AcDbEntity
  8
0
  6
CONTINUOUS
 62
     7
100
AcDbLine
 10
586.0886688883154
 20
271.583643635146
 30
0.0
 11
587.2200397382139
 21
272.7150144850444
 31
0.0
  0
LINE
  5
A2
330
1F
100
AcDbEntity
  8
0
  6
CENTER
 62
     1
100
AcDbLine
 10
455.0
 20
313.9393398282202
 30
0.0
 11
585.0
 21
313.9393398282202
 31
0.0
  0
LINE
  5
A3
330
1F
100
AcDbEntity
  8
0
  6
CONTINUOUS
 62
     7
100
AcDbLine
 10
575.0
 20
313.9393398282202
 30
0.0
 11
575.0
 21
258.9393398282202
 31
0.0
  0
LINE
  5
A4
330
1F
100
AcDbEntity
  8
0
  6
CONTINUOUS
 62
     7
100
AcDbLine
 10
588.7756746568243
 20
271.159379566434
 30
0.0
 11
587.6443038069259
 21
270.0280087165356
 31
0.0
  0
ARC
  5
A5
330
1F
100
AcDbEntity
  8
0
  6
CONTINUOUS
 62
     7
100
AcDbCircle
 10
682.9999999999999
 20
344.3779400082328
 30
0.0
 40
2.000000000000002
100
AcDbArc
 50
0.0
 51
44.99999999999972
  0
LINE
  5
A6
330
1F
100
AcDbEntity
  8
0
  6
CONTINUOUS
 62
     7
100
AcDbLine
 10
684.4142135623731
 20
345.7921535706059
 30
0.0
 11
673.840620433566
 21
356.365746699413
 31
0.0
  0
LINE
  5
A7
330
1F
100
AcDbEntity
  8
0
  6
CONTINUOUS
 62
     7
100
AcDbLine
 10
575.0
 20
368.9393398282202
 30
0.0
 11
575.0
 21
313.9393398282201
 31
0.0
  0
LINE
  5
A8
330
1F
100
AcDbEntity
  8
0
  6
CONTINUOUS
 62
     7
100
AcDbLine
 10
575.5857864376269
 20
282.0865260858345
 30
0.0
 11
586.0886688883154
 21
271.583643635146
 31
0.0
  0
LINE
  5
A9
330
1F
100
AcDbEntity
  8
0
  6
DOT
 62
     7
100
AcDbLine
 10
412.0
 20
356.9393398282202
 30
0.0
 11
406.0
 21
356.9393398282202
 31
0.0
  0
LINE
  5
AA
330
1F
100
AcDbEntity
  8
0
  6
CONTINUOUS
 62
     7
100
AcDbLine
 10
661.8528137423857
 20
259.5251262658471
 30
0.0
 11
672.3556961930742
 21
270.0280087165355
 31
0.0
  0
ARC
  5
AB
330
1F
100
AcDbEntity
  8
0
  6
CONTINUOUS
 62
     7
100
AcDbCircle
 10
660.4386001800125
 20
366.9393398282201
 30
0.0
 40
2.000000000000032
100
AcDbArc
 50
44.99999999999888
 51
89.99999999999947
  0
LINE
  5
AC
330
1F
100
AcDbEntity
  8
0
  6
CONTINUOUS
 62
     7
100
AcDbLine
 10
673.4870670429725
 20
358.840620433566
 30
0.0
 11
672.4264068711927
 21
357.7799602617861
 31
0.0
  0
LINE
  5
AD
330
1F
100
AcDbEntity
  8
0
  6
CONTINUOUS
 62
     7
100
AcDbLine
 10
598.1471862576143
 20
368.3535533905933
 30
0.0
 11
587.5735931288071
 21
357.7799602617861
 31
0.0
  0
LINE
  5
AE
330
1F
100
AcDbEntity
  8
0
  6
CONTINUOUS
 62
     7
100
AcDbLine
 10
673.9113311116845
 20
271.583643635146
 30
0.0
 11
684.414213562373
 21
282.0865260858345
 31
0.0
  0
LINE
  5
AF
330
1F
100
AcDbEntity
  8
0
  6
CONTINUOUS
 62
     7
100
AcDbLine
 10
587.5735931288071
 20
357.7799602617861
 30
0.0
 11
586.5129329570274
 21
358.8406204335659
 31
0.0
  0
ARC
  5
B0
330
1F
100
AcDbEntity
  8
0
  6
CONTINUOUS
 62
     7
100
AcDbCircle
 10
599.5613998199873
 20
366.9393398282202
 30
0.0
 40
2.000000000000002
100
AcDbArc
 50
90.0
 51
134.9999999999993
  0
LINE
  5
B1
330
1F
100
AcDbEntity
  8
0
  6
CONTINUOUS
 62
     7
100
AcDbLine
 10
585.0987193946543
 20
357.4264068711929
 30
0.0
 11
586.1593795664342
 21
356.365746699413
 31
0.0
  0
ARC
  5
B2
330
1F
100
AcDbEntity
  8
0
  6
CONTINUOUS
 62
     7
100
AcDbCircle
 10
682.9999999999999
 20
344.3779400082328
 30
0.0
 40
2.000000000000002
100
AcDbArc
 50
0.0
 51
44.99999999999972
  0
ARC
  5
B3
330
1F
100
AcDbEntity
  8
0
  6
CONTINUOUS
 62
     7
100
AcDbCircle
 10
660.4386001800125
 20
260.9393398282202
 30
0.0
 40
2.000000000000002
100
AcDbArc
 50
270.0
 51
314.9999999999998
  0
LINE
  5
B4
330
1F
100
AcDbEntity
  8
0
  6
CONTINUOUS
 62
     7
100
AcDbLine
 10
630.0
 20
368.9393398282202
 30
0.0
 11
575.0
 21
368.9393398282202
 31
0.0
  0
LINE
  5
B5
330
1F
100
AcDbEntity
  8
0
  6
CONTINUOUS
 62
     7
100
AcDbLine
 10
419.0000000000001
 20
368.3535533905933
 30
0.0
 11
419.0000000000001
 21
358.840620433566
 31
0.0
  0
LINE
  5
B6
330
1F
100
AcDbEntity
  8
0
  6
CONTINUOUS
 62
     7
100
AcDbLine
 10
419.0000000000001
 20
282.0865260858345
 30
0.0
 11
419.0000000000001
 21
271.583643635146
 31
0.0
  0
ARC
  5
B7
330
1F
100
AcDbEntity
  8
0
  6
DOT
 62
     7
100
AcDbCircle
 10
325.0000000000001
 20
265.4393398282202
 30
0.0
 40
1.000000000000001
100
AcDbArc
 50
180.0
 51
0.0000000000011369
  0
LINE
  5
B8
330
1F
100
AcDbEntity
  8
0
  6
DOT
 62
     7
100
AcDbLine
 10
376.0
 20
356.9393398282202
 30
0.0
 11
376.0
 21
270.9393398282201
 31
0.0
  0
LINE
  5
B9
330
1F
100
AcDbEntity
  8
0
  6
CONTINUOUS
 62
     7
100
AcDbLine
 10
419.0000000000001
 20
357.4264068711929
 30
0.0
 11
419.0000000000001
 21
356.365746699413
 31
0.0
  0
LINE
  5
BA
330
1F
100
AcDbEntity
  8
0
  6
DOT
 62
     7
100
AcDbLine
 10
354.0000000000001
 20
356.9393398282202
 30
0.0
 11
354.0000000000001
 21
270.9393398282201
 31
0.0
  0
LINE
  5
BB
330
1F
100
AcDbEntity
  8
0
  6
DOT
 62
     7
100
AcDbLine
 10
296.0000000000001
 20
279.6446609406726
 30
0.0
 11
296.0000000000001
 21
265.4393398282202
 31
0.0
  0
LINE
  5
BC
330
1F
100
AcDbEntity
  8
0
  6
DOT
 62
     7
100
AcDbLine
 10
396.0
 20
356.9393398282202
 30
0.0
 11
396.0
 21
270.9393398282201
 31
0.0
  0
LINE
  5
BD
330
1F
100
AcDbEntity
  8
0
  6
CONTINUOUS
 62
     7
100
AcDbLine
 10
477.5735931288071
 20
357.7799602617861
 30
0.0
 11
476.5129329570273
 21
358.8406204335659
 31
0.0
  0
LINE
  5
BE
330
1F
100
AcDbEntity
  8
0
  6
DOT
 62
     7
100
AcDbLine
 10
316.0000000000001
 20
362.4393398282202
 30
0.0
 11
316.0000000000001
 21
279.6446609406726
 31
0.0
  0
LINE
  5
BF
330
1F
100
AcDbEntity
  8
0
  6
DOT
 62
     7
100
AcDbLine
 10
347.5
 20
360.4393398282202
 30
0.0
 11
347.5
 21
267.4393398282202
 31
0.0
  0
LINE
  5
C0
330
1F
100
AcDbEntity
  8
0
  6
DOT
 62
     7
100
AcDbLine
 10
296.0000000000001
 20
362.4393398282202
 30
0.0
 11
296.0000000000001
 21
279.6446609406726
 31
0.0
  0
LINE
  5
C1
330
1F
100
AcDbEntity
  8
0
  6
CONTINUOUS
 62
     7
100
AcDbLine
 10
419.0000000000001
 20
270.0280087165355
 30
0.0
 11
419.0000000000001
 21
259.5251262658471
 31
0.0
  0
ARC
  5
C2
330
1F
100
AcDbEntity
  8
0
  6
DOT
 62
     7
100
AcDbCircle
 10
295.0000000000001
 20
265.4393398282202
 30
0.0
 40
1.000000000000001
100
AcDbArc
 50
180.0
 51
0.0000000000011369
  0
LINE
  5
C3
330
1F
100
AcDbEntity
  8
0
  6
DOT
 62
     7
100
AcDbLine
 10
345.5
 20
362.4393398282202
 30
0.0
 11
336.0
 21
362.4393398282202
 31
0.0
  0
LINE
  5
C4
330
1F
100
AcDbEntity
  8
0
  6
CONTINUOUS
 62
     7
100
AcDbLine
 10
270.4999999999999
 20
258.9393398282202
 30
0.0
 11
275.0
 21
258.9393398282202
 31
0.0
  0
ARC
  5
C5
330
1F
100
AcDbEntity
  8
0
  6
DOT
 62
     7
100
AcDbCircle
 10
305.0000000000001
 20
265.4393398282202
 30
0.0
 40
1.000000000000001
100
AcDbArc
 50
180.0
 51
0.0000000000011369
  0
LINE
  5
C6
330
1F
100
AcDbEntity
  8
0
  6
DOT
 62
     7
100
AcDbLine
 10
356.0000000000001
 20
356.9393398282202
 30
0.0
 11
356.0000000000001
 21
270.9393398282201
 31
0.0
  0
LINE
  5
C7
330
1F
100
AcDbEntity
  8
0
  6
DOT
 62
     7
100
AcDbLine
 10
275.0
 20
270.0280087165356
 30
0.0
 11
275.0
 21
259.5251262658471
 31
0.0
  0
LINE
  5
C8
330
1F
100
AcDbEntity
  8
0
  6
DOT
 62
     7
100
AcDbLine
 10
336.0000000000001
 20
279.6446609406726
 30
0.0
 11
336.0000000000001
 21
265.4393398282202
 31
0.0
  0
LINE
  5
C9
330
1F
100
AcDbEntity
  8
0
  6
DOT
 62
     7
100
AcDbLine
 10
326.0000000000001
 20
362.4393398282202
 30
0.0
 11
326.0000000000001
 21
279.6446609406726
 31
0.0
  0
LINE
  5
CA
330
1F
100
AcDbEntity
  8
0
  6
CONTINUOUS
 62
     7
100
AcDbLine
 10
465.0
 20
313.9393398282202
 30
0.0
 11
465.0
 21
258.9393398282202
 31
0.0
  0
LINE
  5
CB
330
1F
100
AcDbEntity
  8
0
  6
DOT
 62
     7
100
AcDbLine
 10
404.0
 20
356.9393398282202
 30
0.0
 11
404.0
 21
270.9393398282202
 31
0.0
  0
ARC
  5
CC
330
1F
100
AcDbEntity
  8
0
  6
DOT
 62
     7
100
AcDbCircle
 10
335.0000000000001
 20
265.4393398282202
 30
0.0
 40
1.000000000000001
100
AcDbArc
 50
180.0
 51
0.0000000000011369
  0
LINE
  5
CD
330
1F
100
AcDbEntity
  8
0
  6
CONTINUOUS
 62
     7
100
AcDbLine
 10
419.0000000000001
 20
356.3657466994131
 30
0.0
 11
419.0000000000001
 21
345.7921535706059
 31
0.0
  0
ARC
  5
CE
330
1F
100
AcDbEntity
  8
0
  6
DOT
 62
     7
100
AcDbCircle
 10
315.0000000000001
 20
362.4393398282202
 30
0.0
 40
1.000000000000001
100
AcDbArc
 50
0.0
 51
180.0000000000011
  0
LINE
  5
CF
330
1F
100
AcDbEntity
  8
0
  6
DOT
 62
     7
100
AcDbLine
 10
275.0
 20
282.0865260858345
 30
0.0
 11
275.0
 21
271.583643635146
 31
0.0
  0
LINE
  5
D0
330
1F
100
AcDbEntity
  8
0
  6
DOT
 62
     7
100
AcDbLine
 10
275.0
 20
315.4393398282202
 30
0.0
 11
275.0
 21
312.4393398282202
 31
0.0
  0
ARC
  5
D1
330
1F
100
AcDbEntity
  8
0
  6
DOT
 62
     7
100
AcDbCircle
 10
276.0
 20
264.4393398282202
 30
0.0
 40
1.000000000000001
100
AcDbArc
 50
90.0000000000003
 51
180.0
  0
LINE
  5
D2
330
1F
100
AcDbEntity
  8
0
  6
DOT
 62
     7
100
AcDbLine
 10
275.0
 20
283.5007396482076
 30
0.0
 11
275.0
 21
282.0865260858345
 31
0.0
  0
LINE
  5
D3
330
1F
100
AcDbEntity
  8
0
  6
DOT
 62
     7
100
AcDbLine
 10
275.0
 20
345.7921535706059
 30
0.0
 11
275.0
 21
344.3779400082328
 31
0.0
  0
ARC
  5
D4
330
1F
100
AcDbEntity
  8
0
  6
DOT
 62
     7
100
AcDbCircle
 10
325.0000000000001
 20
362.4393398282202
 30
0.0
 40
1.000000000000056
100
AcDbArc
 50
0.0
 51
180.0000000000011
  0
ARC
  5
D5
330
1F
100
AcDbEntity
  8
0
  6
DOT
 62
     7
100
AcDbCircle
 10
295.0000000000001
 20
362.4393398282202
 30
0.0
 40
1.000000000000001
100
AcDbArc
 50
0.0
 51
180.0000000000011
  0
LINE
  5
D6
330
1F
100
AcDbEntity
  8
0
  6
CONTINUOUS
 62
     7
100
AcDbLine
 10
275.0
 20
258.9393398282202
 30
0.0
 11
419.0000000000001
 21
258.9393398282202
 31
0.0
  0
ARC
  5
D7
330
1F
100
AcDbEntity
  8
0
  6
DOT
 62
     7
100
AcDbCircle
 10
305.0000000000001
 20
362.4393398282202
 30
0.0
 40
1.000000000000001
100
AcDbArc
 50
0.0
 51
180.0000000000011
  0
LINE
  5
D8
330
1F
100
AcDbEntity
  8
0
  6
CONTINUOUS
 62
     7
100
AcDbLine
 10
476.159379566434
 20
356.365746699413
 30
0.0
 11
465.585786437627
 21
345.7921535706059
 31
0.0
  0
LINE
  5
D9
330
1F
100
AcDbEntity
  8
0
  6
DOT
 62
     7
100
AcDbLine
 10
394.0
 20
356.9393398282202
 30
0.0
 11
394.0
 21
270.9393398282201
 31
0.0
  0
CIRCLE
  5
DA
330
1F
100
AcDbEntity
  8
0
  6
CONTINUOUS
 62
     7
100
AcDbCircle
 10
520.0
 20
313.9393398282202
 30
0.0
 40
40.00000000000001
  0
LINE
  5
DB
330
1F
100
AcDbEntity
  8
0
  6
DOT
 62
     7
100
AcDbLine
 10
275.0
 20
271.583643635146
 30
0.0
 11
275.0
 21
271.159379566434
 31
0.0
  0
LINE
  5
DC
330
1F
100
AcDbEntity
  8
0
  6
DOT
 62
     7
100
AcDbLine
 10
384.0
 20
356.9393398282202
 30
0.0
 11
384.0
 21
270.9393398282201
 31
0.0
  0
LINE
  5
DD
330
1F
100
AcDbEntity
  8
0
  6
DOT
 62
     7
100
AcDbLine
 10
275.0
 20
358.840620433566
 30
0.0
 11
275.0
 21
357.4264068711929
 31
0.0
  0
LINE
  5
DE
330
1F
100
AcDbEntity
  8
0
  6
CONTINUOUS
 62
     7
100
AcDbLine
 10
419.0000000000001
 20
312.4393398282201
 30
0.0
 11
419.0000000000001
 21
283.5007396482075
 31
0.0
  0
LINE
  5
DF
330
1F
100
AcDbEntity
  8
0
  6
DOT
 62
     7
100
AcDbLine
 10
324.0000000000001
 20
362.4393398282202
 30
0.0
 11
316.0000000000001
 21
362.4393398282202
 31
0.0
  0
LINE
  5
E0
330
1F
100
AcDbEntity
  8
0
  6
DOT
 62
     7
100
AcDbLine
 10
406.0
 20
356.9393398282202
 30
0.0
 11
406.0
 21
270.9393398282202
 31
0.0
  0
LINE
  5
E1
330
1F
100
AcDbEntity
  8
0
  6
DOT
 62
     7
100
AcDbLine
 10
275.0
 20
312.4393398282202
 30
0.0
 11
275.0
 21
283.5007396482076
 31
0.0
  0
LINE
  5
E2
330
1F
100
AcDbEntity
  8
0
  6
DOT
 62
     7
100
AcDbLine
 10
275.0
 20
344.3779400082328
 30
0.0
 11
275.0
 21
315.4393398282202
 31
0.0
  0
LINE
  5
E3
330
1F
100
AcDbEntity
  8
0
  6
CONTINUOUS
 62
     7
100
AcDbLine
 10
270.4999999999999
 20
368.9393398282202
 30
0.0
 11
275.0
 21
368.9393398282202
 31
0.0
  0
LINE
  5
E4
330
1F
100
AcDbEntity
  8
0
  6
CONTINUOUS
 62
     7
100
AcDbLine
 10
419.0000000000001
 20
271.583643635146
 30
0.0
 11
419.0000000000001
 21
271.159379566434
 31
0.0
  0
LINE
  5
E5
330
1F
100
AcDbEntity
  8
0
  6
CONTINUOUS
 62
     7
100
AcDbLine
 10
419.0000000000001
 20
283.5007396482075
 30
0.0
 11
419.0000000000001
 21
282.0865260858345
 31
0.0
  0
ARC
  5
E6
330
1F
100
AcDbEntity
  8
0
  6
DOT
 62
     7
100
AcDbCircle
 10
285.0
 20
265.4393398282202
 30
0.0
 40
1.000000000000001
100
AcDbArc
 50
180.0
 51
0.0000000000011369
  0
ARC
  5
E7
330
1F
100
AcDbEntity
  8
0
  6
DOT
 62
     7
100
AcDbCircle
 10
276.0
 20
363.4393398282202
 30
0.0
 40
1.000000000000001
100
AcDbArc
 50
180.0000000000006
 51
270.0
  0
LINE
  5
E8
330
1F
100
AcDbEntity
  8
0
  6
CONTINUOUS
 62
     7
100
AcDbLine
 10
419.0000000000001
 20
315.4393398282202
 30
0.0
 11
419.0000000000001
 21
312.4393398282201
 31
0.0
  0
ARC
  5
E9
330
1F
100
AcDbEntity
  8
0
  6
CONTINUOUS
 62
     7
100
AcDbCircle
 10
489.5613998199873
 20
366.9393398282202
 30
0.0
 40
2.000000000000002
100
AcDbArc
 50
90.0
 51
134.9999999999993
  0
LINE
  5
EA
330
1F
100
AcDbEntity
  8
0
  6
DOT
 62
     7
100
AcDbLine
 10
334.0000000000001
 20
265.4393398282202
 30
0.0
 11
334.0000000000001
 21
362.4393398282202
 31
0.0
  0
LINE
  5
EB
330
1F
100
AcDbEntity
  8
0
  6
DOT
 62
     7
100
AcDbLine
 10
326.0000000000001
 20
279.6446609406726
 30
0.0
 11
326.0000000000001
 21
265.4393398282202
 31
0.0
  0
LINE
  5
EC
330
1F
100
AcDbEntity
  8
0
  6
DOT
 62
     7
100
AcDbLine
 10
286.0
 20
362.4393398282202
 30
0.0
 11
286.0
 21
279.6446609406726
 31
0.0
  0
LINE
  5
ED
330
1F
100
AcDbEntity
  8
0
  6
CONTINUOUS
 62
     7
100
AcDbLine
 10
476.5129329570273
 20
358.840620433566
 30
0.0
 11
475.0987193946543
 21
357.4264068711929
 31
0.0
  0
LINE
  5
EE
330
1F
100
AcDbEntity
  8
0
  6
DOT
 62
     7
100
AcDbLine
 10
316.0000000000001
 20
279.6446609406726
 30
0.0
 11
316.0000000000001
 21
265.4393398282202
 31
0.0
  0
LINE
  5
EF
330
1F
100
AcDbEntity
  8
0
  6
DOT
 62
     7
100
AcDbLine
 10
284.0
 20
265.4393398282202
 30
0.0
 11
284.0
 21
362.4393398282202
 31
0.0
  0
LINE
  5
F0
330
1F
100
AcDbEntity
  8
0
  6
DOT
 62
     7
100
AcDbLine
 10
414.0
 20
258.9393398282202
 30
0.0
 11
414.0
 21
312.4393398282201
 31
0.0
  0
LINE
  5
F1
330
1F
100
AcDbEntity
  8
0
  6
DOT
 62
     7
100
AcDbLine
 10
324.0000000000001
 20
265.4393398282202
 30
0.0
 11
324.0000000000001
 21
362.4393398282202
 31
0.0
  0
LINE
  5
F2
330
1F
100
AcDbEntity
  8
0
  6
DOT
 62
     7
100
AcDbLine
 10
294.0000000000001
 20
265.4393398282202
 30
0.0
 11
294.0000000000001
 21
362.4393398282202
 31
0.0
  0
LINE
  5
F3
330
1F
100
AcDbEntity
  8
0
  6
DOT
 62
     7
100
AcDbLine
 10
286.0
 20
279.6446609406726
 30
0.0
 11
286.0
 21
265.4393398282202
 31
0.0
  0
LINE
  5
F4
330
1F
100
AcDbEntity
  8
0
  6
DOT
 62
     7
100
AcDbLine
 10
414.0
 20
315.4393398282202
 30
0.0
 11
414.0
 21
368.9393398282202
 31
0.0
  0
LINE
  5
F5
330
1F
100
AcDbEntity
  8
0
  6
CONTINUOUS
 62
     7
100
AcDbLine
 10
475.0987193946543
 20
357.4264068711929
 30
0.0
 11
476.159379566434
 21
356.365746699413
 31
0.0
  0
LINE
  5
F6
330
1F
100
AcDbEntity
  8
0
  6
CONTINUOUS
 62
     7
100
AcDbLine
 10
520.0
 20
368.9393398282202
 30
0.0
 11
465.0
 21
368.9393398282202
 31
0.0
  0
LINE
  5
F7
330
1F
100
AcDbEntity
  8
0
  6
CONTINUOUS
 62
     7
100
AcDbLine
 10
419.0000000000001
 20
344.3779400082328
 30
0.0
 11
419.0000000000001
 21
315.4393398282202
 31
0.0
  0
LINE
  5
F8
330
1F
100
AcDbEntity
  8
0
  6
CONTINUOUS
 62
     7
100
AcDbLine
 10
465.0
 20
368.9393398282202
 30
0.0
 11
465.0
 21
313.9393398282201
 31
0.0
  0
LINE
  5
F9
330
1F
100
AcDbEntity
  8
0
  6
DOT
 62
     7
100
AcDbLine
 10
304.0000000000001
 20
265.4393398282202
 30
0.0
 11
304.0000000000001
 21
362.4393398282202
 31
0.0
  0
LINE
  5
FA
330
1F
100
AcDbEntity
  8
0
  6
CONTINUOUS
 62
     7
100
AcDbLine
 10
488.1471862576142
 20
368.3535533905933
 30
0.0
 11
477.5735931288071
 21
357.7799602617861
 31
0.0
  0
LINE
  5
FB
330
1F
100
AcDbEntity
  8
0
  6
DOT
 62
     7
100
AcDbLine
 10
314.0000000000001
 20
265.4393398282202
 30
0.0
 11
314.0000000000001
 21
362.4393398282202
 31
0.0
  0
LINE
  5
FC
330
1F
100
AcDbEntity
  8
0
  6
DOT
 62
     7
100
AcDbLine
 10
336.0000000000001
 20
362.4393398282202
 30
0.0
 11
336.0000000000001
 21
279.6446609406726
 31
0.0
  0
LINE
  5
FD
330
1F
100
AcDbEntity
  8
0
  6
DOT
 62
     7
100
AcDbLine
 10
306.0000000000001
 20
362.4393398282202
 30
0.0
 11
306.0000000000001
 21
265.4393398282202
 31
0.0
  0
ARC
  5
FE
330
1F
100
AcDbEntity
  8
0
  6
CONTINUOUS
 62
     7
100
AcDbCircle
 10
467.0
 20
344.3779400082328
 30
0.0
 40
2.000000000000032
100
AcDbArc
 50
134.9999999999989
 51
179.9999999999996
  0
LINE
  5
FF
330
1F
100
AcDbEntity
  8
0
  6
DOT
 62
     7
100
AcDbLine
 10
366.0000000000001
 20
270.9393398282202
 30
0.0
 11
374.0
 21
270.9393398282202
 31
0.0
  0
ARC
  5
100
330
1F
100
AcDbEntity
  8
0
  6
DOT
 62
     7
100
AcDbCircle
 10
345.5
 20
267.4393398282202
 30
0.0
 40
2.000000000000002
100
AcDbArc
 50
270.0
 51
359.9999999999998
  0
ARC
  5
101
330
1F
100
AcDbEntity
  8
0
  6
DOT
 62
     7
100
AcDbCircle
 10
365.0
 20
270.9393398282202
 30
0.0
 40
1.000000000000001
100
AcDbArc
 50
180.0
 51
0.0000000000008527
  0
ARC
  5
102
330
1F
100
AcDbEntity
  8
0
  6
DOT
 62
     7
100
AcDbCircle
 10
335.0000000000001
 20
362.4393398282202
 30
0.0
 40
1.000000000000001
100
AcDbArc
 50
0.0
 51
180.0000000000011
  0
ARC
  5
103
330
1F
100
AcDbEntity
  8
0
  6
DOT
 62
     7
100
AcDbCircle
 10
395.0
 20
356.9393398282202
 30
0.0
 40
1.000000000000001
100
AcDbArc
 50
0.0
 51
180.0000000000011
  0
LINE
  5
104
330
1F
100
AcDbEntity
  8
0
  6
DOT
 62
     7
100
AcDbLine
 10
334.0
 20
362.4393398282202
 30
0.0
 11
326.0000000000001
 21
362.4393398282202
 31
0.0
  0
ARC
  5
105
330
1F
100
AcDbEntity
  8
0
  6
DOT
 62
     7
100
AcDbCircle
 10
345.5
 20
360.4393398282202
 30
0.0
 40
2.000000000000002
100
AcDbArc
 50
0.0
 51
89.9999999999999
  0
LINE
  5
106
330
1F
100
AcDbEntity
  8
0
  6
DOT
 62
     7
100
AcDbLine
 10
275.0
 20
259.5251262658471
 30
0.0
 11
275.0
 21
258.9393398282202
 31
0.0
  0
ARC
  5
107
330
1F
100
AcDbEntity
  8
0
  6
DOT
 62
     7
100
AcDbCircle
 10
375.0
 20
356.9393398282202
 30
0.0
 40
1.000000000000001
100
AcDbArc
 50
0.0
 51
180.0000000000011
  0
LINE
  5
108
330
1F
100
AcDbEntity
  8
0
  6
DOT
 62
     7
100
AcDbLine
 10
374.0
 20
356.9393398282202
 30
0.0
 11
374.0
 21
270.9393398282201
 31
0.0
  0
ARC
  5
109
330
1F
100
AcDbEntity
  8
0
  6
DOT
 62
     7
100
AcDbCircle
 10
375.0
 20
270.9393398282202
 30
0.0
 40
1.000000000000001
100
AcDbArc
 50
180.0
 51
0.0000000000008527
  0
LINE
  5
10A
330
1F
100
AcDbEntity
  8
0
  6
DOT
 62
     7
100
AcDbLine
 10
384.0
 20
356.9393398282202
 30
0.0
 11
376.0
 21
356.9393398282202
 31
0.0
  0
LINE
  5
10B
330
1F
100
AcDbEntity
  8
0
  6
DOT
 62
     7
100
AcDbLine
 10
296.0000000000001
 20
265.4393398282202
 30
0.0
 11
304.0000000000001
 21
265.4393398282202
 31
0.0
  0
LINE
  5
10C
330
1F
100
AcDbEntity
  8
0
  6
DOT
 62
     7
100
AcDbLine
 10
306.0000000000001
 20
265.4393398282202
 30
0.0
 11
314.0
 21
265.4393398282202
 31
0.0
  0
ARC
  5
10D
330
1F
100
AcDbEntity
  8
0
  6
DOT
 62
     7
100
AcDbCircle
 10
355.0000000000001
 20
356.9393398282202
 30
0.0
 40
1.000000000000001
100
AcDbArc
 50
0.0
 51
180.0000000000011
  0
LINE
  5
10E
330
1F
100
AcDbEntity
  8
0
  6
DOT
 62
     7
100
AcDbLine
 10
404.0
 20
356.9393398282202
 30
0.0
 11
396.0
 21
356.9393398282202
 31
0.0
  0
ARC
  5
10F
330
1F
100
AcDbEntity
  8
0
  6
DOT
 62
     7
100
AcDbCircle
 10
365.0
 20
356.9393398282202
 30
0.0
 40
1.000000000000001
100
AcDbArc
 50
0.0
 51
180.0000000000011
  0
LINE
  5
110
330
1F
100
AcDbEntity
  8
0
  6
DOT
 62
     7
100
AcDbLine
 10
414.0
 20
312.4393398282201
 30
0.0
 11
414.0
 21
315.4393398282201
 31
0.0
  0
LINE
  5
111
330
1F
100
AcDbEntity
  8
0
  6
DOT
 62
     7
100
AcDbLine
 10
396.0
 20
270.9393398282202
 30
0.0
 11
404.0
 21
270.9393398282202
 31
0.0
  0
LINE
  5
112
330
1F
100
AcDbEntity
  8
0
  6
DOT
 62
     7
100
AcDbLine
 10
275.0
 20
271.159379566434
 30
0.0
 11
275.0
 21
270.0280087165355
 31
0.0
  0
LINE
  5
113
330
1F
100
AcDbEntity
  8
0
  6
DOT
 62
     7
100
AcDbLine
 10
394.0
 20
356.9393398282202
 30
0.0
 11
386.0
 21
356.9393398282202
 31
0.0
  0
LINE
  5
114
330
1F
100
AcDbEntity
  8
0
  6
DOT
 62
     7
100
AcDbLine
 10
376.0
 20
270.9393398282202
 30
0.0
 11
384.0
 21
270.9393398282202
 31
0.0
  0
ARC
  5
115
330
1F
100
AcDbEntity
  8
0
  6
DOT
 62
     7
100
AcDbCircle
 10
385.0
 20
270.9393398282202
 30
0.0
 40
1.000000000000001
100
AcDbArc
 50
180.0
 51
0.0000000000008527
  0
LINE
  5
116
330
1F
100
AcDbEntity
  8
0
  6
DOT
 62
     7
100
AcDbLine
 10
374.0
 20
356.9393398282202
 30
0.0
 11
366.0
 21
356.9393398282202
 31
0.0
  0
LINE
  5
117
330
1F
100
AcDbEntity
  8
0
  6
DOT
 62
     7
100
AcDbLine
 10
304.0000000000001
 20
362.4393398282202
 30
0.0
 11
296.0000000000001
 21
362.4393398282202
 31
0.0
  0
LINE
  5
118
330
1F
100
AcDbEntity
  8
0
  6
DOT
 62
     7
100
AcDbLine
 10
275.0
 20
368.3535533905933
 30
0.0
 11
275.0
 21
358.840620433566
 31
0.0
  0
LINE
  5
119
330
1F
100
AcDbEntity
  8
0
  6
CONTINUOUS
 62
     7
100
AcDbLine
 10
419.0000000000001
 20
271.159379566434
 30
0.0
 11
419.0000000000001
 21
270.0280087165355
 31
0.0
  0
LINE
  5
11A
330
1F
100
AcDbEntity
  8
0
  6
DOT
 62
     7
100
AcDbLine
 10
336.0
 20
265.4393398282202
 30
0.0
 11
345.5
 21
265.4393398282202
 31
0.0
  0
LINE
  5
11B
330
1F
100
AcDbEntity
  8
0
  6
CONTINUOUS
 62
     7
100
AcDbLine
 10
673.840620433566
 20
356.3657466994131
 30
0.0
 11
674.9012806053458
 21
357.4264068711929
 31
0.0
  0
LINE
  5
11C
330
1F
100
AcDbEntity
  8
0
  6
DOT
 62
     7
100
AcDbLine
 10
316.0
 20
265.4393398282202
 30
0.0
 11
324.0000000000001
 21
265.4393398282202
 31
0.0
  0
LINE
  5
11D
330
1F
100
AcDbEntity
  8
0
  6
DOT
 62
     7
100
AcDbLine
 10
364.0000000000001
 20
356.9393398282202
 30
0.0
 11
364.0000000000001
 21
270.9393398282201
 31
0.0
  0
LINE
  5
11E
330
1F
100
AcDbEntity
  8
0
  6
DOT
 62
     7
100
AcDbLine
 10
386.0
 20
270.9393398282202
 30
0.0
 11
394.0
 21
270.9393398282202
 31
0.0
  0
LINE
  5
11F
330
1F
100
AcDbEntity
  8
0
  6
CONTINUOUS
 62
     7
100
AcDbLine
 10
419.0000000000001
 20
358.840620433566
 30
0.0
 11
419.0000000000001
 21
357.4264068711929
 31
0.0
  0
ARC
  5
120
330
1F
100
AcDbEntity
  8
0
  6
DOT
 62
     7
100
AcDbCircle
 10
395.0
 20
270.9393398282202
 30
0.0
 40
1.000000000000001
100
AcDbArc
 50
180.0
 51
0.0000000000008527
  0
LINE
  5
121
330
1F
100
AcDbEntity
  8
0
  6
DOT
 62
     7
100
AcDbLine
 10
286.0
 20
265.4393398282202
 30
0.0
 11
294.0000000000001
 21
265.4393398282202
 31
0.0
  0
LINE
  5
122
330
1F
100
AcDbEntity
  8
0
  6
DOT
 62
     7
100
AcDbLine
 10
276.0
 20
265.4393398282202
 30
0.0
 11
284.0
 21
265.4393398282202
 31
0.0
  0
LINE
  5
123
330
1F
100
AcDbEntity
  8
0
  6
CONTINUOUS
 62
     7
100
AcDbLine
 10
419.0000000000001
 20
259.5251262658471
 30
0.0
 11
419.0000000000001
 21
258.9393398282202
 31
0.0
  0
ARC
  5
124
330
1F
100
AcDbEntity
  8
0
  6
DOT
 62
     7
100
AcDbCircle
 10
349.5
 20
358.9393398282202
 30
0.0
 40
2.000000000000002
100
AcDbArc
 50
180.0000000000002
 51
270.0
  0
ARC
  5
125
330
1F
100
AcDbEntity
  8
0
  6
DOT
 62
     7
100
AcDbCircle
 10
315.0000000000001
 20
265.4393398282202
 30
0.0
 40
1.000000000000001
100
AcDbArc
 50
180.0
 51
0.0000000000011369
  0
ARC
  5
126
330
1F
100
AcDbEntity
  8
0
  6
DOT
 62
     7
100
AcDbCircle
 10
355.0000000000001
 20
270.9393398282202
 30
0.0
 40
1.000000000000001
100
AcDbArc
 50
180.0
 51
0.0000000000008527
  0
LINE
  5
127
330
1F
100
AcDbEntity
  8
0
  6
DOT
 62
     7
100
AcDbLine
 10
326.0000000000001
 20
265.4393398282202
 30
0.0
 11
334.0
 21
265.4393398282202
 31
0.0
  0
ARC
  5
128
330
1F
100
AcDbEntity
  8
0
  6
DOT
 62
     7
100
AcDbCircle
 10
385.0
 20
356.9393398282202
 30
0.0
 40
1.000000000000001
100
AcDbArc
 50
0.0
 51
180.0000000000011
  0
LINE
  5
129
330
1F
100
AcDbEntity
  8
0
  6
DOT
 62
     7
100
AcDbLine
 10
294.0000000000001
 20
362.4393398282202
 30
0.0
 11
286.0
 21
362.4393398282202
 31
0.0
  0
LINE
  5
12A
330
1F
100
AcDbEntity
  8
0
  6
DOT
 62
     7
100
AcDbLine
 10
275.0
 20
356.3657466994131
 30
0.0
 11
275.0
 21
345.7921535706059
 31
0.0
  0
LINE
  5
12B
330
1F
100
AcDbEntity
  8
0
  6
CONTINUOUS
 62
     7
100
AcDbLine
 10
419.0000000000001
 20
345.7921535706059
 30
0.0
 11
419.0000000000001
 21
344.3779400082328
 31
0.0
  0
ARC
  5
12C
330
1F
100
AcDbEntity
  8
0
  6
DOT
 62
     7
100
AcDbCircle
 10
349.5
 20
268.9393398282202
 30
0.0
 40
2.000000000000002
100
AcDbArc
 50
90.0000000000003
 51
180.0
  0
LINE
  5
12D
330
1F
100
AcDbEntity
  8
0
  6
DOT
 62
     7
100
AcDbLine
 10
275.0
 20
357.4264068711929
 30
0.0
 11
275.0
 21
356.3657466994131
 31
0.0
  0
LINE
  5
12E
330
1F
100
AcDbEntity
  8
0
  6
DOT
 62
     7
100
AcDbLine
 10
284.0
 20
362.4393398282202
 30
0.0
 11
276.0
 21
362.4393398282202
 31
0.0
  0
ARC
  5
12F
330
1F
100
AcDbEntity
  8
0
  6
DOT
 62
     7
100
AcDbCircle
 10
285.0
 20
362.4393398282202
 30
0.0
 40
1.000000000000001
100
AcDbArc
 50
0.0
 51
180.0000000000011
  0
LINE
  5
130
330
1F
100
AcDbEntity
  8
0
  6
DOT
 62
     7
100
AcDbLine
 10
314.0
 20
362.4393398282202
 30
0.0
 11
306.0000000000001
 21
362.4393398282202
 31
0.0
  0
LINE
  5
131
330
1F
100
AcDbEntity
  8
0
  6
DOT
 62
     7
100
AcDbLine
 10
366.0000000000001
 20
356.9393398282202
 30
0.0
 11
366.0000000000001
 21
270.9393398282201
 31
0.0
  0
LINE
  5
132
330
1F
100
AcDbEntity
  8
0
  6
DOT
 62
     7
100
AcDbLine
 10
386.0
 20
356.9393398282202
 30
0.0
 11
386.0
 21
270.9393398282201
 31
0.0
  0
LINE
  5
133
330
1F
100
AcDbEntity
  8
0
  6
CENTER
 62
     1
100
AcDbLine
 10
564.9999999999999
 20
203.9393398282202
 30
0.0
 11
694.9999999999999
 21
203.9393398282202
 31
0.0
  0
LINE
  5
134
330
1F
100
AcDbEntity
  8
0
  6
CONTINUOUS
 62
     7
100
AcDbLine
 10
783.9113311116845
 20
161.583643635146
 30
0.0
 11
794.414213562373
 21
172.0865260858345
 31
0.0
  0
LINE
  5
135
330
1F
100
AcDbEntity
  8
0
  6
CONTINUOUS
 62
     7
100
AcDbLine
 10
685.0
 20
203.9393398282202
 30
0.0
 11
685.0
 21
148.9393398282202
 31
0.0
  0
LINE
  5
136
330
1F
100
AcDbEntity
  8
0
  6
CONTINUOUS
 62
     7
100
AcDbLine
 10
740.0
 20
258.9393398282202
 30
0.0
 11
685.0
 21
258.9393398282202
 31
0.0
  0
LINE
  5
137
330
1F
100
AcDbEntity
  8
0
  6
CONTINUOUS
 62
     7
100
AcDbLine
 10
562.7799602617862
 20
272.7150144850445
 30
0.0
 11
563.9113311116847
 21
271.583643635146
 31
0.0
  0
LINE
  5
138
330
1F
100
AcDbEntity
  8
0
  6
CONTINUOUS
 62
     7
100
AcDbLine
 10
551.8528137423857
 20
259.5251262658471
 30
0.0
 11
562.3556961930742
 21
270.0280087165355
 31
0.0
  0
LINE
  5
139
330
1F
100
AcDbEntity
  8
0
  6
CONTINUOUS
 62
     7
100
AcDbLine
 10
586.5129329570274
 20
248.8406204335659
 30
0.0
 11
585.0987193946542
 21
247.4264068711929
 31
0.0
  0
LINE
  5
13A
330
1F
100
AcDbEntity
  8
0
  6
CONTINUOUS
 62
     7
100
AcDbLine
 10
794.9999999999999
 20
148.9393398282202
 30
0.0
 11
794.9999999999999
 21
203.9393398282202
 31
0.0
  0
LINE
  5
13B
330
1F
100
AcDbEntity
  8
0
  6
CONTINUOUS
 62
     7
100
AcDbLine
 10
685.0
 20
258.9393398282202
 30
0.0
 11
685.0
 21
203.9393398282202
 31
0.0
  0
LINE
  5
13C
330
1F
100
AcDbEntity
  8
0
  6
CONTINUOUS
 62
     7
100
AcDbLine
 10
520.0
 20
258.9393398282202
 30
0.0
 11
575.0
 21
258.9393398282202
 31
0.0
  0
ARC
  5
13D
330
1F
100
AcDbEntity
  8
0
  6
CONTINUOUS
 62
     7
100
AcDbCircle
 10
740.0
 20
148.9393398282202
 30
0.0
 40
1.600000000000046
100
AcDbArc
 50
0.0000000000003411
 51
180.0
  0
ARC
  5
13E
330
1F
100
AcDbEntity
  8
0
  6
CONTINUOUS
 62
     7
100
AcDbCircle
 10
770.4386001800125
 20
256.9393398282202
 30
0.0
 40
2.000000000000032
100
AcDbArc
 50
44.99999999999888
 51
89.99999999999947
  0
LINE
  5
13F
330
1F
100
AcDbEntity
  8
0
  6
CONTINUOUS
 62
     7
100
AcDbLine
 10
672.3556961930742
 20
160.0280087165356
 30
0.0
 11
671.2243253431758
 21
161.159379566434
 31
0.0
  0
LINE
  5
140
330
1F
100
AcDbEntity
  8
0
  6
CONTINUOUS
 62
     7
100
AcDbLine
 10
575.0
 20
313.9393398282202
 30
0.0
 11
575.0
 21
368.9393398282201
 31
0.0
  0
LINE
  5
141
330
1F
100
AcDbEntity
  8
0
  6
CONTINUOUS
 62
     7
100
AcDbLine
 10
585.0987193946543
 20
247.4264068711929
 30
0.0
 11
586.1593795664342
 21
246.365746699413
 31
0.0
  0
ARC
  5
142
330
1F
100
AcDbEntity
  8
0
  6
CONTINUOUS
 62
     7
100
AcDbCircle
 10
682.9999999999999
 20
234.3779400082328
 30
0.0
 40
2.000000000000002
100
AcDbArc
 50
0.0
 51
44.99999999999972
  0
LINE
  5
143
330
1F
100
AcDbEntity
  8
0
  6
CONTINUOUS
 62
     7
100
AcDbLine
 10
575.5857864376269
 20
172.0865260858345
 30
0.0
 11
586.0886688883154
 21
161.583643635146
 31
0.0
  0
CIRCLE
  5
144
330
1F
100
AcDbEntity
  8
0
  6
CONTINUOUS
 62
     7
100
AcDbCircle
 10
740.0
 20
203.9393398282202
 30
0.0
 40
40.00000000000001
  0
LINE
  5
145
330
1F
100
AcDbEntity
  8
0
  6
CONTINUOUS
 62
     7
100
AcDbLine
 10
477.2200397382139
 20
272.7150144850444
 30
0.0
 11
478.7756746568242
 21
271.159379566434
 31
0.0
  0
LINE
  5
146
330
1F
100
AcDbEntity
  8
0
  6
CONTINUOUS
 62
     7
100
AcDbLine
 10
794.4142135623731
 20
235.7921535706059
 30
0.0
 11
783.840620433566
 21
246.3657466994131
 31
0.0
  0
LINE
  5
147
330
1F
100
AcDbEntity
  8
0
  6
CONTINUOUS
 62
     7
100
AcDbLine
 10
696.159379566434
 20
246.365746699413
 30
0.0
 11
685.5857864376269
 21
235.7921535706059
 31
0.0
  0
LINE
  5
148
330
1F
100
AcDbEntity
  8
0
  6
CONTINUOUS
 62
     7
100
AcDbLine
 10
465.585786437627
 20
282.0865260858345
 30
0.0
 11
476.0886688883154
 21
271.583643635146
 31
0.0
  0
ARC
  5
149
330
1F
100
AcDbEntity
  8
0
  6
CONTINUOUS
 62
     7
100
AcDbCircle
 10
687.0
 20
234.3779400082328
 30
0.0
 40
2.000000000000052
100
AcDbArc
 50
135.0000000000006
 51
180.0000000000014
  0
LINE
  5
14A
330
1F
100
AcDbEntity
  8
0
  6
CONTINUOUS
 62
     7
100
AcDbLine
 10
794.9999999999999
 20
203.9393398282202
 30
0.0
 11
794.9999999999999
 21
258.9393398282202
 31
0.0
  0
LINE
  5
14B
330
1F
100
AcDbEntity
  8
0
  6
CONTINUOUS
 62
     7
100
AcDbLine
 10
564.9012806053457
 20
357.4264068711929
 30
0.0
 11
563.4870670429725
 21
358.840620433566
 31
0.0
  0
LINE
  5
14C
330
1F
100
AcDbEntity
  8
0
  6
CONTINUOUS
 62
     7
100
AcDbLine
 10
672.7799602617862
 20
162.7150144850445
 30
0.0
 11
673.9113311116846
 21
161.583643635146
 31
0.0
  0
LINE
  5
14D
330
1F
100
AcDbEntity
  8
0
  6
CONTINUOUS
 62
     7
100
AcDbLine
 10
575.0
 20
148.9393398282202
 30
0.0
 11
630.0
 21
148.9393398282202
 31
0.0
  0
LINE
  5
14E
330
1F
100
AcDbEntity
  8
0
  6
CONTINUOUS
 62
     7
100
AcDbLine
 10
684.9999999999999
 20
148.9393398282202
 30
0.0
 11
684.9999999999999
 21
203.9393398282202
 31
0.0
  0
LINE
  5
14F
330
1F
100
AcDbEntity
  8
0
  6
CONTINUOUS
 62
     7
100
AcDbLine
 10
672.4264068711929
 20
247.7799602617861
 30
0.0
 11
661.8528137423857
 21
258.3535533905932
 31
0.0
  0
LINE
  5
150
330
1F
100
AcDbEntity
  8
0
  6
CONTINUOUS
 62
     7
100
AcDbLine
 10
685.0
 20
148.9393398282202
 30
0.0
 11
740.0
 21
148.9393398282202
 31
0.0
  0
LINE
  5
151
330
1F
100
AcDbEntity
  8
0
  6
CONTINUOUS
 62
     7
100
AcDbLine
 10
695.0987193946543
 20
247.4264068711929
 30
0.0
 11
696.1593795664342
 21
246.365746699413
 31
0.0
  0
ARC
  5
152
330
1F
100
AcDbEntity
  8
0
  6
CONTINUOUS
 62
     7
100
AcDbCircle
 10
770.4386001800125
 20
150.9393398282202
 30
0.0
 40
2.000000000000002
100
AcDbArc
 50
270.0
 51
314.9999999999998
  0
ARC
  5
153
330
1F
100
AcDbEntity
  8
0
  6
CONTINUOUS
 62
     7
100
AcDbCircle
 10
660.4386001800125
 20
256.9393398282202
 30
0.0
 40
2.000000000000032
100
AcDbArc
 50
44.99999999999888
 51
89.99999999999947
  0
LINE
  5
154
330
1F
100
AcDbEntity
  8
0
  6
CONTINUOUS
 62
     7
100
AcDbLine
 10
684.9999999999999
 20
203.9393398282202
 30
0.0
 11
684.9999999999999
 21
258.9393398282202
 31
0.0
  0
LINE
  5
155
330
1F
100
AcDbEntity
  8
0
  6
CONTINUOUS
 62
     7
100
AcDbLine
 10
673.840620433566
 20
246.3657466994131
 30
0.0
 11
674.9012806053458
 21
247.4264068711929
 31
0.0
  0
LINE
  5
156
330
1F
100
AcDbEntity
  8
0
  6
CONTINUOUS
 62
     7
100
AcDbLine
 10
588.7756746568243
 20
161.159379566434
 30
0.0
 11
587.6443038069259
 21
160.0280087165355
 31
0.0
  0
LINE
  5
157
330
1F
100
AcDbEntity
  8
0
  6
CONTINUOUS
 62
     7
100
AcDbLine
 10
563.4870670429725
 20
358.840620433566
 30
0.0
 11
562.4264068711927
 21
357.7799602617861
 31
0.0
  0
LINE
  5
158
330
1F
100
AcDbEntity
  8
0
  6
CONTINUOUS
 62
     7
100
AcDbLine
 10
563.840620433566
 20
356.3657466994131
 30
0.0
 11
564.9012806053458
 21
357.4264068711929
 31
0.0
  0
LINE
  5
159
330
1F
100
AcDbEntity
  8
0
  6
CONTINUOUS
 62
     7
100
AcDbLine
 10
698.7756746568243
 20
161.159379566434
 30
0.0
 11
697.6443038069259
 21
160.0280087165355
 31
0.0
  0
LINE
  5
15A
330
1F
100
AcDbEntity
  8
0
  6
CONTINUOUS
 62
     7
100
AcDbLine
 10
697.6443038069258
 20
160.0280087165356
 30
0.0
 11
708.1471862576142
 21
149.5251262658471
 31
0.0
  0
ARC
  5
15B
330
1F
100
AcDbEntity
  8
0
  6
CONTINUOUS
 62
     7
100
AcDbCircle
 10
550.4386001800126
 20
366.9393398282201
 30
0.0
 40
2.000000000000032
100
AcDbArc
 50
44.99999999999888
 51
89.99999999999947
  0
LINE
  5
15C
330
1F
100
AcDbEntity
  8
0
  6
CONTINUOUS
 62
     7
100
AcDbLine
 10
561.2243253431757
 20
271.159379566434
 30
0.0
 11
562.7799602617861
 21
272.7150144850445
 31
0.0
  0
ARC
  5
15D
330
1F
100
AcDbEntity
  8
0
  6
CONTINUOUS
 62
     7
100
AcDbCircle
 10
792.9999999999999
 20
173.5007396482075
 30
0.0
 40
1.999999999999973
100
AcDbArc
 50
314.9999999999983
 51
359.9999999999991
  0
ARC
  5
15E
330
1F
100
AcDbEntity
  8
0
  6
CONTINUOUS
 62
     7
100
AcDbCircle
 10
792.9999999999999
 20
234.3779400082328
 30
0.0
 40
2.000000000000002
100
AcDbArc
 50
0.0
 51
44.99999999999972
  0
LINE
  5
15F
330
1F
100
AcDbEntity
  8
0
  6
CONTINUOUS
 62
     7
100
AcDbLine
 10
476.0886688883154
 20
271.583643635146
 30
0.0
 11
477.2200397382139
 21
272.7150144850444
 31
0.0
  0
LINE
  5
160
330
1F
100
AcDbEntity
  8
0
  6
CENTER
 62
     1
100
AcDbLine
 10
674.9999999999999
 20
203.9393398282202
 30
0.0
 11
804.9999999999999
 21
203.9393398282202
 31
0.0
  0
ARC
  5
161
330
1F
100
AcDbEntity
  8
0
  6
CONTINUOUS
 62
     7
100
AcDbCircle
 10
794.9999999999999
 20
203.9393398282202
 30
0.0
 40
1.59999999999999
100
AcDbArc
 50
90.0
 51
270.0
  0
LINE
  5
162
330
1F
100
AcDbEntity
  8
0
  6
CONTINUOUS
 62
     7
100
AcDbLine
 10
685.5857864376269
 20
172.0865260858345
 30
0.0
 11
696.0886688883154
 21
161.583643635146
 31
0.0
  0
LINE
  5
163
330
1F
100
AcDbEntity
  8
0
  6
CONTINUOUS
 62
     7
100
AcDbLine
 10
684.9999999999999
 20
258.9393398282202
 30
0.0
 11
630.0
 21
258.9393398282202
 31
0.0
  0
ARC
  5
164
330
1F
100
AcDbEntity
  8
0
  6
CONTINUOUS
 62
     7
100
AcDbCircle
 10
684.9999999999999
 20
203.9393398282202
 30
0.0
 40
1.59999999999999
100
AcDbArc
 50
90.0
 51
270.0
  0
LINE
  5
165
330
1F
100
AcDbEntity
  8
0
  6
CONTINUOUS
 62
     7
100
AcDbLine
 10
587.5735931288071
 20
247.7799602617861
 30
0.0
 11
586.5129329570274
 21
248.8406204335659
 31
0.0
  0
ARC
  5
166
330
1F
100
AcDbEntity
  8
0
  6
CONTINUOUS
 62
     7
100
AcDbCircle
 10
682.9999999999999
 20
234.3779400082328
 30
0.0
 40
2.000000000000002
100
AcDbArc
 50
0.0
 51
44.99999999999972
  0
LINE
  5
167
330
1F
100
AcDbEntity
  8
0
  6
CONTINUOUS
 62
     7
100
AcDbLine
 10
697.5735931288071
 20
247.7799602617861
 30
0.0
 11
696.5129329570273
 21
248.8406204335659
 31
0.0
  0
LINE
  5
168
330
1F
100
AcDbEntity
  8
0
  6
CONTINUOUS
 62
     7
100
AcDbLine
 10
477.6443038069258
 20
270.0280087165356
 30
0.0
 11
488.1471862576142
 21
259.5251262658471
 31
0.0
  0
LINE
  5
169
330
1F
100
AcDbEntity
  8
0
  6
CONTINUOUS
 62
     7
100
AcDbLine
 10
575.0
 20
368.9393398282201
 30
0.0
 11
520.0
 21
368.9393398282201
 31
0.0
  0
LINE
  5
16A
330
1F
100
AcDbEntity
  8
0
  6
CONTINUOUS
 62
     7
100
AcDbLine
 10
708.1471862576143
 20
258.3535533905933
 30
0.0
 11
697.5735931288071
 21
247.7799602617861
 31
0.0
  0
LINE
  5
16B
330
1F
100
AcDbEntity
  8
0
  6
CONTINUOUS
 62
     7
100
AcDbLine
 10
563.9113311116846
 20
271.583643635146
 30
0.0
 11
574.414213562373
 21
282.0865260858345
 31
0.0
  0
ARC
  5
16C
330
1F
100
AcDbEntity
  8
0
  6
CONTINUOUS
 62
     7
100
AcDbCircle
 10
572.9999999999999
 20
344.3779400082328
 30
0.0
 40
2.000000000000002
100
AcDbArc
 50
0.0
 51
44.99999999999972
  0
ARC
  5
16D
330
1F
100
AcDbEntity
  8
0
  6
CONTINUOUS
 62
     7
100
AcDbCircle
 10
467.0
 20
283.5007396482076
 30
0.0
 40
2.000000000000002
100
AcDbArc
 50
180.0
 51
225.0000000000002
  0
LINE
  5
16E
330
1F
100
AcDbEntity
  8
0
  6
CONTINUOUS
 62
     7
100
AcDbLine
 10
671.2243253431757
 20
161.159379566434
 30
0.0
 11
672.7799602617861
 21
162.7150144850445
 31
0.0
  0
LINE
  5
16F
330
1F
100
AcDbEntity
  8
0
  6
CONTINUOUS
 62
     7
100
AcDbLine
 10
630.0
 20
148.9393398282202
 30
0.0
 11
684.9999999999999
 21
148.9393398282202
 31
0.0
  0
LINE
  5
170
330
1F
100
AcDbEntity
  8
0
  6
CONTINUOUS
 62
     7
100
AcDbLine
 10
771.8528137423857
 20
149.5251262658471
 30
0.0
 11
782.3556961930742
 21
160.0280087165356
 31
0.0
  0
LINE
  5
171
330
1F
100
AcDbEntity
  8
0
  6
CONTINUOUS
 62
     7
100
AcDbLine
 10
562.3556961930742
 20
270.0280087165356
 30
0.0
 11
561.2243253431758
 21
271.159379566434
 31
0.0
  0
LINE
  5
172
330
1F
100
AcDbEntity
  8
0
  6
CONTINUOUS
 62
     7
100
AcDbLine
 10
587.2200397382139
 20
162.7150144850444
 30
0.0
 11
588.7756746568243
 21
161.159379566434
 31
0.0
  0
ARC
  5
173
330
1F
100
AcDbEntity
  8
0
  6
CONTINUOUS
 62
     7
100
AcDbCircle
 10
682.9999999999999
 20
173.5007396482075
 30
0.0
 40
1.999999999999973
100
AcDbArc
 50
314.9999999999983
 51
359.9999999999991
  0
ARC
  5
174
330
1F
100
AcDbEntity
  8
0
  6
CONTINUOUS
 62
     7
100
AcDbCircle
 10
684.9999999999999
 20
203.9393398282202
 30
0.0
 40
1.59999999999999
100
AcDbArc
 50
90.0
 51
270.0
  0
LINE
  5
175
330
1F
100
AcDbEntity
  8
0
  6
CONTINUOUS
 62
     7
100
AcDbLine
 10
684.9999999999999
 20
148.9393398282202
 30
0.0
 11
684.9999999999999
 21
203.9393398282202
 31
0.0
  0
LINE
  5
176
330
1F
100
AcDbEntity
  8
0
  6
CONTINUOUS
 62
     7
100
AcDbLine
 10
598.1471862576143
 20
258.3535533905933
 30
0.0
 11
587.5735931288071
 21
247.7799602617861
 31
0.0
  0
ARC
  5
177
330
1F
100
AcDbEntity
  8
0
  6
CONTINUOUS
 62
     7
100
AcDbCircle
 10
599.5613998199873
 20
256.9393398282202
 30
0.0
 40
2.000000000000002
100
AcDbArc
 50
90.0
 51
134.9999999999993
  0
LINE
  5
178
330
1F
100
AcDbEntity
  8
0
  6
CONTINUOUS
 62
     7
100
AcDbLine
 10
465.0
 20
203.9393398282202
 30
0.0
 11
465.0
 21
148.9393398282202
 31
0.0
  0
ARC
  5
179
330
1F
100
AcDbEntity
  8
0
  6
CONTINUOUS
 62
     7
100
AcDbCircle
 10
630.0
 20
148.9393398282202
 30
0.0
 40
1.600000000000046
100
AcDbArc
 50
0.0000000000003411
 51
180.0
  0
ARC
  5
17A
330
1F
100
AcDbEntity
  8
0
  6
CONTINUOUS
 62
     7
100
AcDbCircle
 10
660.4386001800125
 20
150.9393398282202
 30
0.0
 40
2.000000000000002
100
AcDbArc
 50
270.0
 51
314.9999999999998
  0
LINE
  5
17B
330
1F
100
AcDbEntity
  8
0
  6
CONTINUOUS
 62
     7
100
AcDbLine
 10
784.9012806053457
 20
247.4264068711929
 30
0.0
 11
783.4870670429725
 21
248.840620433566
 31
0.0
  0
ARC
  5
17C
330
1F
100
AcDbEntity
  8
0
  6
CONTINUOUS
 62
     7
100
AcDbCircle
 10
577.0
 20
234.3779400082328
 30
0.0
 40
2.000000000000052
100
AcDbArc
 50
135.0000000000006
 51
180.0000000000014
  0
LINE
  5
17D
330
1F
100
AcDbEntity
  8
0
  6
CONTINUOUS
 62
     7
100
AcDbLine
 10
783.4870670429725
 20
248.840620433566
 30
0.0
 11
782.4264068711926
 21
247.7799602617861
 31
0.0
  0
LINE
  5
17E
330
1F
100
AcDbEntity
  8
0
  6
CONTINUOUS
 62
     7
100
AcDbLine
 10
465.0
 20
148.9393398282202
 30
0.0
 11
520.0
 21
148.9393398282202
 31
0.0
  0
LINE
  5
17F
330
1F
100
AcDbEntity
  8
0
  6
CONTINUOUS
 62
     7
100
AcDbLine
 10
684.9999999999999
 20
203.9393398282202
 30
0.0
 11
684.9999999999999
 21
258.9393398282202
 31
0.0
  0
LINE
  5
180
330
1F
100
AcDbEntity
  8
0
  6
CONTINUOUS
 62
     7
100
AcDbLine
 10
673.4870670429725
 20
248.840620433566
 30
0.0
 11
672.4264068711927
 21
247.7799602617861
 31
0.0
  0
LINE
  5
181
330
1F
100
AcDbEntity
  8
0
  6
CONTINUOUS
 62
     7
100
AcDbLine
 10
794.9999999999999
 20
258.9393398282202
 30
0.0
 11
740.0
 21
258.9393398282202
 31
0.0
  0
LINE
  5
182
330
1F
100
AcDbEntity
  8
0
  6
CONTINUOUS
 62
     7
100
AcDbLine
 10
575.0
 20
258.9393398282202
 30
0.0
 11
520.0
 21
258.9393398282202
 31
0.0
  0
LINE
  5
183
330
1F
100
AcDbEntity
  8
0
  6
CONTINUOUS
 62
     7
100
AcDbLine
 10
575.0
 20
203.9393398282202
 30
0.0
 11
575.0
 21
258.9393398282202
 31
0.0
  0
LINE
  5
184
330
1F
100
AcDbEntity
  8
0
  6
CONTINUOUS
 62
     7
100
AcDbLine
 10
520.0
 20
258.9393398282202
 30
0.0
 11
465.0
 21
258.9393398282202
 31
0.0
  0
ARC
  5
185
330
1F
100
AcDbEntity
  8
0
  6
CONTINUOUS
 62
     7
100
AcDbCircle
 10
682.9999999999999
 20
173.5007396482075
 30
0.0
 40
1.999999999999973
100
AcDbArc
 50
314.9999999999983
 51
359.9999999999991
  0
LINE
  5
186
330
1F
100
AcDbEntity
  8
0
  6
CONTINUOUS
 62
     7
100
AcDbLine
 10
782.4264068711927
 20
247.7799602617861
 30
0.0
 11
771.8528137423857
 21
258.3535533905932
 31
0.0
  0
LINE
  5
187
330
1F
100
AcDbEntity
  8
0
  6
CONTINUOUS
 62
     7
100
AcDbLine
 10
674.9012806053457
 20
247.4264068711929
 30
0.0
 11
673.4870670429725
 21
248.840620433566
 31
0.0
  0
LINE
  5
188
330
1F
100
AcDbEntity
  8
0
  6
CONTINUOUS
 62
     7
100
AcDbLine
 10
575.0
 20
148.9393398282202
 30
0.0
 11
575.0
 21
203.9393398282202
 31
0.0
  0
LINE
  5
189
330
1F
100
AcDbEntity
  8
0
  6
CONTINUOUS
 62
     7
100
AcDbLine
 10
575.0
 20
258.9393398282202
 30
0.0
 11
575.0
 21
203.9393398282202
 31
0.0
  0
LINE
  5
18A
330
1F
100
AcDbEntity
  8
0
  6
CONTINUOUS
 62
     7
100
AcDbLine
 10
575.0
 20
203.9393398282202
 30
0.0
 11
575.0
 21
148.9393398282202
 31
0.0
  0
LINE
  5
18B
330
1F
100
AcDbEntity
  8
0
  6
CONTINUOUS
 62
     7
100
AcDbLine
 10
684.4142135623731
 20
235.7921535706059
 30
0.0
 11
673.840620433566
 21
246.365746699413
 31
0.0
  0
LINE
  5
18C
330
1F
100
AcDbEntity
  8
0
  6
CONTINUOUS
 62
     7
100
AcDbLine
 10
630.0
 20
258.9393398282202
 30
0.0
 11
575.0
 21
258.9393398282202
 31
0.0
  0
LINE
  5
18D
330
1F
100
AcDbEntity
  8
0
  6
CONTINUOUS
 62
     7
100
AcDbLine
 10
661.8528137423857
 20
149.5251262658471
 30
0.0
 11
672.3556961930742
 21
160.0280087165356
 31
0.0
  0
LINE
  5
18E
330
1F
100
AcDbEntity
  8
0
  6
CENTER
 62
     1
100
AcDbLine
 10
630.0
 20
135.0
 30
0.0
 11
630.0
 21
270.0
 31
0.0
  0
LINE
  5
18F
330
1F
100
AcDbEntity
  8
0
  6
CONTINUOUS
 62
     7
100
AcDbLine
 10
587.6443038069258
 20
160.0280087165356
 30
0.0
 11
598.1471862576142
 21
149.5251262658471
 31
0.0
  0
ARC
  5
190
330
1F
100
AcDbEntity
  8
0
  6
CONTINUOUS
 62
     7
100
AcDbCircle
 10
599.5613998199873
 20
150.9393398282202
 30
0.0
 40
1.999999999999954
100
AcDbArc
 50
225.0000000000011
 51
270.0000000000019
  0
LINE
  5
191
330
1F
100
AcDbEntity
  8
0
  6
CONTINUOUS
 62
     7
100
AcDbLine
 10
520.0
 20
148.9393398282202
 30
0.0
 11
575.0
 21
148.9393398282202
 31
0.0
  0
LINE
  5
192
330
1F
100
AcDbEntity
  8
0
  6
CONTINUOUS
 62
     7
100
AcDbLine
 10
586.0886688883154
 20
161.583643635146
 30
0.0
 11
587.2200397382139
 21
162.7150144850444
 31
0.0
  0
LINE
  5
193
330
1F
100
AcDbEntity
  8
0
  6
CONTINUOUS
 62
     7
100
AcDbLine
 10
465.0
 20
258.9393398282202
 30
0.0
 11
465.0
 21
203.9393398282202
 31
0.0
  0
LINE
  5
194
330
1F
100
AcDbEntity
  8
0
  6
DOT
 62
     7
100
AcDbLine
 10
304.0000000000001
 20
155.4393398282202
 30
0.0
 11
304.0000000000001
 21
252.4393398282202
 31
0.0
  0
CIRCLE
  5
195
330
1F
100
AcDbEntity
  8
0
  6
CONTINUOUS
 62
     7
100
AcDbCircle
 10
630.0
 20
203.9393398282202
 30
0.0
 40
40.00000000000001
  0
LINE
  5
196
330
1F
100
AcDbEntity
  8
0
  6
CONTINUOUS
 62
     7
100
AcDbLine
 10
673.9113311116845
 20
161.583643635146
 30
0.0
 11
684.414213562373
 21
172.0865260858345
 31
0.0
  0
ARC
  5
197
330
1F
100
AcDbEntity
  8
0
  6
CONTINUOUS
 62
     7
100
AcDbCircle
 10
577.0
 20
173.5007396482076
 30
0.0
 40
2.000000000000002
100
AcDbArc
 50
180.0
 51
225.0000000000002
  0
LINE
  5
198
330
1F
100
AcDbEntity
  8
0
  6
CONTINUOUS
 62
     7
100
AcDbLine
 10
586.159379566434
 20
246.365746699413
 30
0.0
 11
575.5857864376269
 21
235.7921535706059
 31
0.0
  0
MTEXT
  5
199
330
1F
100
AcDbEntity
  8
0
 62
     4
100
AcDbMText
 10
490.7534075278228
 20
107.9053395023134
 30
0.0
 40
10.0
 41
0.0
 71
     1
 72
     1
  1
{\fＭＳ ゴシック;KFERB-75DK-6}
  0
ARC
  5
19A
330
1F
100
AcDbEntity
  8
0
  6
CONTINUOUS
 62
     7
100
AcDbCircle
 10
520.0
 20
258.9393398282202
 30
0.0
 40
1.500000000000001
100
AcDbArc
 50
359.9999999999998
 51
180.0000000000002
  0
ARC
  5
19B
330
1F
100
AcDbEntity
  8
0
  6
CONTINUOUS
 62
     7
100
AcDbCircle
 10
550.4386001800126
 20
256.9393398282202
 30
0.0
 40
2.000000000000003
100
AcDbArc
 50
44.9999999999994
 51
90.0
  0
LINE
  5
19C
330
1F
100
AcDbEntity
  8
0
  6
CONTINUOUS
 62
     7
100
AcDbLine
 10
562.4264068711929
 20
247.7799602617861
 30
0.0
 11
551.8528137423857
 21
258.3535533905932
 31
0.0
  0
LINE
  5
19D
330
1F
100
AcDbEntity
  8
0
  6
CONTINUOUS
 62
     7
100
AcDbLine
 10
563.4870670429725
 20
248.840620433566
 30
0.0
 11
562.4264068711927
 21
247.7799602617861
 31
0.0
  0
LINE
  5
19E
330
1F
100
AcDbEntity
  8
0
  6
CONTINUOUS
 62
     7
100
AcDbLine
 10
564.9012806053457
 20
247.4264068711929
 30
0.0
 11
563.4870670429725
 21
248.840620433566
 31
0.0
  0
LINE
  5
19F
330
1F
100
AcDbEntity
  8
0
  6
CONTINUOUS
 62
     7
100
AcDbLine
 10
563.840620433566
 20
246.3657466994131
 30
0.0
 11
564.9012806053458
 21
247.4264068711929
 31
0.0
  0
LINE
  5
1A0
330
1F
100
AcDbEntity
  8
0
  6
CONTINUOUS
 62
     7
100
AcDbLine
 10
574.4142135623731
 20
235.7921535706059
 30
0.0
 11
563.840620433566
 21
246.3657466994131
 31
0.0
  0
ARC
  5
1A1
330
1F
100
AcDbEntity
  8
0
  6
CONTINUOUS
 62
     7
100
AcDbCircle
 10
572.9999999999999
 20
234.3779400082328
 30
0.0
 40
2.000000000000016
100
AcDbArc
 50
0.0000000000002862
 51
45.00000000000001
  0
ARC
  5
1A2
330
1F
100
AcDbEntity
  8
0
  6
CONTINUOUS
 62
     7
100
AcDbCircle
 10
575.0
 20
203.9393398282202
 30
0.0
 40
1.599999999999997
100
AcDbArc
 50
90.00000000000016
 51
270.0000000000002
  0
ARC
  5
1A3
330
1F
100
AcDbEntity
  8
0
  6
CONTINUOUS
 62
     7
100
AcDbCircle
 10
572.9999999999999
 20
173.5007396482075
 30
0.0
 40
2.000000000000003
100
AcDbArc
 50
314.9999999999994
 51
0.0000000000001705
  0
LINE
  5
1A4
330
1F
100
AcDbEntity
  8
0
  6
CONTINUOUS
 62
     7
100
AcDbLine
 10
563.9113311116846
 20
161.583643635146
 30
0.0
 11
574.414213562373
 21
172.0865260858345
 31
0.0
  0
LINE
  5
1A5
330
1F
100
AcDbEntity
  8
0
  6
CONTINUOUS
 62
     7
100
AcDbLine
 10
562.7799602617862
 20
162.7150144850445
 30
0.0
 11
563.9113311116847
 21
161.583643635146
 31
0.0
  0
LINE
  5
1A6
330
1F
100
AcDbEntity
  8
0
  6
CONTINUOUS
 62
     7
100
AcDbLine
 10
561.2243253431757
 20
161.159379566434
 30
0.0
 11
562.7799602617861
 21
162.7150144850445
 31
0.0
  0
LINE
  5
1A7
330
1F
100
AcDbEntity
  8
0
  6
CONTINUOUS
 62
     7
100
AcDbLine
 10
562.3556961930742
 20
160.0280087165356
 30
0.0
 11
561.2243253431758
 21
161.159379566434
 31
0.0
  0
LINE
  5
1A8
330
1F
100
AcDbEntity
  8
0
  6
CONTINUOUS
 62
     7
100
AcDbLine
 10
551.8528137423857
 20
149.5251262658471
 30
0.0
 11
562.3556961930742
 21
160.0280087165356
 31
0.0
  0
ARC
  5
1A9
330
1F
100
AcDbEntity
  8
0
  6
CONTINUOUS
 62
     7
100
AcDbCircle
 10
550.4386001800126
 20
150.9393398282202
 30
0.0
 40
1.999999999999995
100
AcDbArc
 50
270.0000000000001
 51
314.9999999999998
  0
ARC
  5
1AA
330
1F
100
AcDbEntity
  8
0
  6
CONTINUOUS
 62
     7
100
AcDbCircle
 10
520.0
 20
148.9393398282202
 30
0.0
 40
1.600000000000004
100
AcDbArc
 50
0.0
 51
179.9999999999996
  0
ARC
  5
1AB
330
1F
100
AcDbEntity
  8
0
  6
CONTINUOUS
 62
     7
100
AcDbCircle
 10
489.5613998199873
 20
150.9393398282202
 30
0.0
 40
2.000000000000003
100
AcDbArc
 50
224.9999999999991
 51
270.0
  0
LINE
  5
1AC
330
1F
100
AcDbEntity
  8
0
  6
CONTINUOUS
 62
     7
100
AcDbLine
 10
477.6443038069258
 20
160.0280087165356
 30
0.0
 11
488.1471862576142
 21
149.5251262658471
 31
0.0
  0
LINE
  5
1AD
330
1F
100
AcDbEntity
  8
0
  6
CONTINUOUS
 62
     7
100
AcDbLine
 10
478.7756746568243
 20
161.159379566434
 30
0.0
 11
477.6443038069258
 21
160.0280087165355
 31
0.0
  0
LINE
  5
1AE
330
1F
100
AcDbEntity
  8
0
  6
CONTINUOUS
 62
     7
100
AcDbLine
 10
477.2200397382139
 20
162.7150144850444
 30
0.0
 11
478.7756746568242
 21
161.159379566434
 31
0.0
  0
LINE
  5
1AF
330
1F
100
AcDbEntity
  8
0
  6
CONTINUOUS
 62
     7
100
AcDbLine
 10
476.0886688883154
 20
161.583643635146
 30
0.0
 11
477.2200397382139
 21
162.7150144850444
 31
0.0
  0
LINE
  5
1B0
330
1F
100
AcDbEntity
  8
0
  6
CONTINUOUS
 62
     7
100
AcDbLine
 10
465.585786437627
 20
172.0865260858345
 30
0.0
 11
476.0886688883154
 21
161.583643635146
 31
0.0
  0
ARC
  5
1B1
330
1F
100
AcDbEntity
  8
0
  6
CONTINUOUS
 62
     7
100
AcDbCircle
 10
467.0
 20
173.5007396482076
 30
0.0
 40
2.000000000000016
100
AcDbArc
 50
180.0000000000002
 51
225.0000000000004
  0
ARC
  5
1B2
330
1F
100
AcDbEntity
  8
0
  6
CONTINUOUS
 62
     7
100
AcDbCircle
 10
465.0
 20
203.9393398282202
 30
0.0
 40
1.499999999999998
100
AcDbArc
 50
89.99999999999982
 51
269.9999999999998
  0
ARC
  5
1B3
330
1F
100
AcDbEntity
  8
0
  6
CONTINUOUS
 62
     7
100
AcDbCircle
 10
467.0
 20
234.3779400082328
 30
0.0
 40
2.000000000000003
100
AcDbArc
 50
134.9999999999992
 51
180.0
  0
LINE
  5
1B4
330
1F
100
AcDbEntity
  8
0
  6
CONTINUOUS
 62
     7
100
AcDbLine
 10
476.159379566434
 20
246.365746699413
 30
0.0
 11
465.585786437627
 21
235.7921535706059
 31
0.0
  0
LINE
  5
1B5
330
1F
100
AcDbEntity
  8
0
  6
CONTINUOUS
 62
     7
100
AcDbLine
 10
475.0987193946543
 20
247.4264068711929
 30
0.0
 11
476.159379566434
 21
246.365746699413
 31
0.0
  0
LINE
  5
1B6
330
1F
100
AcDbEntity
  8
0
  6
CONTINUOUS
 62
     7
100
AcDbLine
 10
476.5129329570273
 20
248.8406204335659
 30
0.0
 11
475.0987193946543
 21
247.4264068711929
 31
0.0
  0
LINE
  5
1B7
330
1F
100
AcDbEntity
  8
0
  6
CONTINUOUS
 62
     7
100
AcDbLine
 10
477.5735931288071
 20
247.7799602617861
 30
0.0
 11
476.5129329570273
 21
248.8406204335659
 31
0.0
  0
LINE
  5
1B8
330
1F
100
AcDbEntity
  8
0
  6
CONTINUOUS
 62
     7
100
AcDbLine
 10
488.1471862576142
 20
258.3535533905933
 30
0.0
 11
477.5735931288071
 21
247.7799602617861
 31
0.0
  0
ARC
  5
1B9
330
1F
100
AcDbEntity
  8
0
  6
CONTINUOUS
 62
     7
100
AcDbCircle
 10
489.5613998199873
 20
256.9393398282202
 30
0.0
 40
2.000000000000002
100
AcDbArc
 50
90.0000000000003
 51
134.9999999999996
  0
CIRCLE
  5
1BA
330
1F
100
AcDbEntity
  8
0
  6
CONTINUOUS
 62
     7
100
AcDbCircle
 10
520.0
 20
203.9393398282202
 30
0.0
 40
40.00000000000001
  0
LINE
  5
1BB
330
1F
100
AcDbEntity
  8
0
  6
DOT
 62
     7
100
AcDbLine
 10
334.0000000000001
 20
155.4393398282202
 30
0.0
 11
334.0000000000001
 21
252.4393398282202
 31
0.0
  0
LINE
  5
1BC
330
1F
100
AcDbEntity
  8
0
  6
DOT
 62
     7
100
AcDbLine
 10
336.0000000000001
 20
252.4393398282202
 30
0.0
 11
336.0000000000001
 21
169.6446609406727
 31
0.0
  0
LINE
  5
1BD
330
1F
100
AcDbEntity
  8
0
  6
DOT
 62
     7
100
AcDbLine
 10
336.0000000000001
 20
169.6446609406727
 30
0.0
 11
336.0000000000001
 21
155.4393398282202
 31
0.0
  0
LINE
  5
1BE
330
1F
100
AcDbEntity
  8
0
  6
DOT
 62
     7
100
AcDbLine
 10
294.0000000000001
 20
155.4393398282202
 30
0.0
 11
294.0000000000001
 21
252.4393398282202
 31
0.0
  0
LINE
  5
1BF
330
1F
100
AcDbEntity
  8
0
  6
DOT
 62
     7
100
AcDbLine
 10
296.0000000000001
 20
252.4393398282202
 30
0.0
 11
296.0000000000001
 21
169.6446609406727
 31
0.0
  0
LINE
  5
1C0
330
1F
100
AcDbEntity
  8
0
  6
DOT
 62
     7
100
AcDbLine
 10
296.0000000000001
 20
169.6446609406727
 30
0.0
 11
296.0000000000001
 21
155.4393398282202
 31
0.0
  0
LINE
  5
1C1
330
1F
100
AcDbEntity
  8
0
  6
DOT
 62
     7
100
AcDbLine
 10
324.0000000000001
 20
155.4393398282202
 30
0.0
 11
324.0000000000001
 21
252.4393398282202
 31
0.0
  0
LINE
  5
1C2
330
1F
100
AcDbEntity
  8
0
  6
DOT
 62
     7
100
AcDbLine
 10
326.0000000000001
 20
252.4393398282202
 30
0.0
 11
326.0000000000001
 21
169.6446609406727
 31
0.0
  0
LINE
  5
1C3
330
1F
100
AcDbEntity
  8
0
  6
DOT
 62
     7
100
AcDbLine
 10
326.0000000000001
 20
169.6446609406727
 30
0.0
 11
326.0000000000001
 21
155.4393398282202
 31
0.0
  0
LINE
  5
1C4
330
1F
100
AcDbEntity
  8
0
  6
DOT
 62
     7
100
AcDbLine
 10
314.0000000000001
 20
155.4393398282202
 30
0.0
 11
314.0000000000001
 21
252.4393398282202
 31
0.0
  0
LINE
  5
1C5
330
1F
100
AcDbEntity
  8
0
  6
DOT
 62
     7
100
AcDbLine
 10
316.0000000000001
 20
252.4393398282202
 30
0.0
 11
316.0000000000001
 21
169.6446609406727
 31
0.0
  0
LINE
  5
1C6
330
1F
100
AcDbEntity
  8
0
  6
DOT
 62
     7
100
AcDbLine
 10
316.0000000000001
 20
169.6446609406727
 30
0.0
 11
316.0000000000001
 21
155.4393398282202
 31
0.0
  0
LINE
  5
1C7
330
1F
100
AcDbEntity
  8
0
  6
DOT
 62
     7
100
AcDbLine
 10
284.0
 20
155.4393398282202
 30
0.0
 11
284.0
 21
252.4393398282202
 31
0.0
  0
LINE
  5
1C8
330
1F
100
AcDbEntity
  8
0
  6
DOT
 62
     7
100
AcDbLine
 10
286.0
 20
252.4393398282202
 30
0.0
 11
286.0
 21
169.6446609406727
 31
0.0
  0
LINE
  5
1C9
330
1F
100
AcDbEntity
  8
0
  6
DOT
 62
     7
100
AcDbLine
 10
286.0
 20
169.6446609406727
 30
0.0
 11
286.0
 21
155.4393398282202
 31
0.0
  0
LINE
  5
1CA
330
1F
100
AcDbEntity
  8
0
  6
CONTINUOUS
 62
     7
100
AcDbLine
 10
419.0000000000001
 20
202.4393398282201
 30
0.0
 11
419.0000000000001
 21
173.5007396482075
 31
0.0
  0
LINE
  5
1CB
330
1F
100
AcDbEntity
  8
0
  6
CONTINUOUS
 62
     7
100
AcDbLine
 10
419.0000000000001
 20
234.3779400082328
 30
0.0
 11
419.0000000000001
 21
205.4393398282202
 31
0.0
  0
LINE
  5
1CC
330
1F
100
AcDbEntity
  8
0
  6
DOT
 62
     7
100
AcDbLine
 10
275.0
 20
202.4393398282202
 30
0.0
 11
275.0
 21
173.5007396482076
 31
0.0
  0
LINE
  5
1CD
330
1F
100
AcDbEntity
  8
0
  6
DOT
 62
     7
100
AcDbLine
 10
275.0
 20
234.3779400082328
 30
0.0
 11
275.0
 21
205.4393398282202
 31
0.0
  0
LINE
  5
1CE
330
1F
100
AcDbEntity
  8
0
  6
DOT
 62
     7
100
AcDbLine
 10
347.5
 20
250.4393398282202
 30
0.0
 11
347.5
 21
157.4393398282202
 31
0.0
  0
LINE
  5
1CF
330
1F
100
AcDbEntity
  8
0
  6
DOT
 62
     7
100
AcDbLine
 10
394.0
 20
246.9393398282203
 30
0.0
 11
394.0
 21
160.9393398282201
 31
0.0
  0
LINE
  5
1D0
330
1F
100
AcDbEntity
  8
0
  6
DOT
 62
     7
100
AcDbLine
 10
396.0
 20
246.9393398282203
 30
0.0
 11
396.0
 21
160.9393398282201
 31
0.0
  0
LINE
  5
1D1
330
1F
100
AcDbEntity
  8
0
  6
DOT
 62
     7
100
AcDbLine
 10
354.0000000000001
 20
246.9393398282203
 30
0.0
 11
354.0000000000001
 21
160.9393398282201
 31
0.0
  0
LINE
  5
1D2
330
1F
100
AcDbEntity
  8
0
  6
DOT
 62
     7
100
AcDbLine
 10
356.0000000000001
 20
246.9393398282203
 30
0.0
 11
356.0000000000001
 21
160.9393398282201
 31
0.0
  0
LINE
  5
1D3
330
1F
100
AcDbEntity
  8
0
  6
DOT
 62
     7
100
AcDbLine
 10
384.0
 20
246.9393398282203
 30
0.0
 11
384.0
 21
160.9393398282201
 31
0.0
  0
LINE
  5
1D4
330
1F
100
AcDbEntity
  8
0
  6
DOT
 62
     7
100
AcDbLine
 10
386.0
 20
246.9393398282203
 30
0.0
 11
386.0
 21
160.9393398282201
 31
0.0
  0
LINE
  5
1D5
330
1F
100
AcDbEntity
  8
0
  6
DOT
 62
     7
100
AcDbLine
 10
374.0
 20
246.9393398282203
 30
0.0
 11
374.0
 21
160.9393398282201
 31
0.0
  0
LINE
  5
1D6
330
1F
100
AcDbEntity
  8
0
  6
DOT
 62
     7
100
AcDbLine
 10
376.0
 20
246.9393398282203
 30
0.0
 11
376.0
 21
160.9393398282201
 31
0.0
  0
LINE
  5
1D7
330
1F
100
AcDbEntity
  8
0
  6
DOT
 62
     7
100
AcDbLine
 10
364.0000000000001
 20
246.9393398282203
 30
0.0
 11
364.0000000000001
 21
160.9393398282201
 31
0.0
  0
LINE
  5
1D8
330
1F
100
AcDbEntity
  8
0
  6
DOT
 62
     7
100
AcDbLine
 10
366.0000000000001
 20
246.9393398282203
 30
0.0
 11
366.0000000000001
 21
160.9393398282201
 31
0.0
  0
LINE
  5
1D9
330
1F
100
AcDbEntity
  8
0
  6
CONTINUOUS
 62
     7
100
AcDbLine
 10
419.0000000000001
 20
205.4393398282202
 30
0.0
 11
419.0000000000001
 21
202.4393398282201
 31
0.0
  0
LINE
  5
1DA
330
1F
100
AcDbEntity
  8
0
  6
DOT
 62
     7
100
AcDbLine
 10
414.0
 20
202.4393398282201
 30
0.0
 11
414.0
 21
205.4393398282202
 31
0.0
  0
LINE
  5
1DB
330
1F
100
AcDbEntity
  8
0
  6
DOT
 62
     7
100
AcDbLine
 10
275.0
 20
205.4393398282202
 30
0.0
 11
275.0
 21
202.4393398282202
 31
0.0
  0
LINE
  5
1DC
330
1F
100
AcDbEntity
  8
0
  6
CONTINUOUS
 62
     7
100
AcDbLine
 10
419.0000000000001
 20
173.5007396482075
 30
0.0
 11
419.0000000000001
 21
172.0865260858345
 31
0.0
  0
LINE
  5
1DD
330
1F
100
AcDbEntity
  8
0
  6
CONTINUOUS
 62
     7
100
AcDbLine
 10
419.0000000000001
 20
235.7921535706059
 30
0.0
 11
419.0000000000001
 21
234.3779400082328
 31
0.0
  0
LINE
  5
1DE
330
1F
100
AcDbEntity
  8
0
  6
DOT
 62
     7
100
AcDbLine
 10
275.0
 20
235.792153570606
 30
0.0
 11
275.0
 21
234.3779400082328
 31
0.0
  0
LINE
  5
1DF
330
1F
100
AcDbEntity
  8
0
  6
DOT
 62
     7
100
AcDbLine
 10
275.0
 20
173.5007396482076
 30
0.0
 11
275.0
 21
172.0865260858345
 31
0.0
  0
LINE
  5
1E0
330
1F
100
AcDbEntity
  8
0
  6
CONTINUOUS
 62
     7
100
AcDbLine
 10
419.0000000000001
 20
172.0865260858345
 30
0.0
 11
419.0000000000001
 21
161.583643635146
 31
0.0
  0
LINE
  5
1E1
330
1F
100
AcDbEntity
  8
0
  6
CONTINUOUS
 62
     7
100
AcDbLine
 10
419.0000000000001
 20
246.3657466994131
 30
0.0
 11
419.0000000000001
 21
235.7921535706059
 31
0.0
  0
LINE
  5
1E2
330
1F
100
AcDbEntity
  8
0
  6
DOT
 62
     7
100
AcDbLine
 10
275.0
 20
172.0865260858345
 30
0.0
 11
275.0
 21
161.583643635146
 31
0.0
  0
LINE
  5
1E3
330
1F
100
AcDbEntity
  8
0
  6
DOT
 62
     7
100
AcDbLine
 10
275.0
 20
246.3657466994131
 30
0.0
 11
275.0
 21
235.792153570606
 31
0.0
  0
LINE
  5
1E4
330
1F
100
AcDbEntity
  8
0
  6
CONTINUOUS
 62
     7
100
AcDbLine
 10
419.0000000000001
 20
247.4264068711929
 30
0.0
 11
419.0000000000001
 21
246.3657466994131
 31
0.0
  0
LINE
  5
1E5
330
1F
100
AcDbEntity
  8
0
  6
CONTINUOUS
 62
     7
100
AcDbLine
 10
414.0
 20
246.3657466994131
 30
0.0
 11
414.0
 21
247.4264068711929
 31
0.0
  0
LINE
  5
1E6
330
1F
100
AcDbEntity
  8
0
  6
CONTINUOUS
 62
     7
100
AcDbLine
 10
419.0000000000001
 20
248.840620433566
 30
0.0
 11
419.0000000000001
 21
247.4264068711929
 31
0.0
  0
LINE
  5
1E7
330
1F
100
AcDbEntity
  8
0
  6
CONTINUOUS
 62
     7
100
AcDbLine
 10
414.0
 20
247.4264068711929
 30
0.0
 11
414.0
 21
248.840620433566
 31
0.0
  0
LINE
  5
1E8
330
1F
100
AcDbEntity
  8
0
  6
DOT
 62
     7
100
AcDbLine
 10
275.0
 20
247.4264068711929
 30
0.0
 11
275.0
 21
246.3657466994131
 31
0.0
  0
LINE
  5
1E9
330
1F
100
AcDbEntity
  8
0
  6
DOT
 62
     7
100
AcDbLine
 10
275.0
 20
248.840620433566
 30
0.0
 11
275.0
 21
247.4264068711929
 31
0.0
  0
LINE
  5
1EA
330
1F
100
AcDbEntity
  8
0
  6
CONTINUOUS
 62
     7
100
AcDbLine
 10
419.0000000000001
 20
161.583643635146
 30
0.0
 11
419.0000000000001
 21
161.159379566434
 31
0.0
  0
LINE
  5
1EB
330
1F
100
AcDbEntity
  8
0
  6
DOT
 62
     7
100
AcDbLine
 10
275.0
 20
161.583643635146
 30
0.0
 11
275.0
 21
161.159379566434
 31
0.0
  0
LINE
  5
1EC
330
1F
100
AcDbEntity
  8
0
  6
CONTINUOUS
 62
     7
100
AcDbLine
 10
419.0000000000001
 20
258.3535533905933
 30
0.0
 11
419.0000000000001
 21
248.840620433566
 31
0.0
  0
LINE
  5
1ED
330
1F
100
AcDbEntity
  8
0
  6
DOT
 62
     7
100
AcDbLine
 10
275.0
 20
258.3535533905933
 30
0.0
 11
275.0
 21
248.840620433566
 31
0.0
  0
LINE
  5
1EE
330
1F
100
AcDbEntity
  8
0
  6
CONTINUOUS
 62
     7
100
AcDbLine
 10
419.0000000000001
 20
160.0280087165355
 30
0.0
 11
419.0000000000001
 21
149.5251262658471
 31
0.0
  0
LINE
  5
1EF
330
1F
100
AcDbEntity
  8
0
  6
CONTINUOUS
 62
     7
100
AcDbLine
 10
419.0000000000001
 20
161.159379566434
 30
0.0
 11
419.0000000000001
 21
160.0280087165355
 31
0.0
  0
LINE
  5
1F0
330
1F
100
AcDbEntity
  8
0
  6
DOT
 62
     7
100
AcDbLine
 10
275.0
 20
161.159379566434
 30
0.0
 11
275.0
 21
160.0280087165356
 31
0.0
  0
LINE
  5
1F1
330
1F
100
AcDbEntity
  8
0
  6
DOT
 62
     7
100
AcDbLine
 10
275.0
 20
160.0280087165356
 30
0.0
 11
275.0
 21
149.5251262658471
 31
0.0
  0
LINE
  5
1F2
330
1F
100
AcDbEntity
  8
0
  6
CONTINUOUS
 62
     7
100
AcDbLine
 10
419.0000000000001
 20
149.5251262658471
 30
0.0
 11
419.0000000000001
 21
148.9393398282202
 31
0.0
  0
LINE
  5
1F3
330
1F
100
AcDbEntity
  8
0
  6
DOT
 62
     7
100
AcDbLine
 10
275.0
 20
149.5251262658471
 30
0.0
 11
275.0
 21
148.9393398282202
 31
0.0
  0
LINE
  5
1F4
330
1F
100
AcDbEntity
  8
0
  6
CONTINUOUS
 62
     7
100
AcDbLine
 10
419.0000000000001
 20
258.9393398282202
 30
0.0
 11
419.0000000000001
 21
258.3535533905933
 31
0.0
  0
LINE
  5
1F5
330
1F
100
AcDbEntity
  8
0
  6
DOT
 62
     7
100
AcDbLine
 10
275.0
 20
258.9393398282202
 30
0.0
 11
275.0
 21
258.3535533905933
 31
0.0
  0
LINE
  5
1F6
330
1F
100
AcDbEntity
  8
0
  6
CONTINUOUS
 62
     7
100
AcDbLine
 10
419.0000000000001
 20
260.4393398282202
 30
0.0
 11
419.0000000000001
 21
258.9393398282202
 31
0.0
  0
ARC
  5
1F7
330
1F
100
AcDbEntity
  8
0
  6
DOT
 62
     7
100
AcDbCircle
 10
335.0000000000001
 20
252.4393398282202
 30
0.0
 40
1.000000000000001
100
AcDbArc
 50
359.9999999999993
 51
180.0000000000006
  0
ARC
  5
1F8
330
1F
100
AcDbEntity
  8
0
  6
DOT
 62
     7
100
AcDbCircle
 10
335.0000000000001
 20
155.4393398282202
 30
0.0
 40
1.000000000000001
100
AcDbArc
 50
179.9999999999994
 51
0.0000000000005684
  0
ARC
  5
1F9
330
1F
100
AcDbEntity
  8
0
  6
DOT
 62
     7
100
AcDbCircle
 10
276.0
 20
253.4393398282202
 30
0.0
 40
1.000000000000001
100
AcDbArc
 50
180.0000000000006
 51
270.0
  0
ARC
  5
1FA
330
1F
100
AcDbEntity
  8
0
  6
DOT
 62
     7
100
AcDbCircle
 10
276.0
 20
154.4393398282202
 30
0.0
 40
1.000000000000001
100
AcDbArc
 50
90.0
 51
179.9999999999998
  0
ARC
  5
1FB
330
1F
100
AcDbEntity
  8
0
  6
DOT
 62
     7
100
AcDbCircle
 10
295.0000000000001
 20
252.4393398282202
 30
0.0
 40
1.000000000000001
100
AcDbArc
 50
359.9999999999993
 51
180.0000000000006
  0
ARC
  5
1FC
330
1F
100
AcDbEntity
  8
0
  6
DOT
 62
     7
100
AcDbCircle
 10
295.0000000000001
 20
155.4393398282202
 30
0.0
 40
1.000000000000001
100
AcDbArc
 50
179.9999999999994
 51
0.0000000000005684
  0
ARC
  5
1FD
330
1F
100
AcDbEntity
  8
0
  6
DOT
 62
     7
100
AcDbCircle
 10
325.0000000000001
 20
252.4393398282202
 30
0.0
 40
1.000000000000029
100
AcDbArc
 50
359.9999999999993
 51
180.0000000000006
  0
ARC
  5
1FE
330
1F
100
AcDbEntity
  8
0
  6
DOT
 62
     7
100
AcDbCircle
 10
325.0000000000001
 20
155.4393398282202
 30
0.0
 40
1.000000000000001
100
AcDbArc
 50
179.9999999999994
 51
0.0000000000005684
  0
ARC
  5
1FF
330
1F
100
AcDbEntity
  8
0
  6
DOT
 62
     7
100
AcDbCircle
 10
315.0000000000001
 20
252.4393398282202
 30
0.0
 40
1.000000000000001
100
AcDbArc
 50
359.9999999999993
 51
180.0000000000006
  0
ARC
  5
200
330
1F
100
AcDbEntity
  8
0
  6
DOT
 62
     7
100
AcDbCircle
 10
315.0000000000001
 20
155.4393398282202
 30
0.0
 40
1.000000000000001
100
AcDbArc
 50
179.9999999999994
 51
0.0000000000005684
  0
ARC
  5
201
330
1F
100
AcDbEntity
  8
0
  6
DOT
 62
     7
100
AcDbCircle
 10
285.0
 20
252.4393398282202
 30
0.0
 40
1.000000000000001
100
AcDbArc
 50
359.9999999999993
 51
180.0000000000006
  0
ARC
  5
202
330
1F
100
AcDbEntity
  8
0
  6
DOT
 62
     7
100
AcDbCircle
 10
285.0
 20
155.4393398282202
 30
0.0
 40
1.000000000000001
100
AcDbArc
 50
179.9999999999994
 51
0.0000000000005684
  0
ARC
  5
203
330
1F
100
AcDbEntity
  8
0
  6
DOT
 62
     7
100
AcDbCircle
 10
305.0000000000001
 20
252.4393398282202
 30
0.0
 40
1.000000000000001
100
AcDbArc
 50
359.9999999999993
 51
180.0000000000006
  0
ARC
  5
204
330
1F
100
AcDbEntity
  8
0
  6
DOT
 62
     7
100
AcDbCircle
 10
305.0000000000001
 20
155.4393398282202
 30
0.0
 40
1.000000000000001
100
AcDbArc
 50
179.9999999999994
 51
0.0000000000005684
  0
LINE
  5
205
330
1F
100
AcDbEntity
  8
0
  6
DOT
 62
     7
100
AcDbLine
 10
334.0
 20
252.4393398282202
 30
0.0
 11
326.0000000000001
 21
252.4393398282202
 31
0.0
  0
LINE
  5
206
330
1F
100
AcDbEntity
  8
0
  6
DOT
 62
     7
100
AcDbLine
 10
326.0000000000001
 20
155.4393398282202
 30
0.0
 11
334.0
 21
155.4393398282202
 31
0.0
  0
LINE
  5
207
330
1F
100
AcDbEntity
  8
0
  6
DOT
 62
     7
100
AcDbLine
 10
324.0000000000001
 20
252.4393398282202
 30
0.0
 11
316.0000000000001
 21
252.4393398282202
 31
0.0
  0
LINE
  5
208
330
1F
100
AcDbEntity
  8
0
  6
DOT
 62
     7
100
AcDbLine
 10
316.0
 20
155.4393398282202
 30
0.0
 11
324.0000000000001
 21
155.4393398282202
 31
0.0
  0
LINE
  5
209
330
1F
100
AcDbEntity
  8
0
  6
DOT
 62
     7
100
AcDbLine
 10
284.0
 20
252.4393398282202
 30
0.0
 11
276.0
 21
252.4393398282202
 31
0.0
  0
LINE
  5
20A
330
1F
100
AcDbEntity
  8
0
  6
DOT
 62
     7
100
AcDbLine
 10
276.0
 20
155.4393398282202
 30
0.0
 11
284.0
 21
155.4393398282202
 31
0.0
  0
LINE
  5
20B
330
1F
100
AcDbEntity
  8
0
  6
DOT
 62
     7
100
AcDbLine
 10
294.0000000000001
 20
252.4393398282202
 30
0.0
 11
286.0
 21
252.4393398282202
 31
0.0
  0
LINE
  5
20C
330
1F
100
AcDbEntity
  8
0
  6
DOT
 62
     7
100
AcDbLine
 10
286.0
 20
155.4393398282202
 30
0.0
 11
294.0000000000001
 21
155.4393398282202
 31
0.0
  0
ARC
  5
20D
330
1F
100
AcDbEntity
  8
0
  6
DOT
 62
     7
100
AcDbCircle
 10
345.5
 20
250.4393398282202
 30
0.0
 40
2.000000000000002
100
AcDbArc
 50
359.9999999999997
 51
89.99999999999962
  0
ARC
  5
20E
330
1F
100
AcDbEntity
  8
0
  6
DOT
 62
     7
100
AcDbCircle
 10
345.5
 20
157.4393398282202
 30
0.0
 40
2.000000000000002
100
AcDbArc
 50
270.0000000000004
 51
0.0000000000002842
  0
LINE
  5
20F
330
1F
100
AcDbEntity
  8
0
  6
DOT
 62
     7
100
AcDbLine
 10
345.5
 20
252.4393398282202
 30
0.0
 11
336.0
 21
252.4393398282202
 31
0.0
  0
LINE
  5
210
330
1F
100
AcDbEntity
  8
0
  6
DOT
 62
     7
100
AcDbLine
 10
336.0
 20
155.4393398282202
 30
0.0
 11
345.5
 21
155.4393398282202
 31
0.0
  0
LINE
  5
211
330
1F
100
AcDbEntity
  8
0
  6
DOT
 62
     7
100
AcDbLine
 10
304.0000000000001
 20
252.4393398282202
 30
0.0
 11
296.0000000000001
 21
252.4393398282202
 31
0.0
  0
LINE
  5
212
330
1F
100
AcDbEntity
  8
0
  6
DOT
 62
     7
100
AcDbLine
 10
314.0
 20
252.4393398282202
 30
0.0
 11
306.0000000000001
 21
252.4393398282202
 31
0.0
  0
LINE
  5
213
330
1F
100
AcDbEntity
  8
0
  6
DOT
 62
     7
100
AcDbLine
 10
306.0000000000001
 20
155.4393398282202
 30
0.0
 11
314.0
 21
155.4393398282202
 31
0.0
  0
LINE
  5
214
330
1F
100
AcDbEntity
  8
0
  6
DOT
 62
     7
100
AcDbLine
 10
296.0000000000001
 20
155.4393398282202
 30
0.0
 11
304.0000000000001
 21
155.4393398282202
 31
0.0
  0
ARC
  5
215
330
1F
100
AcDbEntity
  8
0
  6
DOT
 62
     7
100
AcDbCircle
 10
349.5
 20
248.9393398282202
 30
0.0
 40
2.000000000000002
100
AcDbArc
 50
180.0000000000002
 51
270.0
  0
ARC
  5
216
330
1F
100
AcDbEntity
  8
0
  6
DOT
 62
     7
100
AcDbCircle
 10
349.5
 20
158.9393398282202
 30
0.0
 40
2.000000000000002
100
AcDbArc
 50
90.0
 51
179.9999999999998
  0
ARC
  5
217
330
1F
100
AcDbEntity
  8
0
  6
DOT
 62
     7
100
AcDbCircle
 10
395.0
 20
246.9393398282202
 30
0.0
 40
1.000000000000001
100
AcDbArc
 50
359.9999999999993
 51
180.0000000000006
  0
ARC
  5
218
330
1F
100
AcDbEntity
  8
0
  6
DOT
 62
     7
100
AcDbCircle
 10
395.0
 20
160.9393398282201
 30
0.0
 40
1.000000000000001
100
AcDbArc
 50
179.9999999999996
 51
0.0000000000004547
  0
ARC
  5
219
330
1F
100
AcDbEntity
  8
0
  6
DOT
 62
     7
100
AcDbCircle
 10
355.0000000000001
 20
246.9393398282202
 30
0.0
 40
1.000000000000001
100
AcDbArc
 50
359.9999999999993
 51
180.0000000000006
  0
ARC
  5
21A
330
1F
100
AcDbEntity
  8
0
  6
DOT
 62
     7
100
AcDbCircle
 10
355.0000000000001
 20
160.9393398282202
 30
0.0
 40
1.000000000000001
100
AcDbArc
 50
179.9999999999996
 51
0.0000000000004547
  0
ARC
  5
21B
330
1F
100
AcDbEntity
  8
0
  6
DOT
 62
     7
100
AcDbCircle
 10
385.0
 20
246.9393398282202
 30
0.0
 40
1.000000000000001
100
AcDbArc
 50
359.9999999999993
 51
180.0000000000006
  0
ARC
  5
21C
330
1F
100
AcDbEntity
  8
0
  6
DOT
 62
     7
100
AcDbCircle
 10
385.0
 20
160.9393398282201
 30
0.0
 40
1.000000000000001
100
AcDbArc
 50
179.9999999999996
 51
0.0000000000004547
  0
ARC
  5
21D
330
1F
100
AcDbEntity
  8
0
  6
DOT
 62
     7
100
AcDbCircle
 10
375.0
 20
246.9393398282202
 30
0.0
 40
1.000000000000001
100
AcDbArc
 50
359.9999999999993
 51
180.0000000000006
  0
ARC
  5
21E
330
1F
100
AcDbEntity
  8
0
  6
DOT
 62
     7
100
AcDbCircle
 10
375.0
 20
160.9393398282202
 30
0.0
 40
1.000000000000001
100
AcDbArc
 50
179.9999999999996
 51
0.0000000000004547
  0
ARC
  5
21F
330
1F
100
AcDbEntity
  8
0
  6
DOT
 62
     7
100
AcDbCircle
 10
365.0
 20
246.9393398282202
 30
0.0
 40
1.000000000000001
100
AcDbArc
 50
359.9999999999993
 51
180.0000000000006
  0
ARC
  5
220
330
1F
100
AcDbEntity
  8
0
  6
DOT
 62
     7
100
AcDbCircle
 10
365.0
 20
160.9393398282202
 30
0.0
 40
1.000000000000001
100
AcDbArc
 50
179.9999999999996
 51
0.0000000000004547
  0
LINE
  5
221
330
1F
100
AcDbEntity
  8
0
  6
DOT
 62
     7
100
AcDbLine
 10
384.0
 20
246.9393398282202
 30
0.0
 11
376.0
 21
246.9393398282202
 31
0.0
  0
LINE
  5
222
330
1F
100
AcDbEntity
  8
0
  6
DOT
 62
     7
100
AcDbLine
 10
376.0
 20
160.9393398282202
 30
0.0
 11
384.0
 21
160.9393398282202
 31
0.0
  0
LINE
  5
223
330
1F
100
AcDbEntity
  8
0
  6
DOT
 62
     7
100
AcDbLine
 10
374.0
 20
246.9393398282202
 30
0.0
 11
366.0
 21
246.9393398282202
 31
0.0
  0
LINE
  5
224
330
1F
100
AcDbEntity
  8
0
  6
DOT
 62
     7
100
AcDbLine
 10
366.0000000000001
 20
160.9393398282202
 30
0.0
 11
374.0
 21
160.9393398282202
 31
0.0
  0
LINE
  5
225
330
1F
100
AcDbEntity
  8
0
  6
DOT
 62
     7
100
AcDbLine
 10
404.0
 20
246.9393398282202
 30
0.0
 11
396.0
 21
246.9393398282202
 31
0.0
  0
LINE
  5
226
330
1F
100
AcDbEntity
  8
0
  6
DOT
 62
     7
100
AcDbLine
 10
396.0
 20
160.9393398282202
 30
0.0
 11
404.0
 21
160.9393398282202
 31
0.0
  0
LINE
  5
227
330
1F
100
AcDbEntity
  8
0
  6
DOT
 62
     7
100
AcDbLine
 10
394.0
 20
246.9393398282202
 30
0.0
 11
386.0
 21
246.9393398282202
 31
0.0
  0
LINE
  5
228
330
1F
100
AcDbEntity
  8
0
  6
DOT
 62
     7
100
AcDbLine
 10
386.0
 20
160.9393398282202
 30
0.0
 11
394.0
 21
160.9393398282202
 31
0.0
  0
LINE
  5
229
330
1F
100
AcDbEntity
  8
0
  6
DOT
 62
     7
100
AcDbLine
 10
364.0000000000001
 20
246.9393398282202
 30
0.0
 11
356.0000000000001
 21
246.9393398282202
 31
0.0
  0
LINE
  5
22A
330
1F
100
AcDbEntity
  8
0
  6
DOT
 62
     7
100
AcDbLine
 10
356.0000000000001
 20
160.9393398282202
 30
0.0
 11
364.0000000000001
 21
160.9393398282202
 31
0.0
  0
LINE
  5
22B
330
1F
100
AcDbEntity
  8
0
  6
DOT
 62
     7
100
AcDbLine
 10
354.0000000000001
 20
246.9393398282202
 30
0.0
 11
349.5
 21
246.9393398282202
 31
0.0
  0
LINE
  5
22C
330
1F
100
AcDbEntity
  8
0
  6
DOT
 62
     7
100
AcDbLine
 10
349.5
 20
160.9393398282202
 30
0.0
 11
354.0000000000001
 21
160.9393398282202
 31
0.0
  0
ARC
  5
22D
330
1F
100
AcDbEntity
  8
0
  6
DOT
 62
     7
100
AcDbCircle
 10
412.0
 20
248.9393398282202
 30
0.0
 40
2.000000000000002
100
AcDbArc
 50
269.9999999999999
 51
359.9999999999998
  0
ARC
  5
22E
330
1F
100
AcDbEntity
  8
0
  6
DOT
 62
     7
100
AcDbCircle
 10
412.0
 20
158.9393398282201
 30
0.0
 40
2.000000000000002
100
AcDbArc
 50
0.0000000000005684
 51
90.00000000000011
  0
ARC
  5
22F
330
1F
100
AcDbEntity
  8
0
  6
DOT
 62
     7
100
AcDbCircle
 10
405.0
 20
246.9393398282202
 30
0.0
 40
1.000000000000001
100
AcDbArc
 50
359.9999999999993
 51
180.0000000000006
  0
ARC
  5
230
330
1F
100
AcDbEntity
  8
0
  6
DOT
 62
     7
100
AcDbCircle
 10
405.0
 20
160.9393398282201
 30
0.0
 40
1.000000000000001
100
AcDbArc
 50
179.9999999999998
 51
0.0000000000001137
  0
LINE
  5
231
330
1F
100
AcDbEntity
  8
0
  6
DOT
 62
     7
100
AcDbLine
 10
412.0
 20
246.9393398282202
 30
0.0
 11
406.0
 21
246.9393398282202
 31
0.0
  0
LINE
  5
232
330
1F
100
AcDbEntity
  8
0
  6
DOT
 62
     7
100
AcDbLine
 10
406.0
 20
160.9393398282202
 30
0.0
 11
412.0
 21
160.9393398282202
 31
0.0
  0
ARC
  5
233
330
1F
100
AcDbEntity
  8
0
  6
CONTINUOUS
 62
     7
100
AcDbCircle
 10
709.5613998199873
 20
366.9393398282202
 30
0.0
 40
2.000000000000002
100
AcDbArc
 50
90.0
 51
134.9999999999993
  0
LINE
  5
234
330
1F
100
AcDbEntity
  8
0
  6
CONTINUOUS
 62
     7
100
AcDbLine
 10
696.0886688883154
 20
271.583643635146
 30
0.0
 11
697.2200397382139
 21
272.7150144850444
 31
0.0
  0
ARC
  5
235
330
1F
100
AcDbEntity
  8
0
  6
CONTINUOUS
 62
     7
100
AcDbCircle
 10
770.4386001800125
 20
260.9393398282202
 30
0.0
 40
2.000000000000002
100
AcDbArc
 50
270.0
 51
314.9999999999998
  0
ARC
  5
236
330
1F
100
AcDbEntity
  8
0
  6
CONTINUOUS
 62
     7
100
AcDbCircle
 10
687.0
 20
283.5007396482076
 30
0.0
 40
2.000000000000002
100
AcDbArc
 50
180.0
 51
225.0000000000002
  0
LINE
  5
237
330
1F
100
AcDbEntity
  8
0
  6
CONTINUOUS
 62
     7
100
AcDbLine
 10
740.0
 20
368.9393398282202
 30
0.0
 11
685.0
 21
368.9393398282202
 31
0.0
  0
LINE
  5
238
330
1F
100
AcDbEntity
  8
0
  6
CONTINUOUS
 62
     7
100
AcDbLine
 10
684.9999999999999
 20
368.9393398282201
 30
0.0
 11
630.0
 21
368.9393398282201
 31
0.0
  0
LINE
  5
239
330
1F
100
AcDbEntity
  8
0
  6
CONTINUOUS
 62
     7
100
AcDbLine
 10
696.5129329570273
 20
358.840620433566
 30
0.0
 11
695.0987193946543
 21
357.4264068711929
 31
0.0
  0
LINE
  5
23A
330
1F
100
AcDbEntity
  8
0
  6
CONTINUOUS
 62
     7
100
AcDbLine
 10
708.1471862576143
 20
368.3535533905933
 30
0.0
 11
697.5735931288071
 21
357.7799602617861
 31
0.0
  0
ARC
  5
23B
330
1F
100
AcDbEntity
  8
0
  6
CONTINUOUS
 62
     7
100
AcDbCircle
 10
794.9999999999999
 20
313.9393398282202
 30
0.0
 40
1.59999999999999
100
AcDbArc
 50
90.0
 51
270.0
  0
LINE
  5
23C
330
1F
100
AcDbEntity
  8
0
  6
CONTINUOUS
 62
     7
100
AcDbLine
 10
685.5857864376269
 20
282.0865260858345
 30
0.0
 11
696.0886688883154
 21
271.583643635146
 31
0.0
  0
ARC
  5
23D
330
1F
100
AcDbEntity
  8
0
  6
CONTINUOUS
 62
     7
100
AcDbCircle
 10
687.0
 20
344.3779400082328
 30
0.0
 40
2.000000000000071
100
AcDbArc
 50
135.0
 51
180.0000000000008
  0
LINE
  5
23E
330
1F
100
AcDbEntity
  8
0
  6
CONTINUOUS
 62
     7
100
AcDbLine
 10
697.6443038069258
 20
270.0280087165356
 30
0.0
 11
708.1471862576142
 21
259.5251262658471
 31
0.0
  0
LINE
  5
23F
330
1F
100
AcDbEntity
  8
0
  6
CONTINUOUS
 62
     7
100
AcDbLine
 10
783.840620433566
 20
356.3657466994131
 30
0.0
 11
784.9012806053458
 21
357.4264068711929
 31
0.0
  0
LINE
  5
240
330
1F
100
AcDbEntity
  8
0
  6
CONTINUOUS
 62
     7
100
AcDbLine
 10
782.3556961930742
 20
270.0280087165356
 30
0.0
 11
781.2243253431758
 21
271.159379566434
 31
0.0
  0
LINE
  5
241
330
1F
100
AcDbEntity
  8
0
  6
CONTINUOUS
 62
     7
100
AcDbLine
 10
794.9999999999999
 20
258.9393398282202
 30
0.0
 11
794.9999999999999
 21
313.9393398282202
 31
0.0
  0
LINE
  5
242
330
1F
100
AcDbEntity
  8
0
  6
CONTINUOUS
 62
     7
100
AcDbLine
 10
275.0
 20
368.9393398282202
 30
0.0
 11
419.0000000000001
 21
368.9393398282202
 31
0.0
  0
LINE
  5
243
330
1F
100
AcDbEntity
  8
0
  6
CONTINUOUS
 62
     7
100
AcDbLine
 10
696.159379566434
 20
356.365746699413
 30
0.0
 11
685.5857864376269
 21
345.7921535706059
 31
0.0
  0
LINE
  5
244
330
1F
100
AcDbEntity
  8
0
  6
CENTER
 62
     1
100
AcDbLine
 10
260.0
 20
313.9393398282202
 30
0.0
 11
425.0000000000001
 21
313.9393398282202
 31
0.0
  0
LINE
  5
245
330
1F
100
AcDbEntity
  8
0
  6
CONTINUOUS
 62
     7
100
AcDbLine
 10
697.2200397382139
 20
272.7150144850444
 30
0.0
 11
698.7756746568243
 21
271.159379566434
 31
0.0
  0
LINE
  5
246
330
1F
100
AcDbEntity
  8
0
  6
CONTINUOUS
 62
     7
100
AcDbLine
 10
740.0
 20
258.9393398282202
 30
0.0
 11
794.9999999999999
 21
258.9393398282202
 31
0.0
  0
LINE
  5
247
330
1F
100
AcDbEntity
  8
0
  6
CONTINUOUS
 62
     7
100
AcDbLine
 10
740.0
 20
368.9393398282202
 30
0.0
 11
685.0
 21
368.9393398282202
 31
0.0
  0
LINE
  5
248
330
1F
100
AcDbEntity
  8
0
  6
CONTINUOUS
 62
     7
100
AcDbLine
 10
794.9999999999999
 20
368.9393398282201
 30
0.0
 11
740.0
 21
368.9393398282201
 31
0.0
  0
ARC
  5
249
330
1F
100
AcDbEntity
  8
0
  6
CONTINUOUS
 62
     7
100
AcDbCircle
 10
770.4386001800125
 20
366.9393398282201
 30
0.0
 40
2.000000000000032
100
AcDbArc
 50
44.99999999999888
 51
89.99999999999947
  0
LINE
  5
24A
330
1F
100
AcDbEntity
  8
0
  6
CONTINUOUS
 62
     7
100
AcDbLine
 10
695.0987193946543
 20
357.4264068711929
 30
0.0
 11
696.1593795664342
 21
356.365746699413
 31
0.0
  0
LINE
  5
24B
330
1F
100
AcDbEntity
  8
0
  6
CONTINUOUS
 62
     7
100
AcDbLine
 10
685.0
 20
313.9393398282202
 30
0.0
 11
685.0
 21
258.9393398282202
 31
0.0
  0
ARC
  5
24C
330
1F
100
AcDbEntity
  8
0
  6
CONTINUOUS
 62
     7
100
AcDbCircle
 10
792.9999999999999
 20
344.3779400082328
 30
0.0
 40
2.000000000000002
100
AcDbArc
 50
0.0
 51
44.99999999999972
  0
LINE
  5
24D
330
1F
100
AcDbEntity
  8
0
  6
CENTER
 62
     1
100
AcDbLine
 10
740.0
 20
245.0
 30
0.0
 11
740.0
 21
380.0
 31
0.0
  0
LINE
  5
24E
330
1F
100
AcDbEntity
  8
0
  6
CONTINUOUS
 62
     7
100
AcDbLine
 10
698.7756746568243
 20
271.159379566434
 30
0.0
 11
697.6443038069259
 21
270.0280087165356
 31
0.0
  0
LINE
  5
24F
330
1F
100
AcDbEntity
  8
0
  6
CONTINUOUS
 62
     7
100
AcDbLine
 10
783.9113311116845
 20
271.583643635146
 30
0.0
 11
794.414213562373
 21
282.0865260858345
 31
0.0
  0
LINE
  5
250
330
1F
100
AcDbEntity
  8
0
  6
CONTINUOUS
 62
     7
100
AcDbLine
 10
781.2243253431757
 20
271.159379566434
 30
0.0
 11
782.7799602617861
 21
272.7150144850445
 31
0.0
  0
LINE
  5
251
330
1F
100
AcDbEntity
  8
0
  6
CONTINUOUS
 62
     7
100
AcDbLine
 10
794.4142135623731
 20
345.7921535706059
 30
0.0
 11
783.840620433566
 21
356.365746699413
 31
0.0
  0
LINE
  5
252
330
1F
100
AcDbEntity
  8
0
  6
CONTINUOUS
 62
     7
100
AcDbLine
 10
685.0
 20
368.9393398282202
 30
0.0
 11
740.0
 21
368.9393398282202
 31
0.0
  0
LINE
  5
253
330
1F
100
AcDbEntity
  8
0
  6
CONTINUOUS
 62
     7
100
AcDbLine
 10
794.9999999999999
 20
313.9393398282202
 30
0.0
 11
794.9999999999999
 21
368.9393398282201
 31
0.0
  0
LINE
  5
254
330
1F
100
AcDbEntity
  8
0
  6
CONTINUOUS
 62
     7
100
AcDbLine
 10
685.0
 20
368.9393398282202
 30
0.0
 11
685.0
 21
313.9393398282201
 31
0.0
  0
ARC
  5
255
330
1F
100
AcDbEntity
  8
0
  6
CONTINUOUS
 62
     7
100
AcDbCircle
 10
709.5613998199873
 20
366.9393398282202
 30
0.0
 40
2.000000000000002
100
AcDbArc
 50
90.0
 51
134.9999999999993
  0
LINE
  5
256
330
1F
100
AcDbEntity
  8
0
  6
CENTER
 62
     1
100
AcDbLine
 10
674.9999999999999
 20
313.9393398282202
 30
0.0
 11
804.9999999999999
 21
313.9393398282202
 31
0.0
  0
LINE
  5
257
330
1F
100
AcDbEntity
  8
0
  6
CONTINUOUS
 62
     7
100
AcDbLine
 10
740.0
 20
368.9393398282201
 30
0.0
 11
794.9999999999999
 21
368.9393398282201
 31
0.0
  0
LINE
  5
258
330
1F
100
AcDbEntity
  8
0
  6
CONTINUOUS
 62
     7
100
AcDbLine
 10
697.5735931288071
 20
357.7799602617861
 30
0.0
 11
696.5129329570273
 21
358.8406204335659
 31
0.0
  0
CIRCLE
  5
259
330
1F
100
AcDbEntity
  8
0
  6
CONTINUOUS
 62
     7
100
AcDbCircle
 10
740.0
 20
313.9393398282202
 30
0.0
 40
40.00000000000001
  0
LINE
  5
25A
330
1F
100
AcDbEntity
  8
0
  6
CONTINUOUS
 62
     7
100
AcDbLine
 10
270.4999999999999
 20
148.9393398282202
 30
0.0
 11
270.4999999999999
 21
258.9393398282202
 31
0.0
  0
LINE
  5
25B
330
1F
100
AcDbEntity
  8
0
  6
CENTER
 62
     1
100
AcDbLine
 10
520.0
 20
135.0
 30
0.0
 11
520.0
 21
270.0
 31
0.0
  0
LINE
  5
25C
330
1F
100
AcDbEntity
  8
0
  6
CONTINUOUS
 62
     7
100
AcDbLine
 10
275.0
 20
258.9393398282202
 30
0.0
 11
419.0000000000001
 21
258.9393398282202
 31
0.0
  0
LINE
  5
25D
330
1F
100
AcDbEntity
  8
0
  6
DOT
 62
     7
100
AcDbLine
 10
404.0
 20
246.9393398282202
 30
0.0
 11
404.0
 21
160.9393398282202
 31
0.0
  0
LINE
  5
25E
330
1F
100
AcDbEntity
  8
0
  6
CONTINUOUS
 62
     7
100
AcDbLine
 10
275.0
 20
148.9393398282202
 30
0.0
 11
419.0000000000001
 21
148.9393398282202
 31
0.0
  0
LINE
  5
25F
330
1F
100
AcDbEntity
  8
0
  6
CONTINUOUS
 62
     7
100
AcDbLine
 10
270.4999999999999
 20
148.9393398282202
 30
0.0
 11
275.0
 21
148.9393398282202
 31
0.0
  0
LINE
  5
260
330
1F
100
AcDbEntity
  8
0
  6
DOT
 62
     7
100
AcDbLine
 10
414.0
 20
205.4393398282202
 30
0.0
 11
414.0
 21
258.9393398282202
 31
0.0
  0
LINE
  5
261
330
1F
100
AcDbEntity
  8
0
  6
DOT
 62
     7
100
AcDbLine
 10
406.0
 20
246.9393398282202
 30
0.0
 11
406.0
 21
160.9393398282202
 31
0.0
  0
LINE
  5
262
330
1F
100
AcDbEntity
  8
0
  6
CENTER
 62
     1
100
AcDbLine
 10
260.0
 20
203.9393398282202
 30
0.0
 11
425.0000000000001
 21
203.9393398282202
 31
0.0
  0
LINE
  5
263
330
1F
100
AcDbEntity
  8
0
  6
CONTINUOUS
 62
     7
100
AcDbLine
 10
270.4999999999999
 20
258.9393398282202
 30
0.0
 11
275.0
 21
258.9393398282202
 31
0.0
  0
LINE
  5
264
330
1F
100
AcDbEntity
  8
0
  6
CENTER
 62
     1
100
AcDbLine
 10
455.0
 20
203.9393398282202
 30
0.0
 11
585.0
 21
203.9393398282202
 31
0.0
  0
LINE
  5
265
330
1F
100
AcDbEntity
  8
0
  6
DOT
 62
     7
100
AcDbLine
 10
306.0000000000001
 20
252.4393398282202
 30
0.0
 11
306.0000000000001
 21
155.4393398282202
 31
0.0
  0
LINE
  5
266
330
1F
100
AcDbEntity
  8
0
  6
DOT
 62
     7
100
AcDbLine
 10
414.0
 20
148.9393398282202
 30
0.0
 11
414.0
 21
202.4393398282201
 31
0.0
  0
ARC
  5
267
330
1F
100
AcDbEntity
  8
0
  6
CONTINUOUS
 62
     7
100
AcDbCircle
 10
520.0
 20
258.9393398282202
 30
0.0
 40
1.600000000000046
100
AcDbArc
 50
0.0000000000003411
 51
180.0
  0
LINE
  5
268
330
1F
100
AcDbEntity
  8
0
  6
CONTINUOUS
 62
     7
100
AcDbLine
 10
740.0
 20
148.9393398282202
 30
0.0
 11
794.9999999999999
 21
148.9393398282202
 31
0.0
  0
LINE
  5
269
330
1F
100
AcDbEntity
  8
0
  6
CONTINUOUS
 62
     7
100
AcDbLine
 10
783.840620433566
 20
246.3657466994131
 30
0.0
 11
784.9012806053458
 21
247.4264068711929
 31
0.0
  0
ARC
  5
26A
330
1F
100
AcDbEntity
  8
0
  6
CONTINUOUS
 62
     7
100
AcDbCircle
 10
709.5613998199873
 20
150.9393398282202
 30
0.0
 40
1.999999999999954
100
AcDbArc
 50
225.0000000000011
 51
270.0000000000019
  0
LINE
  5
26B
330
1F
100
AcDbEntity
  8
0
  6
CONTINUOUS
 62
     7
100
AcDbLine
 10
782.3556961930742
 20
160.0280087165356
 30
0.0
 11
781.2243253431758
 21
161.159379566434
 31
0.0
  0
LINE
  5
26C
330
1F
100
AcDbEntity
  8
0
  6
CONTINUOUS
 62
     7
100
AcDbLine
 10
696.5129329570273
 20
248.8406204335659
 30
0.0
 11
695.0987193946543
 21
247.4264068711929
 31
0.0
  0
LINE
  5
26D
330
1F
100
AcDbEntity
  8
0
  6
CONTINUOUS
 62
     7
100
AcDbLine
 10
781.2243253431757
 20
161.159379566434
 30
0.0
 11
782.7799602617861
 21
162.7150144850445
 31
0.0
  0
LINE
  5
26E
330
1F
100
AcDbEntity
  8
0
  6
CONTINUOUS
 62
     7
100
AcDbLine
 10
574.4142135623731
 20
345.7921535706059
 30
0.0
 11
563.840620433566
 21
356.365746699413
 31
0.0
  0
ARC
  5
26F
330
1F
100
AcDbEntity
  8
0
  6
CONTINUOUS
 62
     7
100
AcDbCircle
 10
575.0
 20
313.9393398282202
 30
0.0
 40
1.59999999999999
100
AcDbArc
 50
90.0
 51
270.0
  0
ARC
  5
270
330
1F
100
AcDbEntity
  8
0
  6
CONTINUOUS
 62
     7
100
AcDbCircle
 10
709.5613998199873
 20
256.9393398282202
 30
0.0
 40
2.000000000000002
100
AcDbArc
 50
90.0
 51
134.9999999999993
  0
LINE
  5
271
330
1F
100
AcDbEntity
  8
0
  6
CONTINUOUS
 62
     7
100
AcDbLine
 10
575.0
 20
258.9393398282202
 30
0.0
 11
575.0
 21
313.9393398282202
 31
0.0
  0
ARC
  5
272
330
1F
100
AcDbEntity
  8
0
  6
CONTINUOUS
 62
     7
100
AcDbCircle
 10
687.0
 20
173.5007396482076
 30
0.0
 40
2.000000000000002
100
AcDbArc
 50
180.0
 51
225.0000000000002
  0
LINE
  5
273
330
1F
100
AcDbEntity
  8
0
  6
CONTINUOUS
 62
     7
100
AcDbLine
 10
782.7799602617862
 20
162.7150144850445
 30
0.0
 11
783.9113311116846
 21
161.583643635146
 31
0.0
  0
ARC
  5
274
330
1F
100
AcDbEntity
  8
0
  6
CONTINUOUS
 62
     7
100
AcDbCircle
 10
572.9999999999999
 20
283.5007396482075
 30
0.0
 40
1.999999999999954
100
AcDbArc
 50
314.9999999999989
 51
359.9999999999996
  0
ARC
  5
275
330
1F
100
AcDbEntity
  8
0
  6
CONTINUOUS
 62
     7
100
AcDbCircle
 10
550.4386001800126
 20
260.9393398282202
 30
0.0
 40
2.000000000000002
100
AcDbArc
 50
270.0
 51
314.9999999999998
  0
LINE
  5
276
330
1F
100
AcDbEntity
  8
0
  6
CONTINUOUS
 62
     7
100
AcDbLine
 10
562.4264068711929
 20
357.7799602617861
 30
0.0
 11
551.8528137423857
 21
368.3535533905933
 31
0.0
  0
LINE
  5
277
330
1F
100
AcDbEntity
  8
0
  6
CONTINUOUS
 62
     7
100
AcDbLine
 10
465.0
 20
258.9393398282202
 30
0.0
 11
520.0
 21
258.9393398282202
 31
0.0
  0
LINE
  5
278
330
1F
100
AcDbEntity
  8
0
  6
CONTINUOUS
 62
     7
100
AcDbLine
 10
478.7756746568243
 20
271.159379566434
 30
0.0
 11
477.6443038069258
 21
270.0280087165356
 31
0.0
  0
LINE
  5
279
330
1F
100
AcDbEntity
  8
0
  6
CENTER
 62
     1
100
AcDbLine
 10
740.0
 20
135.0
 30
0.0
 11
740.0
 21
270.0
 31
0.0
  0
LINE
  5
27A
330
1F
100
AcDbEntity
  8
0
  6
CONTINUOUS
 62
     7
100
AcDbLine
 10
697.2200397382139
 20
162.7150144850444
 30
0.0
 11
698.7756746568243
 21
161.159379566434
 31
0.0
  0
ARC
  5
27B
330
1F
100
AcDbEntity
  8
0
  6
CONTINUOUS
 62
     7
100
AcDbCircle
 10
489.5613998199873
 20
260.9393398282202
 30
0.0
 40
1.999999999999993
100
AcDbArc
 50
225.0
 51
270.0000000000007
  0
LINE
  5
27C
330
1F
100
AcDbEntity
  8
0
  6
CONTINUOUS
 62
     7
100
AcDbLine
 10
696.0886688883154
 20
161.583643635146
 30
0.0
 11
697.2200397382139
 21
162.7150144850444
 31
0.0
  0
ENDSEC
  0
SECTION
  2
OBJECTS
  0
DICTIONARY
  5
C
330
0
100
AcDbDictionary
  3
ACAD_GROUP
350
D
  3
ACAD_LAYOUT
350
1A
  3
ACAD_MATERIAL
350
43
  3
ACAD_MLEADERSTYLE
350
6B
  3
ACAD_MLINESTYLE
350
17
  3
ACAD_PLOTSETTINGS
350
19
  3
ACAD_SCALELIST
350
47
  3
ACAD_VISUALSTYLE
350
2A
  3
ACDBHEADERROUNDTRIPXREC
350
27D
  3
ACDBVARIABLEDICTIONARY
350
29E
  0
DICTIONARY
  5
2A5
330
8
100
AcDbDictionary
280
     1
  3
ACAD_XREC_ROUNDTRIP
360
2A6
  0
DICTIONARY
  5
D
102
{ACAD_REACTORS
330
C
102
}
330
C
100
AcDbDictionary
  0
DICTIONARY
  5
1A
102
{ACAD_REACTORS
330
C
102
}
330
C
100
AcDbDictionary
  0
DICTIONARY
  5
43
102
{ACAD_REACTORS
330
C
102
}
330
C
100
AcDbDictionary
  3
BYBLOCK
350
45
  3
BYLAYER
350
44
  3
GLOBAL
350
46
  0
DICTIONARY
  5
6B
102
{ACAD_REACTORS
330
C
102
}
330
C
100
AcDbDictionary
  3
STANDARD
350
6C
  0
DICTIONARY
  5
17
102
{ACAD_REACTORS
330
C
102
}
330
C
100
AcDbDictionary
  3
STANDARD
350
18
  0
DICTIONARY
  5
19
102
{ACAD_REACTORS
330
C
102
}
330
C
100
AcDbDictionary
  0
DICTIONARY
  5
47
102
{ACAD_REACTORS
330
C
102
}
330
C
100
AcDbDictionary
  3
A0
350
48
  3
A1
350
49
  3
A2
350
4A
  3
A3
350
4B
  3
A4
350
4C
  3
A5
350
4D
  3
A6
350
4E
  3
A7
350
4F
  3
A8
350
50
  3
A9
350
51
  3
B0
350
52
  3
B1
350
53
  3
B2
350
54
  3
B3
350
55
  3
B4
350
56
  3
B5
350
57
  3
B6
350
58
  3
B7
350
59
  3
B8
350
5A
  3
B9
350
5B
  3
C0
350
5C
  3
C1
350
5D
  3
C2
350
5E
  3
C3
350
5F
  3
C4
350
60
  3
C5
350
61
  3
C6
350
62
  3
C7
350
63
  3
C8
350
64
  3
C9
350
65
  3
D0
350
66
  3
D1
350
67
  3
D2
350
68
  0
DICTIONARY
  5
2A
102
{ACAD_REACTORS
330
C
102
}
330
C
100
AcDbDictionary
  3
2DWIREFRAME
350
2F
  3
BASIC
350
32
  3
BRIGHTEN
350
36
  3
COLORCHANGE
350
3A
  3
CONCEPTUAL
350
34
  3
DIM
350
35
  3
EDGECOLOROFF
350
3D
  3
FACEPATTERN
350
39
  3
FLAT
350
2B
  3
FLATWITHEDGES
350
2C
  3
GOURAUD
350
2D
  3
GOURAUDWITHEDGES
350
2E
  3
HIDDEN
350
31
  3
JITTEROFF
350
3B
  3
LINEPATTERN
350
38
  3
OVERHANGOFF
350
3C
  3
REALISTIC
350
33
  3
SHADED
350
42
  3
SHADED_WITH_EDGES
350
41
  3
SHADES_OF_GRAY
350
3E
  3
SKETCHY
350
3F
  3
THICKEN
350
37
  3
WIREFRAME
350
30
  3
X-RAY
350
40
  0
DICTIONARY
  5
27D
102
{ACAD_REACTORS
330
C
102
}
330
C
100
AcDbDictionary
  3
CEPSNID
350
287
  3
CEPSNTYPE
350
286
  3
DIMSTYLEDATA
350
29D
  3
FINGERPRINTGUID
350
288
  3
HYPERLINKBASE
350
280
  3
INSUNITS
350
285
  3
LAYOUTDICT
350
282
  3
LWETCUNION
350
284
  3
PLOTSETDICT
350
283
  3
PSVPSCALE
350
28A
  3
PUCSBASE
350
28D
  3
PUCSORGBACK
350
293
  3
PUCSORGBOTTOM
350
28F
  3
PUCSORGFRONT
350
292
  3
PUCSORGLEFT
350
290
  3
PUCSORGRIGHT
350
291
  3
PUCSORGTOP
350
28E
  3
PUCSORTHOREF
350
28B
  3
PUCSORTHOVIEW
350
28C
  3
STYLESHEET
350
281
  3
TSTACKALIGN
350
27E
  3
TSTACKSIZE
350
27F
  3
UCSBASE
350
296
  3
UCSORGBACK
350
29C
  3
UCSORGBOTTOM
350
298
  3
UCSORGFRONT
350
29B
  3
UCSORGLEFT
350
299
  3
UCSORGRIGHT
350
29A
  3
UCSORGTOP
350
297
  3
UCSORTHOREF
350
294
  3
UCSORTHOVIEW
350
295
  3
VERSIONGUID
350
289
  0
DICTIONARY
  5
29E
102
{ACAD_REACTORS
330
C
102
}
330
C
100
AcDbDictionary
  3
CANNOSCALE
350
2A7
  3
CMLEADERSTYLE
350
2A0
  3
CTABLESTYLE
350
29F
  3
DIMASSOC
350
2A3
  3
HIDETEXT
350
2A4
  3
MSLTSCALE
350
2A8
  0
XRECORD
  5
2A6
102
{ACAD_REACTORS
330
2A5
102
}
330
2A5
100
AcDbXrecord
102
VTR_0.000_0.000_1.000_1.000_VISUALSTYLE
340
2F
102
VTR_0.000_0.000_1.000_1.000_GRIDDISPLAY
 70
     3
102
VTR_0.000_0.000_1.000_1.000_GRIDMAJOR
 70
     5
102
VTR_0.000_0.000_1.000_1.000_DEFAULTLIGHTING
280
     1
102
VTR_0.000_0.000_1.000_1.000_DEFAULTLIGHTINGTYPE
 70
     1
102
VTR_0.000_0.000_1.000_1.000_BRIGHTNESS
141
0.0
102
VTR_0.000_0.000_1.000_1.000_CONTRAST
142
0.0
  0
MATERIAL
  5
45
102
{ACAD_REACTORS
330
43
102
}
102
{ACAD_XDICTIONARY
360
2AB
102
}
330
43
100
AcDbMaterial
  1
BYBLOCK
  0
MATERIAL
  5
44
102
{ACAD_REACTORS
330
43
102
}
102
{ACAD_XDICTIONARY
360
2A9
102
}
330
43
100
AcDbMaterial
  1
BYLAYER
  0
MATERIAL
  5
46
102
{ACAD_REACTORS
330
43
102
}
102
{ACAD_XDICTIONARY
360
2AD
102
}
330
43
100
AcDbMaterial
  1
GLOBAL
  0
ACAD_PROXY_OBJECT
  5
6C
102
{ACAD_REACTORS
330
6B
102
}
330
6B
100
AcDbProxyObject
 90
      499
 91
      505
 93
      610
310
40901902A4063FBFFFFFE056BD1B81E855B9FC0AD7A3703D0AD73F4214DD185B99185C9900AD7A3703D0AC73F90141901A02B5E8DC0F42B1CFC02B5E8DC0F42B1CFE5764000000000000300FC0
340
14
340
0
340
11
340
0
 94
        0
1001
ACAD_MLEADERVER
1070
     2
  0
MLINESTYLE
  5
18
102
{ACAD_REACTORS
330
17
102
}
330
17
100
AcDbMlineStyle
  2
Standard
 70
     0
  3

 62
   256
 51
90.0
 52
90.0
 71
     2
 49
0.5
 62
   256
  6
BYLAYER
 49
-0.5
 62
   256
  6
BYLAYER
  0
ACAD_PROXY_OBJECT
  5
48
102
{ACAD_REACTORS
330
47
102
}
330
47
100
AcDbProxyObject
 90
      499
 91
      503
 93
       41
310
903313A31580
  0
ACAD_PROXY_OBJECT
  5
49
102
{ACAD_REACTORS
330
47
102
}
330
47
100
AcDbProxyObject
 90
      499
 91
      503
 93
      105
310
903313A324000000000000004000
  0
ACAD_PROXY_OBJECT
  5
4A
102
{ACAD_REACTORS
330
47
102
}
330
47
100
AcDbProxyObject
 90
      499
 91
      503
 93
      105
310
903313A344000000000000104000
  0
ACAD_PROXY_OBJECT
  5
4B
102
{ACAD_REACTORS
330
47
102
}
330
47
100
AcDbProxyObject
 90
      499
 91
      503
 93
      105
310
903313A354000000000000144000
  0
ACAD_PROXY_OBJECT
  5
4C
102
{ACAD_REACTORS
330
47
102
}
330
47
100
AcDbProxyObject
 90
      499
 91
      503
 93
      105
310
903313A384000000000000204000
  0
ACAD_PROXY_OBJECT
  5
4D
102
{ACAD_REACTORS
330
47
102
}
330
47
100
AcDbProxyObject
 90
      499
 91
      503
 93
      113
310
904313A31304000000000000244000
  0
ACAD_PROXY_OBJECT
  5
4E
102
{ACAD_REACTORS
330
47
102
}
330
47
100
AcDbProxyObject
 90
      499
 91
      503
 93
      113
310
904313A31364000000000000304000
  0
ACAD_PROXY_OBJECT
  5
4F
102
{ACAD_REACTORS
330
47
102
}
330
47
100
AcDbProxyObject
 90
      499
 91
      503
 93
      113
310
904313A32304000000000000344000
  0
ACAD_PROXY_OBJECT
  5
50
102
{ACAD_REACTORS
330
47
102
}
330
47
100
AcDbProxyObject
 90
      499
 91
      503
 93
      113
310
904313A333040000000000003E4000
  0
ACAD_PROXY_OBJECT
  5
51
102
{ACAD_REACTORS
330
47
102
}
330
47
100
AcDbProxyObject
 90
      499
 91
      503
 93
      113
310
904313A34304000000000000444000
  0
ACAD_PROXY_OBJECT
  5
52
102
{ACAD_REACTORS
330
47
102
}
330
47
100
AcDbProxyObject
 90
      499
 91
      503
 93
      113
310
904313A35304000000000000494000
  0
ACAD_PROXY_OBJECT
  5
53
102
{ACAD_REACTORS
330
47
102
}
330
47
100
AcDbProxyObject
 90
      499
 91
      503
 93
      121
310
905313A3130304000000000000594000
  0
ACAD_PROXY_OBJECT
  5
54
102
{ACAD_REACTORS
330
47
102
}
330
47
100
AcDbProxyObject
 90
      499
 91
      503
 93
      105
310
903323A310000000000000010100
  0
ACAD_PROXY_OBJECT
  5
55
102
{ACAD_REACTORS
330
47
102
}
330
47
100
AcDbProxyObject
 90
      499
 91
      503
 93
      105
310
903343A310000000000000410100
  0
ACAD_PROXY_OBJECT
  5
56
102
{ACAD_REACTORS
330
47
102
}
330
47
100
AcDbProxyObject
 90
      499
 91
      503
 93
      105
310
903383A310000000000000810100
  0
ACAD_PROXY_OBJECT
  5
57
102
{ACAD_REACTORS
330
47
102
}
330
47
100
AcDbProxyObject
 90
      499
 91
      503
 93
      113
310
90431303A310000000000000910100
  0
ACAD_PROXY_OBJECT
  5
58
102
{ACAD_REACTORS
330
47
102
}
330
47
100
AcDbProxyObject
 90
      499
 91
      503
 93
      121
310
9053130303A310000000000001650100
  0
ACAD_PROXY_OBJECT
  5
59
102
{ACAD_REACTORS
330
47
102
}
330
47
100
AcDbProxyObject
 90
      499
 91
      503
 93
      257
310
90E312F31323822203D2031272D3022000000000000200FC000000000000284000
  0
ACAD_PROXY_OBJECT
  5
5A
102
{ACAD_REACTORS
330
47
102
}
330
47
100
AcDbProxyObject
 90
      499
 91
      503
 93
      249
310
90D312F363422203D2031272D3022000000000000240FC000000000000284000
  0
ACAD_PROXY_OBJECT
  5
5B
102
{ACAD_REACTORS
330
47
102
}
330
47
100
AcDbProxyObject
 90
      499
 91
      503
 93
      249
310
90D312F333222203D2031272D3022000000000000280FC000000000000284000
  0
ACAD_PROXY_OBJECT
  5
5C
102
{ACAD_REACTORS
330
47
102
}
330
47
100
AcDbProxyObject
 90
      499
 91
      503
 93
      249
310
90D312F313622203D2031272D30220000000000002C0FC000000000000284000
  0
ACAD_PROXY_OBJECT
  5
5D
102
{ACAD_REACTORS
330
47
102
}
330
47
100
AcDbProxyObject
 90
      499
 91
      503
 93
      249
310
90D332F333222203D2031272D30220000000000002E0FC000000000000284000
  0
ACAD_PROXY_OBJECT
  5
5E
102
{ACAD_REACTORS
330
47
102
}
330
47
100
AcDbProxyObject
 90
      499
 91
      503
 93
      241
310
90C312F3822203D2031272D3022000000000000300FC000000000000284000
  0
ACAD_PROXY_OBJECT
  5
5F
102
{ACAD_REACTORS
330
47
102
}
330
47
100
AcDbProxyObject
 90
      499
 91
      503
 93
      249
310
90D332F313622203D2031272D3022000000000000320FC000000000000284000
  0
ACAD_PROXY_OBJECT
  5
60
102
{ACAD_REACTORS
330
47
102
}
330
47
100
AcDbProxyObject
 90
      499
 91
      503
 93
      241
310
90C312F3422203D2031272D3022000000000000340FC000000000000284000
  0
ACAD_PROXY_OBJECT
  5
61
102
{ACAD_REACTORS
330
47
102
}
330
47
100
AcDbProxyObject
 90
      499
 91
      503
 93
      241
310
90C332F3822203D2031272D3022000000000000360FC000000000000284000
  0
ACAD_PROXY_OBJECT
  5
62
102
{ACAD_REACTORS
330
47
102
}
330
47
100
AcDbProxyObject
 90
      499
 91
      503
 93
      241
310
90C312F3222203D2031272D3022000000000000380FC000000000000284000
  0
ACAD_PROXY_OBJECT
  5
63
102
{ACAD_REACTORS
330
47
102
}
330
47
100
AcDbProxyObject
 90
      499
 91
      503
 93
      241
310
90C332F3422203D2031272D30220000000000003A0FC000000000000284000
  0
ACAD_PROXY_OBJECT
  5
64
102
{ACAD_REACTORS
330
47
102
}
330
47
100
AcDbProxyObject
 90
      499
 91
      503
 93
      161
310
90A3122203D2031272D30224000000000000284000
  0
ACAD_PROXY_OBJECT
  5
65
102
{ACAD_REACTORS
330
47
102
}
330
47
100
AcDbProxyObject
 90
      499
 91
      503
 93
      257
310
90E312D312F3222203D2031272D30220000000000003E0FC000000000000284000
  0
ACAD_PROXY_OBJECT
  5
66
102
{ACAD_REACTORS
330
47
102
}
330
47
100
AcDbProxyObject
 90
      499
 91
      503
 93
      225
310
90A3322203D2031272D302200000000000002100000000000000284000
  0
ACAD_PROXY_OBJECT
  5
67
102
{ACAD_REACTORS
330
47
102
}
330
47
100
AcDbProxyObject
 90
      499
 91
      503
 93
      225
310
90A3622203D2031272D302200000000000006100000000000000284000
  0
ACAD_PROXY_OBJECT
  5
68
102
{ACAD_REACTORS
330
47
102
}
330
47
100
AcDbProxyObject
 90
      499
 91
      503
 93
      249
310
90D31272D3022203D2031272D30220000000000000A100000000000000284000
  0
ACAD_PROXY_OBJECT
  5
2F
102
{ACAD_REACTORS
330
2A
102
}
330
2A
100
AcDbProxyObject
 90
      499
 91
      501
 93
      436
310
42CC9915DA5C99599C985B595049028333333333333E33F0000000000000F90107901411070040501600405405064090741402480A0340
1001
ACAD
1000
AcDbSavedByObjectVersion
1070
     0
  0
ACAD_PROXY_OBJECT
  5
32
102
{ACAD_REACTORS
330
2A
102
}
330
2A
100
AcDbProxyObject
 90
      499
 91
      501
 93
      388
310
4150985CDA58D07406404333333333333E33F0000000000000F90107A41107004050150841D405064090741402480A0350
1001
ACAD
1000
AcDbSavedByObjectVersion
1070
     0
  0
ACAD_PROXY_OBJECT
  5
36
102
{ACAD_REACTORS
330
2A
102
}
330
2A
100
AcDbProxyObject
 90
      499
 91
      501
 93
      428
310
42109C9A59DA1D195B90C409028333333333333E33F0000000000000F9010790141107004050150841D405064090741402480A029950
1001
ACAD
1000
AcDbSavedByObjectVersion
1070
     0
  0
ACAD_PROXY_OBJECT
  5
3A
102
{ACAD_REACTORS
330
2A
102
}
330
2A
100
AcDbProxyObject
 90
      499
 91
      501
 93
      452
310
42D0DBDB1BDC90DA185B99D95104090240C333333333333E33F0000000000000F90108901411070040501508421405064090741402480A0350
1001
ACAD
1000
AcDbSavedByObjectVersion
1070
     0
  0
ACAD_PROXY_OBJECT
  5
34
102
{ACAD_REACTORS
330
2A
102
}
330
2A
100
AcDbProxyObject
 90
      499
 91
      501
 93
      500
310
4290DBDB98D95C1D1D585B10940D028333333333333E33F0000000000000F90107902409070040501000000000018199010841D405064090740C02480A0340
1001
ACAD
1000
AcDbSavedByObjectVersion
1070
     0
  0
ACAD_PROXY_OBJECT
  5
35
102
{ACAD_REACTORS
330
2A
102
}
330
2A
100
AcDbProxyObject
 90
      499
 91
      501
 93
      412
310
40D11A5B50B409028333333333333E33F0000000000000F9010790141107004050150841D405064090741402480A02677FFFFFD0
1001
ACAD
1000
AcDbSavedByObjectVersion
1070
     0
  0
ACAD_PROXY_OBJECT
  5
3D
102
{ACAD_REACTORS
330
2A
102
}
330
2A
100
AcDbProxyObject
 90
      499
 91
      501
 93
      452
310
43115919D950DBDB1BDC93D999916409028333333333333E33F0000000000000F9010790141107004050150841D405064090741402480A0350
1001
ACAD
1000
AcDbSavedByObjectVersion
1070
     0
  0
ACAD_PROXY_OBJECT
  5
39
102
{ACAD_REACTORS
330
2A
102
}
330
2A
100
AcDbProxyObject
 90
      499
 91
      501
 93
      444
310
42D19858D95C185D1D195C9B90F409028333333333333E33F0000000000000F9010790141107004050150841D405064090741402480A0350
1001
ACAD
1000
AcDbSavedByObjectVersion
1070
     0
  0
ACAD_PROXY_OBJECT
  5
2B
102
{ACAD_REACTORS
330
2A
102
}
330
2A
100
AcDbProxyObject
 90
      499
 91
      501
 93
      380
310
41119B185D240901404333333333333E33F0000000000000F9010740A907004050150841D405064090741402480A1B50
1001
ACAD
1000
AcDbSavedByObjectVersion
1070
     0
  0
ACAD_PROXY_OBJECT
  5
2C
102
{ACAD_REACTORS
330
2A
102
}
330
2A
100
AcDbProxyObject
 90
      499
 91
      501
 93
      468
310
43519B185D15DA5D1A115919D95CD0140901404333333333333E33F0000000000000F90107409019070040501600405405064090741402480A1B50
1001
ACAD
1000
AcDbSavedByObjectVersion
1070
     0
  0
ACAD_PROXY_OBJECT
  5
2D
102
{ACAD_REACTORS
330
2A
102
}
330
2A
100
AcDbProxyObject
 90
      499
 91
      501
 93
      404
310
41D1DBDD5C985D5910240902404333333333333E33F0000000000000F9010740A9070040501641D405064090741402480A1B50
1001
ACAD
1000
AcDbSavedByObjectVersion
1070
     0
  0
ACAD_PROXY_OBJECT
  5
2E
102
{ACAD_REACTORS
330
2A
102
}
330
2A
100
AcDbProxyObject
 90
      499
 91
      501
 93
      492
310
4411DBDD5C985D5915DA5D1A115919D95CD0340902404333333333333E33F0000000000000F90107409019070040501600405405064090741402480A1B50
1001
ACAD
1000
AcDbSavedByObjectVersion
1070
     0
  0
ACAD_PROXY_OBJECT
  5
31
102
{ACAD_REACTORS
330
2A
102
}
330
2A
100
AcDbProxyObject
 90
      499
 91
      501
 93
      476
310
41921A5919195B90640502408333333333333E33F0000000000000F901079024090700405020000000000001110200405405064090740C02480A0340
1001
ACAD
1000
AcDbSavedByObjectVersion
1070
     0
  0
ACAD_PROXY_OBJECT
  5
3B
102
{ACAD_REACTORS
330
2A
102
}
330
2A
100
AcDbProxyObject
 90
      499
 91
      501
 93
      428
310
42529A5D1D195C93D999914409028333333333333E33F0000000000000F9010790141107004050150A41D405064090741402480A0350
1001
ACAD
1000
AcDbSavedByObjectVersion
1070
     0
  0
ACAD_PROXY_OBJECT
  5
38
102
{ACAD_REACTORS
330
2A
102
}
330
2A
100
AcDbProxyObject
 90
      499
 91
      501
 93
      444
310
42D31A5B995C185D1D195C9B90E409028333333333333E33F0000000000000F9010790141107004050750841D405064090741402483A0350
1001
ACAD
1000
AcDbSavedByObjectVersion
1070
     0
  0
ACAD_PROXY_OBJECT
  5
3C
102
{ACAD_REACTORS
330
2A
102
}
330
2A
100
AcDbProxyObject
 90
      499
 91
      501
 93
      444
310
42D3DD995C9A185B99D3D999915409028333333333333E33F0000000000000F9010790141107004050150941D405064090741402480A0350
1001
ACAD
1000
AcDbSavedByObjectVersion
1070
     0
  0
ACAD_PROXY_OBJECT
  5
33
102
{ACAD_REACTORS
330
2A
102
}
330
2A
100
AcDbProxyObject
 90
      499
 91
      501
 93
      428
310
425499585B1A5CDD1A58D08409038333333333333E33F0000000000000F9010740A907004050150800405405064090740C02480A1B40
1001
ACAD
1000
AcDbSavedByObjectVersion
1070
     0
  0
ACAD_PROXY_OBJECT
  5
42
102
{ACAD_REACTORS
330
2A
102
}
330
2A
100
AcDbProxyObject
 90
      499
 91
      501
 93
      420
310
4194DA1859195911B40902404333333333333E33F0000000000000F9010740A41107004050150800405405064090840C02480A0B40
1001
ACAD
1000
AcDbSavedByObjectVersion
1070
     0
  0
ACAD_PROXY_OBJECT
  5
41
102
{ACAD_REACTORS
330
2A
102
}
330
2A
100
AcDbProxyObject
 90
      499
 91
      501
 93
      516
310
4454DA18591959081DDA5D1A08195919D95CD1A40902404333333333333E33F0000000000000F901074090142907004050250800405405064090740C02480A0B40
1001
ACAD
1000
AcDbSavedByObjectVersion
1070
     0
  0
ACAD_PROXY_OBJECT
  5
3E
102
{ACAD_REACTORS
330
2A
102
}
330
2A
100
AcDbProxyObject
 90
      499
 91
      501
 93
      532
310
4394DA1859195CC81BD98811DC985E5174090240C333333333333E33F0000000000000F901079024090741D01000000000000111010841D405064090740C02480A0340
1001
ACAD
1000
AcDbSavedByObjectVersion
1070
     0
  0
ACAD_PROXY_OBJECT
  5
3F
102
{ACAD_REACTORS
330
2A
102
}
330
2A
100
AcDbProxyObject
 90
      499
 91
      501
 93
      476
310
41D4DAD95D18DA1E51840502408333333333333E33F0000000000000F901079024090741D01000000000000111010B41D405064090741802480A0340
1001
ACAD
1000
AcDbSavedByObjectVersion
1070
     0
  0
ACAD_PROXY_OBJECT
  5
37
102
{ACAD_REACTORS
330
2A
102
}
330
2A
100
AcDbProxyObject
 90
      499
 91
      501
 93
      412
310
41D51A1A58DAD95B90D409028333333333333E33F0000000000000F9010790141107004050150C41D405064090741402480A0350
1001
ACAD
1000
AcDbSavedByObjectVersion
1070
     0
  0
ACAD_PROXY_OBJECT
  5
30
102
{ACAD_REACTORS
330
2A
102
}
330
2A
100
AcDbProxyObject
 90
      499
 91
      501
 93
      420
310
4255DA5C99599C985B595059028333333333333E33F0000000000000F90107901411070040501600405405064090740C02480A0340
1001
ACAD
1000
AcDbSavedByObjectVersion
1070
     0
  0
ACAD_PROXY_OBJECT
  5
40
102
{ACAD_REACTORS
330
2A
102
}
330
2A
100
AcDbProxyObject
 90
      499
 91
      501
 93
      404
310
41560B54985E51940902404000000000000E03F0000000000000F9010740501907004050150841D405064090740C02480A1B40
1001
ACAD
1000
AcDbSavedByObjectVersion
1070
     0
  0
XRECORD
  5
287
102
{ACAD_REACTORS
330
27D
102
}
330
27D
100
AcDbXrecord
340
0
  0
XRECORD
  5
286
102
{ACAD_REACTORS
330
27D
102
}
330
27D
100
AcDbXrecord
 90
        0
  0
XRECORD
  5
29D
102
{ACAD_REACTORS
330
27D
102
}
330
27D
100
AcDbXrecord
1000
DSTYLE
1002
{
1070
   179
 70
     2
1070
   171
 70
     2
1070
   143
 40
25.4
1070
   274
 70
     2
1070
    41
 40
3.0
1070
   141
 40
0.09
1070
    43
 40
0.38
1070
   278
 70
    46
1070
    44
 40
1.5
1070
    42
 40
0.0625
1070
   147
 40
1.5
1070
   272
 70
     4
1070
    73
 70
     1
1070
   172
 70
     0
1070
    74
 70
     1
1070
   283
 70
     1
1070
   340
340
6E
1070
   140
 40
3.0
1070
   284
 70
     0
1070
    78
 70
     0
1002
}
  0
XRECORD
  5
288
102
{ACAD_REACTORS
330
27D
102
}
330
27D
100
AcDbXrecord
  1
{68DF8C76-CC97-40E8-968E-18D899C0D858}
  0
XRECORD
  5
280
102
{ACAD_REACTORS
330
27D
102
}
330
27D
100
AcDbXrecord
  1

  0
XRECORD
  5
285
102
{ACAD_REACTORS
330
27D
102
}
330
27D
100
AcDbXrecord
 90
        4
  0
XRECORD
  5
282
102
{ACAD_REACTORS
330
27D
102
}
330
27D
100
AcDbXrecord
340
1A
  0
XRECORD
  5
284
102
{ACAD_REACTORS
330
27D
102
}
330
27D
100
AcDbXrecord
 90
    10269
  0
XRECORD
  5
283
102
{ACAD_REACTORS
330
27D
102
}
330
27D
100
AcDbXrecord
340
19
  0
XRECORD
  5
28A
102
{ACAD_REACTORS
330
27D
102
}
330
27D
100
AcDbXrecord
 40
0.0
  0
XRECORD
  5
28D
102
{ACAD_REACTORS
330
27D
102
}
330
27D
100
AcDbXrecord
340
0
  0
XRECORD
  5
293
102
{ACAD_REACTORS
330
27D
102
}
330
27D
100
AcDbXrecord
 10
0.0
 20
0.0
 30
0.0
  0
XRECORD
  5
28F
102
{ACAD_REACTORS
330
27D
102
}
330
27D
100
AcDbXrecord
 10
0.0
 20
0.0
 30
0.0
  0
XRECORD
  5
292
102
{ACAD_REACTORS
330
27D
102
}
330
27D
100
AcDbXrecord
 10
0.0
 20
0.0
 30
0.0
  0
XRECORD
  5
290
102
{ACAD_REACTORS
330
27D
102
}
330
27D
100
AcDbXrecord
 10
0.0
 20
0.0
 30
0.0
  0
XRECORD
  5
291
102
{ACAD_REACTORS
330
27D
102
}
330
27D
100
AcDbXrecord
 10
0.0
 20
0.0
 30
0.0
  0
XRECORD
  5
28E
102
{ACAD_REACTORS
330
27D
102
}
330
27D
100
AcDbXrecord
 10
0.0
 20
0.0
 30
0.0
  0
XRECORD
  5
28B
102
{ACAD_REACTORS
330
27D
102
}
330
27D
100
AcDbXrecord
340
0
  0
XRECORD
  5
28C
102
{ACAD_REACTORS
330
27D
102
}
330
27D
100
AcDbXrecord
 70
     0
  0
XRECORD
  5
281
102
{ACAD_REACTORS
330
27D
102
}
330
27D
100
AcDbXrecord
  1

  0
XRECORD
  5
27E
102
{ACAD_REACTORS
330
27D
102
}
330
27D
100
AcDbXrecord
 90
        1
  0
XRECORD
  5
27F
102
{ACAD_REACTORS
330
27D
102
}
330
27D
100
AcDbXrecord
 90
       70
  0
XRECORD
  5
296
102
{ACAD_REACTORS
330
27D
102
}
330
27D
100
AcDbXrecord
340
0
  0
XRECORD
  5
29C
102
{ACAD_REACTORS
330
27D
102
}
330
27D
100
AcDbXrecord
 10
0.0
 20
0.0
 30
0.0
  0
XRECORD
  5
298
102
{ACAD_REACTORS
330
27D
102
}
330
27D
100
AcDbXrecord
 10
0.0
 20
0.0
 30
0.0
  0
XRECORD
  5
29B
102
{ACAD_REACTORS
330
27D
102
}
330
27D
100
AcDbXrecord
 10
0.0
 20
0.0
 30
0.0
  0
XRECORD
  5
299
102
{ACAD_REACTORS
330
27D
102
}
330
27D
100
AcDbXrecord
 10
0.0
 20
0.0
 30
0.0
  0
XRECORD
  5
29A
102
{ACAD_REACTORS
330
27D
102
}
330
27D
100
AcDbXrecord
 10
0.0
 20
0.0
 30
0.0
  0
XRECORD
  5
297
102
{ACAD_REACTORS
330
27D
102
}
330
27D
100
AcDbXrecord
 10
0.0
 20
0.0
 30
0.0
  0
XRECORD
  5
294
102
{ACAD_REACTORS
330
27D
102
}
330
27D
100
AcDbXrecord
340
0
  0
XRECORD
  5
295
102
{ACAD_REACTORS
330
27D
102
}
330
27D
100
AcDbXrecord
 70
     0
  0
XRECORD
  5
289
102
{ACAD_REACTORS
330
27D
102
}
330
27D
100
AcDbXrecord
  1
{FAEB1C32-E019-11D5-929B-00C0DF256EC4}
  0
DICTIONARYVAR
  5
2A7
102
{ACAD_REACTORS
330
29E
102
}
330
29E
100
DictionaryVariables
280
     0
  1
1:1
  0
DICTIONARYVAR
  5
2A0
102
{ACAD_REACTORS
330
29E
102
}
330
29E
100
DictionaryVariables
280
     0
  1
Standard
  0
DICTIONARYVAR
  5
29F
102
{ACAD_REACTORS
330
29E
102
}
330
29E
100
DictionaryVariables
280
     0
  1
Standard
  0
DICTIONARYVAR
  5
2A3
102
{ACAD_REACTORS
330
29E
102
}
330
29E
100
DictionaryVariables
280
     0
  1
2
  0
DICTIONARYVAR
  5
2A4
102
{ACAD_REACTORS
330
29E
102
}
330
29E
100
DictionaryVariables
280
     0
  1
1
  0
DICTIONARYVAR
  5
2A8
102
{ACAD_REACTORS
330
29E
102
}
330
29E
100
DictionaryVariables
280
     0
  1
1
  0
DICTIONARY
  5
2AB
330
45
100
AcDbDictionary
280
     1
  3
ACAD_XREC_ROUNDTRIP
360
2AC
  0
DICTIONARY
  5
2A9
330
44
100
AcDbDictionary
280
     1
  3
ACAD_XREC_ROUNDTRIP
360
2AA
  0
DICTIONARY
  5
2AD
330
46
100
AcDbDictionary
280
     1
  3
ACAD_XREC_ROUNDTRIP
360
2AE
  0
XRECORD
  5
2AC
102
{ACAD_REACTORS
330
2AB
102
}
330
2AB
100
AcDbXrecord
102
MATERIAL
148
0.0
149
0.0
149
0.0
 93
        0
 94
      127
282
     0
 72
     1
 77
     1
171
     1
175
     1
179
     1
273
     0
  0
XRECORD
  5
2AA
102
{ACAD_REACTORS
330
2A9
102
}
330
2A9
100
AcDbXrecord
102
MATERIAL
148
0.0
149
0.0
149
0.0
 93
        0
 94
      127
282
     0
 72
     1
 77
     1
171
     1
175
     1
179
     1
273
     0
  0
XRECORD
  5
2AE
102
{ACAD_REACTORS
330
2AD
102
}
330
2AD
100
AcDbXrecord
102
MATERIAL
148
0.0
149
0.0
149
0.0
 93
        0
 94
      127
282
     0
 72
     1
 77
     1
171
     1
175
     1
179
     1
273
     0
  0
ENDSEC
  0
EOF
