  0
SECTION
  2
HEADER
  9
$ACADVER
  1
AC1014
  9
$ACADMAINTVER
 70
     9
  9
$DWGCODEPAGE
  3
ANSI_932
  9
$INSBASE
 10
0.0
 20
0.0
 30
0.0
  9
$EXTMIN
 10
-573.5955590066319
 20
67.95681818181819
 30
0.0
  9
$EXTMAX
 10
265.0312302828053
 20
327.7499999999824
 30
0.0
  9
$LIMMIN
 10
0.0
 20
0.0
  9
$LIMMAX
 10
12.0
 20
9.0
  9
$ORTHOMODE
 70
     0
  9
$REGENMODE
 70
     1
  9
$FILLMODE
 70
     1
  9
$QTEXTMODE
 70
     0
  9
$MIRRTEXT
 70
     1
  9
$DRAGMODE
 70
     2
  9
$LTSCALE
 40
1.0
  9
$OSMODE
 70
    37
  9
$ATTMODE
 70
     1
  9
$TEXTSIZE
 40
0.2
  9
$TRACEWID
 40
0.05
  9
$TEXTSTYLE
  7
STANDARD
  9
$CLAYER
  8
0
  9
$CELTYPE
  6
BYLAYER
  9
$CECOLOR
 62
   256
  9
$CELTSCALE
 40
1.0
  9
$DELOBJ
 70
     1
  9
$DISPSILH
 70
     0
  9
$DIMSCALE
 40
1.0
  9
$DIMASZ
 40
3.0
  9
$DIMEXO
 40
0.0625
  9
$DIMDLI
 40
0.38
  9
$DIMRND
 40
0.0
  9
$DIMDLE
 40
0.0
  9
$DIMEXE
 40
1.5
  9
$DIMTP
 40
0.0
  9
$DIMTM
 40
0.0
  9
$DIMTXT
 40
3.0
  9
$DIMCEN
 40
0.09
  9
$DIMTSZ
 40
0.0
  9
$DIMTOL
 70
     0
  9
$DIMLIM
 70
     0
  9
$DIMTIH
 70
     1
  9
$DIMTOH
 70
     1
  9
$DIMSE1
 70
     0
  9
$DIMSE2
 70
     0
  9
$DIMTAD
 70
     1
  9
$DIMZIN
 70
     0
  9
$DIMBLK
  1

  9
$DIMASO
 70
     1
  9
$DIMSHO
 70
     1
  9
$DIMPOST
  1

  9
$DIMAPOST
  1

  9
$DIMALT
 70
     0
  9
$DIMALTD
 70
     2
  9
$DIMALTF
 40
25.4
  9
$DIMLFAC
 40
1.0
  9
$DIMTOFL
 70
     0
  9
$DIMTVP
 40
0.0
  9
$DIMTIX
 70
     0
  9
$DIMSOXD
 70
     0
  9
$DIMSAH
 70
     0
  9
$DIMBLK1
  1

  9
$DIMBLK2
  1

  9
$DIMSTYLE
  2
STANDARD
  9
$DIMCLRD
 70
     0
  9
$DIMCLRE
 70
     0
  9
$DIMCLRT
 70
     0
  9
$DIMTFAC
 40
1.0
  9
$DIMGAP
 40
1.5
  9
$DIMJUST
 70
     0
  9
$DIMSD1
 70
     0
  9
$DIMSD2
 70
     0
  9
$DIMTOLJ
 70
     1
  9
$DIMTZIN
 70
     0
  9
$DIMALTZ
 70
     0
  9
$DIMALTTZ
 70
     0
  9
$DIMFIT
 70
     3
  9
$DIMUPT
 70
     0
  9
$DIMUNIT
 70
     2
  9
$DIMDEC
 70
     2
  9
$DIMTDEC
 70
     4
  9
$DIMALTU
 70
     2
  9
$DIMALTTD
 70
     2
  9
$DIMTXSTY
  7
ＭＳ_ゴシック
  9
$DIMAUNIT
 70
     0
  9
$LUNITS
 70
     2
  9
$LUPREC
 70
     4
  9
$SKETCHINC
 40
0.1
  9
$FILLETRAD
 40
0.5
  9
$AUNITS
 70
     0
  9
$AUPREC
 70
     0
  9
$MENU
  1
.
  9
$ELEVATION
 40
0.0
  9
$PELEVATION
 40
0.0
  9
$THICKNESS
 40
0.0
  9
$LIMCHECK
 70
     0
  9
$CHAMFERA
 40
0.0
  9
$CHAMFERB
 40
0.0
  9
$CHAMFERC
 40
0.0
  9
$CHAMFERD
 40
0.0
  9
$SKPOLY
 70
     0
  9
$TDCREATE
 40
2459277.728528206
  9
$TDUPDATE
 40
2459277.728528391
  9
$TDINDWG
 40
0.0000000116
  9
$TDUSRTIMER
 40
0.0000000116
  9
$USRTIMER
 70
     1
  9
$ANGBASE
 50
0.0
  9
$ANGDIR
 70
     0
  9
$PDMODE
 70
     0
  9
$PDSIZE
 40
0.0
  9
$PLINEWID
 40
0.0
  9
$COORDS
 70
     1
  9
$SPLFRAME
 70
     0
  9
$SPLINETYPE
 70
     6
  9
$SPLINESEGS
 70
     8
  9
$ATTDIA
 70
     0
  9
$ATTREQ
 70
     1
  9
$HANDLING
 70
     1
  9
$HANDSEED
  5
279
  9
$SURFTAB1
 70
     6
  9
$SURFTAB2
 70
     6
  9
$SURFTYPE
 70
     6
  9
$SURFU
 70
     6
  9
$SURFV
 70
     6
  9
$UCSNAME
  2

  9
$UCSORG
 10
0.0
 20
0.0
 30
0.0
  9
$UCSXDIR
 10
1.0
 20
0.0
 30
0.0
  9
$UCSYDIR
 10
0.0
 20
1.0
 30
0.0
  9
$PUCSNAME
  2

  9
$PUCSORG
 10
0.0
 20
0.0
 30
0.0
  9
$PUCSXDIR
 10
1.0
 20
0.0
 30
0.0
  9
$PUCSYDIR
 10
0.0
 20
1.0
 30
0.0
  9
$USERI1
 70
     0
  9
$USERI2
 70
     0
  9
$USERI3
 70
     0
  9
$USERI4
 70
     0
  9
$USERI5
 70
     0
  9
$USERR1
 40
0.0
  9
$USERR2
 40
0.0
  9
$USERR3
 40
0.0
  9
$USERR4
 40
0.0
  9
$USERR5
 40
0.0
  9
$WORLDVIEW
 70
     1
  9
$SHADEDGE
 70
     3
  9
$SHADEDIF
 70
    70
  9
$TILEMODE
 70
     1
  9
$MAXACTVP
 70
    64
  9
$PINSBASE
 10
0.0
 20
0.0
 30
0.0
  9
$PLIMCHECK
 70
     0
  9
$PEXTMIN
 10
1.000000000000000E+20
 20
1.000000000000000E+20
 30
1.000000000000000E+20
  9
$PEXTMAX
 10
-1.000000000000000E+20
 20
-1.000000000000000E+20
 30
-1.000000000000000E+20
  9
$PLIMMIN
 10
0.0
 20
0.0
  9
$PLIMMAX
 10
12.0
 20
9.0
  9
$UNITMODE
 70
     0
  9
$VISRETAIN
 70
     1
  9
$PLINEGEN
 70
     0
  9
$PSLTSCALE
 70
     1
  9
$TREEDEPTH
 70
  3020
  9
$PICKSTYLE
 70
     1
  9
$CMLSTYLE
  2
STANDARD
  9
$CMLJUST
 70
     0
  9
$CMLSCALE
 40
1.0
  9
$PROXYGRAPHICS
 70
     1
  9
$MEASUREMENT
 70
     1
  0
ENDSEC
  0
SECTION
  2
CLASSES
  0
CLASS
  1
ACDBDICTIONARYWDFLT
  2
AcDbDictionaryWithDefault
  3
ObjectDBX Classes
 90
        0
280
     0
281
     0
  0
CLASS
  1
VISUALSTYLE
  2
AcDbVisualStyle
  3
ObjectDBX Classes
 90
     4095
280
     0
281
     0
  0
CLASS
  1
MATERIAL
  2
AcDbMaterial
  3
ObjectDBX Classes
 90
     1153
280
     0
281
     0
  0
CLASS
  1
SCALE
  2
AcDbScale
  3
ObjectDBX Classes
 90
     1153
280
     0
281
     0
  0
CLASS
  1
TABLESTYLE
  2
AcDbTableStyle
  3
ObjectDBX Classes
 90
     4095
280
     0
281
     0
  0
CLASS
  1
MLEADERSTYLE
  2
AcDbMLeaderStyle
  3
ACDB_MLEADERSTYLE_CLASS
 90
     4095
280
     0
281
     0
  0
CLASS
  1
SUN
  2
AcDbSun
  3
SCENEOE
 90
     1153
280
     0
281
     0
  0
CLASS
  1
DICTIONARYVAR
  2
AcDbDictionaryVar
  3
ObjectDBX Classes
 90
        0
280
     0
281
     0
  0
CLASS
  1
XRECORD
  2
AcDbXrecord
  3
ObjectDBX Classes
 90
        0
280
     0
281
     0
  0
CLASS
  1
LWPOLYLINE
  2
AcDbPolyline
  3
ObjectDBX Classes
 90
        0
280
     0
281
     1
  0
CLASS
  1
HATCH
  2
AcDbHatch
  3
ObjectDBX Classes
 90
        0
280
     0
281
     1
  0
CLASS
  1
ACDBPLACEHOLDER
  2
AcDbPlaceHolder
  3
ObjectDBX Classes
 90
        0
280
     0
281
     0
  0
CLASS
  1
LAYOUT
  2
AcDbLayout
  3
ObjectDBX Classes
 90
        0
280
     0
281
     0
  0
ENDSEC
  0
SECTION
  2
TABLES
  0
TABLE
  2
VPORT
  5
8
102
{ACAD_XDICTIONARY
360
26E
102
}
330
0
100
AcDbSymbolTable
 70
     1
  0
VPORT
  5
29
330
8
100
AcDbSymbolTableRecord
100
AcDbViewportTableRecord
  2
*ACTIVE
 70
     0
 10
0.0
 20
0.0
 11
1.0
 21
1.0
 12
-154.2821643619133
 22
197.8534090909003
 13
0.0
 23
0.0
 14
0.5
 24
0.5
 15
0.5
 25
0.5
 16
0.0
 26
0.0
 36
1.0
 17
0.0
 27
0.0
 37
0.0
 40
259.7931818181643
 41
1.6
 42
50.0
 43
0.0
 44
0.0
 50
0.0
 51
0.0
 71
     0
 72
   100
 73
     1
 74
     3
 75
     0
 76
     0
 77
     0
 78
     0
  0
ENDTAB
  0
TABLE
  2
LTYPE
  5
5
330
0
100
AcDbSymbolTable
 70
     2
  0
LTYPE
  5
14
330
5
100
AcDbSymbolTableRecord
100
AcDbLinetypeTableRecord
  2
BYBLOCK
 70
     0
  3

 72
    65
 73
     0
 40
0.0
  0
LTYPE
  5
15
330
5
100
AcDbSymbolTableRecord
100
AcDbLinetypeTableRecord
  2
BYLAYER
 70
     0
  3

 72
    65
 73
     0
 40
0.0
  0
LTYPE
  5
16
330
5
100
AcDbSymbolTableRecord
100
AcDbLinetypeTableRecord
  2
CONTINUOUS
 70
     0
  3
Solid line
 72
    65
 73
     0
 40
0.0
  0
LTYPE
  5
231
330
5
100
AcDbSymbolTableRecord
100
AcDbLinetypeTableRecord
  2
________________
 70
     0
  3

 72
    65
 73
     4
 40
6.0
 49
2.25
 74
     0
 49
-1.5
 74
     0
 49
0.7499999999999999
 74
     0
 49
-1.5
 74
     0
  0
ENDTAB
  0
TABLE
  2
LAYER
  5
2
330
0
100
AcDbSymbolTable
 70
     1
  0
LAYER
  5
10
330
2
100
AcDbSymbolTableRecord
100
AcDbLayerTableRecord
  2
0
 70
     0
 62
     7
  6
CONTINUOUS
  0
ENDTAB
  0
TABLE
  2
STYLE
  5
3
330
0
100
AcDbSymbolTable
 70
     2
  0
STYLE
  5
11
330
3
100
AcDbSymbolTableRecord
100
AcDbTextStyleTableRecord
  2
STANDARD
 70
     0
 40
0.0
 41
1.0
 50
0.0
 71
     0
 42
0.2
  3
txt
  4

  0
STYLE
  5
6E
330
3
100
AcDbSymbolTableRecord
100
AcDbTextStyleTableRecord
  2
ＭＳ_ゴシック
 70
     0
 40
0.0
 41
1.0
 50
0.0
 71
     0
 42
0.2
  3
ＭＳ ゴシック.shx
  4

  0
ENDTAB
  0
TABLE
  2
VIEW
  5
6
330
0
100
AcDbSymbolTable
 70
     0
  0
ENDTAB
  0
TABLE
  2
UCS
  5
7
330
0
100
AcDbSymbolTable
 70
     0
  0
ENDTAB
  0
TABLE
  2
APPID
  5
9
330
0
100
AcDbSymbolTable
 70
     2
  0
APPID
  5
12
330
9
100
AcDbSymbolTableRecord
100
AcDbRegAppTableRecord
  2
ACAD
 70
     0
  0
APPID
  5
278
330
9
100
AcDbSymbolTableRecord
100
AcDbRegAppTableRecord
  2
ACAD_MLEADERVER
 70
     0
  0
ENDTAB
  0
TABLE
  2
DIMSTYLE
  5
A
330
0
100
AcDbSymbolTable
 70
     1
  0
DIMSTYLE
105
27
330
A
100
AcDbSymbolTableRecord
100
AcDbDimStyleTableRecord
  2
STANDARD
 70
     0
  3

  4

  5

  6

  7

 40
1.0
 41
0.18
 42
0.0625
 43
0.38
 44
0.18
 45
0.0
 46
0.0
 47
0.0
 48
0.0
140
0.18
141
0.09
142
0.0
143
25.4
144
1.0
145
0.0
146
1.0
147
0.09
 71
     0
 72
     0
 73
     1
 74
     1
 75
     0
 76
     0
 77
     0
 78
     0
170
     0
171
     2
172
     0
173
     0
174
     0
175
     0
176
     0
177
     0
178
     0
270
     2
271
     4
272
     4
273
     2
274
     2
340
11
275
     0
280
     0
281
     0
282
     0
283
     1
284
     0
285
     0
286
     0
287
     3
288
     0
  0
ENDTAB
  0
TABLE
  2
BLOCK_RECORD
  5
1
330
0
100
AcDbSymbolTable
 70
     0
  0
BLOCK_RECORD
  5
1F
330
1
100
AcDbSymbolTableRecord
100
AcDbBlockTableRecord
  2
*MODEL_SPACE
  0
BLOCK_RECORD
  5
1B
330
1
100
AcDbSymbolTableRecord
100
AcDbBlockTableRecord
  2
*PAPER_SPACE
  0
ENDTAB
  0
ENDSEC
  0
SECTION
  2
BLOCKS
  0
BLOCK
  5
20
330
1F
100
AcDbEntity
  8
0
100
AcDbBlockBegin
  2
*MODEL_SPACE
 70
     0
 10
0.0
 20
0.0
 30
0.0
  3
*MODEL_SPACE
  1

  0
ENDBLK
  5
21
330
1F
100
AcDbEntity
  8
0
100
AcDbBlockEnd
  0
BLOCK
  5
1C
330
1B
100
AcDbEntity
 67
     1
  8
0
100
AcDbBlockBegin
  2
*PAPER_SPACE
 70
     0
 10
0.0
 20
0.0
 30
0.0
  3
*PAPER_SPACE
  1

  0
ENDBLK
  5
1D
330
1B
100
AcDbEntity
 67
     1
  8
0
100
AcDbBlockEnd
  0
ENDSEC
  0
SECTION
  2
ENTITIES
  0
MTEXT
  5
6F
330
1F
100
AcDbEntity
  8
0
 62
     1
100
AcDbMText
 10
124.3999531074153
 20
70.64318181818183
 30
0.0
 40
3.0
 41
0.0
 71
     1
 72
     1
  1
{\fＭＳ ゴシック;ＫＦＥＶＰ－１５０}
  0
LINE
  5
70
330
1F
100
AcDbEntity
  8
0
  6
CONTINUOUS
 62
     7
100
AcDbLine
 10
-86.46876970999728
 20
203.25
 30
0.0
 11
-78.96876970999833
 21
203.25
 31
0.0
  0
LINE
  5
71
330
1F
100
AcDbEntity
  8
0
  6
CONTINUOUS
 62
     7
100
AcDbLine
 10
-86.46876970999917
 20
225.7499999999963
 30
0.0
 11
-86.4687697099864
 21
203.25
 31
0.0
  0
LINE
  5
72
330
1F
100
AcDbEntity
  8
0
  6
CONTINUOUS
 62
     7
100
AcDbLine
 10
-131.4687697099964
 20
225.7499999999963
 30
0.0
 11
-86.4687702099992
 21
225.7499999999963
 31
0.0
  0
LINE
  5
73
330
1F
100
AcDbEntity
  8
0
  6
CONTINUOUS
 62
     7
100
AcDbLine
 10
-131.468769709984
 20
203.25
 30
0.0
 11
-131.4687697099964
 21
225.7499995000156
 31
0.0
  0
LINE
  5
74
330
1F
100
AcDbEntity
  8
0
  6
CONTINUOUS
 62
     7
100
AcDbLine
 10
-147.9687697099876
 20
203.25
 30
0.0
 11
-131.46876970999
 21
203.25
 31
0.0
  0
LINE
  5
75
330
1F
100
AcDbEntity
  8
0
  6
CONTINUOUS
 62
     7
100
AcDbLine
 10
-147.9687697100044
 20
241.249999999994
 30
0.0
 11
-147.9687697099832
 21
203.25
 31
0.0
  0
LINE
  5
76
330
1F
100
AcDbEntity
  8
0
  6
CONTINUOUS
 62
     7
100
AcDbLine
 10
-159.9687697100036
 20
241.249999999994
 30
0.0
 11
-147.9687702100043
 21
241.249999999994
 31
0.0
  0
LINE
  5
77
330
1F
100
AcDbEntity
  8
0
  6
CONTINUOUS
 62
     7
100
AcDbLine
 10
-159.9687697099823
 20
203.25
 30
0.0
 11
-159.9687697100036
 21
241.2499995000128
 31
0.0
  0
LINE
  5
78
330
1F
100
AcDbEntity
  8
0
  6
CONTINUOUS
 62
     7
100
AcDbLine
 10
-190.9687697099808
 20
203.25
 30
0.0
 11
-159.9687697099856
 21
203.25
 31
0.0
  0
LINE
  5
79
330
1F
100
AcDbEntity
  8
0
  6
CONTINUOUS
 62
     7
100
AcDbLine
 10
-190.968769710004
 20
245.0078720541813
 30
0.0
 11
-190.9687697099808
 21
203.25
 31
0.0
  0
LINE
  5
7A
330
1F
100
AcDbEntity
  8
0
  6
CONTINUOUS
 62
     7
100
AcDbLine
 10
-53.96876971002551
 20
245.0078720541813
 30
0.0
 11
-190.968769710004
 21
245.0078720541813
 31
0.0
  0
LINE
  5
7B
330
1F
100
AcDbEntity
  8
0
  6
CONTINUOUS
 62
     7
100
AcDbLine
 10
-53.96876971000231
 20
203.25
 30
0.0
 11
-53.96876971002551
 21
245.0078720541813
 31
0.0
  0
LINE
  5
7C
330
1F
100
AcDbEntity
  8
0
  6
CONTINUOUS
 62
     7
100
AcDbLine
 10
-58.96876971000153
 20
203.25
 30
0.0
 11
-53.96876971000231
 21
203.25
 31
0.0
  0
ARC
  5
7D
330
1F
100
AcDbEntity
  8
0
  6
CONTINUOUS
 62
     7
100
AcDbCircle
 10
68.96876970999355
 20
203.2499999999928
 30
0.0
 40
10.00000000000556
210
0.0
220
0.0
230
-1.0
100
AcDbArc
 50
90.00000000000318
 51
179.9999999999587
  0
ARC
  5
7E
330
1F
100
AcDbEntity
  8
0
  6
CONTINUOUS
 62
     7
100
AcDbCircle
 10
68.96876970999487
 20
203.2500000000064
 30
0.0
 40
9.999999999992125
210
0.0
220
0.0
230
-1.0
100
AcDbArc
 50
359.9999999999643
 51
90.00000000001017
  0
LINE
  5
7F
330
1F
100
AcDbEntity
  8
0
  6
CONTINUOUS
 62
     7
100
AcDbLine
 10
-53.96876971000275
 20
202.8218593126441
 30
0.0
 11
-53.96876971000231
 21
203.25
 31
0.0
  0
LINE
  5
80
330
1F
100
AcDbEntity
  8
0
  6
CONTINUOUS
 62
     7
100
AcDbLine
 10
-53.96876970998876
 20
202.8218593126441
 30
0.0
 11
-55.96876970998832
 21
202.8218593126441
 31
0.0
  0
LINE
  5
81
330
1F
100
AcDbEntity
  8
0
  6
CONTINUOUS
 62
     7
100
AcDbLine
 10
-53.96876971002551
 20
161.4921279458189
 30
0.0
 11
-53.96876971000275
 21
202.8218593126441
 31
0.0
  0
LINE
  5
82
330
1F
100
AcDbEntity
  8
0
  6
CONTINUOUS
 62
     7
100
AcDbLine
 10
-190.968769710004
 20
161.4921279458189
 30
0.0
 11
-53.96876971002551
 21
161.4921279458189
 31
0.0
  0
LINE
  5
83
330
1F
100
AcDbEntity
  8
0
  6
CONTINUOUS
 62
     7
100
AcDbLine
 10
-190.9687697099808
 20
203.25
 30
0.0
 11
-190.968769710004
 21
161.4921279458189
 31
0.0
  0
LINE
  5
84
330
1F
100
AcDbEntity
  8
0
  6
CONTINUOUS
 62
     7
100
AcDbLine
 10
-159.9687697100036
 20
165.2500000000061
 30
0.0
 11
-159.9687697099823
 21
203.25
 31
0.0
  0
LINE
  5
85
330
1F
100
AcDbEntity
  8
0
  6
CONTINUOUS
 62
     7
100
AcDbLine
 10
-147.9687697100044
 20
165.2500000000061
 30
0.0
 11
-159.9687692100036
 21
165.2500000000061
 31
0.0
  0
LINE
  5
86
330
1F
100
AcDbEntity
  8
0
  6
CONTINUOUS
 62
     7
100
AcDbLine
 10
-147.9687697099832
 20
203.25
 30
0.0
 11
-147.9687697100044
 21
165.2500000000061
 31
0.0
  0
LINE
  5
87
330
1F
100
AcDbEntity
  8
0
  6
CONTINUOUS
 62
     7
100
AcDbLine
 10
-131.4687697099964
 20
180.7500000000036
 30
0.0
 11
-131.468769709984
 21
203.25
 31
0.0
  0
LINE
  5
88
330
1F
100
AcDbEntity
  8
0
  6
CONTINUOUS
 62
     7
100
AcDbLine
 10
-86.46876970999917
 20
180.7500000000036
 30
0.0
 11
-131.4687692099964
 21
180.7500000000036
 31
0.0
  0
LINE
  5
89
330
1F
100
AcDbEntity
  8
0
  6
CONTINUOUS
 62
     7
100
AcDbLine
 10
-86.4687697099864
 20
203.25
 30
0.0
 11
-86.46876970999917
 21
180.7500000000036
 31
0.0
  0
ARC
  5
8A
330
1F
100
AcDbEntity
  8
0
  6
CONTINUOUS
 62
     7
100
AcDbCircle
 10
68.96876970998755
 20
203.2497023827364
 30
0.0
 40
10.00000000442824
210
0.0
220
0.0
230
-1.0
100
AcDbArc
 50
179.9982947786903
 51
0.0017052213097486
  0
LINE
  5
8B
330
1F
100
AcDbEntity
  8
0
  6
CONTINUOUS
 62
     7
100
AcDbLine
 10
-159.9687697099856
 20
203.25
 30
0.0
 11
-147.9687697099876
 21
203.25
 31
0.0
  0
LINE
  5
8C
330
1F
100
AcDbEntity
  8
0
  6
CONTINUOUS
 62
     7
100
AcDbLine
 10
-131.46876970999
 20
203.25
 30
0.0
 11
-86.46876970999728
 21
203.25
 31
0.0
  0
LINE
  5
8D
330
1F
100
AcDbEntity
  8
0
  6
CONTINUOUS
 62
     7
100
AcDbLine
 10
-78.96876970999833
 20
203.25
 30
0.0
 11
-58.96876971000153
 21
203.25
 31
0.0
  0
ELLIPSE
  5
8E
330
1F
100
AcDbEntity
  8
0
  6
CONTINUOUS
 62
     7
100
AcDbEllipse
 10
-53.96876971019437
 20
202.8480389191392
 30
0.0
 11
-2.99999999999967
 21
0.0
 31
0.0
210
0.0
220
0.0
230
1.0
 40
0.0087265354983648
 41
1.570796326858845
 42
3.141592653653696
  0
LINE
  5
8F
330
1F
100
AcDbEntity
  8
0
  6
CONTINUOUS
 62
     7
100
AcDbLine
 10
-50.96876971019481
 20
202.8480389191392
 30
0.0
 11
-50.96876971021802
 21
161.5183075523136
 31
0.0
  0
ELLIPSE
  5
90
330
1F
100
AcDbEntity
  8
0
  6
CONTINUOUS
 62
     7
100
AcDbEllipse
 10
-53.96876971021758
 20
161.5183075523136
 30
0.0
 11
-2.99999999999967
 21
0.0
 31
0.0
210
0.0
220
0.0
230
1.0
 40
0.0087265354983648
 41
1.570796326858845
 42
3.141592653653696
  0
LINE
  5
91
330
1F
100
AcDbEntity
  8
0
  6
CONTINUOUS
 62
     7
100
AcDbLine
 10
-53.96876971000231
 20
203.25
 30
0.0
 11
-50.96876971019159
 21
203.25
 31
0.0
  0
LINE
  5
92
330
1F
100
AcDbEntity
  8
0
  6
CONTINUOUS
 62
     7
100
AcDbLine
 10
-50.96876971019481
 20
203.2500000000005
 30
0.0
 11
-50.96876971019481
 21
202.8480389191392
 31
0.0
  0
ELLIPSE
  5
93
330
1F
100
AcDbEntity
  8
0
  6
CONTINUOUS
 62
     7
100
AcDbEllipse
 10
-53.96876971021758
 20
244.9816924476864
 30
0.0
 11
-2.99999999999967
 21
0.0
 31
0.0
210
0.0
220
0.0
230
-1.0
 40
0.0087265354983648
 41
1.570796326858845
 42
3.141592653653696
  0
LINE
  5
94
330
1F
100
AcDbEntity
  8
0
  6
CONTINUOUS
 62
     7
100
AcDbLine
 10
-50.96876971021802
 20
244.9816924476864
 30
0.0
 11
-50.96876971019481
 21
203.2500000000005
 31
0.0
  0
ELLIPSE
  5
95
330
1F
100
AcDbEntity
  8
0
  6
CONTINUOUS
 62
     7
100
AcDbEllipse
 10
-239.6917641090328
 20
244.3882880337969
 30
0.0
 11
264.9756073418876
 21
0.0
 31
0.0
210
0.0
220
0.0
230
1.0
 40
0.2679491924265387
 41
1.218224329781448
 42
1.262700652038266
  0
LINE
  5
96
330
1F
100
AcDbEntity
  8
0
  6
CONTINUOUS
 62
     7
100
AcDbLine
 10
-159.3393601906203
 20
312.0450949593824
 30
0.0
 11
-159.9687697131412
 21
311.8894994135716
 31
0.0
  0
LINE
  5
97
330
1F
100
AcDbEntity
  8
0
  6
CONTINUOUS
 62
     7
100
AcDbLine
 10
-159.968769714548
 20
266.4016126864061
 30
0.0
 11
-159.968769714548
 21
311.8894994135645
 31
0.0
  0
LINE
  5
98
330
1F
100
AcDbEntity
  8
0
  6
CONTINUOUS
 62
     7
100
AcDbLine
 10
-159.9687697102323
 20
266.4016126864105
 30
0.0
 11
-159.3393601876712
 21
265.9186497732661
 31
0.0
  0
LINE
  5
99
330
1F
100
AcDbEntity
  8
0
  6
CONTINUOUS
 62
     7
100
AcDbLine
 10
-159.3393601880103
 20
265.918649774334
 30
0.0
 11
-148.1923125753232
 21
268.9054921801449
 31
0.0
  0
LWPOLYLINE
  5
9A
330
1F
100
AcDbEntity
  8
0
  6
CONTINUOUS
 62
     7
100
AcDbPolyline
 90
       28
 70
     0
 43
0.0
 10
-148.1923125749823
 20
268.9054921790949
 10
-148.0569548644096
 20
268.945274097782
 10
-147.9234983590212
 20
268.9914840010612
 10
-147.7923805570012
 20
269.0438719897773
 10
-147.664038956534
 20
269.1021881647756
 10
-147.5389110558036
 20
269.1661826269008
 10
-147.4174343529936
 20
269.2356054769984
 10
-147.3000463462884
 20
269.3102068159132
 10
-147.186877885416
 20
269.389869842588
 10
-147.0775967728599
 20
269.4746538399731
 10
-146.9724811581245
 20
269.564214785726
 10
-146.8718091907144
 20
269.6582086575036
 10
-146.7758590201343
 20
269.7562914329636
 10
-146.6849087958888
 20
269.8581190897624
 10
-146.5992366674824
 20
269.9633476055581
 10
-146.5156050937863
 20
270.0765223814928
 10
-146.4374889395852
 20
270.1933929180292
 10
-146.3650356663096
 20
270.3135564477648
 10
-146.2983927353896
 20
270.4366102032992
 10
-146.2377076082556
 20
270.5621514172296
 10
-146.1831277463377
 20
270.689777322156
 10
-146.1348006110671
 20
270.8190851506757
 10
-146.0842787547264
 20
270.9790654804552
 10
-146.0428297757228
 20
271.1415695356804
 10
-146.0105040279205
 20
271.3059196486976
 10
-145.9873518651835
 20
271.4714381518528
 10
-145.9734236413763
 20
271.6374473774925
 10
-145.9687697103627
 20
271.8032696579616
  0
LINE
  5
9B
330
1F
100
AcDbEntity
  8
0
  6
CONTINUOUS
 62
     7
100
AcDbLine
 10
-145.9687697145504
 20
271.8032696579564
 30
0.0
 11
-145.9687697145504
 21
309.8819425550112
 31
0.0
  0
LWPOLYLINE
  5
9C
330
1F
100
AcDbEntity
  8
0
  6
CONTINUOUS
 62
     7
100
AcDbPolyline
 90
       27
 70
     0
 43
0.0
 10
-145.9687697127976
 20
309.881942555018
 10
-145.9726832817283
 20
309.9452824588444
 10
-145.9843949583563
 20
310.008304872306
 10
-146.0038611974648
 20
310.0708055881393
 10
-146.0310384538371
 20
310.1325803990804
 10
-146.065883182256
 20
310.1934250978665
 10
-146.1083518375045
 20
310.2531354772336
 10
-146.1584008743659
 20
310.3115073299188
 10
-146.216316254676
 20
310.36867416824
 10
-146.28207156008
 20
310.4245772436715
 10
-146.355432355186
 20
310.4790212924821
 10
-146.4361642046019
 20
310.5318110509384
 10
-146.5240326729357
 20
310.5827512553089
 10
-146.6188033247955
 20
310.6316466418604
 10
-146.7202417247891
 20
310.6783019468612
 10
-146.8230349379276
 20
310.7205824341373
 10
-146.9321123894708
 20
310.7608958848285
 10
-147.0470412113327
 20
310.7991020209095
 10
-147.1673885354283
 20
310.8350605643553
 10
-147.2927214936716
 20
310.8686312371404
 10
-147.4226072179764
 20
310.89967376124
 10
-147.5566128402568
 20
310.9280478586288
 10
-147.6782248284684
 20
310.9508499629223
 10
-147.8030231508347
 20
310.9716003318841
 10
-147.9305854528376
 20
310.9902361560897
 10
-148.0604893799572
 20
311.0066946261152
 10
-148.1923125776748
 20
311.0209129325364
  0
LINE
  5
9D
330
1F
100
AcDbEntity
  8
0
  6
CONTINUOUS
 62
     7
100
AcDbLine
 10
-190.9687697145036
 20
315.3855845713416
 30
0.0
 11
-53.96876971452513
 21
315.3855845713416
 31
0.0
  0
LINE
  5
9E
330
1F
100
AcDbEntity
  8
0
  6
CONTINUOUS
 62
     7
100
AcDbLine
 10
-53.96876971456488
 20
245.0078720541813
 30
0.0
 11
-53.96876971456488
 21
315.3855845713344
 31
0.0
  0
LINE
  5
9F
330
1F
100
AcDbEntity
  8
0
  6
CONTINUOUS
 62
     7
100
AcDbLine
 10
-190.9687697145432
 20
245.0078720541813
 30
0.0
 11
-190.9687697145432
 21
315.3855845713344
 31
0.0
  0
LINE
  5
A0
330
1F
100
AcDbEntity
  8
0
  6
CONTINUOUS
 62
     7
100
AcDbLine
 10
-148.1923125753232
 20
137.5945078198552
 30
0.0
 11
-159.3393601880103
 21
140.581350225666
 31
0.0
  0
LINE
  5
A1
330
1F
100
AcDbEntity
  8
0
  6
CONTINUOUS
 62
     7
100
AcDbLine
 10
-159.3393601876712
 20
140.581350226734
 30
0.0
 11
-159.9687697102332
 21
140.0983873135897
 31
0.0
  0
LINE
  5
A2
330
1F
100
AcDbEntity
  8
0
  6
CONTINUOUS
 62
     7
100
AcDbLine
 10
-159.968769714548
 20
94.61050058643283
 30
0.0
 11
-159.968769714548
 21
140.0983873135928
 31
0.0
  0
LINE
  5
A3
330
1F
100
AcDbEntity
  8
0
  6
CONTINUOUS
 62
     7
100
AcDbLine
 10
-159.9687697131408
 20
94.61050058642839
 30
0.0
 11
-159.3393601906203
 21
94.45490504061759
 31
0.0
  0
ELLIPSE
  5
A4
330
1F
100
AcDbEntity
  8
0
  6
CONTINUOUS
 62
     7
100
AcDbEllipse
 10
-239.6917641090328
 20
162.1117119662032
 30
0.0
 11
264.9756073418876
 21
0.0
 31
0.0
210
0.0
220
0.0
230
1.0
 40
0.2679491924265387
 41
5.02048465514132
 42
5.064960977398137
  0
LWPOLYLINE
  5
A5
330
1F
100
AcDbEntity
  8
0
  6
CONTINUOUS
 62
     7
100
AcDbPolyline
 90
       28
 70
     0
 43
0.0
 10
-148.1923125776748
 20
95.47908706746321
 10
-148.0569548670985
 20
95.49373680630285
 10
-147.9234983617059
 20
95.51078691575442
 10
-147.7923805596816
 20
95.53016184655083
 10
-147.6640389592096
 20
95.5517860494256
 10
-147.5389110584733
 20
95.57558397511045
 10
-147.4174343556572
 20
95.60148007433838
 10
-147.3000463489456
 20
95.62939879784282
 10
-147.1868778880664
 20
95.65931778614922
 10
-147.0775967755024
 20
95.69128118728798
 10
-146.9724811607592
 20
95.7251789180188
 10
-146.8718091933412
 20
95.7609008951008
 10
-146.7758590227524
 20
95.79833703529405
 10
-146.6849087984975
 20
95.83737725535718
 10
-146.599236670082
 20
95.87791147205043
 10
-146.5156050963761
 20
95.92172749113404
 10
-146.4374889421644
 20
95.96721142498843
 10
-146.3650356688781
 20
96.01422254886398
 10
-146.2983927379472
 20
96.06262013801158
 10
-146.2377076108016
 20
96.1122634676812
 10
-146.1831277488727
 20
96.16301181312365
 10
-146.1348006135904
 20
96.21472444958923
 10
-146.0842787572352
 20
96.2791250217908
 10
-146.0428297782168
 20
96.34500895943398
 10
-146.0105040303999
 20
96.41211021654684
 10
-145.9873518676484
 20
96.48016274715721
 10
-145.9734236438264
 20
96.54890050529279
 10
-145.9687697127976
 20
96.61805744498203
  0
LINE
  5
A6
330
1F
100
AcDbEntity
  8
0
  6
CONTINUOUS
 62
     7
100
AcDbLine
 10
-145.96876971455
 20
96.6180574449868
 30
0.0
 11
-145.9687697145504
 21
134.6967303420424
 31
0.0
  0
LWPOLYLINE
  5
A7
330
1F
100
AcDbEntity
  8
0
  6
CONTINUOUS
 62
     7
100
AcDbPolyline
 90
       27
 70
     0
 43
0.0
 10
-145.9687697103627
 20
134.6967303420384
 10
-145.97268327928
 20
134.8485610307104
 10
-145.9843949558943
 20
135.0006369178228
 10
-146.0038611949892
 20
135.1524355886024
 10
-146.031038451348
 20
135.3034346282757
 10
-146.0658831797532
 20
135.4531116220688
 10
-146.1083518349884
 20
135.6009441552089
 10
-146.1584008718367
 20
135.7464098129225
 10
-146.216316252134
 20
135.8898178740616
 10
-146.2820715575253
 20
136.0309527726324
 10
-146.3554323526193
 20
136.1692482759492
 10
-146.4361642020228
 20
136.3041381513272
 10
-146.5240326703452
 20
136.4350561660816
 10
-146.6188033221936
 20
136.561436087528
 10
-146.7202417221765
 20
136.6827116829809
 10
-146.8230349353051
 20
136.793211675662
 10
-146.9321123868392
 20
136.8990912546228
 10
-147.0470412086924
 20
136.9999046206916
 10
-147.1673885327795
 20
137.0952059746964
 10
-147.2927214910148
 20
137.1845495174656
 10
-147.422607215312
 20
137.2674894498277
 10
-147.5566128375864
 20
137.34357997261
 10
-147.6782248257924
 20
137.4049228271744
 10
-147.8030231481541
 20
137.4608963294372
 10
-147.9305854501525
 20
137.5112911892472
 10
-148.060489377268
 20
137.5558981164536
 10
-148.1923125749823
 20
137.5945078209052
  0
LINE
  5
A8
330
1F
100
AcDbEntity
  8
0
  6
CONTINUOUS
 62
     7
100
AcDbLine
 10
-53.96876971456488
 20
91.11441542866206
 30
0.0
 11
-53.96876971456488
 21
161.4921279458189
 31
0.0
  0
LINE
  5
A9
330
1F
100
AcDbEntity
  8
0
  6
CONTINUOUS
 62
     7
100
AcDbLine
 10
-53.96876971452513
 20
91.11441542865839
 30
0.0
 11
-190.9687697145036
 21
91.11441542865839
 31
0.0
  0
LINE
  5
AA
330
1F
100
AcDbEntity
  8
0
  6
CONTINUOUS
 62
     7
100
AcDbLine
 10
-190.9687697145432
 20
91.11441542866206
 30
0.0
 11
-190.9687697145432
 21
161.4921279458189
 31
0.0
  0
LINE
  5
AB
330
1F
100
AcDbEntity
  8
0
  6
CONTINUOUS
 62
     7
100
AcDbLine
 10
-50.96876971456565
 20
312.385698802146
 30
0.0
 11
-50.96876971456565
 21
244.981692447686
 31
0.0
  0
ELLIPSE
  5
AC
330
1F
100
AcDbEntity
  8
0
  6
CONTINUOUS
 62
     7
100
AcDbEllipse
 10
-53.96876971452669
 20
312.3856988021496
 30
0.0
 11
2.99999999999967
 21
2.197864112929437E-8
 31
0.0
210
0.0
220
0.0
230
1.0
 40
0.9999619230641734
 41
6.283185299853039
 42
7.853981626647897
  0
LINE
  5
AD
330
1F
100
AcDbEntity
  8
0
  6
CONTINUOUS
 62
     7
100
AcDbLine
 10
-50.96876971456565
 20
161.518307552314
 30
0.0
 11
-50.96876971456565
 21
94.11430119785719
 31
0.0
  0
ELLIPSE
  5
AE
330
1F
100
AcDbEntity
  8
0
  6
CONTINUOUS
 62
     7
100
AcDbEllipse
 10
-53.96876971452669
 20
94.11430119785041
 30
0.0
 11
-2.99999999999967
 21
2.197858561814314E-8
 31
0.0
210
0.0
220
0.0
230
1.0
 40
0.9999619230641734
 41
1.570796334121425
 42
3.141592660916265
  0
LWPOLYLINE
  5
AF
330
1F
100
AcDbEntity
  8
0
  6
CONTINUOUS
 62
     7
100
AcDbPolyline
 90
       27
 70
     0
 43
0.0
 10
-148.1923125776748
 20
100.8806641071896
 10
-148.0569146540032
 20
100.8972167930236
 10
-147.9234633458395
 20
100.916292336504
 10
-147.7923945090557
 20
100.937805830142
 10
-147.6641439995215
 20
100.9616723664484
 10
-147.5391476731081
 20
100.9878070379353
 10
-147.4178413856851
 20
101.0161249371136
 10
-147.300660993124
 20
101.0465411564948
 10
-147.1877574692432
 20
101.0790217813012
 10
-147.0787665919292
 20
101.113621293504
 10
-146.9739573887492
 20
101.1502216903045
 10
-146.8735988872688
 20
101.1887049689036
 10
-146.7779601150559
 20
101.2289531265036
 10
-146.6873100996764
 20
101.2708481603049
 10
-146.6019178686968
 20
101.3142720675096
 10
-146.5046910817127
 20
101.369411879512
 10
-146.4150381550364
 20
101.4268670168773
 10
-146.3331806012737
 20
101.4864013838916
 10
-146.2593399330284
 20
101.5477788848404
 10
-146.1937376629057
 20
101.61076342401
 10
-146.1365953035109
 20
101.6751189056857
 10
-146.0855009849672
 20
101.744432075184
 10
-146.0435965897495
 20
101.8152852490921
 10
-146.0109266913908
 20
101.8873952980632
 10
-145.9875358634236
 20
101.9604790927524
 10
-145.9734686793815
 20
102.0342535038136
 10
-145.9687697127976
 20
102.1084354019012
  0
ELLIPSE
  5
B0
330
1F
100
AcDbEntity
  8
0
  6
CONTINUOUS
 62
     7
100
AcDbEllipse
 10
-233.7223872336416
 20
160.5122222531524
 30
0.0
 11
-235.8055912973282
 21
-1.421330428338863
 31
0.0
210
0.0
220
0.0
230
1.0
 40
0.2735251099388287
 41
1.890069765706011
 42
1.940326078080694
  0
LINE
  5
B1
330
1F
100
AcDbEntity
  8
0
  6
CONTINUOUS
 62
     7
100
AcDbLine
 10
-159.9687697131408
 20
99.87705670121922
 30
0.0
 11
-159.3393601906203
 21
99.71912156277924
 31
0.0
  0
LINE
  5
B2
330
1F
100
AcDbEntity
  8
0
  6
CONTINUOUS
 62
     7
100
AcDbLine
 10
-159.3393601906203
 20
306.7808784372209
 30
0.0
 11
-159.9687697131415
 21
306.6229432987813
 31
0.0
  0
ELLIPSE
  5
B3
330
1F
100
AcDbEntity
  8
0
  6
CONTINUOUS
 62
     7
100
AcDbEllipse
 10
-233.7223872336416
 20
245.9877777468477
 30
0.0
 11
-235.8055912973282
 21
1.421330428338918
 31
0.0
210
0.0
220
0.0
230
1.0
 40
0.2735251099388289
 41
4.342859229098893
 42
4.393115541473575
  0
LWPOLYLINE
  5
B4
330
1F
100
AcDbEntity
  8
0
  6
CONTINUOUS
 62
     7
100
AcDbPolyline
 90
       28
 70
     0
 43
0.0
 10
-145.9687697127976
 20
304.3915645980989
 10
-145.9727499544335
 20
304.4597496290412
 10
-145.9846642589035
 20
304.5276272822877
 10
-146.0044729955796
 20
304.594977788848
 10
-146.0321365338347
 20
304.6615813797328
 10
-146.0676152430403
 20
304.7272182859512
 10
-146.1108694925691
 20
304.7916687385137
 10
-146.1618596517932
 20
304.85471296843
 10
-146.2208995301928
 20
304.9165092646504
 10
-146.2879637214104
 20
304.9769814684165
 10
-146.362818062684
 20
305.0359149684512
 10
-146.4452283912512
 20
305.093095153478
 10
-146.5349605443491
 20
305.1483074122204
 10
-146.6317803592155
 20
305.2013371334012
 10
-146.7354536730884
 20
305.2519697057441
 10
-146.8264579342136
 20
305.2920060436056
 10
-146.9224025750163
 20
305.3304662984793
 10
-147.0229910479015
 20
305.3672459989571
 10
-147.1279268052747
 20
305.4022406736324
 10
-147.2369132995408
 20
305.435345851098
 10
-147.3496539831052
 20
305.466457059946
 10
-147.4658523083724
 20
305.4954698287692
 10
-147.585211727748
 20
305.5222796861604
 10
-147.7016090596988
 20
305.5457207651788
 10
-147.8208851435016
 20
305.5672079997276
 10
-147.9426726463217
 20
305.5866803154324
 10
-148.066604235324
 20
305.604076637918
 10
-148.1923125776748
 20
305.6193358928104
  0
LINE
  5
B5
330
1F
100
AcDbEntity
  8
0
  6
CONTINUOUS
 62
     7
100
AcDbLine
 10
-48.96876971719599
 20
285.7499999999828
 30
0.0
 11
-48.96876971719599
 21
203.25
 31
0.0
  0
LINE
  5
B6
330
1F
100
AcDbEntity
  8
0
  6
CONTINUOUS
 62
     7
100
AcDbLine
 10
-48.96876971719599
 20
203.25
 30
0.0
 11
-48.96876971719599
 21
120.7500000000216
 31
0.0
  0
LINE
  5
B7
330
1F
100
AcDbEntity
  8
0
  6
CONTINUOUS
 62
     7
100
AcDbLine
 10
-148.1923125776748
 20
311.0209129325364
 30
0.0
 11
-148.1923125776748
 21
305.6193358928104
 31
0.0
  0
LINE
  5
B8
330
1F
100
AcDbEntity
  8
0
  6
CONTINUOUS
 62
     7
100
AcDbLine
 10
-148.1923125776748
 20
100.8806641071896
 30
0.0
 11
-148.1923125776748
 21
95.47908706746321
 31
0.0
  0
LINE
  5
B9
330
1F
100
AcDbEntity
  8
0
  6
CONTINUOUS
 62
     7
100
AcDbLine
 10
-159.3393601906203
 20
306.7808784372209
 30
0.0
 11
-159.3393601906203
 21
312.0450949593824
 31
0.0
  0
LINE
  5
BA
330
1F
100
AcDbEntity
  8
0
  6
CONTINUOUS
 62
     7
100
AcDbLine
 10
-159.3393601906203
 20
94.45490504061759
 30
0.0
 11
-159.3393601906203
 21
99.71912156277924
 31
0.0
  0
LINE
  5
BB
330
1F
100
AcDbEntity
  8
0
  6
CONTINUOUS
 62
     7
100
AcDbLine
 10
-53.96876971452513
 20
315.3855845713416
 30
0.0
 11
-53.96876971716758
 21
315.7462636728076
 31
0.0
  0
LINE
  5
BC
330
1F
100
AcDbEntity
  8
0
  6
CONTINUOUS
 62
     7
100
AcDbLine
 10
-190.9687697171731
 20
315.7499999999821
 30
0.0
 11
-53.96876971719522
 21
315.7499999999821
 31
0.0
  0
LINE
  5
BD
330
1F
100
AcDbEntity
  8
0
  6
CONTINUOUS
 62
     7
100
AcDbLine
 10
-53.96876971716758
 20
315.7462636728076
 30
0.0
 11
-53.96876971719522
 21
315.7499999999821
 31
0.0
  0
LINE
  5
BE
330
1F
100
AcDbEntity
  8
0
  6
CONTINUOUS
 62
     7
100
AcDbLine
 10
-53.96876971715358
 20
315.7462636728076
 30
0.0
 11
-55.96876971715358
 21
315.7462636728076
 31
0.0
  0
LINE
  5
BF
330
1F
100
AcDbEntity
  8
0
  6
CONTINUOUS
 62
     7
100
AcDbLine
 10
-190.9687697171731
 20
315.7499999999821
 30
0.0
 11
-190.9687697145036
 21
315.3855845713416
 31
0.0
  0
ELLIPSE
  5
C0
330
1F
100
AcDbEntity
  8
0
  6
CONTINUOUS
 62
     7
100
AcDbEllipse
 10
-53.96876971716957
 20
312.7463779036153
 30
0.0
 11
2.99999999999967
 21
2.197853010699191E-8
 31
0.0
210
0.0
220
0.0
230
1.0
 40
0.9999619230641734
 41
6.283185299853077
 42
7.853981626647974
  0
LINE
  5
C1
330
1F
100
AcDbEntity
  8
0
  6
CONTINUOUS
 62
     7
100
AcDbLine
 10
-50.96876971717001
 20
312.7463779036153
 30
0.0
 11
-50.96876971452757
 21
312.3856988021496
 31
0.0
  0
LINE
  5
C2
330
1F
100
AcDbEntity
  8
0
  6
CONTINUOUS
 62
     7
100
AcDbLine
 10
-53.96876971719522
 20
90.75000000001843
 30
0.0
 11
-53.96876971452513
 21
91.11441542865839
 31
0.0
  0
LINE
  5
C3
330
1F
100
AcDbEntity
  8
0
  6
CONTINUOUS
 62
     7
100
AcDbLine
 10
-190.9687697171731
 20
90.75000000001843
 30
0.0
 11
-53.96876971719522
 21
90.75000000001843
 31
0.0
  0
LINE
  5
C4
330
1F
100
AcDbEntity
  8
0
  6
CONTINUOUS
 62
     7
100
AcDbLine
 10
-190.9687697145036
 20
91.11441542865839
 30
0.0
 11
-190.9687697171731
 21
90.75000000001843
 31
0.0
  0
ELLIPSE
  5
C5
330
1F
100
AcDbEntity
  8
0
  6
CONTINUOUS
 62
     7
100
AcDbEllipse
 10
-53.96876971719522
 20
93.75011423517482
 30
0.0
 11
0.0
 21
-3.000114235156615
 31
0.0
210
0.0
220
0.0
230
1.0
 40
0.9999619230641859
 41
0.0
 42
1.570796326794896
  0
LINE
  5
C6
330
1F
100
AcDbEntity
  8
0
  6
CONTINUOUS
 62
     7
100
AcDbLine
 10
-50.96876971452757
 20
94.11430119785041
 30
0.0
 11
-50.96876971719555
 21
93.75011423517482
 31
0.0
  0
ELLIPSE
  5
C7
330
1F
100
AcDbEntity
  8
0
  6
CONTINUOUS
 62
     7
100
AcDbEllipse
 10
-53.96876971719522
 20
312.7498857648252
 30
0.0
 11
0.0
 21
-3.000114235156559
 31
0.0
210
0.0
220
0.0
230
1.0
 40
0.9999619230641674
 41
1.570796326794897
 42
3.141592653589793
  0
LINE
  5
C8
330
1F
100
AcDbEntity
  8
0
  6
CONTINUOUS
 62
     7
100
AcDbLine
 10
-50.96876971719555
 20
312.7498857648252
 30
0.0
 11
-50.96876971717001
 21
312.7463779036153
 31
0.0
  0
LINE
  5
C9
330
1F
100
AcDbEntity
  8
0
  6
CONTINUOUS
 62
     7
100
AcDbLine
 10
253.0312302828053
 20
110.25
 30
0.0
 11
253.0312302828053
 21
203.25
 31
0.0
  0
LINE
  5
CA
330
1F
100
AcDbEntity
  8
0
  6
CONTINUOUS
 62
     7
100
AcDbLine
 10
121.0312302828048
 20
108.25
 30
0.0
 11
121.0312302828048
 21
203.25
 31
0.0
  0
LINE
  5
CB
330
1F
100
AcDbEntity
  8
0
  6
CONTINUOUS
 62
     7
100
AcDbLine
 10
253.0312302828053
 20
203.25
 30
0.0
 11
253.0312302828053
 21
296.25
 31
0.0
  0
LINE
  5
CC
330
1F
100
AcDbEntity
  8
0
  6
CONTINUOUS
 62
     7
100
AcDbLine
 10
121.0312302828048
 20
203.25
 30
0.0
 11
121.0312302828048
 21
298.25
 31
0.0
  0
LINE
  5
CD
330
1F
100
AcDbEntity
  8
0
  6
CONTINUOUS
 62
     7
100
AcDbLine
 10
-46.96876971719522
 20
110.25
 30
0.0
 11
-46.96876971719522
 21
203.25
 31
0.0
  0
LINE
  5
CE
330
1F
100
AcDbEntity
  8
0
  6
CONTINUOUS
 62
     7
100
AcDbLine
 10
85.03123028280478
 20
108.25
 30
0.0
 11
85.03123028280478
 21
203.25
 31
0.0
  0
LINE
  5
CF
330
1F
100
AcDbEntity
  8
0
  6
CONTINUOUS
 62
     7
100
AcDbLine
 10
-46.96876971719522
 20
203.25
 30
0.0
 11
-46.96876971719522
 21
296.25
 31
0.0
  0
LINE
  5
D0
330
1F
100
AcDbEntity
  8
0
  6
CONTINUOUS
 62
     7
100
AcDbLine
 10
85.03123028280478
 20
203.25
 30
0.0
 11
85.03123028280478
 21
298.25
 31
0.0
  0
ARC
  5
D1
330
1F
100
AcDbEntity
  8
0
  6
CONTINUOUS
 62
     7
100
AcDbCircle
 10
48.96876971719599
 20
118.7500000000136
 30
0.0
 40
1.99999999999978
210
0.0
220
0.0
230
-1.0
100
AcDbArc
 50
359.9999999998724
 51
90.0
  0
ARC
  5
D2
330
1F
100
AcDbEntity
  8
0
  6
CONTINUOUS
 62
     7
100
AcDbCircle
 10
48.96876971719599
 20
287.7499999999864
 30
0.0
 40
1.99999999999978
210
0.0
220
0.0
230
-1.0
100
AcDbArc
 50
270.0
 51
0.0000000001276135
  0
LINE
  5
D3
330
1F
100
AcDbEntity
  8
0
  6
CONTINUOUS
 62
     7
100
AcDbLine
 10
-46.96876971722475
 20
285.7499999999913
 30
0.0
 11
-48.96876971719599
 21
285.7499999999913
 31
0.0
  0
LINE
  5
D4
330
1F
100
AcDbEntity
  8
0
  6
CONTINUOUS
 62
     7
100
AcDbLine
 10
-48.96876971719599
 20
120.7500000000089
 30
0.0
 11
-46.96876971722475
 21
120.7500000000089
 31
0.0
  0
LINE
  5
D5
330
1F
100
AcDbEntity
  8
0
  6
CONTINUOUS
 62
     7
100
AcDbLine
 10
121.0312302828048
 20
108.25
 30
0.0
 11
253.0312302828053
 21
110.25
 31
0.0
  0
LINE
  5
D6
330
1F
100
AcDbEntity
  8
0
  6
CONTINUOUS
 62
     7
100
AcDbLine
 10
253.0312302828053
 20
296.25
 30
0.0
 11
121.0312302828048
 21
298.25
 31
0.0
  0
LINE
  5
D7
330
1F
100
AcDbEntity
  8
0
  6
CONTINUOUS
 62
     7
100
AcDbLine
 10
85.03123028280478
 20
298.25
 30
0.0
 11
-46.96876971719522
 21
296.25
 31
0.0
  0
LINE
  5
D8
330
1F
100
AcDbEntity
  8
0
  6
CONTINUOUS
 62
     7
100
AcDbLine
 10
-46.96876971719522
 20
110.25
 30
0.0
 11
85.03123028280478
 21
108.25
 31
0.0
  0
LINE
  5
D9
330
1F
100
AcDbEntity
  8
0
  6
CONTINUOUS
 62
     7
100
AcDbLine
 10
85.03123028280478
 20
108.25
 30
0.0
 11
121.0312302828048
 21
108.25
 31
0.0
  0
LINE
  5
DA
330
1F
100
AcDbEntity
  8
0
  6
CONTINUOUS
 62
     7
100
AcDbLine
 10
121.0312302828048
 20
298.25
 30
0.0
 11
85.03123028280478
 21
298.25
 31
0.0
  0
ARC
  5
DB
330
1F
100
AcDbEntity
  8
0
  6
CONTINUOUS
 62
     7
100
AcDbCircle
 10
491.5666917200898
 20
160.7788672865368
 30
0.0
 40
67.02886728791779
210
0.0
220
0.0
230
-1.0
100
AcDbArc
 50
269.9996298648308
 51
0.0003701351722611
  0
ARC
  5
DC
330
1F
100
AcDbEntity
  8
0
  6
CONTINUOUS
 62
     7
100
AcDbCircle
 10
491.5666917200898
 20
245.7211327134633
 30
0.0
 40
67.02886728791779
210
0.0
220
0.0
230
-1.0
100
AcDbArc
 50
359.9996298648278
 51
90.00037013516942
  0
ARC
  5
DD
330
1F
100
AcDbEntity
  8
0
  6
CONTINUOUS
 62
     7
100
AcDbCircle
 10
406.6244262931748
 20
160.7788672865368
 30
0.0
 40
67.0288672879179
210
0.0
220
0.0
230
-1.0
100
AcDbArc
 50
179.9996298648278
 51
270.0003701351692
  0
ARC
  5
DE
330
1F
100
AcDbEntity
  8
0
  6
CONTINUOUS
 62
     7
100
AcDbCircle
 10
406.6244262931748
 20
245.7211327134633
 30
0.0
 40
67.02886728791773
210
0.0
220
0.0
230
-1.0
100
AcDbArc
 50
89.99962986483062
 51
180.0003701351723
  0
LINE
  5
DF
330
1F
100
AcDbEntity
  8
0
  6
CONTINUOUS
 62
     7
100
AcDbLine
 10
-491.5662587084292
 20
312.7499999999824
 30
0.0
 11
-406.6248593048354
 21
312.7499999999824
 31
0.0
  0
LINE
  5
E0
330
1F
100
AcDbEntity
  8
0
  6
CONTINUOUS
 62
     7
100
AcDbLine
 10
-558.595559006632
 20
160.77930029821
 30
0.0
 11
-558.595559006632
 21
245.72069970179
 31
0.0
  0
LINE
  5
E1
330
1F
100
AcDbEntity
  8
0
  6
CONTINUOUS
 62
     7
100
AcDbLine
 10
-406.6248593048354
 20
93.75000000001765
 30
0.0
 11
-491.5662587084292
 21
93.75000000001765
 31
0.0
  0
LINE
  5
E2
330
1F
100
AcDbEntity
  8
0
  6
CONTINUOUS
 62
     7
100
AcDbLine
 10
-339.5955590066328
 20
245.72069970179
 30
0.0
 11
-339.5955590066328
 21
160.77930029821
 31
0.0
  0
ARC
  5
E3
330
1F
100
AcDbEntity
  8
0
  6
CONTINUOUS
 62
     7
100
AcDbCircle
 10
-407.9572709728289
 20
244.3882880337969
 30
0.0
 40
70.9999999999924
100
AcDbArc
 50
0.4999999999999215
 51
89.49999999999991
  0
LINE
  5
E4
330
1F
100
AcDbEntity
  8
0
  6
CONTINUOUS
 62
     7
100
AcDbLine
 10
-336.9599744352728
 20
245.0078720541813
 30
0.0
 11
-336.5955590066328
 21
203.25
 31
0.0
  0
LINE
  5
E5
330
1F
100
AcDbEntity
  8
0
  6
CONTINUOUS
 62
     7
100
AcDbLine
 10
-336.5955590066328
 20
203.25
 30
0.0
 11
-336.9599744352728
 21
161.4921279458189
 31
0.0
  0
ARC
  5
E6
330
1F
100
AcDbEntity
  8
0
  6
CONTINUOUS
 62
     7
100
AcDbCircle
 10
-407.9572709728289
 20
162.1117119662032
 30
0.0
 40
70.99999999999234
100
AcDbArc
 50
270.5000000000001
 51
359.5000000000001
  0
LINE
  5
E7
330
1F
100
AcDbEntity
  8
0
  6
CONTINUOUS
 62
     7
100
AcDbLine
 10
-407.3376869524444
 20
91.11441542865839
 30
0.0
 11
-449.0955590066324
 21
90.75000000001843
 31
0.0
  0
LINE
  5
E8
330
1F
100
AcDbEntity
  8
0
  6
CONTINUOUS
 62
     7
100
AcDbLine
 10
-449.0955590066324
 20
90.75000000001843
 30
0.0
 11
-490.8534310608203
 21
91.11441542865839
 31
0.0
  0
ARC
  5
E9
330
1F
100
AcDbEntity
  8
0
  6
CONTINUOUS
 62
     7
100
AcDbCircle
 10
-490.2338470404357
 20
162.1117119662032
 30
0.0
 40
70.99999999999234
100
AcDbArc
 50
180.4999999999999
 51
269.4999999999999
  0
LINE
  5
EA
330
1F
100
AcDbEntity
  8
0
  6
CONTINUOUS
 62
     7
100
AcDbLine
 10
-561.2311435779916
 20
161.4921279458189
 30
0.0
 11
-561.5955590066319
 21
203.25
 31
0.0
  0
LINE
  5
EB
330
1F
100
AcDbEntity
  8
0
  6
CONTINUOUS
 62
     7
100
AcDbLine
 10
-561.595559006632
 20
203.25
 30
0.0
 11
-561.2311435779917
 21
245.0078720541813
 31
0.0
  0
ARC
  5
EC
330
1F
100
AcDbEntity
  8
0
  6
CONTINUOUS
 62
     7
100
AcDbCircle
 10
-490.2338470404357
 20
244.3882880337969
 30
0.0
 40
70.99999999999245
100
AcDbArc
 50
90.5000000000001
 51
179.5000000000001
  0
LINE
  5
ED
330
1F
100
AcDbEntity
  8
0
  6
CONTINUOUS
 62
     7
100
AcDbLine
 10
-490.8534310608202
 20
315.3855845713416
 30
0.0
 11
-449.0955590066323
 21
315.7499999999821
 31
0.0
  0
LINE
  5
EE
330
1F
100
AcDbEntity
  8
0
  6
CONTINUOUS
 62
     7
100
AcDbLine
 10
-449.0955590066323
 20
315.7499999999821
 30
0.0
 11
-407.3376869524443
 21
315.3855845713416
 31
0.0
  0
LINE
  5
EF
330
1F
100
AcDbEntity
  8
0
  6
CONTINUOUS
 62
     7
100
AcDbLine
 10
-556.0530345694441
 20
245.7084815282705
 30
0.0
 11
-556.0530345694441
 21
160.7915184717296
 31
0.0
  0
LINE
  5
F0
330
1F
100
AcDbEntity
  8
0
  6
CONTINUOUS
 62
     7
100
AcDbLine
 10
-491.5540405353964
 20
96.29252443769204
 30
0.0
 11
-406.6370774788418
 21
96.29252443769204
 31
0.0
  0
LINE
  5
F1
330
1F
100
AcDbEntity
  8
0
  6
CONTINUOUS
 62
     7
100
AcDbLine
 10
-406.6370774788417
 20
310.207475562308
 30
0.0
 11
-491.5540405353964
 21
310.207475562308
 31
0.0
  0
LINE
  5
F2
330
1F
100
AcDbEntity
  8
0
  6
CONTINUOUS
 62
     7
100
AcDbLine
 10
-342.1380834447939
 20
160.7915184717292
 30
0.0
 11
-342.1380834447939
 21
245.7084815282705
 31
0.0
  0
LINE
  5
F3
330
1F
100
AcDbEntity
  8
0
  6
CONTINUOUS
 62
     7
100
AcDbLine
 10
-551.464894902194
 20
137.5945078209052
 30
0.0
 11
-550.2371236076244
 21
134.6967303420384
 31
0.0
  0
ELLIPSE
  5
F4
330
1F
100
AcDbEntity
  8
0
  6
CONTINUOUS
 62
     7
100
AcDbEllipse
 10
-491.8333367507531
 20
160.5122222531524
 30
0.0
 11
-59.98182804220286
 21
24.45746431410567
 31
0.0
210
0.0
220
0.0
230
1.0
 40
0.9712688684429067
 41
0.7183881701406439
 42
0.7686444825153258
  0
LINE
  5
F5
330
1F
100
AcDbEntity
  8
0
  6
CONTINUOUS
 62
     7
100
AcDbLine
 10
-552.4685023074063
 20
140.0983873135916
 30
0.0
 11
-552.6330604106013
 21
140.5983873135893
 31
0.0
  0
ELLIPSE
  5
F6
330
1F
100
AcDbEntity
  8
0
  6
CONTINUOUS
 62
     7
100
AcDbEllipse
 10
-491.4214145649449
 20
160.924144443676
 30
0.0
 11
-45.6098100483196
 21
-45.60981004831227
 31
0.0
210
0.0
220
0.0
230
1.0
 40
0.9999688079870133
 41
5.826537076324865
 42
6.739833538034369
  0
LINE
  5
F7
330
1F
100
AcDbEntity
  8
0
  6
CONTINUOUS
 62
     7
100
AcDbLine
 10
-511.7642087819305
 20
99.71912156277645
 30
0.0
 11
-511.7471716950668
 21
99.71249860333204
 31
0.0
  0
ELLIPSE
  5
F8
330
1F
100
AcDbEntity
  8
0
  6
CONTINUOUS
 62
     7
100
AcDbEllipse
 10
-491.8333367507531
 20
160.5122222531524
 30
0.0
 11
24.45746465703602
 21
-59.9818279106013
 31
0.0
210
0.0
220
0.0
230
1.0
 40
0.9712688684465217
 41
5.51454081887813
 42
5.564797131252814
  0
LINE
  5
F9
330
1F
100
AcDbEntity
  8
0
  6
CONTINUOUS
 62
     7
100
AcDbLine
 10
-517.6488286674819
 20
102.1084354019012
 30
0.0
 11
-514.7510511884725
 21
100.8806641071896
 31
0.0
  0
ELLIPSE
  5
FA
330
1F
100
AcDbEntity
  8
0
  6
CONTINUOUS
 62
     7
100
AcDbEllipse
 10
-491.3432230023437
 20
161.0023360071724
 30
0.0
 11
-45.6098100483196
 21
-45.60981004831227
 31
0.0
210
0.0
220
0.0
230
1.0
 40
0.9999688079870119
 41
5.91785043899816
 42
6.648520175361051
  0
LINE
  5
FB
330
1F
100
AcDbEntity
  8
0
  6
CONTINUOUS
 62
     7
100
AcDbLine
 10
-514.7510511884724
 20
305.6193358928104
 30
0.0
 11
-517.6488286674818
 21
304.3915645980989
 31
0.0
  0
ELLIPSE
  5
FC
330
1F
100
AcDbEntity
  8
0
  6
CONTINUOUS
 62
     7
100
AcDbEllipse
 10
-491.8333367507531
 20
245.9877777468477
 30
0.0
 11
24.45746465703596
 21
59.98182791060124
 31
0.0
210
0.0
220
0.0
230
1.0
 40
0.9712688684465229
 41
0.7183881759267714
 42
0.768644488301454
  0
LINE
  5
FD
330
1F
100
AcDbEntity
  8
0
  6
CONTINUOUS
 62
     7
100
AcDbLine
 10
-512.2471716950354
 20
306.6229432987832
 30
0.0
 11
-511.7471716950671
 21
306.7875014019472
 31
0.0
  0
ELLIPSE
  5
FE
330
1F
100
AcDbEntity
  8
0
  6
CONTINUOUS
 62
     7
100
AcDbEllipse
 10
-491.4214145649449
 20
245.575855556324
 30
0.0
 11
-45.60981004831948
 21
45.60981004831232
 31
0.0
210
0.0
220
0.0
230
1.0
 40
0.9999688079870128
 41
5.826537076324804
 42
6.739833538034308
  0
LINE
  5
FF
330
1F
100
AcDbEntity
  8
0
  6
CONTINUOUS
 62
     7
100
AcDbLine
 10
-552.6264374458859
 20
265.9186497732656
 30
0.0
 11
-552.6330604053218
 21
265.9016126864104
 31
0.0
  0
ELLIPSE
  5
100
330
1F
100
AcDbEntity
  8
0
  6
CONTINUOUS
 62
     7
100
AcDbEllipse
 10
-491.8333367507531
 20
245.9877777468477
 30
0.0
 11
-59.98182804220297
 21
-24.45746431410567
 31
0.0
210
0.0
220
0.0
230
1.0
 40
0.9712688684429057
 41
5.514540824664259
 42
5.564797137038942
  0
LINE
  5
101
330
1F
100
AcDbEntity
  8
0
  6
CONTINUOUS
 62
     7
100
AcDbLine
 10
-550.2371236076244
 20
271.8032696579616
 30
0.0
 11
-551.4648949021939
 21
268.9054921790949
 31
0.0
  0
ELLIPSE
  5
102
330
1F
100
AcDbEntity
  8
0
  6
CONTINUOUS
 62
     7
100
AcDbEllipse
 10
-491.3432230023437
 20
245.4976639928276
 30
0.0
 11
-45.60981004831954
 21
45.60981004831232
 31
0.0
210
0.0
220
0.0
230
1.0
 40
0.9999688079870128
 41
5.91785043899812
 42
6.648520175361011
  0
LINE
  5
103
330
1F
100
AcDbEntity
  8
0
  6
CONTINUOUS
 62
     7
100
AcDbLine
 10
-383.440066830262
 20
100.8806641071896
 30
0.0
 11
-380.5422893515369
 21
102.1084354019012
 31
0.0
  0
ELLIPSE
  5
104
330
1F
100
AcDbEntity
  8
0
  6
CONTINUOUS
 62
     7
100
AcDbEllipse
 10
-406.3577812570446
 20
160.5122222531524
 30
0.0
 11
-24.45746431198368
 21
-59.98182804653653
 31
0.0
210
0.0
220
0.0
230
1.0
 40
0.9712688681151701
 41
0.7183881702043292
 42
0.7686444825790119
  0
LINE
  5
105
330
1F
100
AcDbEntity
  8
0
  6
CONTINUOUS
 62
     7
100
AcDbLine
 10
-385.9439463221931
 20
99.87705670121683
 30
0.0
 11
-386.4439463222253
 21
99.7124985980532
 31
0.0
  0
ELLIPSE
  5
106
330
1F
100
AcDbEntity
  8
0
  6
CONTINUOUS
 62
     7
100
AcDbEllipse
 10
-406.7697034522837
 20
160.924144443676
 30
0.0
 11
45.60981004831953
 21
-45.60981004831226
 31
0.0
210
0.0
220
0.0
230
1.0
 40
0.9999688079870126
 41
5.826537076324803
 42
6.739833538034307
  0
LINE
  5
107
330
1F
100
AcDbEntity
  8
0
  6
CONTINUOUS
 62
     7
100
AcDbLine
 10
-345.5646805714232
 20
140.5813502267344
 30
0.0
 11
-345.5580576119708
 21
140.5983873135897
 31
0.0
  0
ELLIPSE
  5
108
330
1F
100
AcDbEntity
  8
0
  6
CONTINUOUS
 62
     7
100
AcDbEllipse
 10
-406.3577812570446
 20
160.5122222531524
 30
0.0
 11
59.98182791489754
 21
24.45746465494581
 31
0.0
210
0.0
220
0.0
230
1.0
 40
0.9712688681188063
 41
5.514540818813781
 42
5.564797131188461
  0
LINE
  5
109
330
1F
100
AcDbEntity
  8
0
  6
CONTINUOUS
 62
     7
100
AcDbLine
 10
-347.9539944113944
 20
134.6967303420384
 30
0.0
 11
-346.7262231165404
 21
137.5945078209052
 31
0.0
  0
ELLIPSE
  5
10A
330
1F
100
AcDbEntity
  8
0
  6
CONTINUOUS
 62
     7
100
AcDbEllipse
 10
-406.847895016675
 20
161.0023360071724
 30
0.0
 11
45.60981004831949
 21
-45.60981004831222
 31
0.0
210
0.0
220
0.0
230
1.0
 40
0.9999688079870146
 41
5.917850438998119
 42
6.648520175361011
  0
LINE
  5
10B
330
1F
100
AcDbEntity
  8
0
  6
CONTINUOUS
 62
     7
100
AcDbLine
 10
-346.7262231165404
 20
268.9054921790949
 30
0.0
 11
-347.9539944113944
 21
271.8032696579616
 31
0.0
  0
ELLIPSE
  5
10C
330
1F
100
AcDbEntity
  8
0
  6
CONTINUOUS
 62
     7
100
AcDbEllipse
 10
-406.3577812570446
 20
245.9877777468477
 30
0.0
 11
59.98182791489754
 21
-24.45746465494581
 31
0.0
210
0.0
220
0.0
230
1.0
 40
0.9712688681188063
 41
0.7183881759911246
 42
0.7686444883658059
  0
LINE
  5
10D
330
1F
100
AcDbEntity
  8
0
  6
CONTINUOUS
 62
     7
100
AcDbLine
 10
-345.7226157098224
 20
266.4016126864088
 30
0.0
 11
-345.5580576066912
 21
265.9016126864108
 31
0.0
  0
ELLIPSE
  5
10E
330
1F
100
AcDbEntity
  8
0
  6
CONTINUOUS
 62
     7
100
AcDbEllipse
 10
-406.7697034522837
 20
245.575855556324
 30
0.0
 11
45.60981004831954
 21
45.60981004831232
 31
0.0
210
0.0
220
0.0
230
1.0
 40
0.9999688079870128
 41
5.826537076324865
 42
6.739833538034367
  0
LINE
  5
10F
330
1F
100
AcDbEntity
  8
0
  6
CONTINUOUS
 62
     7
100
AcDbLine
 10
-386.4269092353784
 20
306.7808784372236
 30
0.0
 11
-386.4439463222257
 21
306.7875013966677
 31
0.0
  0
ELLIPSE
  5
110
330
1F
100
AcDbEntity
  8
0
  6
CONTINUOUS
 62
     7
100
AcDbEllipse
 10
-406.3577812570446
 20
245.9877777468477
 30
0.0
 11
-24.45746431198376
 21
59.98182804653661
 31
0.0
210
0.0
220
0.0
230
1.0
 40
0.9712688681151692
 41
5.514540824600572
 42
5.564797136975254
  0
LINE
  5
111
330
1F
100
AcDbEntity
  8
0
  6
CONTINUOUS
 62
     7
100
AcDbLine
 10
-380.5422893515369
 20
304.3915645980989
 30
0.0
 11
-383.440066830262
 21
305.6193358928104
 31
0.0
  0
ELLIPSE
  5
112
330
1F
100
AcDbEntity
  8
0
  6
CONTINUOUS
 62
     7
100
AcDbEllipse
 10
-406.847895016675
 20
245.4976639928276
 30
0.0
 11
45.60981004831949
 21
45.60981004831222
 31
0.0
210
0.0
220
0.0
230
1.0
 40
0.9999688079870135
 41
5.91785043899816
 42
6.648520175361051
  0
LINE
  5
113
330
1F
100
AcDbEntity
  8
0
  6
CONTINUOUS
 62
     7
100
AcDbLine
 10
-552.6330604106013
 20
140.5983873135893
 30
0.0
 11
-552.6264374458867
 21
140.5813502267364
 31
0.0
  0
LINE
  5
114
330
1F
100
AcDbEntity
  8
0
  6
CONTINUOUS
 62
     7
100
AcDbLine
 10
-345.5580576066912
 20
265.9016126864108
 30
0.0
 11
-345.5646805714224
 21
265.9186497732636
 31
0.0
  0
LINE
  5
115
330
1F
100
AcDbEntity
  8
0
  6
CONTINUOUS
 62
     7
100
AcDbLine
 10
-552.6330604053218
 20
265.9016126864104
 30
0.0
 11
-552.4685023074063
 21
266.4016126864084
 31
0.0
  0
LINE
  5
116
330
1F
100
AcDbEntity
  8
0
  6
CONTINUOUS
 62
     7
100
AcDbLine
 10
-345.5580576119708
 20
140.5983873135897
 30
0.0
 11
-345.7226157098224
 21
140.0983873135916
 31
0.0
  0
LINE
  5
117
330
1F
100
AcDbEntity
  8
0
  6
CONTINUOUS
 62
     7
100
AcDbLine
 10
-511.7471716950671
 20
306.7875014019472
 30
0.0
 11
-511.7642087819283
 21
306.7808784372243
 31
0.0
  0
LINE
  5
118
330
1F
100
AcDbEntity
  8
0
  6
CONTINUOUS
 62
     7
100
AcDbLine
 10
-511.7471716950668
 20
99.71249860333204
 30
0.0
 11
-512.2471716950354
 21
99.87705670121683
 31
0.0
  0
LINE
  5
119
330
1F
100
AcDbEntity
  8
0
  6
CONTINUOUS
 62
     7
100
AcDbLine
 10
-386.4439463222257
 20
306.7875013966677
 30
0.0
 11
-385.9439463221932
 21
306.6229432987832
 31
0.0
  0
LINE
  5
11A
330
1F
100
AcDbEntity
  8
0
  6
CONTINUOUS
 62
     7
100
AcDbLine
 10
-386.4439463222253
 20
99.7124985980532
 30
0.0
 11
-386.4269092353807
 21
99.71912156277563
 31
0.0
  0
ARC
  5
11B
330
1F
100
AcDbEntity
  8
0
  6
CONTINUOUS
 62
     7
100
AcDbCircle
 10
-449.0955590152635
 20
203.25
 30
0.0
 40
76.19999999999177
100
AcDbArc
 50
137.6131624641747
 51
141.3868375358344
  0
ARC
  5
11C
330
1F
100
AcDbEntity
  8
0
  6
CONTINUOUS
 62
     7
100
AcDbCircle
 10
-449.0955590152635
 20
203.25
 30
0.0
 40
76.19999999999177
100
AcDbArc
 50
227.6131624641656
 51
231.3868375358254
  0
ARC
  5
11D
330
1F
100
AcDbEntity
  8
0
  6
CONTINUOUS
 62
     7
100
AcDbCircle
 10
-449.0955590152635
 20
203.25
 30
0.0
 40
76.19999999999183
100
AcDbArc
 50
47.61316246416564
 51
51.38683753582528
  0
ARC
  5
11E
330
1F
100
AcDbEntity
  8
0
  6
CONTINUOUS
 62
     7
100
AcDbCircle
 10
-449.0955590152635
 20
203.25
 30
0.0
 40
76.19999999999177
100
AcDbArc
 50
317.6131624641747
 51
321.3868375358342
  0
ARC
  5
11F
330
1F
100
AcDbEntity
  8
0
  6
CONTINUOUS
 62
     7
100
AcDbCircle
 10
-449.0955590152635
 20
203.25
 30
0.0
 40
76.19999999999177
100
AcDbArc
 50
218.6131624641657
 51
222.3868375358254
  0
ARC
  5
120
330
1F
100
AcDbEntity
  8
0
  6
CONTINUOUS
 62
     7
100
AcDbCircle
 10
-449.0955590152635
 20
203.25
 30
0.0
 40
76.19999999999177
100
AcDbArc
 50
128.6131624641746
 51
132.3868375358345
  0
ARC
  5
121
330
1F
100
AcDbEntity
  8
0
  6
CONTINUOUS
 62
     7
100
AcDbCircle
 10
-449.0955590152635
 20
203.25
 30
0.0
 40
76.19999999999177
100
AcDbArc
 50
308.6131624641746
 51
312.3868375358343
  0
ARC
  5
122
330
1F
100
AcDbEntity
  8
0
  6
CONTINUOUS
 62
     7
100
AcDbCircle
 10
-449.0955590152635
 20
203.25
 30
0.0
 40
76.19999999999177
100
AcDbArc
 50
38.61316246416573
 51
42.38683753582536
  0
LINE
  5
123
330
1F
100
AcDbEntity
  8
0
  6
CONTINUOUS
 62
     7
100
AcDbLine
 10
-505.3776583511387
 20
151.8810863036232
 30
0.0
 11
-505.4834514792656
 21
151.1047482231253
 31
0.0
  0
LINE
  5
124
330
1F
100
AcDbEntity
  8
0
  6
CONTINUOUS
 62
     7
100
AcDbLine
 10
-505.4834514792656
 20
255.3952517768748
 30
0.0
 11
-505.3776583511387
 21
254.6189136963768
 31
0.0
  0
LINE
  5
125
330
1F
100
AcDbEntity
  8
0
  6
CONTINUOUS
 62
     7
100
AcDbLine
 10
-501.2408107921464
 20
146.8621075360068
 30
0.0
 11
-500.4644727116485
 21
146.9679006641336
 31
0.0
  0
LINE
  5
126
330
1F
100
AcDbEntity
  8
0
  6
CONTINUOUS
 62
     7
100
AcDbLine
 10
-500.4644727116485
 20
259.5320993358664
 30
0.0
 11
-501.2408107921464
 21
259.6378924639932
 31
0.0
  0
LINE
  5
127
330
1F
100
AcDbEntity
  8
0
  6
CONTINUOUS
 62
     7
100
AcDbLine
 10
-397.7266453188785
 20
146.9679006641336
 30
0.0
 11
-396.9503072383805
 21
146.8621075360068
 31
0.0
  0
LINE
  5
128
330
1F
100
AcDbEntity
  8
0
  6
CONTINUOUS
 62
     7
100
AcDbLine
 10
-396.9503072383805
 20
259.6378924639932
 30
0.0
 11
-397.7266453188785
 21
259.5320993358664
 31
0.0
  0
LINE
  5
129
330
1F
100
AcDbEntity
  8
0
  6
CONTINUOUS
 62
     7
100
AcDbLine
 10
-392.7076665512613
 20
151.1047482231253
 30
0.0
 11
-392.8134596793882
 21
151.8810863036232
 31
0.0
  0
LINE
  5
12A
330
1F
100
AcDbEntity
  8
0
  6
CONTINUOUS
 62
     7
100
AcDbLine
 10
-392.8134596793882
 20
254.6189136963768
 30
0.0
 11
-392.7076665512612
 21
255.3952517768748
 31
0.0
  0
LINE
  5
12B
330
1F
100
AcDbEntity
  8
0
  6
CONTINUOUS
 62
     7
100
AcDbLine
 10
-505.4834514792656
 20
255.3952517768748
 30
0.0
 11
-514.9475749364578
 21
264.8593752340652
 31
0.0
  0
LINE
  5
12C
330
1F
100
AcDbEntity
  8
0
  6
CONTINUOUS
 62
     7
100
AcDbLine
 10
-501.2408107921464
 20
146.8621075360068
 30
0.0
 11
-510.7049342493386
 21
137.397984078816
 31
0.0
  0
LINE
  5
12D
330
1F
100
AcDbEntity
  8
0
  6
CONTINUOUS
 62
     7
100
AcDbLine
 10
-396.9503072383805
 20
259.6378924639932
 30
0.0
 11
-387.4861837811884
 21
269.1020159211841
 31
0.0
  0
LINE
  5
12E
330
1F
100
AcDbEntity
  8
0
  6
CONTINUOUS
 62
     7
100
AcDbLine
 10
-392.7076665512613
 20
151.1047482231253
 30
0.0
 11
-383.2435430940691
 21
141.6406247659348
 31
0.0
  0
LINE
  5
12F
330
1F
100
AcDbEntity
  8
0
  6
CONTINUOUS
 62
     7
100
AcDbLine
 10
-514.9475749364577
 20
141.6406247659348
 30
0.0
 11
-505.4834514792656
 21
151.1047482231253
 31
0.0
  0
LINE
  5
130
330
1F
100
AcDbEntity
  8
0
  6
CONTINUOUS
 62
     7
100
AcDbLine
 10
-510.7049342493385
 20
269.1020159211841
 30
0.0
 11
-501.2408107921463
 21
259.6378924639932
 31
0.0
  0
LINE
  5
131
330
1F
100
AcDbEntity
  8
0
  6
CONTINUOUS
 62
     7
100
AcDbLine
 10
-387.4861837811884
 20
137.397984078816
 30
0.0
 11
-396.9503072383805
 21
146.8621075360068
 31
0.0
  0
LINE
  5
132
330
1F
100
AcDbEntity
  8
0
  6
CONTINUOUS
 62
     7
100
AcDbLine
 10
-383.2435430940691
 20
264.8593752340652
 30
0.0
 11
-392.7076665512613
 21
255.3952517768748
 31
0.0
  0
ARC
  5
133
330
1F
100
AcDbEntity
  8
0
  6
CONTINUOUS
 62
     7
100
AcDbCircle
 10
484.2955590152633
 20
238.4499999999944
 30
0.0
 40
40.99999999999559
210
0.0
220
0.0
230
-1.0
100
AcDbArc
 50
29.92261621372285
 51
40.04314255207044
  0
ARC
  5
134
330
1F
100
AcDbEntity
  8
0
  6
CONTINUOUS
 62
     7
100
AcDbCircle
 10
484.2955590152634
 20
168.0500000000056
 30
0.0
 40
40.99999999999554
210
0.0
220
0.0
230
-1.0
100
AcDbArc
 50
299.9226162137308
 51
310.0431425520794
  0
ARC
  5
135
330
1F
100
AcDbEntity
  8
0
  6
CONTINUOUS
 62
     7
100
AcDbCircle
 10
413.8955590152635
 20
238.4499999999944
 30
0.0
 40
40.99999999999554
210
0.0
220
0.0
230
-1.0
100
AcDbArc
 50
119.9226162137308
 51
130.0431425520794
  0
ARC
  5
136
330
1F
100
AcDbEntity
  8
0
  6
CONTINUOUS
 62
     7
100
AcDbCircle
 10
413.8955590152636
 20
168.0500000000056
 30
0.0
 40
40.99999999999554
210
0.0
220
0.0
230
-1.0
100
AcDbArc
 50
209.9226162137229
 51
220.0431425520704
  0
ARC
  5
137
330
1F
100
AcDbEntity
  8
0
  6
CONTINUOUS
 62
     7
100
AcDbCircle
 10
484.2955590152634
 20
168.0500000000056
 30
0.0
 40
40.99999999999554
210
0.0
220
0.0
230
-1.0
100
AcDbArc
 50
319.9568574479296
 51
330.0773837862772
  0
ARC
  5
138
330
1F
100
AcDbEntity
  8
0
  6
CONTINUOUS
 62
     7
100
AcDbCircle
 10
484.2955590152633
 20
238.4499999999944
 30
0.0
 40
40.99999999999559
210
0.0
220
0.0
230
-1.0
100
AcDbArc
 50
49.95685744792046
 51
60.07738378626915
  0
ARC
  5
139
330
1F
100
AcDbEntity
  8
0
  6
CONTINUOUS
 62
     7
100
AcDbCircle
 10
413.8955590152636
 20
168.0500000000056
 30
0.0
 40
40.99999999999559
210
0.0
220
0.0
230
-1.0
100
AcDbArc
 50
229.9568574479205
 51
240.0773837862691
  0
ARC
  5
13A
330
1F
100
AcDbEntity
  8
0
  6
CONTINUOUS
 62
     7
100
AcDbCircle
 10
413.8955590152635
 20
238.4499999999944
 30
0.0
 40
40.99999999999565
210
0.0
220
0.0
230
-1.0
100
AcDbArc
 50
139.9568574479295
 51
150.077383786277
  0
LINE
  5
13B
330
1F
100
AcDbEntity
  8
0
  6
CONTINUOUS
 62
     7
100
AcDbLine
 10
-515.6835280374843
 20
264.827933972538
 30
0.0
 11
-514.9475749364577
 21
264.8593752340652
 31
0.0
  0
LINE
  5
13C
330
1F
100
AcDbEntity
  8
0
  6
CONTINUOUS
 62
     7
100
AcDbLine
 10
-514.9475749364577
 20
141.6406247659348
 30
0.0
 11
-515.6835280374843
 21
141.672066027462
 31
0.0
  0
LINE
  5
13D
330
1F
100
AcDbEntity
  8
0
  6
CONTINUOUS
 62
     7
100
AcDbLine
 10
-510.6734929878112
 20
136.6620309777896
 30
0.0
 11
-510.7049342493386
 21
137.397984078816
 31
0.0
  0
LINE
  5
13E
330
1F
100
AcDbEntity
  8
0
  6
CONTINUOUS
 62
     7
100
AcDbLine
 10
-510.7049342493385
 20
269.1020159211841
 30
0.0
 11
-510.6734929878111
 21
269.8379690222104
 31
0.0
  0
LINE
  5
13F
330
1F
100
AcDbEntity
  8
0
  6
CONTINUOUS
 62
     7
100
AcDbLine
 10
-387.5176250427158
 20
269.8379690222104
 30
0.0
 11
-387.4861837811884
 21
269.1020159211841
 31
0.0
  0
LINE
  5
140
330
1F
100
AcDbEntity
  8
0
  6
CONTINUOUS
 62
     7
100
AcDbLine
 10
-387.4861837811884
 20
137.397984078816
 30
0.0
 11
-387.5176250427158
 21
136.66203097779
 31
0.0
  0
LINE
  5
141
330
1F
100
AcDbEntity
  8
0
  6
CONTINUOUS
 62
     7
100
AcDbLine
 10
-382.5075899930426
 20
141.672066027462
 30
0.0
 11
-383.2435430940691
 21
141.6406247659348
 31
0.0
  0
LINE
  5
142
330
1F
100
AcDbEntity
  8
0
  6
CONTINUOUS
 62
     7
100
AcDbLine
 10
-383.2435430940691
 20
264.8593752340652
 30
0.0
 11
-382.5075899930426
 21
264.827933972538
 31
0.0
  0
LINE
  5
143
330
1F
100
AcDbEntity
  8
0
  6
CONTINUOUS
 62
     7
100
AcDbLine
 10
-508.6364962431695
 20
250.8033047644621
 30
0.0
 11
-509.4198260050409
 21
250.7863493713152
 31
0.0
  0
LINE
  5
144
330
1F
100
AcDbEntity
  8
0
  6
CONTINUOUS
 62
     7
100
AcDbLine
 10
-509.4198260050409
 20
155.7136506286852
 30
0.0
 11
-508.6364962431696
 21
155.696695235538
 31
0.0
  0
LINE
  5
145
330
1F
100
AcDbEntity
  8
0
  6
CONTINUOUS
 62
     7
100
AcDbLine
 10
-496.648863779733
 20
143.7090627721036
 30
0.0
 11
-496.631908386586
 21
142.9257330102324
 31
0.0
  0
LINE
  5
146
330
1F
100
AcDbEntity
  8
0
  6
CONTINUOUS
 62
     7
100
AcDbLine
 10
-496.631908386586
 20
263.574266989768
 30
0.0
 11
-496.648863779733
 21
262.7909372278969
 31
0.0
  0
LINE
  5
147
330
1F
100
AcDbEntity
  8
0
  6
CONTINUOUS
 62
     7
100
AcDbLine
 10
-401.5422542507939
 20
262.7909372278969
 30
0.0
 11
-401.5592096439409
 21
263.574266989768
 31
0.0
  0
LINE
  5
148
330
1F
100
AcDbEntity
  8
0
  6
CONTINUOUS
 62
     7
100
AcDbLine
 10
-401.5592096439409
 20
142.9257330102324
 30
0.0
 11
-401.5422542507939
 21
143.7090627721036
 31
0.0
  0
LINE
  5
149
330
1F
100
AcDbEntity
  8
0
  6
CONTINUOUS
 62
     7
100
AcDbLine
 10
-389.5546217873574
 20
155.696695235538
 30
0.0
 11
-388.7712920254861
 21
155.7136506286852
 31
0.0
  0
LINE
  5
14A
330
1F
100
AcDbEntity
  8
0
  6
CONTINUOUS
 62
     7
100
AcDbLine
 10
-388.7712920254861
 20
250.7863493713152
 30
0.0
 11
-389.5546217873574
 21
250.8033047644621
 31
0.0
  0
LINE
  5
14B
330
1F
100
AcDbEntity
  8
0
  6
CONTINUOUS
 62
     7
100
AcDbLine
 10
-509.4198260050409
 20
155.7136506286852
 30
0.0
 11
-519.6905618612527
 21
148.2515242352388
 31
0.0
  0
LINE
  5
14C
330
1F
100
AcDbEntity
  8
0
  6
CONTINUOUS
 62
     7
100
AcDbLine
 10
-496.631908386586
 20
263.574266989768
 30
0.0
 11
-504.0940347800336
 21
273.845002845978
 31
0.0
  0
LINE
  5
14D
330
1F
100
AcDbEntity
  8
0
  6
CONTINUOUS
 62
     7
100
AcDbLine
 10
-401.5592096439409
 20
142.9257330102324
 30
0.0
 11
-394.0970832504935
 21
132.654997154022
 31
0.0
  0
LINE
  5
14E
330
1F
100
AcDbEntity
  8
0
  6
CONTINUOUS
 62
     7
100
AcDbLine
 10
-388.7712920254861
 20
250.7863493713152
 30
0.0
 11
-378.5005561692743
 21
258.2484757647613
 31
0.0
  0
LINE
  5
14F
330
1F
100
AcDbEntity
  8
0
  6
CONTINUOUS
 62
     7
100
AcDbLine
 10
-519.6905618612526
 20
258.2484757647613
 30
0.0
 11
-509.4198260050409
 21
250.7863493713152
 31
0.0
  0
LINE
  5
150
330
1F
100
AcDbEntity
  8
0
  6
CONTINUOUS
 62
     7
100
AcDbLine
 10
-504.0940347800336
 20
132.654997154022
 30
0.0
 11
-496.631908386586
 21
142.9257330102324
 31
0.0
  0
LINE
  5
151
330
1F
100
AcDbEntity
  8
0
  6
CONTINUOUS
 62
     7
100
AcDbLine
 10
-394.0970832504935
 20
273.845002845978
 30
0.0
 11
-401.5592096439409
 21
263.574266989768
 31
0.0
  0
LINE
  5
152
330
1F
100
AcDbEntity
  8
0
  6
CONTINUOUS
 62
     7
100
AcDbLine
 10
-378.5005561692743
 20
148.2515242352388
 30
0.0
 11
-388.7712920254861
 21
155.7136506286852
 31
0.0
  0
LINE
  5
153
330
1F
100
AcDbEntity
  8
0
  6
CONTINUOUS
 62
     7
100
AcDbLine
 10
-519.6905618612526
 20
258.2484757647613
 30
0.0
 11
-519.8302555154563
 21
258.9020254409873
 31
0.0
  0
LINE
  5
154
330
1F
100
AcDbEntity
  8
0
  6
CONTINUOUS
 62
     7
100
AcDbLine
 10
-519.8302555154564
 20
147.5979745590128
 30
0.0
 11
-519.6905618612527
 21
148.2515242352388
 31
0.0
  0
LINE
  5
155
330
1F
100
AcDbEntity
  8
0
  6
CONTINUOUS
 62
     7
100
AcDbLine
 10
-504.0940347800336
 20
132.654997154022
 30
0.0
 11
-504.7475844562596
 21
132.5153034998184
 31
0.0
  0
LINE
  5
156
330
1F
100
AcDbEntity
  8
0
  6
CONTINUOUS
 62
     7
100
AcDbLine
 10
-504.7475844562596
 20
273.9846965001817
 30
0.0
 11
-504.0940347800334
 21
273.845002845978
 31
0.0
  0
LINE
  5
157
330
1F
100
AcDbEntity
  8
0
  6
CONTINUOUS
 62
     7
100
AcDbLine
 10
-394.0970832504935
 20
273.845002845978
 30
0.0
 11
-393.4435335742673
 21
273.9846965001817
 31
0.0
  0
LINE
  5
158
330
1F
100
AcDbEntity
  8
0
  6
CONTINUOUS
 62
     7
100
AcDbLine
 10
-393.4435335742673
 20
132.5153034998184
 30
0.0
 11
-394.0970832504935
 21
132.654997154022
 31
0.0
  0
LINE
  5
159
330
1F
100
AcDbEntity
  8
0
  6
CONTINUOUS
 62
     7
100
AcDbLine
 10
-378.5005561692743
 20
148.2515242352388
 30
0.0
 11
-378.3608625150706
 21
147.5979745590128
 31
0.0
  0
LINE
  5
15A
330
1F
100
AcDbEntity
  8
0
  6
CONTINUOUS
 62
     7
100
AcDbLine
 10
-378.3608625150705
 20
258.9020254409873
 30
0.0
 11
-378.5005561692743
 21
258.2484757647613
 31
0.0
  0
LINE
  5
15B
330
1F
100
AcDbEntity
  8
0
  6
CONTINUOUS
 62
     7
100
AcDbLine
 10
-512.7206008473165
 20
161.3179829739981
 30
0.0
 11
-512.9465375187956
 21
160.5677525949341
 31
0.0
  0
ARC
  5
15C
330
1F
100
AcDbEntity
  8
0
  6
CONTINUOUS
 62
     7
100
AcDbCircle
 10
-449.0955590152635
 20
203.25
 30
0.0
 40
76.19999999999177
100
AcDbArc
 50
209.6131624641663
 51
213.3868375358255
  0
LINE
  5
15D
330
1F
100
AcDbEntity
  8
0
  6
CONTINUOUS
 62
     7
100
AcDbLine
 10
-512.9465375187957
 20
245.932247405066
 30
0.0
 11
-512.7206008473166
 21
245.1820170260019
 31
0.0
  0
ARC
  5
15E
330
1F
100
AcDbEntity
  8
0
  6
CONTINUOUS
 62
     7
100
AcDbCircle
 10
-449.0955590152635
 20
203.25
 30
0.0
 40
76.19999999999177
100
AcDbArc
 50
146.6131624641744
 51
150.3868375358338
  0
ARC
  5
15F
330
1F
100
AcDbEntity
  8
0
  6
CONTINUOUS
 62
     7
100
AcDbCircle
 10
-449.0955590152635
 20
203.25
 30
0.0
 40
76.19999999999183
100
AcDbArc
 50
119.6131624641741
 51
123.3868375358339
  0
LINE
  5
160
330
1F
100
AcDbEntity
  8
0
  6
CONTINUOUS
 62
     7
100
AcDbLine
 10
-491.027576041272
 20
266.8750418320431
 30
0.0
 11
-491.7778064203363
 21
267.100978503522
 31
0.0
  0
ARC
  5
161
330
1F
100
AcDbEntity
  8
0
  6
CONTINUOUS
 62
     7
100
AcDbCircle
 10
-449.0955590152635
 20
203.25
 30
0.0
 40
76.19999999999177
100
AcDbArc
 50
236.613162464166
 51
240.3868375358258
  0
LINE
  5
162
330
1F
100
AcDbEntity
  8
0
  6
CONTINUOUS
 62
     7
100
AcDbLine
 10
-491.7778064203363
 20
139.399021496478
 30
0.0
 11
-491.027576041272
 21
139.6249581679572
 31
0.0
  0
LINE
  5
163
330
1F
100
AcDbEntity
  8
0
  6
CONTINUOUS
 62
     7
100
AcDbLine
 10
-407.1635419892549
 20
139.6249581679572
 30
0.0
 11
-406.4133116101905
 21
139.399021496478
 31
0.0
  0
ARC
  5
164
330
1F
100
AcDbEntity
  8
0
  6
CONTINUOUS
 62
     7
100
AcDbCircle
 10
-449.0955590152635
 20
203.25
 30
0.0
 40
76.19999999999177
100
AcDbArc
 50
299.6131624641741
 51
303.3868375358339
  0
ARC
  5
165
330
1F
100
AcDbEntity
  8
0
  6
CONTINUOUS
 62
     7
100
AcDbCircle
 10
-449.0955590152635
 20
203.25
 30
0.0
 40
76.19999999999183
100
AcDbArc
 50
56.61316246416598
 51
60.38683753582582
  0
LINE
  5
166
330
1F
100
AcDbEntity
  8
0
  6
CONTINUOUS
 62
     7
100
AcDbLine
 10
-406.4133116101905
 20
267.100978503522
 30
0.0
 11
-407.1635419892549
 21
266.8750418320428
 31
0.0
  0
ARC
  5
167
330
1F
100
AcDbEntity
  8
0
  6
CONTINUOUS
 62
     7
100
AcDbCircle
 10
-449.0955590152635
 20
203.25
 30
0.0
 40
76.19999999999183
100
AcDbArc
 50
326.6131624641743
 51
330.3868375358336
  0
LINE
  5
168
330
1F
100
AcDbEntity
  8
0
  6
CONTINUOUS
 62
     7
100
AcDbLine
 10
-385.4705171832104
 20
245.1820170260019
 30
0.0
 11
-385.2445805117313
 21
245.932247405066
 31
0.0
  0
ARC
  5
169
330
1F
100
AcDbEntity
  8
0
  6
CONTINUOUS
 62
     7
100
AcDbCircle
 10
-449.0955590152635
 20
203.25
 30
0.0
 40
76.19999999999183
100
AcDbArc
 50
29.61316246416625
 51
33.38683753582569
  0
LINE
  5
16A
330
1F
100
AcDbEntity
  8
0
  6
CONTINUOUS
 62
     7
100
AcDbLine
 10
-385.2445805117313
 20
160.5677525949341
 30
0.0
 11
-385.4705171832105
 21
161.3179829739981
 31
0.0
  0
LINE
  5
16B
330
1F
100
AcDbEntity
  8
0
  6
CONTINUOUS
 62
     7
100
AcDbLine
 10
-512.9465375187957
 20
245.932247405066
 30
0.0
 11
-522.1032197957488
 21
252.5849664947044
 31
0.0
  0
LINE
  5
16C
330
1F
100
AcDbEntity
  8
0
  6
CONTINUOUS
 62
     7
100
AcDbLine
 10
-491.7778064203363
 20
139.399021496478
 30
0.0
 11
-498.4305255099757
 21
130.2423392195264
 31
0.0
  0
LINE
  5
16D
330
1F
100
AcDbEntity
  8
0
  6
CONTINUOUS
 62
     7
100
AcDbLine
 10
-406.4133116101905
 20
267.100978503522
 30
0.0
 11
-399.7605925205512
 21
276.2576607804737
 31
0.0
  0
LINE
  5
16E
330
1F
100
AcDbEntity
  8
0
  6
CONTINUOUS
 62
     7
100
AcDbLine
 10
-385.2445805117313
 20
160.5677525949341
 30
0.0
 11
-376.0878982347782
 21
153.9150335052956
 31
0.0
  0
LINE
  5
16F
330
1F
100
AcDbEntity
  8
0
  6
CONTINUOUS
 62
     7
100
AcDbLine
 10
-522.1032197957487
 20
153.9150335052956
 30
0.0
 11
-512.9465375187956
 21
160.5677525949341
 31
0.0
  0
LINE
  5
170
330
1F
100
AcDbEntity
  8
0
  6
CONTINUOUS
 62
     7
100
AcDbLine
 10
-498.4305255099757
 20
276.2576607804737
 30
0.0
 11
-491.7778064203363
 21
267.100978503522
 31
0.0
  0
LINE
  5
171
330
1F
100
AcDbEntity
  8
0
  6
CONTINUOUS
 62
     7
100
AcDbLine
 10
-399.7605925205512
 20
130.2423392195264
 30
0.0
 11
-406.4133116101905
 21
139.399021496478
 31
0.0
  0
LINE
  5
172
330
1F
100
AcDbEntity
  8
0
  6
CONTINUOUS
 62
     7
100
AcDbLine
 10
-376.0878982347782
 20
252.5849664947044
 30
0.0
 11
-385.2445805117313
 21
245.932247405066
 31
0.0
  0
LINE
  5
173
330
1F
100
AcDbEntity
  8
0
  6
CONTINUOUS
 62
     7
100
AcDbLine
 10
-522.1032197957487
 20
153.9150335052956
 30
0.0
 11
-522.8672095702962
 21
154.149360681602
 31
0.0
  0
LINE
  5
174
330
1F
100
AcDbEntity
  8
0
  6
CONTINUOUS
 62
     7
100
AcDbLine
 10
-522.8672095702963
 20
252.350639318398
 30
0.0
 11
-522.1032197957487
 21
252.5849664947044
 31
0.0
  0
LINE
  5
175
330
1F
100
AcDbEntity
  8
0
  6
CONTINUOUS
 62
     7
100
AcDbLine
 10
-498.4305255099757
 20
276.2576607804737
 30
0.0
 11
-498.1961983336694
 21
277.0216505550213
 31
0.0
  0
LINE
  5
176
330
1F
100
AcDbEntity
  8
0
  6
CONTINUOUS
 62
     7
100
AcDbLine
 10
-498.1961983336694
 20
129.4783494449788
 30
0.0
 11
-498.4305255099757
 21
130.2423392195264
 31
0.0
  0
LINE
  5
177
330
1F
100
AcDbEntity
  8
0
  6
CONTINUOUS
 62
     7
100
AcDbLine
 10
-399.7605925205512
 20
130.2423392195264
 30
0.0
 11
-399.9949196968574
 21
129.4783494449788
 31
0.0
  0
LINE
  5
178
330
1F
100
AcDbEntity
  8
0
  6
CONTINUOUS
 62
     7
100
AcDbLine
 10
-399.9949196968575
 20
277.0216505550213
 30
0.0
 11
-399.7605925205512
 21
276.2576607804737
 31
0.0
  0
LINE
  5
179
330
1F
100
AcDbEntity
  8
0
  6
CONTINUOUS
 62
     7
100
AcDbLine
 10
-376.0878982347782
 20
252.5849664947044
 30
0.0
 11
-375.3239084602306
 21
252.350639318398
 31
0.0
  0
LINE
  5
17A
330
1F
100
AcDbEntity
  8
0
  6
CONTINUOUS
 62
     7
100
AcDbLine
 10
-375.3239084602307
 20
154.149360681602
 30
0.0
 11
-376.0878982347782
 21
153.9150335052956
 31
0.0
  0
ARC
  5
17B
330
1F
100
AcDbEntity
  8
0
  6
CONTINUOUS
 62
     7
100
AcDbCircle
 10
484.2955590152634
 20
168.0500000000056
 30
0.0
 40
40.99999999999554
210
0.0
220
0.0
230
-1.0
100
AcDbArc
 50
340.1816045308883
 51
350.0624727738539
  0
ARC
  5
17C
330
1F
100
AcDbEntity
  8
0
  6
CONTINUOUS
 62
     7
100
AcDbCircle
 10
484.2955590152633
 20
238.4499999999944
 30
0.0
 40
40.99999999999559
210
0.0
220
0.0
230
-1.0
100
AcDbArc
 50
9.937527226146194
 51
19.81839546911162
  0
ARC
  5
17D
330
1F
100
AcDbEntity
  8
0
  6
CONTINUOUS
 62
     7
100
AcDbCircle
 10
484.2955590152633
 20
238.4499999999944
 30
0.0
 40
40.99999999999548
210
0.0
220
0.0
230
-1.0
100
AcDbArc
 50
70.18160453088248
 51
80.06247277385059
  0
ARC
  5
17E
330
1F
100
AcDbEntity
  8
0
  6
CONTINUOUS
 62
     7
100
AcDbCircle
 10
484.2955590152634
 20
168.0500000000056
 30
0.0
 40
40.99999999999554
210
0.0
220
0.0
230
-1.0
100
AcDbArc
 50
279.9375272261493
 51
289.8183954691174
  0
ARC
  5
17F
330
1F
100
AcDbEntity
  8
0
  6
CONTINUOUS
 62
     7
100
AcDbCircle
 10
413.8955590152636
 20
168.0500000000056
 30
0.0
 40
40.99999999999554
210
0.0
220
0.0
230
-1.0
100
AcDbArc
 50
250.1816045308825
 51
260.0624727738506
  0
ARC
  5
180
330
1F
100
AcDbEntity
  8
0
  6
CONTINUOUS
 62
     7
100
AcDbCircle
 10
413.8955590152635
 20
238.4499999999944
 30
0.0
 40
40.99999999999559
210
0.0
220
0.0
230
-1.0
100
AcDbArc
 50
99.93752722614929
 51
109.8183954691175
  0
ARC
  5
181
330
1F
100
AcDbEntity
  8
0
  6
CONTINUOUS
 62
     7
100
AcDbCircle
 10
413.8955590152635
 20
238.4499999999944
 30
0.0
 40
40.99999999999554
210
0.0
220
0.0
230
-1.0
100
AcDbArc
 50
160.1816045308883
 51
170.0624727738538
  0
ARC
  5
182
330
1F
100
AcDbEntity
  8
0
  6
CONTINUOUS
 62
     7
100
AcDbCircle
 10
413.8955590152636
 20
168.0500000000056
 30
0.0
 40
40.99999999999554
210
0.0
220
0.0
230
-1.0
100
AcDbArc
 50
189.9375272261461
 51
199.8183954691116
  0
LINE
  5
183
330
1F
100
AcDbEntity
  8
0
  6
CONTINUOUS
 62
     7
100
AcDbLine
 10
-516.113457559883
 20
165.7356964069836
 30
0.0
 11
-515.3424242950981
 21
165.5964099906136
 31
0.0
  0
LINE
  5
184
330
1F
100
AcDbEntity
  8
0
  6
CONTINUOUS
 62
     7
100
AcDbLine
 10
-515.3424242950981
 20
240.9035900093864
 30
0.0
 11
-516.1134575598832
 21
240.7643035930164
 31
0.0
  0
LINE
  5
185
330
1F
100
AcDbEntity
  8
0
  6
CONTINUOUS
 62
     7
100
AcDbLine
 10
-486.6098626082859
 20
270.2678985446087
 30
0.0
 11
-486.7491490246558
 21
269.496865279824
 31
0.0
  0
LINE
  5
186
330
1F
100
AcDbEntity
  8
0
  6
CONTINUOUS
 62
     7
100
AcDbLine
 10
-486.7491490246558
 20
137.003134720176
 30
0.0
 11
-486.6098626082859
 21
136.2321014553912
 31
0.0
  0
LINE
  5
187
330
1F
100
AcDbEntity
  8
0
  6
CONTINUOUS
 62
     7
100
AcDbLine
 10
-411.581255422241
 20
136.2321014553912
 30
0.0
 11
-411.4419690058712
 21
137.003134720176
 31
0.0
  0
LINE
  5
188
330
1F
100
AcDbEntity
  8
0
  6
CONTINUOUS
 62
     7
100
AcDbLine
 10
-411.4419690058712
 20
269.496865279824
 30
0.0
 11
-411.581255422241
 21
270.2678985446087
 31
0.0
  0
LINE
  5
189
330
1F
100
AcDbEntity
  8
0
  6
CONTINUOUS
 62
     7
100
AcDbLine
 10
-382.0776604706438
 20
240.7643035930164
 30
0.0
 11
-382.8486937354289
 21
240.9035900093864
 31
0.0
  0
LINE
  5
18A
330
1F
100
AcDbEntity
  8
0
  6
CONTINUOUS
 62
     7
100
AcDbLine
 10
-382.8486937354289
 20
165.5964099906136
 30
0.0
 11
-382.0776604706438
 21
165.7356964069836
 31
0.0
  0
LINE
  5
18B
330
1F
100
AcDbEntity
  8
0
  6
CONTINUOUS
 62
     7
100
AcDbLine
 10
-516.113457559883
 20
165.7356964069836
 30
0.0
 11
-524.4148092131991
 21
161.5059464744172
 31
0.0
  0
LINE
  5
18C
330
1F
100
AcDbEntity
  8
0
  6
CONTINUOUS
 62
     7
100
AcDbLine
 10
-486.6098626082859
 20
270.2678985446087
 30
0.0
 11
-490.8396125408531
 21
278.5692501979236
 31
0.0
  0
LINE
  5
18D
330
1F
100
AcDbEntity
  8
0
  6
CONTINUOUS
 62
     7
100
AcDbLine
 10
-411.581255422241
 20
136.2321014553912
 30
0.0
 11
-407.3515054896739
 21
127.9307498020764
 31
0.0
  0
LINE
  5
18E
330
1F
100
AcDbEntity
  8
0
  6
CONTINUOUS
 62
     7
100
AcDbLine
 10
-382.0776604706438
 20
240.7643035930164
 30
0.0
 11
-373.7763088173278
 21
244.9940535255832
 31
0.0
  0
LINE
  5
18F
330
1F
100
AcDbEntity
  8
0
  6
CONTINUOUS
 62
     7
100
AcDbLine
 10
-524.4148092131992
 20
244.9940535255828
 30
0.0
 11
-516.1134575598832
 21
240.7643035930164
 31
0.0
  0
LINE
  5
190
330
1F
100
AcDbEntity
  8
0
  6
CONTINUOUS
 62
     7
100
AcDbLine
 10
-490.8396125408531
 20
127.9307498020764
 30
0.0
 11
-486.6098626082859
 21
136.2321014553912
 31
0.0
  0
LINE
  5
191
330
1F
100
AcDbEntity
  8
0
  6
CONTINUOUS
 62
     7
100
AcDbLine
 10
-407.3515054896739
 20
278.5692501979236
 30
0.0
 11
-411.581255422241
 21
270.2678985446087
 31
0.0
  0
LINE
  5
192
330
1F
100
AcDbEntity
  8
0
  6
CONTINUOUS
 62
     7
100
AcDbLine
 10
-373.7763088173278
 20
161.5059464744172
 30
0.0
 11
-382.0776604706438
 21
165.7356964069836
 31
0.0
  0
LINE
  5
193
330
1F
100
AcDbEntity
  8
0
  6
CONTINUOUS
 62
     7
100
AcDbLine
 10
-524.6804157543049
 20
160.9744543555296
 30
0.0
 11
-524.4148092131992
 21
161.5059464744172
 31
0.0
  0
LINE
  5
194
330
1F
100
AcDbEntity
  8
0
  6
CONTINUOUS
 62
     7
100
AcDbLine
 10
-524.4148092131992
 20
244.9940535255828
 30
0.0
 11
-524.6804157543049
 21
245.5255456444705
 31
0.0
  0
LINE
  5
195
330
1F
100
AcDbEntity
  8
0
  6
CONTINUOUS
 62
     7
100
AcDbLine
 10
-491.3711046597408
 20
278.8348567390296
 30
0.0
 11
-490.8396125408531
 21
278.5692501979236
 31
0.0
  0
LINE
  5
196
330
1F
100
AcDbEntity
  8
0
  6
CONTINUOUS
 62
     7
100
AcDbLine
 10
-490.8396125408531
 20
127.9307498020764
 30
0.0
 11
-491.3711046597407
 21
127.6651432609708
 31
0.0
  0
LINE
  5
197
330
1F
100
AcDbEntity
  8
0
  6
CONTINUOUS
 62
     7
100
AcDbLine
 10
-406.8200133707862
 20
127.6651432609708
 30
0.0
 11
-407.3515054896739
 21
127.9307498020764
 31
0.0
  0
LINE
  5
198
330
1F
100
AcDbEntity
  8
0
  6
CONTINUOUS
 62
     7
100
AcDbLine
 10
-407.3515054896739
 20
278.5692501979236
 30
0.0
 11
-406.8200133707862
 21
278.8348567390296
 31
0.0
  0
LINE
  5
199
330
1F
100
AcDbEntity
  8
0
  6
CONTINUOUS
 62
     7
100
AcDbLine
 10
-373.510702276222
 20
245.5255456444705
 30
0.0
 11
-373.7763088173278
 21
244.9940535255832
 31
0.0
  0
LINE
  5
19A
330
1F
100
AcDbEntity
  8
0
  6
CONTINUOUS
 62
     7
100
AcDbLine
 10
-373.7763088173278
 20
161.5059464744172
 30
0.0
 11
-373.510702276222
 21
160.9744543555296
 31
0.0
  0
LINE
  5
19B
330
1F
100
AcDbEntity
  8
0
  6
CONTINUOUS
 62
     7
100
AcDbLine
 10
-518.8374005583203
 20
235.4182644478872
 30
0.0
 11
-524.5686413158619
 21
238.3384774710335
 31
0.0
  0
LINE
  5
19C
330
1F
100
AcDbEntity
  8
0
  6
CONTINUOUS
 62
     7
100
AcDbLine
 10
-481.2638234631557
 20
133.5081584569544
 30
0.0
 11
-484.1840364863029
 21
127.7769176994136
 31
0.0
  0
LINE
  5
19D
330
1F
100
AcDbEntity
  8
0
  6
CONTINUOUS
 62
     7
100
AcDbLine
 10
-416.9272945673712
 20
272.9918415430456
 30
0.0
 11
-414.007081544224
 21
278.7230823005864
 31
0.0
  0
LINE
  5
19E
330
1F
100
AcDbEntity
  8
0
  6
CONTINUOUS
 62
     7
100
AcDbLine
 10
-379.3537174722066
 20
171.0817355521128
 30
0.0
 11
-373.622476714665
 21
168.1615225289664
 31
0.0
  0
LINE
  5
19F
330
1F
100
AcDbEntity
  8
0
  6
CONTINUOUS
 62
     7
100
AcDbLine
 10
-524.5686413158619
 20
168.1615225289664
 30
0.0
 11
-518.8374005583203
 21
171.0817355521128
 31
0.0
  0
LINE
  5
1A0
330
1F
100
AcDbEntity
  8
0
  6
CONTINUOUS
 62
     7
100
AcDbLine
 10
-484.1840364863029
 20
278.7230823005864
 30
0.0
 11
-481.2638234631557
 21
272.9918415430456
 31
0.0
  0
LINE
  5
1A1
330
1F
100
AcDbEntity
  8
0
  6
CONTINUOUS
 62
     7
100
AcDbLine
 10
-414.007081544224
 20
127.7769176994136
 30
0.0
 11
-416.9272945673712
 21
133.5081584569544
 31
0.0
  0
LINE
  5
1A2
330
1F
100
AcDbEntity
  8
0
  6
CONTINUOUS
 62
     7
100
AcDbLine
 10
-373.622476714665
 20
238.3384774710335
 30
0.0
 11
-379.3537174722066
 21
235.4182644478872
 31
0.0
  0
LINE
  5
1A3
330
1F
100
AcDbEntity
  8
0
  6
CONTINUOUS
 62
     7
100
AcDbLine
 10
-518.8374005583203
 20
235.4182644478872
 30
0.0
 11
-518.4968836541817
 21
234.7126149320613
 31
0.0
  0
ARC
  5
1A4
330
1F
100
AcDbEntity
  8
0
  6
CONTINUOUS
 62
     7
100
AcDbCircle
 10
-449.0955590152635
 20
203.25
 30
0.0
 40
76.19999999999177
100
AcDbArc
 50
155.6131624641736
 51
159.3868375358329
  0
LINE
  5
1A5
330
1F
100
AcDbEntity
  8
0
  6
CONTINUOUS
 62
     7
100
AcDbLine
 10
-518.4968836541817
 20
171.7873850679392
 30
0.0
 11
-518.8374005583204
 21
171.0817355521128
 31
0.0
  0
ARC
  5
1A6
330
1F
100
AcDbEntity
  8
0
  6
CONTINUOUS
 62
     7
100
AcDbCircle
 10
-449.0955590152635
 20
203.25
 30
0.0
 40
76.19999999999177
100
AcDbArc
 50
200.6131624641672
 51
204.3868375358263
  0
LINE
  5
1A7
330
1F
100
AcDbEntity
  8
0
  6
CONTINUOUS
 62
     7
100
AcDbLine
 10
-481.2638234631557
 20
133.5081584569544
 30
0.0
 11
-480.5581739473294
 21
133.8486753610928
 31
0.0
  0
ARC
  5
1A8
330
1F
100
AcDbEntity
  8
0
  6
CONTINUOUS
 62
     7
100
AcDbCircle
 10
-449.0955590152635
 20
203.25
 30
0.0
 40
76.19999999999177
100
AcDbArc
 50
245.6131624641667
 51
249.3868375358267
  0
LINE
  5
1A9
330
1F
100
AcDbEntity
  8
0
  6
CONTINUOUS
 62
     7
100
AcDbLine
 10
-480.5581739473294
 20
272.6513246389073
 30
0.0
 11
-481.2638234631557
 21
272.9918415430456
 31
0.0
  0
ARC
  5
1AA
330
1F
100
AcDbEntity
  8
0
  6
CONTINUOUS
 62
     7
100
AcDbCircle
 10
-449.0955590152635
 20
203.25
 30
0.0
 40
76.19999999999172
100
AcDbArc
 50
110.6131624641732
 51
114.3868375358332
  0
LINE
  5
1AB
330
1F
100
AcDbEntity
  8
0
  6
CONTINUOUS
 62
     7
100
AcDbLine
 10
-416.9272945673712
 20
272.9918415430456
 30
0.0
 11
-417.6329440831976
 21
272.6513246389073
 31
0.0
  0
ARC
  5
1AC
330
1F
100
AcDbEntity
  8
0
  6
CONTINUOUS
 62
     7
100
AcDbCircle
 10
-449.0955590152635
 20
203.25
 30
0.0
 40
76.19999999999177
100
AcDbArc
 50
65.61316246416673
 51
69.38683753582666
  0
LINE
  5
1AD
330
1F
100
AcDbEntity
  8
0
  6
CONTINUOUS
 62
     7
100
AcDbLine
 10
-417.6329440831976
 20
133.8486753610928
 30
0.0
 11
-416.9272945673712
 21
133.5081584569544
 31
0.0
  0
ARC
  5
1AE
330
1F
100
AcDbEntity
  8
0
  6
CONTINUOUS
 62
     7
100
AcDbCircle
 10
-449.0955590152635
 20
203.25
 30
0.0
 40
76.19999999999177
100
AcDbArc
 50
290.6131624641732
 51
294.3868375358333
  0
LINE
  5
1AF
330
1F
100
AcDbEntity
  8
0
  6
CONTINUOUS
 62
     7
100
AcDbLine
 10
-379.3537174722066
 20
171.0817355521128
 30
0.0
 11
-379.6942343763453
 21
171.7873850679392
 31
0.0
  0
ARC
  5
1B0
330
1F
100
AcDbEntity
  8
0
  6
CONTINUOUS
 62
     7
100
AcDbCircle
 10
-449.0955590152635
 20
203.25
 30
0.0
 40
76.19999999999183
100
AcDbArc
 50
335.6131624641736
 51
339.3868375358329
  0
ARC
  5
1B1
330
1F
100
AcDbEntity
  8
0
  6
CONTINUOUS
 62
     7
100
AcDbCircle
 10
-449.0955590152635
 20
203.25
 30
0.0
 40
76.19999999999177
100
AcDbArc
 50
20.61316246416718
 51
24.38683753582643
  0
LINE
  5
1B2
330
1F
100
AcDbEntity
  8
0
  6
CONTINUOUS
 62
     7
100
AcDbLine
 10
-379.6942343763453
 20
234.7126149320613
 30
0.0
 11
-379.3537174722066
 21
235.4182644478872
 31
0.0
  0
ELLIPSE
  5
1B3
330
1F
100
AcDbEntity
  8
0
  6
CONTINUOUS
 62
     7
100
AcDbEllipse
 10
-524.7948728422643
 20
237.8923927098933
 30
0.0
 11
0.3423548945881149
 21
-0.3664237368767864
 31
0.0
210
0.0
220
0.0
230
-1.0
 40
0.997066501205857
 41
2.323715005261981
 42
4.363341474613222
  0
ELLIPSE
  5
1B4
330
1F
100
AcDbEntity
  8
0
  6
CONTINUOUS
 62
     7
100
AcDbEllipse
 10
-524.7948728422643
 20
168.6076072901068
 30
0.0
 11
-0.3423548945881151
 21
-0.366423736876842
 31
0.0
210
0.0
220
0.0
230
-1.0
 40
0.9970665012058518
 41
5.061436486156143
 42
7.101062955507425
  0
ELLIPSE
  5
1B5
330
1F
100
AcDbEntity
  8
0
  6
CONTINUOUS
 62
     7
100
AcDbEllipse
 10
-483.7379517251624
 20
127.5506861730112
 30
0.0
 11
0.3664237368768974
 21
0.3423548945880039
 31
0.0
210
0.0
220
0.0
230
-1.0
 40
0.9970665012060889
 41
2.323715005261779
 42
4.363341474612914
  0
ELLIPSE
  5
1B6
330
1F
100
AcDbEntity
  8
0
  6
CONTINUOUS
 62
     7
100
AcDbEllipse
 10
-483.7379517251624
 20
278.9493138269888
 30
0.0
 11
-0.3664237368768974
 21
0.3423548945880039
 31
0.0
210
0.0
220
0.0
230
-1.0
 40
0.9970665012060079
 41
5.06143648615647
 42
7.101062955507587
  0
ELLIPSE
  5
1B7
330
1F
100
AcDbEntity
  8
0
  6
CONTINUOUS
 62
     7
100
AcDbEllipse
 10
-414.4531663053646
 20
278.9493138269888
 30
0.0
 11
-0.3664237368768974
 21
-0.3423548945880039
 31
0.0
210
0.0
220
0.0
230
-1.0
 40
0.9970665012060079
 41
2.323715005261809
 42
4.363341474612902
  0
ELLIPSE
  5
1B8
330
1F
100
AcDbEntity
  8
0
  6
CONTINUOUS
 62
     7
100
AcDbEllipse
 10
-414.4531663053646
 20
127.5506861730112
 30
0.0
 11
0.3664237368768974
 21
-0.3423548945880039
 31
0.0
210
0.0
220
0.0
230
-1.0
 40
0.9970665012060079
 41
5.061436486156458
 42
7.101062955507571
  0
ELLIPSE
  5
1B9
330
1F
100
AcDbEntity
  8
0
  6
CONTINUOUS
 62
     7
100
AcDbEllipse
 10
-373.3962451882626
 20
168.6076072901068
 30
0.0
 11
-0.3423548945880595
 21
0.3664237368768419
 31
0.0
210
0.0
220
0.0
230
-1.0
 40
0.9970665012060889
 41
2.32371500526198
 42
4.363341474613222
  0
ELLIPSE
  5
1BA
330
1F
100
AcDbEntity
  8
0
  6
CONTINUOUS
 62
     7
100
AcDbEllipse
 10
-373.3962451882626
 20
237.8923927098936
 30
0.0
 11
0.3423548945880595
 21
0.3664237368767864
 31
0.0
210
0.0
220
0.0
230
-1.0
 40
0.9970665012060131
 41
5.061436486156156
 42
7.101062955507399
  0
LINE
  5
1BB
330
1F
100
AcDbEntity
  8
0
  6
CONTINUOUS
 62
     7
100
AcDbLine
 10
-525.2955590152633
 20
168.6061394694896
 30
0.0
 11
-525.2955590152633
 21
174.9737788443044
 31
0.0
  0
LINE
  5
1BC
330
1F
100
AcDbEntity
  8
0
  6
CONTINUOUS
 62
     7
100
AcDbLine
 10
-525.2955590152633
 20
231.5262211556961
 30
0.0
 11
-525.2955590152633
 21
237.8938605305108
 31
0.0
  0
LINE
  5
1BD
330
1F
100
AcDbEntity
  8
0
  6
CONTINUOUS
 62
     7
100
AcDbLine
 10
-483.7394195457795
 20
279.4499999999877
 30
0.0
 11
-477.3717801709638
 21
279.4499999999877
 31
0.0
  0
LINE
  5
1BE
330
1F
100
AcDbEntity
  8
0
  6
CONTINUOUS
 62
     7
100
AcDbLine
 10
-477.3717801709637
 20
127.0500000000124
 30
0.0
 11
-483.7394195457795
 21
127.0500000000124
 31
0.0
  0
LINE
  5
1BF
330
1F
100
AcDbEntity
  8
0
  6
CONTINUOUS
 62
     7
100
AcDbLine
 10
-414.4516984847474
 20
127.0500000000124
 30
0.0
 11
-420.8193378595632
 21
127.0500000000124
 31
0.0
  0
LINE
  5
1C0
330
1F
100
AcDbEntity
  8
0
  6
CONTINUOUS
 62
     7
100
AcDbLine
 10
-420.8193378595632
 20
279.4499999999877
 30
0.0
 11
-414.4516984847474
 21
279.4499999999877
 31
0.0
  0
LINE
  5
1C1
330
1F
100
AcDbEntity
  8
0
  6
CONTINUOUS
 62
     7
100
AcDbLine
 10
-372.8955590152636
 20
237.8938605305108
 30
0.0
 11
-372.8955590152636
 21
231.5262211556961
 31
0.0
  0
LINE
  5
1C2
330
1F
100
AcDbEntity
  8
0
  6
CONTINUOUS
 62
     7
100
AcDbLine
 10
-372.8955590152636
 20
174.9737788443044
 30
0.0
 11
-372.8955590152636
 21
168.6061394694896
 31
0.0
  0
LINE
  5
1C3
330
1F
100
AcDbEntity
  8
0
  6
CONTINUOUS
 62
     7
100
AcDbLine
 10
-521.1568860329035
 20
176.6814688425776
 30
0.0
 11
-520.4171346630965
 21
176.4232810968213
 31
0.0
  0
LINE
  5
1C4
330
1F
100
AcDbEntity
  8
0
  6
CONTINUOUS
 62
     7
100
AcDbLine
 10
-520.4171346630965
 20
230.0767189031787
 30
0.0
 11
-521.1568860329035
 21
229.818531157422
 31
0.0
  0
LINE
  5
1C5
330
1F
100
AcDbEntity
  8
0
  6
CONTINUOUS
 62
     7
100
AcDbLine
 10
-475.9222779184466
 20
131.9284243521784
 30
0.0
 11
-475.66409017269
 21
131.1886729823716
 31
0.0
  0
LINE
  5
1C6
330
1F
100
AcDbEntity
  8
0
  6
CONTINUOUS
 62
     7
100
AcDbLine
 10
-475.66409017269
 20
275.3113270176284
 30
0.0
 11
-475.9222779184466
 21
274.5715756478216
 31
0.0
  0
LINE
  5
1C7
330
1F
100
AcDbEntity
  8
0
  6
CONTINUOUS
 62
     7
100
AcDbLine
 10
-422.2688401120803
 20
274.5715756478216
 30
0.0
 11
-422.527027857837
 21
275.3113270176284
 31
0.0
  0
LINE
  5
1C8
330
1F
100
AcDbEntity
  8
0
  6
CONTINUOUS
 62
     7
100
AcDbLine
 10
-422.527027857837
 20
131.1886729823716
 30
0.0
 11
-422.2688401120803
 21
131.9284243521784
 31
0.0
  0
LINE
  5
1C9
330
1F
100
AcDbEntity
  8
0
  6
CONTINUOUS
 62
     7
100
AcDbLine
 10
-377.0342319976235
 20
229.8185311574225
 30
0.0
 11
-377.7739833674304
 21
230.0767189031787
 31
0.0
  0
LINE
  5
1CA
330
1F
100
AcDbEntity
  8
0
  6
CONTINUOUS
 62
     7
100
AcDbLine
 10
-377.7739833674304
 20
176.4232810968213
 30
0.0
 11
-377.0342319976235
 21
176.6814688425781
 31
0.0
  0
LINE
  5
1CB
330
1F
100
AcDbEntity
  8
0
  6
CONTINUOUS
 62
     7
100
AcDbLine
 10
-521.1568860329035
 20
176.6814688425776
 30
0.0
 11
-524.9500143311133
 21
175.4490067481512
 31
0.0
  0
LINE
  5
1CC
330
1F
100
AcDbEntity
  8
0
  6
CONTINUOUS
 62
     7
100
AcDbLine
 10
-475.66409017269
 20
275.3113270176284
 30
0.0
 11
-476.8965522671168
 21
279.1044553158377
 31
0.0
  0
LINE
  5
1CD
330
1F
100
AcDbEntity
  8
0
  6
CONTINUOUS
 62
     7
100
AcDbLine
 10
-422.527027857837
 20
131.1886729823716
 30
0.0
 11
-421.2945657634102
 21
127.3955446841624
 31
0.0
  0
LINE
  5
1CE
330
1F
100
AcDbEntity
  8
0
  6
CONTINUOUS
 62
     7
100
AcDbLine
 10
-377.0342319976235
 20
229.8185311574225
 30
0.0
 11
-373.2411036994136
 21
231.0509932518489
 31
0.0
  0
LINE
  5
1CF
330
1F
100
AcDbEntity
  8
0
  6
CONTINUOUS
 62
     7
100
AcDbLine
 10
-524.9500143311133
 20
231.0509932518489
 30
0.0
 11
-521.1568860329035
 21
229.818531157422
 31
0.0
  0
LINE
  5
1D0
330
1F
100
AcDbEntity
  8
0
  6
CONTINUOUS
 62
     7
100
AcDbLine
 10
-476.8965522671168
 20
127.3955446841624
 30
0.0
 11
-475.66409017269
 21
131.1886729823716
 31
0.0
  0
LINE
  5
1D1
330
1F
100
AcDbEntity
  8
0
  6
CONTINUOUS
 62
     7
100
AcDbLine
 10
-421.2945657634102
 20
279.1044553158377
 30
0.0
 11
-422.527027857837
 21
275.3113270176284
 31
0.0
  0
LINE
  5
1D2
330
1F
100
AcDbEntity
  8
0
  6
CONTINUOUS
 62
     7
100
AcDbLine
 10
-373.2411036994136
 20
175.4490067481512
 30
0.0
 11
-377.0342319976235
 21
176.6814688425781
 31
0.0
  0
ELLIPSE
  5
1D3
330
1F
100
AcDbEntity
  8
0
  6
CONTINUOUS
 62
     7
100
AcDbEllipse
 10
-524.7948728422643
 20
231.5264960552156
 30
0.0
 11
-0.4909475830539023
 21
-0.09841089506534839
 31
0.0
210
0.0
220
0.0
230
-1.0
 40
0.9985745863605302
 41
5.22498678748899
 42
6.480739703595565
  0
ELLIPSE
  5
1D4
330
1F
100
AcDbEntity
  8
0
  6
CONTINUOUS
 62
     7
100
AcDbEllipse
 10
-524.7948728422643
 20
174.9735039447844
 30
0.0
 11
0.4909475830540134
 21
-0.09841089506534841
 31
0.0
210
0.0
220
0.0
230
-1.0
 40
0.9985745863603132
 41
2.944038257173947
 42
4.199791173280376
  0
ELLIPSE
  5
1D5
330
1F
100
AcDbEntity
  8
0
  6
CONTINUOUS
 62
     7
100
AcDbEllipse
 10
-477.3720550704833
 20
127.5506861730112
 30
0.0
 11
0.09841089506529289
 21
-0.4909475830538468
 31
0.0
210
0.0
220
0.0
230
-1.0
 40
0.9985745863606824
 41
5.224986787488964
 42
6.480739703595564
  0
ELLIPSE
  5
1D6
330
1F
100
AcDbEntity
  8
0
  6
CONTINUOUS
 62
     7
100
AcDbEllipse
 10
-477.3720550704834
 20
278.9493138269888
 30
0.0
 11
-0.09841089506529287
 21
-0.4909475830539022
 31
0.0
210
0.0
220
0.0
230
-1.0
 40
0.9985745863605956
 41
2.944038257173808
 42
4.199791173280417
  0
ELLIPSE
  5
1D7
330
1F
100
AcDbEntity
  8
0
  6
CONTINUOUS
 62
     7
100
AcDbEllipse
 10
-420.8190629600435
 20
278.9493138269888
 30
0.0
 11
-0.09841089506529288
 21
0.4909475830537913
 31
0.0
210
0.0
220
0.0
230
-1.0
 40
0.9985745863608126
 41
5.224986787488948
 42
6.480739703595564
  0
ELLIPSE
  5
1D8
330
1F
100
AcDbEntity
  8
0
  6
CONTINUOUS
 62
     7
100
AcDbEllipse
 10
-420.8190629600435
 20
127.5506861730112
 30
0.0
 11
0.09841089506529289
 21
0.4909475830538468
 31
0.0
210
0.0
220
0.0
230
-1.0
 40
0.9985745863606824
 41
2.944038257173809
 42
4.199791173280421
  0
ELLIPSE
  5
1D9
330
1F
100
AcDbEntity
  8
0
  6
CONTINUOUS
 62
     7
100
AcDbEllipse
 10
-373.3962451882626
 20
174.9735039447844
 30
0.0
 11
0.4909475830539023
 21
0.09841089506523738
 31
0.0
210
0.0
220
0.0
230
-1.0
 40
0.9985745863605956
 41
5.224986787488962
 42
6.480739703595398
  0
ELLIPSE
  5
1DA
330
1F
100
AcDbEntity
  8
0
  6
CONTINUOUS
 62
     7
100
AcDbEllipse
 10
-373.3962451882626
 20
231.5264960552156
 30
0.0
 11
-0.4909475830539023
 21
0.09841089506523738
 31
0.0
210
0.0
220
0.0
230
-1.0
 40
0.9985745863605956
 41
2.944038257173788
 42
4.199791173280374
  0
LINE
  5
1DB
330
1F
100
AcDbEntity
  8
0
  6
CONTINUOUS
 62
     7
100
AcDbLine
 10
-525.2955590152633
 20
184.814463047252
 30
0.0
 11
-524.8964838057849
 21
187.8502419057296
 31
0.0
  0
LINE
  5
1DC
330
1F
100
AcDbEntity
  8
0
  6
CONTINUOUS
 62
     7
100
AcDbLine
 10
-523.8120415932184
 20
187.9450162325091
 30
0.0
 11
-523.5564263433706
 21
187.0629917296024
 31
0.0
  0
LINE
  5
1DD
330
1F
100
AcDbEntity
  8
0
  6
CONTINUOUS
 62
     7
100
AcDbLine
 10
-467.5310959680145
 20
279.4499999999877
 30
0.0
 11
-464.4953171095364
 21
279.0509247905092
 31
0.0
  0
LINE
  5
1DE
330
1F
100
AcDbEntity
  8
0
  6
CONTINUOUS
 62
     7
100
AcDbLine
 10
-464.400542782757
 20
277.9664825779432
 30
0.0
 11
-465.2825672856636
 21
277.7108673280952
 31
0.0
  0
LINE
  5
1DF
330
1F
100
AcDbEntity
  8
0
  6
CONTINUOUS
 62
     7
100
AcDbLine
 10
-430.6600220625123
 20
127.0500000000124
 30
0.0
 11
-433.6958009209906
 21
127.4490752094908
 31
0.0
  0
LINE
  5
1E0
330
1F
100
AcDbEntity
  8
0
  6
CONTINUOUS
 62
     7
100
AcDbLine
 10
-433.79057524777
 20
128.5335174220572
 30
0.0
 11
-432.9085507448633
 21
128.7891326719048
 31
0.0
  0
LINE
  5
1E1
330
1F
100
AcDbEntity
  8
0
  6
CONTINUOUS
 62
     7
100
AcDbLine
 10
-372.8955590152636
 20
221.685536952748
 30
0.0
 11
-373.2946342247421
 21
218.6497580942705
 31
0.0
  0
LINE
  5
1E2
330
1F
100
AcDbEntity
  8
0
  6
CONTINUOUS
 62
     7
100
AcDbLine
 10
-374.3790764373085
 20
218.5549837674912
 30
0.0
 11
-374.6346916871564
 21
219.4370082703977
 31
0.0
  0
LINE
  5
1E3
330
1F
100
AcDbEntity
  8
0
  6
CONTINUOUS
 62
     7
100
AcDbLine
 10
-523.5564263433706
 20
219.4370082703977
 30
0.0
 11
-523.8120415932183
 21
218.5549837674912
 31
0.0
  0
LINE
  5
1E4
330
1F
100
AcDbEntity
  8
0
  6
CONTINUOUS
 62
     7
100
AcDbLine
 10
-524.8964838057854
 20
218.6497580942709
 30
0.0
 11
-525.2955590152633
 21
221.685536952748
 31
0.0
  0
LINE
  5
1E5
330
1F
100
AcDbEntity
  8
0
  6
CONTINUOUS
 62
     7
100
AcDbLine
 10
-465.2825672856636
 20
128.7891326719048
 30
0.0
 11
-464.4005427827569
 21
128.5335174220572
 31
0.0
  0
LINE
  5
1E6
330
1F
100
AcDbEntity
  8
0
  6
CONTINUOUS
 62
     7
100
AcDbLine
 10
-464.4953171095368
 20
127.4490752094904
 30
0.0
 11
-467.5310959680145
 21
127.0500000000124
 31
0.0
  0
LINE
  5
1E7
330
1F
100
AcDbEntity
  8
0
  6
CONTINUOUS
 62
     7
100
AcDbLine
 10
-432.9085507448633
 20
277.7108673280952
 30
0.0
 11
-433.7905752477699
 21
277.9664825779432
 31
0.0
  0
LINE
  5
1E8
330
1F
100
AcDbEntity
  8
0
  6
CONTINUOUS
 62
     7
100
AcDbLine
 10
-433.6958009209901
 20
279.05092479051
 30
0.0
 11
-430.6600220625124
 21
279.4499999999877
 31
0.0
  0
LINE
  5
1E9
330
1F
100
AcDbEntity
  8
0
  6
CONTINUOUS
 62
     7
100
AcDbLine
 10
-374.6346916871564
 20
187.0629917296024
 30
0.0
 11
-374.3790764373083
 21
187.9450162325088
 31
0.0
  0
LINE
  5
1EA
330
1F
100
AcDbEntity
  8
0
  6
CONTINUOUS
 62
     7
100
AcDbLine
 10
-373.2946342247416
 20
187.8502419057292
 30
0.0
 11
-372.8955590152636
 21
184.814463047252
 31
0.0
  0
ARC
  5
1EB
330
1F
100
AcDbEntity
  8
0
  6
CONTINUOUS
 62
     7
100
AcDbCircle
 10
-449.0955590152635
 20
203.25
 30
0.0
 40
76.19999999999177
100
AcDbArc
 50
164.6131624641726
 51
167.7353267868271
  0
LINE
  5
1EC
330
1F
100
AcDbEntity
  8
0
  6
CONTINUOUS
 62
     7
100
AcDbLine
 10
-523.0109879991531
 20
224.1121920596525
 30
0.0
 11
-522.5642755186456
 21
223.46849884006
 31
0.0
  0
LINE
  5
1ED
330
1F
100
AcDbEntity
  8
0
  6
CONTINUOUS
 62
     7
100
AcDbLine
 10
-522.5642755186456
 20
183.03150115994
 30
0.0
 11
-523.0109879991531
 21
182.3878079403476
 31
0.0
  0
ARC
  5
1EE
330
1F
100
AcDbEntity
  8
0
  6
CONTINUOUS
 62
     7
100
AcDbCircle
 10
-449.0955590152635
 20
203.25
 30
0.0
 40
76.19999999999177
100
AcDbArc
 50
192.264673213173
 51
195.3868375358273
  0
LINE
  5
1EF
330
1F
100
AcDbEntity
  8
0
  6
CONTINUOUS
 62
     7
100
AcDbLine
 10
-469.957751074919
 20
129.3345710161221
 30
0.0
 11
-469.3140578553268
 21
129.7812834966296
 31
0.0
  0
ARC
  5
1F0
330
1F
100
AcDbEntity
  8
0
  6
CONTINUOUS
 62
     7
100
AcDbCircle
 10
-449.0955590152635
 20
203.25
 30
0.0
 40
76.19999999999177
100
AcDbArc
 50
254.6131624641678
 51
257.7353267868231
  0
LINE
  5
1F1
330
1F
100
AcDbEntity
  8
0
  6
CONTINUOUS
 62
     7
100
AcDbLine
 10
-469.3140578553268
 20
276.7187165033704
 30
0.0
 11
-469.957751074919
 21
277.165428983878
 31
0.0
  0
ARC
  5
1F2
330
1F
100
AcDbEntity
  8
0
  6
CONTINUOUS
 62
     7
100
AcDbCircle
 10
-449.0955590152635
 20
203.25
 30
0.0
 40
76.19999999999177
100
AcDbArc
 50
102.2646732131768
 51
105.3868375358321
  0
LINE
  5
1F3
330
1F
100
AcDbEntity
  8
0
  6
CONTINUOUS
 62
     7
100
AcDbLine
 10
-428.2333669556079
 20
277.165428983878
 30
0.0
 11
-428.8770601752
 21
276.7187165033704
 31
0.0
  0
ARC
  5
1F4
330
1F
100
AcDbEntity
  8
0
  6
CONTINUOUS
 62
     7
100
AcDbCircle
 10
-449.0955590152635
 20
203.25
 30
0.0
 40
76.19999999999177
100
AcDbArc
 50
74.61316246416783
 51
77.7353267868233
  0
LINE
  5
1F5
330
1F
100
AcDbEntity
  8
0
  6
CONTINUOUS
 62
     7
100
AcDbLine
 10
-428.8770601752
 20
129.7812834966296
 30
0.0
 11
-428.2333669556079
 21
129.3345710161221
 31
0.0
  0
ARC
  5
1F6
330
1F
100
AcDbEntity
  8
0
  6
CONTINUOUS
 62
     7
100
AcDbCircle
 10
-449.0955590152635
 20
203.25
 30
0.0
 40
76.19999999999177
100
AcDbArc
 50
282.2646732131767
 51
285.3868375358319
  0
ARC
  5
1F7
330
1F
100
AcDbEntity
  8
0
  6
CONTINUOUS
 62
     7
100
AcDbCircle
 10
-449.0955590152635
 20
203.25
 30
0.0
 40
76.19999999999177
100
AcDbArc
 50
344.6131624641725
 51
347.735326786827
  0
LINE
  5
1F8
330
1F
100
AcDbEntity
  8
0
  6
CONTINUOUS
 62
     7
100
AcDbLine
 10
-375.1801300313738
 20
182.3878079403476
 30
0.0
 11
-375.6268425118814
 21
183.03150115994
 31
0.0
  0
LINE
  5
1F9
330
1F
100
AcDbEntity
  8
0
  6
CONTINUOUS
 62
     7
100
AcDbLine
 10
-375.6268425118814
 20
223.46849884006
 30
0.0
 11
-375.1801300313738
 21
224.1121920596525
 31
0.0
  0
ARC
  5
1FA
330
1F
100
AcDbEntity
  8
0
  6
CONTINUOUS
 62
     7
100
AcDbCircle
 10
-449.0955590152635
 20
203.25
 30
0.0
 40
76.19999999999177
100
AcDbArc
 50
12.26467321317297
 51
15.3868375358275
  0
LINE
  5
1FB
330
1F
100
AcDbEntity
  8
0
  6
CONTINUOUS
 62
     7
100
AcDbLine
 10
-523.0109879991531
 20
224.1121920596525
 30
0.0
 11
-524.6411032291446
 21
224.6418486050057
 31
0.0
  0
LINE
  5
1FC
330
1F
100
AcDbEntity
  8
0
  6
CONTINUOUS
 62
     7
100
AcDbLine
 10
-469.957751074919
 20
129.3345710161221
 30
0.0
 11
-470.4874076202725
 21
127.7044557861312
 31
0.0
  0
LINE
  5
1FD
330
1F
100
AcDbEntity
  8
0
  6
CONTINUOUS
 62
     7
100
AcDbLine
 10
-428.2333669556079
 20
277.165428983878
 30
0.0
 11
-427.7037104102544
 21
278.7955442138692
 31
0.0
  0
LINE
  5
1FE
330
1F
100
AcDbEntity
  8
0
  6
CONTINUOUS
 62
     7
100
AcDbLine
 10
-375.1801300313738
 20
182.3878079403476
 30
0.0
 11
-373.5500148013824
 21
181.8581513949944
 31
0.0
  0
LINE
  5
1FF
330
1F
100
AcDbEntity
  8
0
  6
CONTINUOUS
 62
     7
100
AcDbLine
 10
-524.6411032291445
 20
181.8581513949944
 30
0.0
 11
-523.010987999153
 21
182.3878079403476
 31
0.0
  0
LINE
  5
200
330
1F
100
AcDbEntity
  8
0
  6
CONTINUOUS
 62
     7
100
AcDbLine
 10
-470.4874076202725
 20
278.7955442138692
 30
0.0
 11
-469.957751074919
 21
277.165428983878
 31
0.0
  0
LINE
  5
201
330
1F
100
AcDbEntity
  8
0
  6
CONTINUOUS
 62
     7
100
AcDbLine
 10
-427.7037104102545
 20
127.7044557861312
 30
0.0
 11
-428.2333669556079
 21
129.3345710161221
 31
0.0
  0
LINE
  5
202
330
1F
100
AcDbEntity
  8
0
  6
CONTINUOUS
 62
     7
100
AcDbLine
 10
-373.5500148013824
 20
224.6418486050057
 30
0.0
 11
-375.1801300313738
 21
224.1121920596525
 31
0.0
  0
ELLIPSE
  5
203
330
1F
100
AcDbEntity
  8
0
  6
CONTINUOUS
 62
     7
100
AcDbEllipse
 10
-524.7948728422643
 20
224.165900052194
 30
0.0
 11
0.3818153278460912
 21
-0.324653874706482
 31
0.0
210
0.0
220
0.0
230
-1.0
 40
0.9976421992489515
 41
2.438094788557847
 42
4.321054047774957
  0
ELLIPSE
  5
204
330
1F
100
AcDbEntity
  8
0
  6
CONTINUOUS
 62
     7
100
AcDbEllipse
 10
-524.7948728422643
 20
182.334099947806
 30
0.0
 11
-0.3818153278459802
 21
-0.324653874706371
 31
0.0
210
0.0
220
0.0
230
-1.0
 40
0.9976421992489507
 41
5.103723912994366
 42
6.986683172211705
  0
ELLIPSE
  5
205
330
1F
100
AcDbEntity
  8
0
  6
CONTINUOUS
 62
     7
100
AcDbEllipse
 10
-470.0114590674606
 20
127.5506861730112
 30
0.0
 11
0.3246538747064819
 21
0.3818153278459801
 31
0.0
210
0.0
220
0.0
230
-1.0
 40
0.997642199248951
 41
2.438094788557621
 42
4.321054047774752
  0
ELLIPSE
  5
206
330
1F
100
AcDbEntity
  8
0
  6
CONTINUOUS
 62
     7
100
AcDbEllipse
 10
-470.0114590674606
 20
278.9493138269888
 30
0.0
 11
-0.3246538747064819
 21
0.3818153278459801
 31
0.0
210
0.0
220
0.0
230
-1.0
 40
0.997642199248951
 41
5.103723912994622
 42
6.98668317221176
  0
ELLIPSE
  5
207
330
1F
100
AcDbEntity
  8
0
  6
CONTINUOUS
 62
     7
100
AcDbEllipse
 10
-428.1796589630662
 20
278.9493138269888
 30
0.0
 11
-0.3246538747064819
 21
-0.3818153278459801
 31
0.0
210
0.0
220
0.0
230
-1.0
 40
0.997642199248951
 41
2.43809478855762
 42
4.321054047774722
  0
ELLIPSE
  5
208
330
1F
100
AcDbEntity
  8
0
  6
CONTINUOUS
 62
     7
100
AcDbEllipse
 10
-428.1796589630662
 20
127.5506861730112
 30
0.0
 11
0.3246538747064819
 21
-0.3818153278459801
 31
0.0
210
0.0
220
0.0
230
-1.0
 40
0.997642199248951
 41
5.103723912994623
 42
6.98668317221176
  0
ELLIPSE
  5
209
330
1F
100
AcDbEntity
  8
0
  6
CONTINUOUS
 62
     7
100
AcDbEllipse
 10
-373.3962451882626
 20
182.334099947806
 30
0.0
 11
-0.3818153278460357
 21
0.324653874706482
 31
0.0
210
0.0
220
0.0
230
-1.0
 40
0.9976421992490357
 41
2.43809478855768
 42
4.321054047774977
  0
ELLIPSE
  5
20A
330
1F
100
AcDbEntity
  8
0
  6
CONTINUOUS
 62
     7
100
AcDbEllipse
 10
-373.3962451882626
 20
224.165900052194
 30
0.0
 11
0.3818153278459802
 21
0.324653874706371
 31
0.0
210
0.0
220
0.0
230
-1.0
 40
0.9976421992490225
 41
5.103723912994395
 42
6.986683172211533
  0
LINE
  5
20B
330
1F
100
AcDbEntity
  8
0
  6
CONTINUOUS
 62
     7
100
AcDbLine
 10
-525.2955590152633
 20
182.3329338548903
 30
0.0
 11
-525.2955590152633
 21
184.814463047252
 31
0.0
  0
LINE
  5
20C
330
1F
100
AcDbEntity
  8
0
  6
CONTINUOUS
 62
     7
100
AcDbLine
 10
-525.2955590152633
 20
221.685536952748
 30
0.0
 11
-525.2955590152633
 21
224.1670661451096
 31
0.0
  0
LINE
  5
20D
330
1F
100
AcDbEntity
  8
0
  6
CONTINUOUS
 62
     7
100
AcDbLine
 10
-470.0126251603763
 20
279.4499999999877
 30
0.0
 11
-467.5310959680145
 21
279.4499999999877
 31
0.0
  0
LINE
  5
20E
330
1F
100
AcDbEntity
  8
0
  6
CONTINUOUS
 62
     7
100
AcDbLine
 10
-467.5310959680145
 20
127.0500000000124
 30
0.0
 11
-470.0126251603763
 21
127.0500000000124
 31
0.0
  0
LINE
  5
20F
330
1F
100
AcDbEntity
  8
0
  6
CONTINUOUS
 62
     7
100
AcDbLine
 10
-428.1784928701507
 20
127.0500000000124
 30
0.0
 11
-430.6600220625123
 21
127.0500000000124
 31
0.0
  0
LINE
  5
210
330
1F
100
AcDbEntity
  8
0
  6
CONTINUOUS
 62
     7
100
AcDbLine
 10
-430.6600220625124
 20
279.4499999999877
 30
0.0
 11
-428.1784928701507
 21
279.4499999999877
 31
0.0
  0
LINE
  5
211
330
1F
100
AcDbEntity
  8
0
  6
CONTINUOUS
 62
     7
100
AcDbLine
 10
-372.8955590152636
 20
224.1670661451096
 30
0.0
 11
-372.8955590152636
 21
221.685536952748
 31
0.0
  0
LINE
  5
212
330
1F
100
AcDbEntity
  8
0
  6
CONTINUOUS
 62
     7
100
AcDbLine
 10
-372.8955590152636
 20
184.814463047252
 30
0.0
 11
-372.8955590152636
 21
182.3329338548903
 31
0.0
  0
LWPOLYLINE
  5
213
330
1F
100
AcDbEntity
  8
0
  6
CONTINUOUS
 62
     7
100
AcDbPolyline
 90
       54
 70
     0
 43
0.0
 10
433.7905752477699
 20
277.9664825779432
 10
433.80398674499
 20
277.9721613170047
 10
433.8171124608954
 20
277.9785141069664
 10
433.8299101394257
 20
277.9855063879181
 10
433.8423375245204
 20
277.9931035999488
 10
433.8548531422026
 20
278.0016234368805
 10
433.8669547614616
 20
278.0107504723972
 10
433.8786138076953
 20
278.0204389421961
 10
433.8898017063017
 20
278.0306430819728
 10
433.9035674075546
 20
278.0445703465264
 10
433.9165630883565
 20
278.0592830103189
 10
433.9287763839426
 20
278.0746931874399
 10
433.9401949295486
 20
278.0907129919804
 10
433.9508063604095
 20
278.1072545380309
 10
433.960598311761
 20
278.1242299396809
 10
433.9703051612443
 20
278.1430459737373
 10
433.9791464481022
 20
278.162307024036
 10
433.9871416989963
 20
278.1819384854208
 10
433.994310440588
 20
278.2018657527364
 10
434.0028561717874
 20
278.2295942121405
 10
434.0100037884052
 20
278.2577361728117
 10
434.0158224077995
 20
278.2861678820605
 10
434.0198304455342
 20
278.3108504248576
 10
434.0229559235642
 20
278.3356607640476
 10
434.0263728709925
 20
278.3777007481345
 10
434.0275961046916
 20
278.4199495895828
 10
434.0267255653295
 20
278.4622685546112
 10
434.023861193574
 20
278.504518909438
 10
434.0191029300931
 20
278.546561920282
 10
434.0125507155547
 20
278.588258853362
 10
434.0053632452997
 20
278.6244780956832
 10
433.9967640920605
 20
278.6604190131644
 10
433.9867150776165
 20
278.6959768850456
 10
433.975178023747
 20
278.7310469905668
 10
433.9644616221041
 20
278.7596430525252
 10
433.9526082114303
 20
278.7878365198664
 10
433.9395755648998
 20
278.8155101220928
 10
433.9253214556866
 20
278.8425465887047
 10
433.9098036569645
 20
278.8688286492057
 10
433.896900944526
 20
278.8885614566288
 10
433.8831386439905
 20
278.9077766464816
 10
433.8685200985529
 20
278.9263728642073
 10
433.8530486514082
 20
278.9442487552497
 10
433.8367276457513
 20
278.9613029650513
 10
433.8195604247771
 20
278.9774341390556
 10
433.8042474759495
 20
278.9903969595361
 10
433.7883002381067
 20
279.0025902555407
 10
433.7717536637958
 20
279.0139316133696
 10
433.7586075499552
 20
279.0220442158237
 10
433.7451115912929
 20
279.0295910746884
 10
433.7312967470686
 20
279.0365334341456
 10
433.7171939765424
 20
279.0428325383785
 10
433.7065688700068
 20
279.0470675987904
 10
433.6958009209901
 20
279.05092479051
210
0.0
220
0.0
230
-1.0
  0
LWPOLYLINE
  5
214
330
1F
100
AcDbEntity
  8
0
  6
CONTINUOUS
 62
     7
100
AcDbPolyline
 90
       54
 70
     0
 43
0.0
 10
524.8964838057849
 20
187.8502419057296
 10
524.8906343848605
 20
187.8661356094289
 10
524.8839604073854
 20
187.8817249977824
 10
524.8765114921607
 20
187.896961907166
 10
524.8683372579882
 20
187.9117981739541
 10
524.8591031772563
 20
187.9267890284696
 10
524.8491572466794
 20
187.9413403623816
 10
524.8385560994975
 20
187.9554246612193
 10
524.827356368951
 20
187.9690144105116
 10
524.8120760273295
 20
187.985819432328
 10
524.7959094443326
 20
188.001838623112
 10
524.7789504388372
 20
188.0170660732576
 10
524.7612928297208
 20
188.0314958731572
 10
524.7430304358604
 20
188.0451221132045
 10
524.7242570761332
 20
188.0579388837924
 10
524.7000015108355
 20
188.0729562468312
 10
524.675049199657
 20
188.0868439111253
 10
524.6495101949857
 20
188.0996351044908
 10
524.6234945492098
 20
188.111363054746
 10
524.5871896722572
 20
188.1257998309576
 10
524.5502009344651
 20
188.1384597548071
 10
524.5126919898262
 20
188.1494177492904
 10
524.4759508099318
 20
188.1584922142432
 10
524.4388459300955
 20
188.1660919042559
 10
524.401468531524
 20
188.1722217715012
 10
524.3639097954233
 20
188.1768867681516
 10
524.3222644681076
 20
188.1803257553193
 10
524.2804867350261
 20
188.1818866208841
 10
524.238707055289
 20
188.1814666646632
 10
524.2066807426957
 20
188.1797262209648
 10
524.1747232342426
 20
188.1766657676273
 10
524.1429393273147
 20
188.172201206684
 10
524.111433819296
 20
188.1662484401691
 10
524.0871223407213
 20
188.1605114126417
 10
524.063013382382
 20
188.1537394900627
 10
524.0392115178829
 20
188.1458941582311
 10
524.0158213208291
 20
188.1369369029473
 10
523.9929473648255
 20
188.1268292100092
 10
523.9706942234768
 20
188.1155325652167
 10
523.9529510133773
 20
188.1053388373857
 10
523.9357174227912
 20
188.0942841128412
 10
523.9190845965426
 20
188.0823691580185
 10
523.9067327563359
 20
188.072600474938
 10
523.8947987673099
 20
188.0623023239328
 10
523.883332104837
 20
188.0514889185688
 10
523.8723822442895
 20
188.0401744724117
 10
523.8631579362583
 20
188.0297521779716
 10
523.85437864945
 20
188.0189354414332
 10
523.8460798609088
 20
188.0077472097709
 10
523.8382970476783
 20
187.9962104299592
 10
523.8308117318518
 20
187.9839122364624
 10
523.8239185055866
 20
187.9712532086772
 10
523.8176506867525
 20
187.9582742421705
 10
523.8120415932191
 20
187.9450162325084
210
0.0
220
0.0
230
-1.0
  0
LWPOLYLINE
  5
215
330
1F
100
AcDbEntity
  8
0
  6
CONTINUOUS
 62
     7
100
AcDbPolyline
 90
       54
 70
     0
 43
0.0
 10
464.4005427827569
 20
128.5335174220572
 10
464.387131285537
 20
128.5278386829956
 10
464.3740055696315
 20
128.5214858930336
 10
464.3612078911012
 20
128.514493612082
 10
464.3487805060066
 20
128.5068964000512
 10
464.3362648883244
 20
128.4983765631196
 10
464.3241632690654
 20
128.4892495276028
 10
464.3125042228316
 20
128.4795610578044
 10
464.3013163242253
 20
128.4693569180276
 10
464.2875506229724
 20
128.4554296534736
 10
464.2745549421705
 20
128.4407169896812
 10
464.2623416465843
 20
128.42530681256
 10
464.2509231009785
 20
128.4092870080196
 10
464.2403116701175
 20
128.3927454619696
 10
464.2305197187661
 20
128.3757700603192
 10
464.2208128692828
 20
128.3569540262629
 10
464.2119715824248
 20
128.3376929759644
 10
464.2039763315307
 20
128.3180615145792
 10
464.1968075899389
 20
128.298134247264
 10
464.1882618587396
 20
128.27040578786
 10
464.1811142421217
 20
128.2422638271885
 10
464.1752956227274
 20
128.21383211794
 10
464.1712875849926
 20
128.1891495751424
 10
464.1681621069628
 20
128.1643392359524
 10
464.1647451595345
 20
128.1222992518652
 10
464.1635219258353
 20
128.0800504104172
 10
464.1643924651974
 20
128.0377314453888
 10
464.1672568369528
 20
127.995481090562
 10
464.1720151004338
 20
127.9534380797176
 10
464.1785673149723
 20
127.911741146638
 10
464.1857547852272
 20
127.8755219043168
 10
464.1943539384665
 20
127.8395809868356
 10
464.2044029529105
 20
127.8040231149544
 10
464.2159400067799
 20
127.7689530094332
 10
464.226656408423
 20
127.7403569474748
 10
464.2385098190966
 20
127.7121634801332
 10
464.2515424656272
 20
127.6844898779076
 10
464.2657965748404
 20
127.6574534112952
 10
464.2813143735625
 20
127.6311713507944
 10
464.2942170860009
 20
127.6114385433712
 10
464.3079793865362
 20
127.5922233535188
 10
464.3225979319736
 20
127.5736271357932
 10
464.3380693791182
 20
127.5557512447512
 10
464.3543903847749
 20
127.5386970349496
 10
464.3715576057488
 20
127.5225658609452
 10
464.3868705545764
 20
127.5096030404648
 10
464.4028177924191
 20
127.4974097444601
 10
464.4193643667298
 20
127.4860683866316
 10
464.4325104805702
 20
127.4779557841772
 10
464.4460064392325
 20
127.4704089253129
 10
464.4598212834566
 20
127.4634665658552
 10
464.4739240539827
 20
127.4571674616224
 10
464.4845491605239
 20
127.4529324012084
 10
464.4953171095463
 20
127.4490752094868
210
0.0
220
0.0
230
-1.0
  0
LWPOLYLINE
  5
216
330
1F
100
AcDbEntity
  8
0
  6
CONTINUOUS
 62
     7
100
AcDbPolyline
 90
       54
 70
     0
 43
0.0
 10
464.4953171095364
 20
279.0509247905092
 10
464.479423405838
 20
279.0450753695824
 10
464.4638340174861
 20
279.038401392102
 10
464.4485971081046
 20
279.0309524768716
 10
464.4337608413174
 20
279.0227782426967
 10
464.4187699868015
 20
279.0135441619677
 10
464.4042186528872
 20
279.0035982313961
 10
464.3901343540472
 20
278.9929970842192
 10
464.3765446047541
 20
278.9817973536756
 10
464.3597395829378
 20
278.9665170120541
 10
464.3437203921537
 20
278.9503504290572
 10
464.3284929420085
 20
278.9333914235617
 10
464.3140631421089
 20
278.9157338144452
 10
464.3004369020617
 20
278.8974714205853
 10
464.2876201314735
 20
278.8786980608576
 10
464.2726027684362
 20
278.8544424955589
 10
464.258715104146
 20
278.8294901843784
 10
464.2459239107836
 20
278.8039511797048
 10
464.2341959605299
 20
278.7779355339276
 10
464.219759184316
 20
278.7416306569772
 10
464.2070992604611
 20
278.7046419191875
 10
464.1961412659755
 20
278.6671329745508
 10
464.1870668010228
 20
278.6303917946564
 10
464.1794671110099
 20
278.5932869148201
 10
464.1733372437644
 20
278.5559095162484
 10
464.1686722471144
 20
278.5183507801475
 10
464.1652332599495
 20
278.4767054528317
 10
464.1636723943906
 20
278.4349277197495
 10
464.1640923506145
 20
278.393148040012
 10
464.1658327943114
 20
278.3611217274192
 10
464.168893247645
 20
278.3291642189668
 10
464.1733578085839
 20
278.2973803120389
 10
464.1793105750967
 20
278.2658748040204
 10
464.1850476026244
 20
278.241563325446
 10
464.1918195252034
 20
278.2174543671064
 10
464.1996648570345
 20
278.1936525026076
 10
464.2086221123186
 20
278.1702623055536
 10
464.2187298052565
 20
278.1473883495501
 10
464.2300264500491
 20
278.1251352082017
 10
464.2402201778844
 20
278.107391998104
 10
464.251274902436
 20
278.090158407522
 10
464.263189857263
 20
278.0735255812756
 10
464.2729585403411
 20
278.0611737410681
 10
464.2832566913412
 20
278.0492397520389
 10
464.2940700967
 20
278.0377730895629
 10
464.3053845428544
 20
278.026823229014
 10
464.3158068372967
 20
278.0175989209849
 10
464.3266235738395
 20
278.008819634182
 10
464.3378118055061
 20
278.0005208456456
 10
464.3493485853203
 20
277.9927380324177
 10
464.3616467788146
 20
277.9852527165892
 10
464.3743058065954
 20
277.9783594903188
 10
464.387284773098
 20
277.9720916714793
 10
464.4005427827576
 20
277.9664825779435
210
0.0
220
0.0
230
-1.0
  0
LWPOLYLINE
  5
217
330
1F
100
AcDbEntity
  8
0
  6
CONTINUOUS
 62
     7
100
AcDbPolyline
 90
       54
 70
     0
 43
0.0
 10
523.8120415932182
 20
218.5549837674912
 10
523.8177203322767
 20
218.5415722702699
 10
523.8240731222322
 20
218.528446554362
 10
523.8310654031776
 20
218.5156488758288
 10
523.8386626152053
 20
218.5032214907332
 10
523.84718245214
 20
218.4907058730516
 10
523.8563094876629
 20
218.4786042537957
 10
523.8659979574678
 20
218.4669452075653
 10
523.8762020972481
 20
218.4557573089596
 10
523.8901293618019
 20
218.4419916077065
 10
523.9048420255941
 20
218.4289959269048
 10
523.9202522027153
 20
218.4167826313184
 10
523.9362720072558
 20
218.4053640857124
 10
523.952813553306
 20
218.3947526548516
 10
523.9697889549562
 20
218.3849607035001
 10
523.9886049890113
 20
218.3752538540148
 10
524.0078660393073
 20
218.3664125671517
 10
524.0274975006897
 20
218.3584173162528
 10
524.0474247680039
 20
218.3512485746588
 10
524.0751532274103
 20
218.3427028434631
 10
524.1032951880848
 20
218.335555226852
 10
524.1317268973354
 20
218.3297366074617
 10
524.156409440133
 20
218.3257285697269
 10
524.181219779323
 20
218.3226030916968
 10
524.2232597634099
 20
218.3191861442688
 10
524.2655086048584
 20
218.3179629105696
 10
524.3078275698867
 20
218.3188334499316
 10
524.3500779247137
 20
218.3216978216872
 10
524.3921209355576
 20
218.3264560851681
 10
524.4338178686373
 20
218.3330082997065
 10
524.4700371109587
 20
218.3401957699592
 10
524.5059780284408
 20
218.348794923194
 10
524.5415359003231
 20
218.358843937634
 10
524.5766060058445
 20
218.3703809915012
 10
524.6052020678032
 20
218.3810973931452
 10
524.6333955351438
 20
218.3929508038224
 10
524.6610691373687
 20
218.4059834503564
 10
524.6881056039803
 20
218.4202375595729
 10
524.7143876644809
 20
218.4357553582964
 10
524.7341204719041
 20
218.4486580707349
 10
524.7533356617568
 20
218.4624203712704
 10
524.7719318794823
 20
218.4770389167076
 10
524.7898077705241
 20
218.4925103638521
 10
524.8068619803255
 20
218.5088313695088
 10
524.8229931543301
 20
218.5259985904828
 10
524.8359559748136
 20
218.5413115393072
 10
524.8481492708246
 20
218.5572587771448
 10
524.8594906286565
 20
218.5738053514521
 10
524.8676032311092
 20
218.5869514652944
 10
524.8751500899691
 20
218.6004474239604
 10
524.8820924494219
 20
218.614262268188
 10
524.8883915536527
 20
218.6283650387164
 10
524.8926266140672
 20
218.6389901452577
 10
524.8964838057885
 20
218.6497580942804
210
0.0
220
0.0
230
-1.0
  0
LWPOLYLINE
  5
218
330
1F
100
AcDbEntity
  8
0
  6
CONTINUOUS
 62
     7
100
AcDbPolyline
 90
       54
 70
     0
 43
0.0
 10
374.3790764373083
 20
187.9450162325088
 10
374.3733976982498
 20
187.95842772973
 10
374.3670449082945
 20
187.9715534456381
 10
374.3600526273493
 20
187.9843511241712
 10
374.3524554153216
 20
187.9967785092669
 10
374.3439355783868
 20
188.0092941269483
 10
374.3348085428639
 20
188.0213957462043
 10
374.3251200730591
 20
188.0330547924353
 10
374.3149159332789
 20
188.0442426910408
 10
374.300988668725
 20
188.0580083922936
 10
374.2862760049327
 20
188.0710040730956
 10
374.2708658278115
 20
188.0832173686816
 10
374.254846023271
 20
188.0946359142876
 10
374.2383044772208
 20
188.1052473451484
 10
374.2213290755706
 20
188.1150392965
 10
374.2025130415155
 20
188.1247461459853
 10
374.1832519912195
 20
188.1335874328483
 10
374.1636205298371
 20
188.1415826837471
 10
374.1436932625228
 20
188.1487514253411
 10
374.1159648031166
 20
188.1572971565368
 10
374.0878228424421
 20
188.1644447731481
 10
374.0593911331914
 20
188.1702633925384
 10
374.0347085903939
 20
188.1742714302732
 10
374.009898251204
 20
188.1773969083033
 10
373.967858267117
 20
188.1808138557313
 10
373.9256094256686
 20
188.1820370894305
 10
373.8832904606403
 20
188.1811665500684
 10
373.8410401058134
 20
188.1783021783129
 10
373.7989970949694
 20
188.173543914832
 10
373.7573001618897
 20
188.1669917002936
 10
373.7210809195682
 20
188.1598042300407
 10
373.6851400020861
 20
188.151205076806
 10
373.649582130204
 20
188.141156062366
 10
373.6145120246824
 20
188.1296190084989
 10
373.5859159627237
 20
188.1189026068548
 10
373.5577224953832
 20
188.1070491961781
 10
373.5300488931582
 20
188.0940165496436
 10
373.5030124265467
 20
188.0797624404272
 10
373.476730366046
 20
188.0642446417036
 10
373.4569975586226
 20
188.0513419292649
 10
373.4377823687698
 20
188.0375796287297
 10
373.4191861510441
 20
188.022961083292
 10
373.401310260002
 20
188.0074896361472
 10
373.3842560502004
 20
187.9911686304904
 10
373.3681248761957
 20
187.9740014095159
 10
373.3551620557123
 20
187.9586884606916
 10
373.3429687597012
 20
187.9427412228536
 10
373.3316274018692
 20
187.926194648546
 10
373.3235147994166
 20
187.9130485347037
 10
373.3159679405567
 20
187.8995525760376
 10
373.309025581104
 20
187.8857377318096
 10
373.3027264768731
 20
187.8716349612812
 10
373.2984914164611
 20
187.8610098547461
 10
373.2946342247416
 20
187.8502419057292
210
0.0
220
0.0
230
-1.0
  0
LWPOLYLINE
  5
219
330
1F
100
AcDbEntity
  8
0
  6
CONTINUOUS
 62
     7
100
AcDbPolyline
 90
       54
 70
     0
 43
0.0
 10
433.6958009209906
 20
127.4490752094908
 10
433.711694624689
 20
127.4549246304176
 10
433.7272840130408
 20
127.461598607898
 10
433.7425209224223
 20
127.4690475231284
 10
433.7573571892095
 20
127.4772217573032
 10
433.7723480437255
 20
127.4864558380324
 10
433.7868993776397
 20
127.496401768604
 10
433.8009836764797
 20
127.5070029157808
 10
433.8145734257727
 20
127.5182026463245
 10
433.831378447589
 20
127.533482987946
 10
433.8473976383732
 20
127.5496495709432
 10
433.8626250885185
 20
127.5666085764384
 10
433.8770548884181
 20
127.5842661855548
 10
433.8906811284652
 20
127.6025285794152
 10
433.9034978990534
 20
127.6213019391425
 10
433.9185152620907
 20
127.6455575044412
 10
433.932402926381
 20
127.670509815622
 10
433.9451941197433
 20
127.6960488202952
 10
433.9569220699969
 20
127.7220644660724
 10
433.9713588462109
 20
127.7583693430228
 10
433.9840187700659
 20
127.7953580808124
 10
433.9949767645514
 20
127.8328670254492
 10
434.0040512295041
 20
127.8696082053436
 10
434.0116509195171
 20
127.90671308518
 10
434.0177807867625
 20
127.9440904837516
 10
434.0224457834125
 20
127.9816492198524
 10
434.0258847705775
 20
128.0232945471684
 10
434.0274456361363
 20
128.0650722802504
 10
434.0270256799125
 20
128.1068519599876
 10
434.0252852362156
 20
128.1388782725809
 10
434.022224782882
 20
128.1708357810332
 10
434.017760221943
 20
128.2026196879612
 10
434.0118074554301
 20
128.2341251959796
 10
434.0060704279026
 20
128.258436674554
 10
433.9992985053236
 20
128.2825456328936
 10
433.9914531734925
 20
128.3063474973924
 10
433.9824959182084
 20
128.3297376944464
 10
433.9723882252704
 20
128.35261165045
 10
433.9610915804778
 20
128.3748647917984
 10
433.9508978526426
 20
128.392608001896
 10
433.939843128091
 20
128.409841592478
 10
433.927928173264
 20
128.4264744187245
 10
433.9181594901859
 20
128.438826258932
 10
433.9078613391858
 20
128.4507602479613
 10
433.897047933827
 20
128.4622269104372
 10
433.8857334876726
 20
128.473176770986
 10
433.8753111932302
 20
128.4824010790152
 10
433.8644944566875
 20
128.491180365818
 10
433.8533062250208
 20
128.4994791543544
 10
433.8417694452066
 20
128.5072619675825
 10
433.8294712517124
 20
128.5147472834108
 10
433.8168122239318
 20
128.5216405096816
 10
433.8038332574293
 20
128.5279083285212
 10
433.79057524777
 20
128.5335174220572
210
0.0
220
0.0
230
-1.0
  0
LWPOLYLINE
  5
21A
330
1F
100
AcDbEntity
  8
0
  6
CONTINUOUS
 62
     7
100
AcDbPolyline
 90
       54
 70
     0
 43
0.0
 10
373.2946342247421
 20
218.6497580942705
 10
373.3004836456664
 20
218.6338643905712
 10
373.3071576231416
 20
218.6182750022176
 10
373.3146065383663
 20
218.6030380928341
 10
373.3227807725387
 20
218.588201826046
 10
373.3320148532706
 20
218.5732109715305
 10
373.3419607838476
 20
218.5586596376183
 10
373.3525619310294
 20
218.5445753387808
 10
373.3637616615759
 20
218.5309855894885
 10
373.3790420031975
 20
218.514180567672
 10
373.3952085861945
 20
218.498161376888
 10
373.4121675916897
 20
218.4829339267429
 10
373.4298252008061
 20
218.4685041268432
 10
373.4480875946664
 20
218.4548778867955
 10
373.4668609543937
 20
218.4420611162076
 10
373.4911165196914
 20
218.4270437531689
 10
373.51606883087
 20
218.4131560888748
 10
373.5416078355412
 20
218.4003648955093
 10
373.5676234813172
 20
218.388636945254
 10
373.6039283582697
 20
218.3742001690428
 10
373.6409170960617
 20
218.3615402451928
 10
373.6784260407007
 20
218.3505822507097
 10
373.7151672205951
 20
218.3415077857572
 10
373.7522721004314
 20
218.3339080957441
 10
373.7896494990031
 20
218.3277782284988
 10
373.8272082351037
 20
218.3231132318485
 10
373.8688535624194
 20
218.3196742446808
 10
373.9106312955008
 20
218.318113379116
 10
373.952410975238
 20
218.3185333353369
 10
373.9844372878314
 20
218.3202737790353
 10
374.0163947962842
 20
218.3233342323728
 10
374.0481787032122
 20
218.3277987933164
 10
374.079684211231
 20
218.3337515598308
 10
374.1039956898057
 20
218.3394885873584
 10
374.128104648145
 20
218.3462605099375
 10
374.151906512644
 20
218.3541058417688
 10
374.1752967096978
 20
218.3630630970528
 10
374.1981706657014
 20
218.3731707899908
 10
374.2204238070501
 20
218.3844674347832
 10
374.2381670171497
 20
218.3946611626144
 10
374.2554006077357
 20
218.4057158871587
 10
374.2720334339843
 20
218.4176308419816
 10
374.284385274191
 20
218.4273995250621
 10
374.296319263217
 20
218.4376976760671
 10
374.30778592569
 20
218.4485110814313
 10
374.3187357862374
 20
218.4598255275884
 10
374.3279600942687
 20
218.4702478220285
 10
374.3367393810769
 20
218.4810645585669
 10
374.3450381696181
 20
218.4922527902292
 10
374.3528209828485
 20
218.5037895700412
 10
374.3603062986752
 20
218.5160877635376
 10
374.3671995249405
 20
218.5287467913228
 10
374.3734673437745
 20
218.5417257578296
 10
374.379076437308
 20
218.5549837674917
210
0.0
220
0.0
230
-1.0
  0
ARC
  5
21B
330
1F
100
AcDbEntity
  8
0
  6
CONTINUOUS
 62
     7
100
AcDbCircle
 10
-449.0955590153913
 20
203.25
 30
0.0
 40
73.99999999999201
100
AcDbArc
 50
180.0
 51
0.0
  0
ARC
  5
21C
330
1F
100
AcDbEntity
  8
0
  6
CONTINUOUS
 62
     7
100
AcDbCircle
 10
-449.0955590153913
 20
203.25
 30
0.0
 40
73.99999999999201
100
AcDbArc
 50
0.0
 51
180.0
  0
ARC
  5
21D
330
1F
100
AcDbEntity
  8
0
  6
CONTINUOUS
 62
     7
100
AcDbCircle
 10
449.0955590153913
 20
203.25
 30
0.0
 40
72.99999999999996
210
0.0
220
0.0
230
-1.0
100
AcDbArc
 50
0.0
 51
180.0
  0
ARC
  5
21E
330
1F
100
AcDbEntity
  8
0
  6
CONTINUOUS
 62
     7
100
AcDbCircle
 10
449.0955590153913
 20
203.25
 30
0.0
 40
72.99999999999996
210
0.0
220
0.0
230
-1.0
100
AcDbArc
 50
180.0
 51
0.0
  0
POINT
  5
21F
330
1F
100
AcDbEntity
  8
0
 62
     1
100
AcDbPoint
 10
30.90630915158443
 20
203.25
 30
0.0
  0
POINT
  5
220
330
1F
100
AcDbEntity
  8
0
 62
     1
100
AcDbPoint
 10
-449.0936908484156
 20
203.25
 30
0.0
  0
POINT
  5
221
330
1F
100
AcDbEntity
  8
0
 62
     1
100
AcDbPoint
 10
-449.0936908484156
 20
203.25
 30
0.0
  0
LINE
  5
222
330
1F
100
AcDbEntity
  8
0
  6
CONTINUOUS
 62
     7
100
AcDbLine
 10
121.0312302828048
 20
108.25
 30
0.0
 11
121.0312302828048
 21
298.25
 31
0.0
  0
LINE
  5
223
330
1F
100
AcDbEntity
  8
0
  6
CONTINUOUS
 62
     7
100
AcDbLine
 10
-396.8353345608879
 20
310.207475562308
 30
0.0
 11
-385.9439463221932
 21
306.6229432987832
 31
0.0
  0
LINE
  5
224
330
1F
100
AcDbEntity
  8
0
  6
CONTINUOUS
 62
     7
100
AcDbLine
 10
253.0312302828053
 20
110.25
 30
0.0
 11
253.0312302828053
 21
296.25
 31
0.0
  0
LINE
  5
225
330
1F
100
AcDbEntity
  8
0
  6
CONTINUOUS
 62
     7
100
AcDbLine
 10
-147.968769709962
 20
241.249999999994
 30
0.0
 11
-147.9687697100044
 21
165.2500000000061
 31
0.0
  0
LINE
  5
226
330
1F
100
AcDbEntity
  8
0
  6
CONTINUOUS
 62
     7
100
AcDbLine
 10
-131.4687697099964
 20
180.7500000000036
 30
0.0
 11
-131.4687697099716
 21
225.7499995000156
 31
0.0
  0
LINE
  5
227
330
1F
100
AcDbEntity
  8
0
  6
CONTINUOUS
 62
     7
100
AcDbLine
 10
-552.6330604053218
 20
265.9016126864104
 30
0.0
 11
-552.4685023074063
 21
266.4016126864084
 31
0.0
  0
ELLIPSE
  5
228
330
1F
100
AcDbEntity
  8
0
  6
CONTINUOUS
 62
     7
100
AcDbEllipse
 10
-491.8333367507531
 20
245.9877777468477
 30
0.0
 11
-59.98182804220297
 21
-24.45746431410567
 31
0.0
210
0.0
220
0.0
230
1.0
 40
0.9712688684429057
 41
5.514540824664259
 42
5.810483200285767
  0
LINE
  5
229
330
1F
100
AcDbEntity
  8
0
  6
CONTINUOUS
 62
     7
100
AcDbLine
 10
-190.9687680687948
 20
315.7499999999821
 30
0.0
 11
-190.9687697171731
 21
90.75000000001843
 31
0.0
  0
LINE
  5
22A
330
1F
100
AcDbEntity
  8
0
  6
CONTINUOUS
 62
     7
100
AcDbLine
 10
-86.46876970997408
 20
225.7499999999963
 30
0.0
 11
-86.46876970999917
 21
180.7500000000036
 31
0.0
  0
CIRCLE
  5
22B
330
1F
100
AcDbEntity
  8
0
  6
CONTINUOUS
 62
     7
100
AcDbCircle
 10
-449.0955590153913
 20
203.25
 30
0.0
 40
73.99999999999201
  0
CIRCLE
  5
22C
330
1F
100
AcDbEntity
  8
0
  6
CONTINUOUS
 62
     7
100
AcDbCircle
 10
68.96876970998755
 20
203.2497023827364
 30
0.0
 40
10.00000000442824
210
0.0
220
0.0
230
-1.0
  0
LINE
  5
22D
330
1F
100
AcDbEntity
  8
0
  6
CONTINUOUS
 62
     7
100
AcDbLine
 10
-190.9687697099808
 20
203.25
 30
0.0
 11
-50.96876971019159
 21
203.25
 31
0.0
  0
LINE
  5
22E
330
1F
100
AcDbEntity
  8
0
  6
CONTINUOUS
 62
     7
100
AcDbLine
 10
-396.8353345608945
 20
310.207475562308
 30
0.0
 11
-501.3557838071846
 21
310.207475562308
 31
0.0
  0
ELLIPSE
  5
22F
330
1F
100
AcDbEntity
  8
0
  6
CONTINUOUS
 62
     7
100
AcDbEllipse
 10
-406.3577812570446
 20
160.5122222531524
 30
0.0
 11
59.98182791489754
 21
24.45746465494581
 31
0.0
210
0.0
220
0.0
230
1.0
 40
0.9712688681188063
 41
5.514540818813781
 42
5.810483193757636
  0
LINE
  5
230
330
1F
100
AcDbEntity
  8
0
  6
________________
 62
     1
100
AcDbLine
 10
-202.9687697171739
 20
203.25
 30
0.0
 11
265.0312302828053
 21
203.25
 31
0.0
  0
LINE
  5
232
330
1F
100
AcDbEntity
  8
0
  6
CONTINUOUS
 62
     7
100
AcDbLine
 10
-345.5580576119708
 20
140.5983873135897
 30
0.0
 11
-345.7226157098224
 21
140.0983873135916
 31
0.0
  0
LINE
  5
233
330
1F
100
AcDbEntity
  8
0
  6
CONTINUOUS
 62
     7
100
AcDbLine
 10
-159.9687697100036
 20
165.2500000000061
 30
0.0
 11
-159.9687697099612
 21
241.2499995000128
 31
0.0
  0
LINE
  5
234
330
1F
100
AcDbEntity
  8
0
  6
CONTINUOUS
 62
     7
100
AcDbLine
 10
-511.7471716950668
 20
99.71249860333204
 30
0.0
 11
-512.2471716950354
 21
99.87705670121683
 31
0.0
  0
LINE
  5
235
330
1F
100
AcDbEntity
  8
0
  6
CONTINUOUS
 62
     7
100
AcDbLine
 10
-53.96876971715358
 20
315.7462636728076
 30
0.0
 11
-190.9687697171731
 21
315.7462636728076
 31
0.0
  0
CIRCLE
  5
236
330
1F
100
AcDbEntity
  8
0
  6
CONTINUOUS
 62
     7
100
AcDbCircle
 10
449.0955590153913
 20
203.25
 30
0.0
 40
72.99999999999996
210
0.0
220
0.0
230
-1.0
  0
ELLIPSE
  5
237
330
1F
100
AcDbEntity
  8
0
  6
CONTINUOUS
 62
     7
100
AcDbEllipse
 10
-491.8333367507531
 20
160.5122222531524
 30
0.0
 11
-59.98182804220286
 21
24.45746431410567
 31
0.0
210
0.0
220
0.0
230
1.0
 40
0.9712688684429067
 41
0.4727021068938153
 42
0.7686444825153258
  0
LINE
  5
238
330
1F
100
AcDbEntity
  8
0
  6
CONTINUOUS
 62
     7
100
AcDbLine
 10
-496.5825688842949
 20
96.29252443769204
 30
0.0
 11
-396.8353342114661
 21
96.29252443769204
 31
0.0
  0
LINE
  5
239
330
1F
100
AcDbEntity
  8
0
  6
CONTINUOUS
 62
     7
100
AcDbLine
 10
-556.0530345694441
 20
250.7370098576916
 30
0.0
 11
-556.0530345694441
 21
155.7629901423084
 31
0.0
  0
LINE
  5
23A
330
1F
100
AcDbEntity
  8
0
  6
CONTINUOUS
 62
     7
100
AcDbLine
 10
-46.96876971719522
 20
110.25
 30
0.0
 11
-46.96876971719522
 21
296.25
 31
0.0
  0
LINE
  5
23B
330
1F
100
AcDbEntity
  8
0
  6
CONTINUOUS
 62
     7
100
AcDbLine
 10
85.03123028280478
 20
108.25
 30
0.0
 11
85.03123028280478
 21
298.25
 31
0.0
  0
LINE
  5
23C
330
1F
100
AcDbEntity
  8
0
  6
CONTINUOUS
 62
     7
100
AcDbLine
 10
-342.1380834447939
 20
155.7629900996124
 30
0.0
 11
-342.1380834447939
 21
250.7370099003877
 31
0.0
  0
LINE
  5
23D
330
1F
100
AcDbEntity
  8
0
  6
CONTINUOUS
 62
     7
100
AcDbLine
 10
-53.96876971719522
 20
90.75000000001843
 30
0.0
 11
-53.9687680687484
 21
315.7499999999821
 31
0.0
  0
LINE
  5
23E
330
1F
100
AcDbEntity
  8
0
  6
CONTINUOUS
 62
     7
100
AcDbLine
 10
-48.96876971719599
 20
285.7499999999828
 30
0.0
 11
-48.96876971719599
 21
120.7500000000216
 31
0.0
  0
LINE
  5
23F
330
1F
100
AcDbEntity
  8
0
  6
CONTINUOUS
 62
     7
100
AcDbLine
 10
-50.96876971719555
 20
312.7498857648252
 30
0.0
 11
-50.96876811610884
 21
93.7501142351752
 31
0.0
  0
ELLIPSE
  5
240
330
1F
100
AcDbEntity
  8
0
  6
CONTINUOUS
 62
     7
100
AcDbEllipse
 10
-491.8333367507531
 20
160.5122222531524
 30
0.0
 11
24.45746465703602
 21
-59.9818279106013
 31
0.0
210
0.0
220
0.0
230
1.0
 40
0.9712688684465217
 41
5.51454081887813
 42
5.810483194157261
  0
LINE
  5
241
330
1F
100
AcDbEntity
  8
0
  6
________________
 62
     1
100
AcDbLine
 10
-449.0936908484156
 20
78.75000000001764
 30
0.0
 11
-449.0936908484156
 21
327.7499999999824
 31
0.0
  0
LINE
  5
242
330
1F
100
AcDbEntity
  8
0
  6
CONTINUOUS
 62
     7
100
AcDbLine
 10
-512.2471716950354
 20
306.6229432987832
 30
0.0
 11
-501.3557838071853
 21
310.207475562308
 31
0.0
  0
LINE
  5
243
330
1F
100
AcDbEntity
  8
0
  6
CONTINUOUS
 62
     7
100
AcDbLine
 10
-385.9439463221931
 20
99.87705670121683
 30
0.0
 11
-396.8353342114658
 21
96.29252443769204
 31
0.0
  0
ELLIPSE
  5
244
330
1F
100
AcDbEntity
  8
0
  6
CONTINUOUS
 62
     7
100
AcDbEllipse
 10
-406.3577812570446
 20
245.9877777468477
 30
0.0
 11
59.98182791489754
 21
-24.45746465494581
 31
0.0
210
0.0
220
0.0
230
1.0
 40
0.9712688681188063
 41
0.4727021134219524
 42
0.7686444883658059
  0
LINE
  5
245
330
1F
100
AcDbEntity
  8
0
  6
________________
 62
     1
100
AcDbLine
 10
-573.5955590066319
 20
203.25
 30
0.0
 11
-324.5955590066324
 21
203.25
 31
0.0
  0
ENDSEC
  0
SECTION
  2
OBJECTS
  0
DICTIONARY
  5
C
330
0
100
AcDbDictionary
  3
ACAD_GROUP
350
D
  3
ACAD_LAYOUT
350
1A
  3
ACAD_MATERIAL
350
43
  3
ACAD_MLEADERSTYLE
350
6B
  3
ACAD_MLINESTYLE
350
17
  3
ACAD_PLOTSETTINGS
350
19
  3
ACAD_SCALELIST
350
47
  3
ACAD_VISUALSTYLE
350
2A
  3
ACDBHEADERROUNDTRIPXREC
350
246
  3
ACDBVARIABLEDICTIONARY
350
267
  0
DICTIONARY
  5
26E
330
8
100
AcDbDictionary
280
     1
  3
ACAD_XREC_ROUNDTRIP
360
26F
  0
DICTIONARY
  5
D
102
{ACAD_REACTORS
330
C
102
}
330
C
100
AcDbDictionary
  0
DICTIONARY
  5
1A
102
{ACAD_REACTORS
330
C
102
}
330
C
100
AcDbDictionary
  0
DICTIONARY
  5
43
102
{ACAD_REACTORS
330
C
102
}
330
C
100
AcDbDictionary
  3
BYBLOCK
350
45
  3
BYLAYER
350
44
  3
GLOBAL
350
46
  0
DICTIONARY
  5
6B
102
{ACAD_REACTORS
330
C
102
}
330
C
100
AcDbDictionary
  3
STANDARD
350
6C
  0
DICTIONARY
  5
17
102
{ACAD_REACTORS
330
C
102
}
330
C
100
AcDbDictionary
  3
STANDARD
350
18
  0
DICTIONARY
  5
19
102
{ACAD_REACTORS
330
C
102
}
330
C
100
AcDbDictionary
  0
DICTIONARY
  5
47
102
{ACAD_REACTORS
330
C
102
}
330
C
100
AcDbDictionary
  3
A0
350
48
  3
A1
350
49
  3
A2
350
4A
  3
A3
350
4B
  3
A4
350
4C
  3
A5
350
4D
  3
A6
350
4E
  3
A7
350
4F
  3
A8
350
50
  3
A9
350
51
  3
B0
350
52
  3
B1
350
53
  3
B2
350
54
  3
B3
350
55
  3
B4
350
56
  3
B5
350
57
  3
B6
350
58
  3
B7
350
59
  3
B8
350
5A
  3
B9
350
5B
  3
C0
350
5C
  3
C1
350
5D
  3
C2
350
5E
  3
C3
350
5F
  3
C4
350
60
  3
C5
350
61
  3
C6
350
62
  3
C7
350
63
  3
C8
350
64
  3
C9
350
65
  3
D0
350
66
  3
D1
350
67
  3
D2
350
68
  0
DICTIONARY
  5
2A
102
{ACAD_REACTORS
330
C
102
}
330
C
100
AcDbDictionary
  3
2DWIREFRAME
350
2F
  3
BASIC
350
32
  3
BRIGHTEN
350
36
  3
COLORCHANGE
350
3A
  3
CONCEPTUAL
350
34
  3
DIM
350
35
  3
EDGECOLOROFF
350
3D
  3
FACEPATTERN
350
39
  3
FLAT
350
2B
  3
FLATWITHEDGES
350
2C
  3
GOURAUD
350
2D
  3
GOURAUDWITHEDGES
350
2E
  3
HIDDEN
350
31
  3
JITTEROFF
350
3B
  3
LINEPATTERN
350
38
  3
OVERHANGOFF
350
3C
  3
REALISTIC
350
33
  3
SHADED
350
42
  3
SHADED_WITH_EDGES
350
41
  3
SHADES_OF_GRAY
350
3E
  3
SKETCHY
350
3F
  3
THICKEN
350
37
  3
WIREFRAME
350
30
  3
X-RAY
350
40
  0
DICTIONARY
  5
246
102
{ACAD_REACTORS
330
C
102
}
330
C
100
AcDbDictionary
  3
CEPSNID
350
250
  3
CEPSNTYPE
350
24F
  3
DIMSTYLEDATA
350
266
  3
FINGERPRINTGUID
350
251
  3
HYPERLINKBASE
350
249
  3
INSUNITS
350
24E
  3
LAYOUTDICT
350
24B
  3
LWETCUNION
350
24D
  3
PLOTSETDICT
350
24C
  3
PSVPSCALE
350
253
  3
PUCSBASE
350
256
  3
PUCSORGBACK
350
25C
  3
PUCSORGBOTTOM
350
258
  3
PUCSORGFRONT
350
25B
  3
PUCSORGLEFT
350
259
  3
PUCSORGRIGHT
350
25A
  3
PUCSORGTOP
350
257
  3
PUCSORTHOREF
350
254
  3
PUCSORTHOVIEW
350
255
  3
STYLESHEET
350
24A
  3
TSTACKALIGN
350
247
  3
TSTACKSIZE
350
248
  3
UCSBASE
350
25F
  3
UCSORGBACK
350
265
  3
UCSORGBOTTOM
350
261
  3
UCSORGFRONT
350
264
  3
UCSORGLEFT
350
262
  3
UCSORGRIGHT
350
263
  3
UCSORGTOP
350
260
  3
UCSORTHOREF
350
25D
  3
UCSORTHOVIEW
350
25E
  3
VERSIONGUID
350
252
  0
DICTIONARY
  5
267
102
{ACAD_REACTORS
330
C
102
}
330
C
100
AcDbDictionary
  3
CANNOSCALE
350
270
  3
CMLEADERSTYLE
350
269
  3
CTABLESTYLE
350
268
  3
DIMASSOC
350
26C
  3
HIDETEXT
350
26D
  3
MSLTSCALE
350
271
  0
XRECORD
  5
26F
102
{ACAD_REACTORS
330
26E
102
}
330
26E
100
AcDbXrecord
102
VTR_0.000_0.000_1.000_1.000_VISUALSTYLE
340
2F
102
VTR_0.000_0.000_1.000_1.000_GRIDDISPLAY
 70
     3
102
VTR_0.000_0.000_1.000_1.000_GRIDMAJOR
 70
     5
102
VTR_0.000_0.000_1.000_1.000_DEFAULTLIGHTING
280
     1
102
VTR_0.000_0.000_1.000_1.000_DEFAULTLIGHTINGTYPE
 70
     1
102
VTR_0.000_0.000_1.000_1.000_BRIGHTNESS
141
0.0
102
VTR_0.000_0.000_1.000_1.000_CONTRAST
142
0.0
  0
MATERIAL
  5
45
102
{ACAD_REACTORS
330
43
102
}
102
{ACAD_XDICTIONARY
360
274
102
}
330
43
100
AcDbMaterial
  1
BYBLOCK
  0
MATERIAL
  5
44
102
{ACAD_REACTORS
330
43
102
}
102
{ACAD_XDICTIONARY
360
272
102
}
330
43
100
AcDbMaterial
  1
BYLAYER
  0
MATERIAL
  5
46
102
{ACAD_REACTORS
330
43
102
}
102
{ACAD_XDICTIONARY
360
276
102
}
330
43
100
AcDbMaterial
  1
GLOBAL
  0
ACAD_PROXY_OBJECT
  5
6C
102
{ACAD_REACTORS
330
6B
102
}
330
6B
100
AcDbProxyObject
 90
      499
 91
      505
 93
      610
310
40901902A4063FBFFFFFE056BD1B81E855B9FC0AD7A3703D0AD73F4214DD185B99185C9900AD7A3703D0AC73F90141901A02B5E8DC0F42B1CFC02B5E8DC0F42B1CFE5764000000000000300FC0
340
14
340
0
340
11
340
0
 94
        0
1001
ACAD_MLEADERVER
1070
     2
  0
MLINESTYLE
  5
18
102
{ACAD_REACTORS
330
17
102
}
330
17
100
AcDbMlineStyle
  2
Standard
 70
     0
  3

 62
   256
 51
90.0
 52
90.0
 71
     2
 49
0.5
 62
   256
  6
BYLAYER
 49
-0.5
 62
   256
  6
BYLAYER
  0
ACAD_PROXY_OBJECT
  5
48
102
{ACAD_REACTORS
330
47
102
}
330
47
100
AcDbProxyObject
 90
      499
 91
      503
 93
       41
310
903313A31580
  0
ACAD_PROXY_OBJECT
  5
49
102
{ACAD_REACTORS
330
47
102
}
330
47
100
AcDbProxyObject
 90
      499
 91
      503
 93
      105
310
903313A324000000000000004000
  0
ACAD_PROXY_OBJECT
  5
4A
102
{ACAD_REACTORS
330
47
102
}
330
47
100
AcDbProxyObject
 90
      499
 91
      503
 93
      105
310
903313A344000000000000104000
  0
ACAD_PROXY_OBJECT
  5
4B
102
{ACAD_REACTORS
330
47
102
}
330
47
100
AcDbProxyObject
 90
      499
 91
      503
 93
      105
310
903313A354000000000000144000
  0
ACAD_PROXY_OBJECT
  5
4C
102
{ACAD_REACTORS
330
47
102
}
330
47
100
AcDbProxyObject
 90
      499
 91
      503
 93
      105
310
903313A384000000000000204000
  0
ACAD_PROXY_OBJECT
  5
4D
102
{ACAD_REACTORS
330
47
102
}
330
47
100
AcDbProxyObject
 90
      499
 91
      503
 93
      113
310
904313A31304000000000000244000
  0
ACAD_PROXY_OBJECT
  5
4E
102
{ACAD_REACTORS
330
47
102
}
330
47
100
AcDbProxyObject
 90
      499
 91
      503
 93
      113
310
904313A31364000000000000304000
  0
ACAD_PROXY_OBJECT
  5
4F
102
{ACAD_REACTORS
330
47
102
}
330
47
100
AcDbProxyObject
 90
      499
 91
      503
 93
      113
310
904313A32304000000000000344000
  0
ACAD_PROXY_OBJECT
  5
50
102
{ACAD_REACTORS
330
47
102
}
330
47
100
AcDbProxyObject
 90
      499
 91
      503
 93
      113
310
904313A333040000000000003E4000
  0
ACAD_PROXY_OBJECT
  5
51
102
{ACAD_REACTORS
330
47
102
}
330
47
100
AcDbProxyObject
 90
      499
 91
      503
 93
      113
310
904313A34304000000000000444000
  0
ACAD_PROXY_OBJECT
  5
52
102
{ACAD_REACTORS
330
47
102
}
330
47
100
AcDbProxyObject
 90
      499
 91
      503
 93
      113
310
904313A35304000000000000494000
  0
ACAD_PROXY_OBJECT
  5
53
102
{ACAD_REACTORS
330
47
102
}
330
47
100
AcDbProxyObject
 90
      499
 91
      503
 93
      121
310
905313A3130304000000000000594000
  0
ACAD_PROXY_OBJECT
  5
54
102
{ACAD_REACTORS
330
47
102
}
330
47
100
AcDbProxyObject
 90
      499
 91
      503
 93
      105
310
903323A310000000000000010100
  0
ACAD_PROXY_OBJECT
  5
55
102
{ACAD_REACTORS
330
47
102
}
330
47
100
AcDbProxyObject
 90
      499
 91
      503
 93
      105
310
903343A310000000000000410100
  0
ACAD_PROXY_OBJECT
  5
56
102
{ACAD_REACTORS
330
47
102
}
330
47
100
AcDbProxyObject
 90
      499
 91
      503
 93
      105
310
903383A310000000000000810100
  0
ACAD_PROXY_OBJECT
  5
57
102
{ACAD_REACTORS
330
47
102
}
330
47
100
AcDbProxyObject
 90
      499
 91
      503
 93
      113
310
90431303A310000000000000910100
  0
ACAD_PROXY_OBJECT
  5
58
102
{ACAD_REACTORS
330
47
102
}
330
47
100
AcDbProxyObject
 90
      499
 91
      503
 93
      121
310
9053130303A310000000000001650100
  0
ACAD_PROXY_OBJECT
  5
59
102
{ACAD_REACTORS
330
47
102
}
330
47
100
AcDbProxyObject
 90
      499
 91
      503
 93
      257
310
90E312F31323822203D2031272D3022000000000000200FC000000000000284000
  0
ACAD_PROXY_OBJECT
  5
5A
102
{ACAD_REACTORS
330
47
102
}
330
47
100
AcDbProxyObject
 90
      499
 91
      503
 93
      249
310
90D312F363422203D2031272D3022000000000000240FC000000000000284000
  0
ACAD_PROXY_OBJECT
  5
5B
102
{ACAD_REACTORS
330
47
102
}
330
47
100
AcDbProxyObject
 90
      499
 91
      503
 93
      249
310
90D312F333222203D2031272D3022000000000000280FC000000000000284000
  0
ACAD_PROXY_OBJECT
  5
5C
102
{ACAD_REACTORS
330
47
102
}
330
47
100
AcDbProxyObject
 90
      499
 91
      503
 93
      249
310
90D312F313622203D2031272D30220000000000002C0FC000000000000284000
  0
ACAD_PROXY_OBJECT
  5
5D
102
{ACAD_REACTORS
330
47
102
}
330
47
100
AcDbProxyObject
 90
      499
 91
      503
 93
      249
310
90D332F333222203D2031272D30220000000000002E0FC000000000000284000
  0
ACAD_PROXY_OBJECT
  5
5E
102
{ACAD_REACTORS
330
47
102
}
330
47
100
AcDbProxyObject
 90
      499
 91
      503
 93
      241
310
90C312F3822203D2031272D3022000000000000300FC000000000000284000
  0
ACAD_PROXY_OBJECT
  5
5F
102
{ACAD_REACTORS
330
47
102
}
330
47
100
AcDbProxyObject
 90
      499
 91
      503
 93
      249
310
90D332F313622203D2031272D3022000000000000320FC000000000000284000
  0
ACAD_PROXY_OBJECT
  5
60
102
{ACAD_REACTORS
330
47
102
}
330
47
100
AcDbProxyObject
 90
      499
 91
      503
 93
      241
310
90C312F3422203D2031272D3022000000000000340FC000000000000284000
  0
ACAD_PROXY_OBJECT
  5
61
102
{ACAD_REACTORS
330
47
102
}
330
47
100
AcDbProxyObject
 90
      499
 91
      503
 93
      241
310
90C332F3822203D2031272D3022000000000000360FC000000000000284000
  0
ACAD_PROXY_OBJECT
  5
62
102
{ACAD_REACTORS
330
47
102
}
330
47
100
AcDbProxyObject
 90
      499
 91
      503
 93
      241
310
90C312F3222203D2031272D3022000000000000380FC000000000000284000
  0
ACAD_PROXY_OBJECT
  5
63
102
{ACAD_REACTORS
330
47
102
}
330
47
100
AcDbProxyObject
 90
      499
 91
      503
 93
      241
310
90C332F3422203D2031272D30220000000000003A0FC000000000000284000
  0
ACAD_PROXY_OBJECT
  5
64
102
{ACAD_REACTORS
330
47
102
}
330
47
100
AcDbProxyObject
 90
      499
 91
      503
 93
      161
310
90A3122203D2031272D30224000000000000284000
  0
ACAD_PROXY_OBJECT
  5
65
102
{ACAD_REACTORS
330
47
102
}
330
47
100
AcDbProxyObject
 90
      499
 91
      503
 93
      257
310
90E312D312F3222203D2031272D30220000000000003E0FC000000000000284000
  0
ACAD_PROXY_OBJECT
  5
66
102
{ACAD_REACTORS
330
47
102
}
330
47
100
AcDbProxyObject
 90
      499
 91
      503
 93
      225
310
90A3322203D2031272D302200000000000002100000000000000284000
  0
ACAD_PROXY_OBJECT
  5
67
102
{ACAD_REACTORS
330
47
102
}
330
47
100
AcDbProxyObject
 90
      499
 91
      503
 93
      225
310
90A3622203D2031272D302200000000000006100000000000000284000
  0
ACAD_PROXY_OBJECT
  5
68
102
{ACAD_REACTORS
330
47
102
}
330
47
100
AcDbProxyObject
 90
      499
 91
      503
 93
      249
310
90D31272D3022203D2031272D30220000000000000A100000000000000284000
  0
ACAD_PROXY_OBJECT
  5
2F
102
{ACAD_REACTORS
330
2A
102
}
330
2A
100
AcDbProxyObject
 90
      499
 91
      501
 93
      436
310
42CC9915DA5C99599C985B595049028333333333333E33F0000000000000F90107901411070040501600405405064090741402480A0340
1001
ACAD
1000
AcDbSavedByObjectVersion
1070
     0
  0
ACAD_PROXY_OBJECT
  5
32
102
{ACAD_REACTORS
330
2A
102
}
330
2A
100
AcDbProxyObject
 90
      499
 91
      501
 93
      388
310
4150985CDA58D07406404333333333333E33F0000000000000F90107A41107004050150841D405064090741402480A0350
1001
ACAD
1000
AcDbSavedByObjectVersion
1070
     0
  0
ACAD_PROXY_OBJECT
  5
36
102
{ACAD_REACTORS
330
2A
102
}
330
2A
100
AcDbProxyObject
 90
      499
 91
      501
 93
      428
310
42109C9A59DA1D195B90C409028333333333333E33F0000000000000F9010790141107004050150841D405064090741402480A029950
1001
ACAD
1000
AcDbSavedByObjectVersion
1070
     0
  0
ACAD_PROXY_OBJECT
  5
3A
102
{ACAD_REACTORS
330
2A
102
}
330
2A
100
AcDbProxyObject
 90
      499
 91
      501
 93
      452
310
42D0DBDB1BDC90DA185B99D95104090240C333333333333E33F0000000000000F90108901411070040501508421405064090741402480A0350
1001
ACAD
1000
AcDbSavedByObjectVersion
1070
     0
  0
ACAD_PROXY_OBJECT
  5
34
102
{ACAD_REACTORS
330
2A
102
}
330
2A
100
AcDbProxyObject
 90
      499
 91
      501
 93
      500
310
4290DBDB98D95C1D1D585B10940D028333333333333E33F0000000000000F90107902409070040501000000000018199010841D405064090740C02480A0340
1001
ACAD
1000
AcDbSavedByObjectVersion
1070
     0
  0
ACAD_PROXY_OBJECT
  5
35
102
{ACAD_REACTORS
330
2A
102
}
330
2A
100
AcDbProxyObject
 90
      499
 91
      501
 93
      412
310
40D11A5B50B409028333333333333E33F0000000000000F9010790141107004050150841D405064090741402480A02677FFFFFD0
1001
ACAD
1000
AcDbSavedByObjectVersion
1070
     0
  0
ACAD_PROXY_OBJECT
  5
3D
102
{ACAD_REACTORS
330
2A
102
}
330
2A
100
AcDbProxyObject
 90
      499
 91
      501
 93
      452
310
43115919D950DBDB1BDC93D999916409028333333333333E33F0000000000000F9010790141107004050150841D405064090741402480A0350
1001
ACAD
1000
AcDbSavedByObjectVersion
1070
     0
  0
ACAD_PROXY_OBJECT
  5
39
102
{ACAD_REACTORS
330
2A
102
}
330
2A
100
AcDbProxyObject
 90
      499
 91
      501
 93
      444
310
42D19858D95C185D1D195C9B90F409028333333333333E33F0000000000000F9010790141107004050150841D405064090741402480A0350
1001
ACAD
1000
AcDbSavedByObjectVersion
1070
     0
  0
ACAD_PROXY_OBJECT
  5
2B
102
{ACAD_REACTORS
330
2A
102
}
330
2A
100
AcDbProxyObject
 90
      499
 91
      501
 93
      380
310
41119B185D240901404333333333333E33F0000000000000F9010740A907004050150841D405064090741402480A1B50
1001
ACAD
1000
AcDbSavedByObjectVersion
1070
     0
  0
ACAD_PROXY_OBJECT
  5
2C
102
{ACAD_REACTORS
330
2A
102
}
330
2A
100
AcDbProxyObject
 90
      499
 91
      501
 93
      468
310
43519B185D15DA5D1A115919D95CD0140901404333333333333E33F0000000000000F90107409019070040501600405405064090741402480A1B50
1001
ACAD
1000
AcDbSavedByObjectVersion
1070
     0
  0
ACAD_PROXY_OBJECT
  5
2D
102
{ACAD_REACTORS
330
2A
102
}
330
2A
100
AcDbProxyObject
 90
      499
 91
      501
 93
      404
310
41D1DBDD5C985D5910240902404333333333333E33F0000000000000F9010740A9070040501641D405064090741402480A1B50
1001
ACAD
1000
AcDbSavedByObjectVersion
1070
     0
  0
ACAD_PROXY_OBJECT
  5
2E
102
{ACAD_REACTORS
330
2A
102
}
330
2A
100
AcDbProxyObject
 90
      499
 91
      501
 93
      492
310
4411DBDD5C985D5915DA5D1A115919D95CD0340902404333333333333E33F0000000000000F90107409019070040501600405405064090741402480A1B50
1001
ACAD
1000
AcDbSavedByObjectVersion
1070
     0
  0
ACAD_PROXY_OBJECT
  5
31
102
{ACAD_REACTORS
330
2A
102
}
330
2A
100
AcDbProxyObject
 90
      499
 91
      501
 93
      476
310
41921A5919195B90640502408333333333333E33F0000000000000F901079024090700405020000000000001110200405405064090740C02480A0340
1001
ACAD
1000
AcDbSavedByObjectVersion
1070
     0
  0
ACAD_PROXY_OBJECT
  5
3B
102
{ACAD_REACTORS
330
2A
102
}
330
2A
100
AcDbProxyObject
 90
      499
 91
      501
 93
      428
310
42529A5D1D195C93D999914409028333333333333E33F0000000000000F9010790141107004050150A41D405064090741402480A0350
1001
ACAD
1000
AcDbSavedByObjectVersion
1070
     0
  0
ACAD_PROXY_OBJECT
  5
38
102
{ACAD_REACTORS
330
2A
102
}
330
2A
100
AcDbProxyObject
 90
      499
 91
      501
 93
      444
310
42D31A5B995C185D1D195C9B90E409028333333333333E33F0000000000000F9010790141107004050750841D405064090741402483A0350
1001
ACAD
1000
AcDbSavedByObjectVersion
1070
     0
  0
ACAD_PROXY_OBJECT
  5
3C
102
{ACAD_REACTORS
330
2A
102
}
330
2A
100
AcDbProxyObject
 90
      499
 91
      501
 93
      444
310
42D3DD995C9A185B99D3D999915409028333333333333E33F0000000000000F9010790141107004050150941D405064090741402480A0350
1001
ACAD
1000
AcDbSavedByObjectVersion
1070
     0
  0
ACAD_PROXY_OBJECT
  5
33
102
{ACAD_REACTORS
330
2A
102
}
330
2A
100
AcDbProxyObject
 90
      499
 91
      501
 93
      428
310
425499585B1A5CDD1A58D08409038333333333333E33F0000000000000F9010740A907004050150800405405064090740C02480A1B40
1001
ACAD
1000
AcDbSavedByObjectVersion
1070
     0
  0
ACAD_PROXY_OBJECT
  5
42
102
{ACAD_REACTORS
330
2A
102
}
330
2A
100
AcDbProxyObject
 90
      499
 91
      501
 93
      420
310
4194DA1859195911B40902404333333333333E33F0000000000000F9010740A41107004050150800405405064090840C02480A0B40
1001
ACAD
1000
AcDbSavedByObjectVersion
1070
     0
  0
ACAD_PROXY_OBJECT
  5
41
102
{ACAD_REACTORS
330
2A
102
}
330
2A
100
AcDbProxyObject
 90
      499
 91
      501
 93
      516
310
4454DA18591959081DDA5D1A08195919D95CD1A40902404333333333333E33F0000000000000F901074090142907004050250800405405064090740C02480A0B40
1001
ACAD
1000
AcDbSavedByObjectVersion
1070
     0
  0
ACAD_PROXY_OBJECT
  5
3E
102
{ACAD_REACTORS
330
2A
102
}
330
2A
100
AcDbProxyObject
 90
      499
 91
      501
 93
      532
310
4394DA1859195CC81BD98811DC985E5174090240C333333333333E33F0000000000000F901079024090741D01000000000000111010841D405064090740C02480A0340
1001
ACAD
1000
AcDbSavedByObjectVersion
1070
     0
  0
ACAD_PROXY_OBJECT
  5
3F
102
{ACAD_REACTORS
330
2A
102
}
330
2A
100
AcDbProxyObject
 90
      499
 91
      501
 93
      476
310
41D4DAD95D18DA1E51840502408333333333333E33F0000000000000F901079024090741D01000000000000111010B41D405064090741802480A0340
1001
ACAD
1000
AcDbSavedByObjectVersion
1070
     0
  0
ACAD_PROXY_OBJECT
  5
37
102
{ACAD_REACTORS
330
2A
102
}
330
2A
100
AcDbProxyObject
 90
      499
 91
      501
 93
      412
310
41D51A1A58DAD95B90D409028333333333333E33F0000000000000F9010790141107004050150C41D405064090741402480A0350
1001
ACAD
1000
AcDbSavedByObjectVersion
1070
     0
  0
ACAD_PROXY_OBJECT
  5
30
102
{ACAD_REACTORS
330
2A
102
}
330
2A
100
AcDbProxyObject
 90
      499
 91
      501
 93
      420
310
4255DA5C99599C985B595059028333333333333E33F0000000000000F90107901411070040501600405405064090740C02480A0340
1001
ACAD
1000
AcDbSavedByObjectVersion
1070
     0
  0
ACAD_PROXY_OBJECT
  5
40
102
{ACAD_REACTORS
330
2A
102
}
330
2A
100
AcDbProxyObject
 90
      499
 91
      501
 93
      404
310
41560B54985E51940902404000000000000E03F0000000000000F9010740501907004050150841D405064090740C02480A1B40
1001
ACAD
1000
AcDbSavedByObjectVersion
1070
     0
  0
XRECORD
  5
250
102
{ACAD_REACTORS
330
246
102
}
330
246
100
AcDbXrecord
340
0
  0
XRECORD
  5
24F
102
{ACAD_REACTORS
330
246
102
}
330
246
100
AcDbXrecord
 90
        0
  0
XRECORD
  5
266
102
{ACAD_REACTORS
330
246
102
}
330
246
100
AcDbXrecord
1000
DSTYLE
1002
{
1070
   179
 70
     2
1070
   171
 70
     2
1070
   143
 40
25.4
1070
   274
 70
     2
1070
    41
 40
3.0
1070
   141
 40
0.09
1070
    43
 40
0.38
1070
   278
 70
    46
1070
    44
 40
1.5
1070
    42
 40
0.0625
1070
   147
 40
1.5
1070
   272
 70
     4
1070
    73
 70
     1
1070
   172
 70
     0
1070
    74
 70
     1
1070
   283
 70
     1
1070
   340
340
6E
1070
   140
 40
3.0
1070
   284
 70
     0
1070
    78
 70
     0
1002
}
  0
XRECORD
  5
251
102
{ACAD_REACTORS
330
246
102
}
330
246
100
AcDbXrecord
  1
{29072428-9940-4511-A009-531FAE95D288}
  0
XRECORD
  5
249
102
{ACAD_REACTORS
330
246
102
}
330
246
100
AcDbXrecord
  1

  0
XRECORD
  5
24E
102
{ACAD_REACTORS
330
246
102
}
330
246
100
AcDbXrecord
 90
        4
  0
XRECORD
  5
24B
102
{ACAD_REACTORS
330
246
102
}
330
246
100
AcDbXrecord
340
1A
  0
XRECORD
  5
24D
102
{ACAD_REACTORS
330
246
102
}
330
246
100
AcDbXrecord
 90
    10269
  0
XRECORD
  5
24C
102
{ACAD_REACTORS
330
246
102
}
330
246
100
AcDbXrecord
340
19
  0
XRECORD
  5
253
102
{ACAD_REACTORS
330
246
102
}
330
246
100
AcDbXrecord
 40
0.0
  0
XRECORD
  5
256
102
{ACAD_REACTORS
330
246
102
}
330
246
100
AcDbXrecord
340
0
  0
XRECORD
  5
25C
102
{ACAD_REACTORS
330
246
102
}
330
246
100
AcDbXrecord
 10
0.0
 20
0.0
 30
0.0
  0
XRECORD
  5
258
102
{ACAD_REACTORS
330
246
102
}
330
246
100
AcDbXrecord
 10
0.0
 20
0.0
 30
0.0
  0
XRECORD
  5
25B
102
{ACAD_REACTORS
330
246
102
}
330
246
100
AcDbXrecord
 10
0.0
 20
0.0
 30
0.0
  0
XRECORD
  5
259
102
{ACAD_REACTORS
330
246
102
}
330
246
100
AcDbXrecord
 10
0.0
 20
0.0
 30
0.0
  0
XRECORD
  5
25A
102
{ACAD_REACTORS
330
246
102
}
330
246
100
AcDbXrecord
 10
0.0
 20
0.0
 30
0.0
  0
XRECORD
  5
257
102
{ACAD_REACTORS
330
246
102
}
330
246
100
AcDbXrecord
 10
0.0
 20
0.0
 30
0.0
  0
XRECORD
  5
254
102
{ACAD_REACTORS
330
246
102
}
330
246
100
AcDbXrecord
340
0
  0
XRECORD
  5
255
102
{ACAD_REACTORS
330
246
102
}
330
246
100
AcDbXrecord
 70
     0
  0
XRECORD
  5
24A
102
{ACAD_REACTORS
330
246
102
}
330
246
100
AcDbXrecord
  1

  0
XRECORD
  5
247
102
{ACAD_REACTORS
330
246
102
}
330
246
100
AcDbXrecord
 90
        1
  0
XRECORD
  5
248
102
{ACAD_REACTORS
330
246
102
}
330
246
100
AcDbXrecord
 90
       70
  0
XRECORD
  5
25F
102
{ACAD_REACTORS
330
246
102
}
330
246
100
AcDbXrecord
340
0
  0
XRECORD
  5
265
102
{ACAD_REACTORS
330
246
102
}
330
246
100
AcDbXrecord
 10
0.0
 20
0.0
 30
0.0
  0
XRECORD
  5
261
102
{ACAD_REACTORS
330
246
102
}
330
246
100
AcDbXrecord
 10
0.0
 20
0.0
 30
0.0
  0
XRECORD
  5
264
102
{ACAD_REACTORS
330
246
102
}
330
246
100
AcDbXrecord
 10
0.0
 20
0.0
 30
0.0
  0
XRECORD
  5
262
102
{ACAD_REACTORS
330
246
102
}
330
246
100
AcDbXrecord
 10
0.0
 20
0.0
 30
0.0
  0
XRECORD
  5
263
102
{ACAD_REACTORS
330
246
102
}
330
246
100
AcDbXrecord
 10
0.0
 20
0.0
 30
0.0
  0
XRECORD
  5
260
102
{ACAD_REACTORS
330
246
102
}
330
246
100
AcDbXrecord
 10
0.0
 20
0.0
 30
0.0
  0
XRECORD
  5
25D
102
{ACAD_REACTORS
330
246
102
}
330
246
100
AcDbXrecord
340
0
  0
XRECORD
  5
25E
102
{ACAD_REACTORS
330
246
102
}
330
246
100
AcDbXrecord
 70
     0
  0
XRECORD
  5
252
102
{ACAD_REACTORS
330
246
102
}
330
246
100
AcDbXrecord
  1
{FAEB1C32-E019-11D5-929B-00C0DF256EC4}
  0
DICTIONARYVAR
  5
270
102
{ACAD_REACTORS
330
267
102
}
330
267
100
DictionaryVariables
280
     0
  1
1:1
  0
DICTIONARYVAR
  5
269
102
{ACAD_REACTORS
330
267
102
}
330
267
100
DictionaryVariables
280
     0
  1
Standard
  0
DICTIONARYVAR
  5
268
102
{ACAD_REACTORS
330
267
102
}
330
267
100
DictionaryVariables
280
     0
  1
Standard
  0
DICTIONARYVAR
  5
26C
102
{ACAD_REACTORS
330
267
102
}
330
267
100
DictionaryVariables
280
     0
  1
2
  0
DICTIONARYVAR
  5
26D
102
{ACAD_REACTORS
330
267
102
}
330
267
100
DictionaryVariables
280
     0
  1
1
  0
DICTIONARYVAR
  5
271
102
{ACAD_REACTORS
330
267
102
}
330
267
100
DictionaryVariables
280
     0
  1
1
  0
DICTIONARY
  5
274
330
45
100
AcDbDictionary
280
     1
  3
ACAD_XREC_ROUNDTRIP
360
275
  0
DICTIONARY
  5
272
330
44
100
AcDbDictionary
280
     1
  3
ACAD_XREC_ROUNDTRIP
360
273
  0
DICTIONARY
  5
276
330
46
100
AcDbDictionary
280
     1
  3
ACAD_XREC_ROUNDTRIP
360
277
  0
XRECORD
  5
275
102
{ACAD_REACTORS
330
274
102
}
330
274
100
AcDbXrecord
102
MATERIAL
148
0.0
149
0.0
149
0.0
 93
        0
 94
      127
282
     0
 72
     1
 77
     1
171
     1
175
     1
179
     1
273
     0
  0
XRECORD
  5
273
102
{ACAD_REACTORS
330
272
102
}
330
272
100
AcDbXrecord
102
MATERIAL
148
0.0
149
0.0
149
0.0
 93
        0
 94
      127
282
     0
 72
     1
 77
     1
171
     1
175
     1
179
     1
273
     0
  0
XRECORD
  5
277
102
{ACAD_REACTORS
330
276
102
}
330
276
100
AcDbXrecord
102
MATERIAL
148
0.0
149
0.0
149
0.0
 93
        0
 94
      127
282
     0
 72
     1
 77
     1
171
     1
175
     1
179
     1
273
     0
  0
ENDSEC
  0
EOF
