  0
SECTION
  2
HEADER
  9
$ACADVER
  1
AC1014
  9
$ACADMAINTVER
 70
     9
  9
$DWGCODEPAGE
  3
ANSI_932
  9
$INSBASE
 10
0.0
 20
0.0
 30
0.0
  9
$EXTMIN
 10
-367.4695506230295
 20
77.02272727272727
 30
0.0
  9
$EXTMAX
 10
255.1666708334662
 20
322.5000000000398
 30
0.0
  9
$LIMMIN
 10
0.0
 20
0.0
  9
$LIMMAX
 10
12.0
 20
9.0
  9
$ORTHOMODE
 70
     0
  9
$REGENMODE
 70
     1
  9
$FILLMODE
 70
     1
  9
$QTEXTMODE
 70
     0
  9
$MIRRTEXT
 70
     1
  9
$DRAGMODE
 70
     2
  9
$LTSCALE
 40
1.0
  9
$OSMODE
 70
    37
  9
$ATTMODE
 70
     1
  9
$TEXTSIZE
 40
0.2
  9
$TRACEWID
 40
0.05
  9
$TEXTSTYLE
  7
STANDARD
  9
$CLAYER
  8
0
  9
$CELTYPE
  6
BYLAYER
  9
$CECOLOR
 62
   256
  9
$CELTSCALE
 40
1.0
  9
$DELOBJ
 70
     1
  9
$DISPSILH
 70
     0
  9
$DIMSCALE
 40
1.0
  9
$DIMASZ
 40
3.0
  9
$DIMEXO
 40
0.0625
  9
$DIMDLI
 40
0.38
  9
$DIMRND
 40
0.0
  9
$DIMDLE
 40
0.0
  9
$DIMEXE
 40
1.5
  9
$DIMTP
 40
0.0
  9
$DIMTM
 40
0.0
  9
$DIMTXT
 40
3.0
  9
$DIMCEN
 40
0.09
  9
$DIMTSZ
 40
0.0
  9
$DIMTOL
 70
     0
  9
$DIMLIM
 70
     0
  9
$DIMTIH
 70
     1
  9
$DIMTOH
 70
     1
  9
$DIMSE1
 70
     0
  9
$DIMSE2
 70
     0
  9
$DIMTAD
 70
     1
  9
$DIMZIN
 70
     0
  9
$DIMBLK
  1

  9
$DIMASO
 70
     1
  9
$DIMSHO
 70
     1
  9
$DIMPOST
  1

  9
$DIMAPOST
  1

  9
$DIMALT
 70
     0
  9
$DIMALTD
 70
     2
  9
$DIMALTF
 40
25.4
  9
$DIMLFAC
 40
1.0
  9
$DIMTOFL
 70
     0
  9
$DIMTVP
 40
0.0
  9
$DIMTIX
 70
     0
  9
$DIMSOXD
 70
     0
  9
$DIMSAH
 70
     0
  9
$DIMBLK1
  1

  9
$DIMBLK2
  1

  9
$DIMSTYLE
  2
STANDARD
  9
$DIMCLRD
 70
     0
  9
$DIMCLRE
 70
     0
  9
$DIMCLRT
 70
     0
  9
$DIMTFAC
 40
1.0
  9
$DIMGAP
 40
1.5
  9
$DIMJUST
 70
     0
  9
$DIMSD1
 70
     0
  9
$DIMSD2
 70
     0
  9
$DIMTOLJ
 70
     1
  9
$DIMTZIN
 70
     0
  9
$DIMALTZ
 70
     0
  9
$DIMALTTZ
 70
     0
  9
$DIMFIT
 70
     3
  9
$DIMUPT
 70
     0
  9
$DIMUNIT
 70
     2
  9
$DIMDEC
 70
     2
  9
$DIMTDEC
 70
     4
  9
$DIMALTU
 70
     2
  9
$DIMALTTD
 70
     2
  9
$DIMTXSTY
  7
ＭＳ_ゴシック
  9
$DIMAUNIT
 70
     0
  9
$LUNITS
 70
     2
  9
$LUPREC
 70
     4
  9
$SKETCHINC
 40
0.1
  9
$FILLETRAD
 40
0.5
  9
$AUNITS
 70
     0
  9
$AUPREC
 70
     0
  9
$MENU
  1
.
  9
$ELEVATION
 40
0.0
  9
$PELEVATION
 40
0.0
  9
$THICKNESS
 40
0.0
  9
$LIMCHECK
 70
     0
  9
$CHAMFERA
 40
0.0
  9
$CHAMFERB
 40
0.0
  9
$CHAMFERC
 40
0.0
  9
$CHAMFERD
 40
0.0
  9
$SKPOLY
 70
     0
  9
$TDCREATE
 40
2459061.747993958
  9
$TDUPDATE
 40
2459061.747994201
  9
$TDINDWG
 40
0.0000000116
  9
$TDUSRTIMER
 40
0.0000000116
  9
$USRTIMER
 70
     1
  9
$ANGBASE
 50
0.0
  9
$ANGDIR
 70
     0
  9
$PDMODE
 70
     0
  9
$PDSIZE
 40
0.0
  9
$PLINEWID
 40
0.0
  9
$COORDS
 70
     1
  9
$SPLFRAME
 70
     0
  9
$SPLINETYPE
 70
     6
  9
$SPLINESEGS
 70
     8
  9
$ATTDIA
 70
     0
  9
$ATTREQ
 70
     1
  9
$HANDLING
 70
     1
  9
$HANDSEED
  5
2A3
  9
$SURFTAB1
 70
     6
  9
$SURFTAB2
 70
     6
  9
$SURFTYPE
 70
     6
  9
$SURFU
 70
     6
  9
$SURFV
 70
     6
  9
$UCSNAME
  2

  9
$UCSORG
 10
0.0
 20
0.0
 30
0.0
  9
$UCSXDIR
 10
1.0
 20
0.0
 30
0.0
  9
$UCSYDIR
 10
0.0
 20
1.0
 30
0.0
  9
$PUCSNAME
  2

  9
$PUCSORG
 10
0.0
 20
0.0
 30
0.0
  9
$PUCSXDIR
 10
1.0
 20
0.0
 30
0.0
  9
$PUCSYDIR
 10
0.0
 20
1.0
 30
0.0
  9
$USERI1
 70
     0
  9
$USERI2
 70
     0
  9
$USERI3
 70
     0
  9
$USERI4
 70
     0
  9
$USERI5
 70
     0
  9
$USERR1
 40
0.0
  9
$USERR2
 40
0.0
  9
$USERR3
 40
0.0
  9
$USERR4
 40
0.0
  9
$USERR5
 40
0.0
  9
$WORLDVIEW
 70
     1
  9
$SHADEDGE
 70
     3
  9
$SHADEDIF
 70
    70
  9
$TILEMODE
 70
     1
  9
$MAXACTVP
 70
    64
  9
$PINSBASE
 10
0.0
 20
0.0
 30
0.0
  9
$PLIMCHECK
 70
     0
  9
$PEXTMIN
 10
1.000000000000000E+20
 20
1.000000000000000E+20
 30
1.000000000000000E+20
  9
$PEXTMAX
 10
-1.000000000000000E+20
 20
-1.000000000000000E+20
 30
-1.000000000000000E+20
  9
$PLIMMIN
 10
0.0
 20
0.0
  9
$PLIMMAX
 10
12.0
 20
9.0
  9
$UNITMODE
 70
     0
  9
$VISRETAIN
 70
     1
  9
$PLINEGEN
 70
     0
  9
$PSLTSCALE
 70
     1
  9
$TREEDEPTH
 70
  3020
  9
$PICKSTYLE
 70
     1
  9
$CMLSTYLE
  2
STANDARD
  9
$CMLJUST
 70
     0
  9
$CMLSCALE
 40
1.0
  9
$PROXYGRAPHICS
 70
     1
  9
$MEASUREMENT
 70
     1
  0
ENDSEC
  0
SECTION
  2
CLASSES
  0
CLASS
  1
ACDBDICTIONARYWDFLT
  2
AcDbDictionaryWithDefault
  3
ObjectDBX Classes
 90
        0
280
     0
281
     0
  0
CLASS
  1
VISUALSTYLE
  2
AcDbVisualStyle
  3
ObjectDBX Classes
 90
     4095
280
     0
281
     0
  0
CLASS
  1
MATERIAL
  2
AcDbMaterial
  3
ObjectDBX Classes
 90
     1153
280
     0
281
     0
  0
CLASS
  1
SCALE
  2
AcDbScale
  3
ObjectDBX Classes
 90
     1153
280
     0
281
     0
  0
CLASS
  1
TABLESTYLE
  2
AcDbTableStyle
  3
ObjectDBX Classes
 90
     4095
280
     0
281
     0
  0
CLASS
  1
MLEADERSTYLE
  2
AcDbMLeaderStyle
  3
ACDB_MLEADERSTYLE_CLASS
 90
     4095
280
     0
281
     0
  0
CLASS
  1
SUN
  2
AcDbSun
  3
SCENEOE
 90
     1153
280
     0
281
     0
  0
CLASS
  1
DICTIONARYVAR
  2
AcDbDictionaryVar
  3
ObjectDBX Classes
 90
        0
280
     0
281
     0
  0
CLASS
  1
XRECORD
  2
AcDbXrecord
  3
ObjectDBX Classes
 90
        0
280
     0
281
     0
  0
CLASS
  1
LWPOLYLINE
  2
AcDbPolyline
  3
ObjectDBX Classes
 90
        0
280
     0
281
     1
  0
CLASS
  1
HATCH
  2
AcDbHatch
  3
ObjectDBX Classes
 90
        0
280
     0
281
     1
  0
CLASS
  1
ACDBPLACEHOLDER
  2
AcDbPlaceHolder
  3
ObjectDBX Classes
 90
        0
280
     0
281
     0
  0
CLASS
  1
LAYOUT
  2
AcDbLayout
  3
ObjectDBX Classes
 90
        0
280
     0
281
     0
  0
ENDSEC
  0
SECTION
  2
TABLES
  0
TABLE
  2
VPORT
  5
8
102
{ACAD_XDICTIONARY
360
298
102
}
330
0
100
AcDbSymbolTable
 70
     1
  0
VPORT
  5
29
330
8
100
AcDbSymbolTableRecord
100
AcDbViewportTableRecord
  2
*ACTIVE
 70
     0
 10
0.0
 20
0.0
 11
1.0
 21
1.0
 12
-56.15143989478166
 22
199.7613636363835
 13
0.0
 23
0.0
 14
0.5
 24
0.5
 15
0.5
 25
0.5
 16
0.0
 26
0.0
 36
1.0
 17
0.0
 27
0.0
 37
0.0
 40
245.4772727273126
 41
1.6
 42
50.0
 43
0.0
 44
0.0
 50
0.0
 51
0.0
 71
     0
 72
   100
 73
     1
 74
     3
 75
     0
 76
     0
 77
     0
 78
     0
  0
ENDTAB
  0
TABLE
  2
LTYPE
  5
5
330
0
100
AcDbSymbolTable
 70
     2
  0
LTYPE
  5
14
330
5
100
AcDbSymbolTableRecord
100
AcDbLinetypeTableRecord
  2
BYBLOCK
 70
     0
  3

 72
    65
 73
     0
 40
0.0
  0
LTYPE
  5
15
330
5
100
AcDbSymbolTableRecord
100
AcDbLinetypeTableRecord
  2
BYLAYER
 70
     0
  3

 72
    65
 73
     0
 40
0.0
  0
LTYPE
  5
16
330
5
100
AcDbSymbolTableRecord
100
AcDbLinetypeTableRecord
  2
CONTINUOUS
 70
     0
  3
Solid line
 72
    65
 73
     0
 40
0.0
  0
LTYPE
  5
112
330
5
100
AcDbSymbolTableRecord
100
AcDbLinetypeTableRecord
  2
________________
 70
     0
  3

 72
    65
 73
     4
 40
6.0
 49
2.25
 74
     0
 49
-1.5
 74
     0
 49
0.7499999999999999
 74
     0
 49
-1.5
 74
     0
  0
ENDTAB
  0
TABLE
  2
LAYER
  5
2
330
0
100
AcDbSymbolTable
 70
     1
  0
LAYER
  5
10
330
2
100
AcDbSymbolTableRecord
100
AcDbLayerTableRecord
  2
0
 70
     0
 62
     7
  6
CONTINUOUS
  0
ENDTAB
  0
TABLE
  2
STYLE
  5
3
330
0
100
AcDbSymbolTable
 70
     2
  0
STYLE
  5
11
330
3
100
AcDbSymbolTableRecord
100
AcDbTextStyleTableRecord
  2
STANDARD
 70
     0
 40
0.0
 41
1.0
 50
0.0
 71
     0
 42
0.2
  3
txt
  4

  0
STYLE
  5
6E
330
3
100
AcDbSymbolTableRecord
100
AcDbTextStyleTableRecord
  2
ＭＳ_ゴシック
 70
     0
 40
0.0
 41
1.0
 50
0.0
 71
     0
 42
0.2
  3
ＭＳ ゴシック.shx
  4

  0
ENDTAB
  0
TABLE
  2
VIEW
  5
6
330
0
100
AcDbSymbolTable
 70
     0
  0
ENDTAB
  0
TABLE
  2
UCS
  5
7
330
0
100
AcDbSymbolTable
 70
     0
  0
ENDTAB
  0
TABLE
  2
APPID
  5
9
330
0
100
AcDbSymbolTable
 70
     2
  0
APPID
  5
12
330
9
100
AcDbSymbolTableRecord
100
AcDbRegAppTableRecord
  2
ACAD
 70
     0
  0
APPID
  5
2A2
330
9
100
AcDbSymbolTableRecord
100
AcDbRegAppTableRecord
  2
ACAD_MLEADERVER
 70
     0
  0
ENDTAB
  0
TABLE
  2
DIMSTYLE
  5
A
330
0
100
AcDbSymbolTable
 70
     1
  0
DIMSTYLE
105
27
330
A
100
AcDbSymbolTableRecord
100
AcDbDimStyleTableRecord
  2
STANDARD
 70
     0
  3

  4

  5

  6

  7

 40
1.0
 41
0.18
 42
0.0625
 43
0.38
 44
0.18
 45
0.0
 46
0.0
 47
0.0
 48
0.0
140
0.18
141
0.09
142
0.0
143
25.4
144
1.0
145
0.0
146
1.0
147
0.09
 71
     0
 72
     0
 73
     1
 74
     1
 75
     0
 76
     0
 77
     0
 78
     0
170
     0
171
     2
172
     0
173
     0
174
     0
175
     0
176
     0
177
     0
178
     0
270
     2
271
     4
272
     4
273
     2
274
     2
340
11
275
     0
280
     0
281
     0
282
     0
283
     1
284
     0
285
     0
286
     0
287
     3
288
     0
  0
ENDTAB
  0
TABLE
  2
BLOCK_RECORD
  5
1
330
0
100
AcDbSymbolTable
 70
     0
  0
BLOCK_RECORD
  5
1F
330
1
100
AcDbSymbolTableRecord
100
AcDbBlockTableRecord
  2
*MODEL_SPACE
  0
BLOCK_RECORD
  5
1B
330
1
100
AcDbSymbolTableRecord
100
AcDbBlockTableRecord
  2
*PAPER_SPACE
  0
ENDTAB
  0
ENDSEC
  0
SECTION
  2
BLOCKS
  0
BLOCK
  5
20
330
1F
100
AcDbEntity
  8
0
100
AcDbBlockBegin
  2
*MODEL_SPACE
 70
     0
 10
0.0
 20
0.0
 30
0.0
  3
*MODEL_SPACE
  1

  0
ENDBLK
  5
21
330
1F
100
AcDbEntity
  8
0
100
AcDbBlockEnd
  0
BLOCK
  5
1C
330
1B
100
AcDbEntity
 67
     1
  8
0
100
AcDbBlockBegin
  2
*PAPER_SPACE
 70
     0
 10
0.0
 20
0.0
 30
0.0
  3
*PAPER_SPACE
  1

  0
ENDBLK
  5
1D
330
1B
100
AcDbEntity
 67
     1
  8
0
100
AcDbBlockEnd
  0
ENDSEC
  0
SECTION
  2
ENTITIES
  0
LWPOLYLINE
  5
6F
330
1F
100
AcDbEntity
  8
0
  6
CONTINUOUS
 62
     7
100
AcDbPolyline
 90
        4
 70
     0
 43
0.0
 10
239.0678157349071
 20
154.2969541756584
 10
239.1206589457807
 20
154.6165373085525
 10
239.0466263336274
 20
154.9267620092973
 10
238.8293404926214
 20
155.122278636897
210
0.0
220
0.0
230
-1.0
  0
LWPOLYLINE
  5
70
330
1F
100
AcDbEntity
  8
0
  6
CONTINUOUS
 62
     7
100
AcDbPolyline
 90
        4
 70
     0
 43
0.0
 10
280.8712855111522
 20
275.7030458244216
 10
280.8184423002785
 20
275.3834626915273
 10
280.8924749124319
 20
275.0732379907826
 10
281.1097607534378
 20
274.877721363183
210
0.0
220
0.0
230
-1.0
  0
LWPOLYLINE
  5
71
330
1F
100
AcDbEntity
  8
0
  6
CONTINUOUS
 62
     7
100
AcDbPolyline
 90
        4
 70
     0
 43
0.0
 10
199.266504798648
 20
235.9017348881625
 10
199.5860879315422
 20
235.8488916772887
 10
199.896312632287
 20
235.9229242894422
 10
200.0918292598866
 20
236.1402101304479
210
0.0
220
0.0
230
-1.0
  0
LWPOLYLINE
  5
72
330
1F
100
AcDbEntity
  8
0
  6
CONTINUOUS
 62
     7
100
AcDbPolyline
 90
        4
 70
     0
 43
0.0
 10
323.408498690081
 20
203.9699978813721
 10
323.1910342610718
 20
204.1788330386341
 10
322.88599394342
 20
204.223533625329
 10
322.6234617582737
 20
204.0914358748761
210
0.0
220
0.0
230
-1.0
  0
LWPOLYLINE
  5
73
330
1F
100
AcDbEntity
  8
0
  6
CONTINUOUS
 62
     7
100
AcDbPolyline
 90
        4
 70
     0
 43
0.0
 10
-320.6725964474112
 20
235.9017348881625
 10
-320.3530133145169
 20
235.8488916772887
 10
-320.0427886137722
 20
235.9229242894422
 10
-319.8472719861726
 20
236.1402101304479
  0
LWPOLYLINE
  5
74
330
1F
100
AcDbEntity
  8
0
  6
CONTINUOUS
 62
     7
100
AcDbPolyline
 90
        4
 70
     0
 43
0.0
 10
-280.8712855111522
 20
154.2969541756584
 10
-280.8184423002785
 20
154.6165373085525
 10
-280.8924749124319
 20
154.9267620092973
 10
-281.1097607534378
 20
155.122278636897
  0
LWPOLYLINE
  5
75
330
1F
100
AcDbEntity
  8
0
  6
CONTINUOUS
 62
     7
100
AcDbPolyline
 90
        4
 70
     0
 43
0.0
 10
-248.9395485043618
 20
278.4389480670915
 10
-249.1483836616238
 20
278.2214836380822
 10
-249.1930842483187
 20
277.9164433204302
 10
-249.0609864978658
 20
277.653911135284
  0
LWPOLYLINE
  5
76
330
1F
100
AcDbEntity
  8
0
  6
CONTINUOUS
 62
     7
100
AcDbPolyline
 90
        4
 70
     0
 43
0.0
 10
22.49998749927151
 20
163.3483873136586
 10
22.39980100701483
 20
163.6486144451136
 10
22.14227404307106
 20
163.8276757470441
 10
21.87057797672076
 20
163.8313502268027
210
0.0
220
0.0
230
-1.0
  0
LWPOLYLINE
  5
77
330
1F
100
AcDbEntity
  8
0
  6
CONTINUOUS
 62
     7
100
AcDbPolyline
 90
        4
 70
     0
 43
0.0
 10
241.8770983250537
 20
154.1320020877917
 10
241.567501299374
 20
154.0919982226671
 10
241.3327746124838
 20
153.8784979922952
 10
241.1990542546347
 20
153.6044728032285
210
0.0
220
0.0
230
-1.0
  0
LWPOLYLINE
  5
78
330
1F
100
AcDbEntity
  8
0
  6
CONTINUOUS
 62
     7
100
AcDbPolyline
 90
        4
 70
     0
 43
0.0
 10
278.0620029210054
 20
275.8679979122884
 10
278.3715999466853
 20
275.9080017774126
 10
278.6063266335754
 20
276.1215020077848
 10
278.7400469914245
 20
276.3955271968515
210
0.0
220
0.0
230
-1.0
  0
LWPOLYLINE
  5
79
330
1F
100
AcDbEntity
  8
0
  6
CONTINUOUS
 62
     7
100
AcDbPolyline
 90
        4
 70
     0
 43
0.0
 10
-196.5306025559781
 20
203.9699978813721
 10
-196.7480669849874
 20
204.1788330386341
 10
-197.0531073026392
 20
204.223533625329
 10
-197.3156394877855
 20
204.0914358748761
  0
LWPOLYLINE
  5
7A
330
1F
100
AcDbEntity
  8
0
  6
CONTINUOUS
 62
     7
100
AcDbPolyline
 90
        4
 70
     0
 43
0.0
 10
-199.266504798648
 20
194.0982651119175
 10
-199.5860879315422
 20
194.151108322791
 10
-199.896312632287
 20
194.0770757106378
 10
-200.0918292598866
 20
193.8597898696317
  0
LWPOLYLINE
  5
7B
330
1F
100
AcDbEntity
  8
0
  6
CONTINUOUS
 62
     7
100
AcDbPolyline
 90
        4
 70
     0
 43
0.0
 10
-320.837548535278
 20
233.0924522980158
 10
-320.8775524004025
 20
233.4020493236955
 10
-321.0910526307745
 20
233.6367760105857
 10
-321.365077819841
 20
233.7704963684349
  0
LWPOLYLINE
  5
7C
330
1F
100
AcDbEntity
  8
0
  6
CONTINUOUS
 62
     7
100
AcDbPolyline
 90
        4
 70
     0
 43
0.0
 10
320.6725964474112
 20
194.0982651119175
 10
320.3530133145169
 20
194.151108322791
 10
320.0427886137722
 20
194.0770757106378
 10
319.8472719861726
 20
193.8597898696317
210
0.0
220
0.0
230
-1.0
  0
LWPOLYLINE
  5
7D
330
1F
100
AcDbEntity
  8
0
  6
CONTINUOUS
 62
     7
100
AcDbPolyline
 90
        4
 70
     0
 43
0.0
 10
196.5306025559781
 20
226.0300021187077
 10
196.7480669849874
 20
225.8211669614457
 10
197.0531073026392
 20
225.7764663747506
 10
197.3156394877855
 20
225.9085641252037
210
0.0
220
0.0
230
-1.0
  0
LWPOLYLINE
  5
7E
330
1F
100
AcDbEntity
  8
0
  6
CONTINUOUS
 62
     7
100
AcDbPolyline
 90
        4
 70
     0
 43
0.0
 10
-229.6172934537463
 20
270.7762537710642
 10
-229.306144594646
 20
270.7510146146745
 10
-229.0321580551496
 20
270.9110469304176
 10
-228.8443867675647
 20
271.1512819859466
  0
LWPOLYLINE
  5
7F
330
1F
100
AcDbEntity
  8
0
  6
CONTINUOUS
 62
     7
100
AcDbPolyline
 90
        4
 70
     0
 43
0.0
 10
298.6065545603074
 20
266.2730359979317
 10
298.4575410610841
 20
265.985423827092
 10
298.4320855546859
 20
265.6675052686395
 10
298.5783187090622
 20
265.4144128884091
210
0.0
220
0.0
230
-1.0
  0
LWPOLYLINE
  5
80
330
1F
100
AcDbEntity
  8
0
  6
CONTINUOUS
 62
     7
100
AcDbPolyline
 90
        4
 70
     0
 43
0.0
 10
-317.8624969155107
 20
265.3255704252009
 10
-318.1461343169616
 20
265.4462297640213
 10
-318.4465445074233
 20
265.3776468324268
 10
-318.6081005802702
 20
265.2231888359182
  0
LWPOLYLINE
  5
81
330
1F
100
AcDbEntity
  8
0
  6
CONTINUOUS
 62
     7
100
AcDbPolyline
 90
        4
 70
     0
 43
0.0
 10
211.7227309271835
 20
256.285522756044
 10
211.8121100328422
 20
256.5846247503642
 10
211.7125398118461
 20
256.8858966159577
 10
211.5165943145572
 20
257.1195123269841
210
0.0
220
0.0
230
-1.0
  0
LWPOLYLINE
  5
82
330
1F
100
AcDbEntity
  8
0
  6
CONTINUOUS
 62
     7
100
AcDbPolyline
 90
        4
 70
     0
 43
0.0
 10
312.2675814413207
 20
178.9838095778271
 10
312.2099566355813
 20
178.6770034349646
 10
312.3404728856248
 20
178.3877898903615
 10
312.5597644642462
 20
178.1759358323595
210
0.0
220
0.0
230
-1.0
  0
LWPOLYLINE
  5
83
330
1F
100
AcDbEntity
  8
0
  6
CONTINUOUS
 62
     7
100
AcDbPolyline
 90
        4
 70
     0
 43
0.0
 10
310.2951210481905
 20
272.8929462925208
 10
310.415780387011
 20
273.176583693972
 10
310.3471974554163
 20
273.4769938844336
 10
310.1927394589079
 20
273.6385499572805
210
0.0
220
0.0
230
-1.0
  0
LWPOLYLINE
  5
84
330
1F
100
AcDbEntity
  8
0
  6
CONTINUOUS
 62
     7
100
AcDbPolyline
 90
        4
 70
     0
 43
0.0
 10
-302.9703170225979
 20
153.5885411781132
 10
-303.0606698537121
 20
153.2938376973867
 10
-302.961059040876
 20
153.0022432981788
 10
-302.7088750994072
 20
152.8242265821444
  0
LWPOLYLINE
  5
85
330
1F
100
AcDbEntity
  8
0
  6
CONTINUOUS
 62
     7
100
AcDbPolyline
 90
        4
 70
     0
 43
0.0
 10
-221.3325466857519
 20
266.2730359979317
 10
-221.4815601849751
 20
265.985423827092
 10
-221.5070156913733
 20
265.6675052686395
 10
-221.360782536997
 20
265.4144128884091
  0
LWPOLYLINE
  5
86
330
1F
100
AcDbEntity
  8
0
  6
CONTINUOUS
 62
     7
100
AcDbPolyline
 90
        4
 70
     0
 43
0.0
 10
-311.2425866209215
 20
253.6370039373177
 10
-310.9549744500816
 20
253.4879904380944
 10
-310.6370558916292
 20
253.4625349316964
 10
-310.3839635113988
 20
253.6087680860724
  0
LWPOLYLINE
  5
87
330
1F
100
AcDbEntity
  8
0
  6
CONTINUOUS
 62
     7
100
AcDbPolyline
 90
       28
 70
     0
 43
0.0
 10
12.72353036397361
 20
161.3804062058382
 10
12.58732823127506
 20
161.3403556941216
 10
12.4529659682136
 20
161.2937659471812
 10
12.32088700502226
 20
161.2408732223379
 10
12.19153477193396
 20
161.1819137769117
 10
12.06535269918146
 20
161.1171238682232
 10
11.9427842169974
 20
161.0467397535927
 10
11.82427275561543
 20
160.9709976903402
 10
11.70989369114345
 20
160.8899453766558
 10
11.59940083495442
 20
160.8035510208963
 10
11.49309882738631
 20
160.7121630035601
 10
11.39129230877706
 20
160.6161297051459
 10
11.2942859194653
 20
160.5157995061524
 10
11.20238429978943
 20
160.4115207870783
 10
11.11589209008745
 20
160.303641928422
 10
11.03271777234455
 20
160.1891511145881
 10
10.95507195527368
 20
160.0708339913697
 10
10.88312291960464
 20
159.9491080026816
 10
10.81703894606667
 20
159.824390592438
 10
10.75698831538957
 20
159.6970992045531
 10
10.70313930830224
 20
159.5676512829414
 10
10.65566020553455
 20
159.4364642715174
 10
10.60833086587171
 20
159.2813358291942
 10
10.56947913907141
 20
159.1238156303784
 10
10.53916198207322
 20
158.9645442479091
 10
10.51743635181629
 20
158.8041622546261
 10
10.5043592052399
 20
158.6433102233676
 10
10.49998749928349
 20
158.4826287269742
210
0.0
220
0.0
230
-1.0
  0
LWPOLYLINE
  5
88
330
1F
100
AcDbEntity
  8
0
  6
CONTINUOUS
 62
     7
100
AcDbPolyline
 90
        4
 70
     0
 43
0.0
 10
-211.7227309271835
 20
173.714477244036
 10
-211.8121100328422
 20
173.4153752497158
 10
-211.7125398118461
 20
173.1141033841224
 10
-211.5165943145572
 20
172.8804876730959
  0
LWPOLYLINE
  5
89
330
1F
100
AcDbEntity
  8
0
  6
CONTINUOUS
 62
     7
100
AcDbPolyline
 90
        4
 70
     0
 43
0.0
 10
202.0766043305485
 20
265.3255704252009
 10
201.7929669290977
 20
265.4462297640213
 10
201.492556738636
 20
265.3776468324268
 10
201.3310006657891
 20
265.2231888359182
210
0.0
220
0.0
230
-1.0
  0
LWPOLYLINE
  5
8A
330
1F
100
AcDbEntity
  8
0
  6
CONTINUOUS
 62
     7
100
AcDbPolyline
 90
        4
 70
     0
 43
0.0
 10
306.9230409181088
 20
171.2151619530603
 10
306.6525804689142
 20
171.3934227989781
 10
306.3390643265549
 20
171.4519703958081
 10
306.0720728859591
 20
171.3329936795226
210
0.0
220
0.0
230
-1.0
  0
LWPOLYLINE
  5
8B
330
1F
100
AcDbEntity
  8
0
  6
CONTINUOUS
 62
     7
100
AcDbPolyline
 90
        4
 70
     0
 43
0.0
 10
-306.9230409181088
 20
258.7848380470197
 10
-306.6525804689142
 20
258.6065772011016
 10
-306.3390643265549
 20
258.5480296042716
 10
-306.0720728859591
 20
258.6670063205573
  0
LWPOLYLINE
  5
8C
330
1F
100
AcDbEntity
  8
0
  6
CONTINUOUS
 62
     7
100
AcDbPolyline
 90
        4
 70
     0
 43
0.0
 10
321.3810094449564
 20
171.9992336004717
 10
321.6757129256829
 20
171.9088807693575
 10
321.9673073248908
 20
172.0084915821936
 10
322.1453240409252
 20
172.2606755236623
210
0.0
220
0.0
230
-1.0
  0
LWPOLYLINE
  5
8D
330
1F
100
AcDbEntity
  8
0
  6
CONTINUOUS
 62
     7
100
AcDbPolyline
 90
        4
 70
     0
 43
0.0
 10
302.9703170225979
 20
276.4114588219666
 10
303.0606698537121
 20
276.7061623026933
 10
302.961059040876
 20
276.9977567019012
 10
302.7088750994072
 20
277.1757734179353
210
0.0
220
0.0
230
-1.0
  0
LWPOLYLINE
  5
8E
330
1F
100
AcDbEntity
  8
0
  6
CONTINUOUS
 62
     7
100
AcDbPolyline
 90
        4
 70
     0
 43
0.0
 10
-298.6065545603074
 20
163.7269640021481
 10
-298.4575410610841
 20
164.014576172988
 10
-298.4320855546859
 20
164.3324947314402
 10
-298.5783187090622
 20
164.5855871116707
  0
LWPOLYLINE
  5
8F
330
1F
100
AcDbEntity
  8
0
  6
CONTINUOUS
 62
     7
100
AcDbPolyline
 90
        4
 70
     0
 43
0.0
 10
-216.9687842234613
 20
276.4114588219666
 10
-216.8784313923472
 20
276.7061623026933
 10
-216.9780422051832
 20
276.9977567019012
 10
-217.230226146652
 20
277.1757734179353
  0
LWPOLYLINE
  5
90
330
1F
100
AcDbEntity
  8
0
  6
CONTINUOUS
 62
     7
100
AcDbPolyline
 90
        4
 70
     0
 43
0.0
 10
301.2550733790335
 20
263.2468196958861
 10
301.5541753733538
 20
263.1574405902276
 10
301.8554472389472
 20
263.2570108112235
 10
302.0890629499737
 20
263.4529563085122
210
0.0
220
0.0
230
-1.0
  0
LWPOLYLINE
  5
91
330
1F
100
AcDbEntity
  8
0
  6
CONTINUOUS
 62
     7
100
AcDbPolyline
 90
        4
 70
     0
 43
0.0
 10
-301.2550733790335
 20
166.7531803041939
 10
-301.5541753733538
 20
166.8425594098524
 10
-301.8554472389472
 20
166.7429891888565
 10
-302.0890629499737
 20
166.5470436915675
  0
LWPOLYLINE
  5
92
330
1F
100
AcDbEntity
  8
0
  6
CONTINUOUS
 62
     7
100
AcDbPolyline
 90
        4
 70
     0
 43
0.0
 10
-223.9533602008169
 20
267.2980308183309
 10
-223.6465540579543
 20
267.2404060125915
 10
-223.3573405133512
 20
267.3709222626351
 10
-223.1454864553492
 20
267.5902138412565
  0
LWPOLYLINE
  5
93
330
1F
100
AcDbEntity
  8
0
  6
CONTINUOUS
 62
     7
100
AcDbPolyline
 90
        4
 70
     0
 43
0.0
 10
-308.2163703188756
 20
256.285522756044
 10
-308.1269912132171
 20
256.5846247503642
 10
-308.2265614342131
 20
256.8858966159577
 10
-308.422506931502
 20
257.1195123269841
  0
LWPOLYLINE
  5
94
330
1F
100
AcDbEntity
  8
0
  6
CONTINUOUS
 62
     7
100
AcDbPolyline
 90
        4
 70
     0
 43
0.0
 10
209.6439801978687
 20
157.1070537075588
 10
209.5233208590483
 20
156.823416306108
 10
209.591903790643
 20
156.5230061156463
 10
209.7463617871514
 20
156.3614500427994
210
0.0
220
0.0
230
-1.0
  0
LWPOLYLINE
  5
95
330
1F
100
AcDbEntity
  8
0
  6
CONTINUOUS
 62
     7
100
AcDbPolyline
 90
        4
 70
     0
 43
0.0
 10
-312.2675814413207
 20
251.0161904222526
 10
-312.2099566355813
 20
251.3229965651151
 10
-312.3404728856248
 20
251.6122101097185
 10
-312.5597644642462
 20
251.8240641677205
  0
LWPOLYLINE
  5
96
330
1F
100
AcDbEntity
  8
0
  6
CONTINUOUS
 62
     7
100
AcDbPolyline
 90
        4
 70
     0
 43
0.0
 10
216.9687842234613
 20
153.5885411781132
 10
216.8784313923472
 20
153.2938376973867
 10
216.9780422051832
 20
153.0022432981788
 10
217.230226146652
 20
152.8242265821444
210
0.0
220
0.0
230
-1.0
  0
LWPOLYLINE
  5
97
330
1F
100
AcDbEntity
  8
0
  6
CONTINUOUS
 62
     7
100
AcDbPolyline
 90
        4
 70
     0
 43
0.0
 10
295.9857410452423
 20
267.2980308183309
 10
296.2925471881049
 20
267.2404060125915
 10
296.581760732708
 20
267.3709222626351
 10
296.7936147907101
 20
267.5902138412565
210
0.0
220
0.0
230
-1.0
  0
LWPOLYLINE
  5
98
330
1F
100
AcDbEntity
  8
0
  6
CONTINUOUS
 62
     7
100
AcDbPolyline
 90
        4
 70
     0
 43
0.0
 10
223.9533602008169
 20
162.7019691817488
 10
223.6465540579543
 20
162.7595939874882
 10
223.3573405133512
 20
162.6290777374449
 10
223.1454864553492
 20
162.4097861588235
210
0.0
220
0.0
230
-1.0
  0
LWPOLYLINE
  5
99
330
1F
100
AcDbEntity
  8
0
  6
CONTINUOUS
 62
     7
100
AcDbPolyline
 90
        4
 70
     0
 43
0.0
 10
-216.1847125760499
 20
261.953490295119
 10
-216.3629734219679
 20
261.6830298459247
 10
-216.4215210187979
 20
261.3695137035651
 10
-216.3025443025122
 20
261.1025222629696
  0
LWPOLYLINE
  5
9A
330
1F
100
AcDbEntity
  8
0
  6
CONTINUOUS
 62
     7
100
AcDbPolyline
 90
        4
 70
     0
 43
0.0
 10
208.6965146251378
 20
253.6370039373177
 10
208.9841267959776
 20
253.4879904380944
 10
209.3020453544299
 20
253.4625349316964
 10
209.5551377346605
 20
253.6087680860724
210
0.0
220
0.0
230
-1.0
  0
LWPOLYLINE
  5
9B
330
1F
100
AcDbEntity
  8
0
  6
CONTINUOUS
 62
     7
100
AcDbPolyline
 90
        4
 70
     0
 43
0.0
 10
311.2425866209215
 20
176.362996062762
 10
310.9549744500816
 20
176.5120095619854
 10
310.6370558916292
 20
176.5374650683836
 10
310.3839635113988
 20
176.3912319140073
210
0.0
220
0.0
230
-1.0
  0
LWPOLYLINE
  5
9C
330
1F
100
AcDbEntity
  8
0
  6
CONTINUOUS
 62
     7
100
AcDbPolyline
 90
        4
 70
     0
 43
0.0
 10
207.6715198047386
 20
251.0161904222526
 10
207.7291446104779
 20
251.3229965651151
 10
207.5986283604345
 20
251.6122101097185
 10
207.379336781813
 20
251.8240641677205
210
0.0
220
0.0
230
-1.0
  0
LWPOLYLINE
  5
9D
330
1F
100
AcDbEntity
  8
0
  6
CONTINUOUS
 62
     7
100
AcDbPolyline
 90
        4
 70
     0
 43
0.0
 10
-295.9857410452423
 20
162.7019691817488
 10
-296.2925471881049
 20
162.7595939874882
 10
-296.581760732708
 20
162.6290777374449
 10
-296.7936147907101
 20
162.4097861588235
  0
LWPOLYLINE
  5
9E
330
1F
100
AcDbEntity
  8
0
  6
CONTINUOUS
 62
     7
100
AcDbPolyline
 90
        4
 70
     0
 43
0.0
 10
-213.0160603279504
 20
171.2151619530603
 10
-213.2865207771451
 20
171.3934227989781
 10
-213.6000369195044
 20
171.4519703958081
 10
-213.8670283601002
 20
171.3329936795226
  0
LWPOLYLINE
  5
9F
330
1F
100
AcDbEntity
  8
0
  6
CONTINUOUS
 62
     7
100
AcDbPolyline
 90
        4
 70
     0
 43
0.0
 10
-218.6840278670257
 20
263.2468196958861
 10
-218.3849258727054
 20
263.1574405902276
 10
-218.083654007112
 20
263.2570108112235
 10
-217.8500382960855
 20
263.4529563085122
  0
LWPOLYLINE
  5
A0
330
1F
100
AcDbEntity
  8
0
  6
CONTINUOUS
 62
     7
100
AcDbPolyline
 90
        4
 70
     0
 43
0.0
 10
-209.6439801978687
 20
272.8929462925208
 10
-209.5233208590483
 20
273.176583693972
 10
-209.591903790643
 20
273.4769938844336
 10
-209.7463617871514
 20
273.6385499572805
  0
LWPOLYLINE
  5
A1
330
1F
100
AcDbEntity
  8
0
  6
CONTINUOUS
 62
     7
100
AcDbPolyline
 90
        4
 70
     0
 43
0.0
 10
308.2163703188756
 20
173.714477244036
 10
308.1269912132171
 20
173.4153752497158
 10
308.2265614342131
 20
173.1141033841224
 10
308.422506931502
 20
172.8804876730959
210
0.0
220
0.0
230
-1.0
  0
LWPOLYLINE
  5
A2
330
1F
100
AcDbEntity
  8
0
  6
CONTINUOUS
 62
     7
100
AcDbPolyline
 90
        4
 70
     0
 43
0.0
 10
213.0160603279504
 20
258.7848380470197
 10
213.2865207771451
 20
258.6065772011016
 10
213.6000369195044
 20
258.5480296042716
 10
213.8670283601002
 20
258.6670063205573
210
0.0
220
0.0
230
-1.0
  0
LWPOLYLINE
  5
A3
330
1F
100
AcDbEntity
  8
0
  6
CONTINUOUS
 62
     7
100
AcDbPolyline
 90
        4
 70
     0
 43
0.0
 10
218.6840278670257
 20
166.7531803041939
 10
218.3849258727054
 20
166.8425594098524
 10
218.083654007112
 20
166.7429891888565
 10
217.8500382960855
 20
166.5470436915675
210
0.0
220
0.0
230
-1.0
  0
LWPOLYLINE
  5
A4
330
1F
100
AcDbEntity
  8
0
  6
CONTINUOUS
 62
     7
100
AcDbPolyline
 90
        4
 70
     0
 43
0.0
 10
-303.7543886700092
 20
168.0465097049607
 10
-303.5761278240914
 20
168.3169701541554
 10
-303.5175802272614
 20
168.6304862965146
 10
-303.6365569435471
 20
168.8974777371106
  0
LWPOLYLINE
  5
A5
330
1F
100
AcDbEntity
  8
0
  6
CONTINUOUS
 62
     7
100
AcDbPolyline
 90
        4
 70
     0
 43
0.0
 10
-208.6965146251378
 20
176.3629960627623
 10
-208.9841267959776
 20
176.5120095619854
 10
-209.3020453544299
 20
176.5374650683836
 10
-209.5551377346605
 20
176.3912319140073
  0
LWPOLYLINE
  5
A6
330
1F
100
AcDbEntity
  8
0
  6
CONTINUOUS
 62
     7
100
AcDbPolyline
 90
        4
 70
     0
 43
0.0
 10
-207.6715198047386
 20
178.9838095778271
 10
-207.7291446104779
 20
178.6770034349646
 10
-207.5986283604345
 20
178.3877898903615
 10
-207.379336781813
 20
178.1759358323595
  0
LWPOLYLINE
  5
A7
330
1F
100
AcDbEntity
  8
0
  6
CONTINUOUS
 62
     7
100
AcDbPolyline
 90
        4
 70
     0
 43
0.0
 10
216.1847125760499
 20
168.0465097049607
 10
216.3629734219679
 20
168.3169701541554
 10
216.4215210187979
 20
168.6304862965146
 10
216.3025443025122
 20
168.8974777371106
210
0.0
220
0.0
230
-1.0
  0
LWPOLYLINE
  5
A8
330
1F
100
AcDbEntity
  8
0
  6
CONTINUOUS
 62
     7
100
AcDbPolyline
 90
        4
 70
     0
 43
0.0
 10
-310.2951210481905
 20
157.1070537075588
 10
-310.415780387011
 20
156.823416306108
 10
-310.3471974554163
 20
156.5230061156463
 10
-310.1927394589079
 20
156.3614500427994
  0
LWPOLYLINE
  5
A9
330
1F
100
AcDbEntity
  8
0
  6
CONTINUOUS
 62
     7
100
AcDbPolyline
 90
        4
 70
     0
 43
0.0
 10
-321.3810094449564
 20
258.0007663996083
 10
-321.6757129256829
 20
258.0911192307225
 10
-321.9673073248908
 20
257.9915084178865
 10
-322.1453240409252
 20
257.7393244764174
  0
LWPOLYLINE
  5
AA
330
1F
100
AcDbEntity
  8
0
  6
CONTINUOUS
 62
     7
100
AcDbPolyline
 90
        4
 70
     0
 43
0.0
 10
-198.5580918011028
 20
171.9992336004717
 10
-198.2633883203764
 20
171.9088807693575
 10
-197.9717939211684
 20
172.0084915821936
 10
-197.793777205134
 20
172.2606755236623
  0
LWPOLYLINE
  5
AB
330
1F
100
AcDbEntity
  8
0
  6
CONTINUOUS
 62
     7
100
AcDbPolyline
 90
        4
 70
     0
 43
0.0
 10
303.7543886700093
 20
261.953490295119
 10
303.5761278240914
 20
261.6830298459247
 10
303.5175802272614
 20
261.3695137035651
 10
303.6365569435471
 20
261.1025222629696
210
0.0
220
0.0
230
-1.0
  0
LWPOLYLINE
  5
AC
330
1F
100
AcDbEntity
  8
0
  6
CONTINUOUS
 62
     7
100
AcDbPolyline
 90
        4
 70
     0
 43
0.0
 10
221.3325466857518
 20
163.7269640021481
 10
221.4815601849751
 20
164.014576172988
 10
221.5070156913733
 20
164.3324947314402
 10
221.360782536997
 20
164.5855871116707
210
0.0
220
0.0
230
-1.0
  0
LWPOLYLINE
  5
AD
330
1F
100
AcDbEntity
  8
0
  6
CONTINUOUS
 62
     7
100
AcDbPolyline
 90
        4
 70
     0
 43
0.0
 10
315.7458043940538
 20
184.6477428307566
 10
315.7205652376642
 20
184.3365939716562
 10
315.8805975534074
 20
184.0626074321598
 10
316.1208326089362
 20
183.8748361445751
210
0.0
220
0.0
230
-1.0
  0
LWPOLYLINE
  5
AE
330
1F
100
AcDbEntity
  8
0
  6
CONTINUOUS
 62
     7
100
AcDbPolyline
 90
        4
 70
     0
 43
0.0
 10
317.8624969155107
 20
164.6744295748792
 10
318.1461343169616
 20
164.5537702360587
 10
318.4465445074233
 20
164.6223531676533
 10
318.6081005802702
 20
164.7768111641616
210
0.0
220
0.0
230
-1.0
  0
LWPOLYLINE
  5
AF
330
1F
100
AcDbEntity
  8
0
  6
CONTINUOUS
 62
     7
100
AcDbPolyline
 90
        4
 70
     0
 43
0.0
 10
-315.0003742117687
 20
248.0658547271661
 10
-314.6987614584142
 20
247.9477211977182
 10
-314.3799236661239
 20
247.9556366776067
 10
-314.1435032793395
 20
248.127524109033
  0
LWPOLYLINE
  5
B0
330
1F
100
AcDbEntity
  8
0
  6
CONTINUOUS
 62
     7
100
AcDbPolyline
 90
        4
 70
     0
 43
0.0
 10
-315.7458043940538
 20
245.3522571693234
 10
-315.7205652376642
 20
245.6634060284236
 10
-315.8805975534074
 20
245.9373925679199
 10
-316.1208326089362
 20
246.125163855505
  0
LWPOLYLINE
  5
B1
330
1F
100
AcDbEntity
  8
0
  6
CONTINUOUS
 62
     7
100
AcDbPolyline
 90
        4
 70
     0
 43
0.0
 10
-202.0766043305485
 20
164.6744295748792
 10
-201.7929669290976
 20
164.5537702360587
 10
-201.492556738636
 20
164.6223531676533
 10
-201.3310006657891
 20
164.7768111641616
  0
LWPOLYLINE
  5
B2
330
1F
100
AcDbEntity
  8
0
  6
CONTINUOUS
 62
     7
100
AcDbPolyline
 90
        4
 70
     0
 43
0.0
 10
198.5580918011028
 20
258.0007663996083
 10
198.2633883203764
 20
258.0911192307225
 10
197.9717939211684
 20
257.9915084178865
 10
197.793777205134
 20
257.7393244764177
210
0.0
220
0.0
230
-1.0
  0
LWPOLYLINE
  5
B3
330
1F
100
AcDbEntity
  8
0
  6
CONTINUOUS
 62
     7
100
AcDbPolyline
 90
        4
 70
     0
 43
0.0
 10
201.7838686626218
 20
242.1324290931492
 10
202.0961774660488
 20
242.0464698291463
 10
202.4124412386036
 20
242.0876695716675
 10
202.6295993607101
 20
242.2833280454751
210
0.0
220
0.0
230
-1.0
  0
LWPOLYLINE
  5
B4
330
1F
100
AcDbEntity
  8
0
  6
CONTINUOUS
 62
     7
100
AcDbPolyline
 90
        4
 70
     0
 43
0.0
 10
287.1019797161389
 20
273.1856819604477
 10
287.0160204521359
 20
272.8733731570207
 10
287.0572201946571
 20
272.557109384466
 10
287.2528786684648
 20
272.3399512623594
210
0.0
220
0.0
230
-1.0
  0
LWPOLYLINE
  5
B5
330
1F
100
AcDbEntity
  8
0
  6
CONTINUOUS
 62
     7
100
AcDbPolyline
 90
        4
 70
     0
 43
0.0
 10
-201.326170207519
 20
190.644221764851
 10
-201.3187471890799
 20
190.3321392015252
 10
-201.1309521551773
 20
190.0763815209975
 10
-200.8724056882818
 20
189.9147502653504
  0
LWPOLYLINE
  5
B6
330
1F
100
AcDbEntity
  8
0
  6
CONTINUOUS
 62
     7
100
AcDbPolyline
 90
        4
 70
     0
 43
0.0
 10
232.8371215299203
 20
156.814318039632
 10
232.9230807939234
 20
157.1266268430591
 10
232.881881051402
 20
157.4428906156141
 10
232.6862225775944
 20
157.6600487377204
210
0.0
220
0.0
230
-1.0
  0
LWPOLYLINE
  5
B7
330
1F
100
AcDbEntity
  8
0
  6
CONTINUOUS
 62
     7
100
AcDbPolyline
 90
        4
 70
     0
 43
0.0
 10
-318.1552325834373
 20
242.1324290931492
 10
-317.8429237800104
 20
242.0464698291463
 10
-317.5266600074556
 20
242.0876695716675
 10
-317.3095018853491
 20
242.2833280454751
  0
LWPOLYLINE
  5
B8
330
1F
100
AcDbEntity
  8
0
  6
CONTINUOUS
 62
     7
100
AcDbPolyline
 90
        4
 70
     0
 43
0.0
 10
-204.1932968520054
 20
184.6477428307566
 10
-204.218536008395
 20
184.3365939716562
 10
-204.0585036926519
 20
184.0626074321598
 10
-203.818268637123
 20
183.8748361445751
  0
LWPOLYLINE
  5
B9
330
1F
100
AcDbEntity
  8
0
  6
CONTINUOUS
 62
     7
100
AcDbPolyline
 90
        4
 70
     0
 43
0.0
 10
-287.1019797161389
 20
156.814318039632
 10
-287.0160204521358
 20
157.1266268430591
 10
-287.0572201946571
 20
157.4428906156141
 10
-287.2528786684647
 20
157.6600487377204
  0
LWPOLYLINE
  5
BA
330
1F
100
AcDbEntity
  8
0
  6
CONTINUOUS
 62
     7
100
AcDbPolyline
 90
        4
 70
     0
 43
0.0
 10
201.326170207519
 20
239.355778235229
 10
201.3187471890799
 20
239.6678607985548
 10
201.1309521551773
 20
239.9236184790822
 10
200.8724056882818
 20
240.0852497347293
210
0.0
220
0.0
230
-1.0
  0
LWPOLYLINE
  5
BB
330
1F
100
AcDbEntity
  8
0
  6
CONTINUOUS
 62
     7
100
AcDbPolyline
 90
        4
 70
     0
 43
0.0
 10
318.6129310385402
 20
190.644221764851
 10
318.6203540569793
 20
190.3321392015252
 10
318.808149090882
 20
190.0763815209975
 10
319.0666955577775
 20
189.9147502653504
210
0.0
220
0.0
230
-1.0
  0
LWPOLYLINE
  5
BC
330
1F
100
AcDbEntity
  8
0
  6
CONTINUOUS
 62
     7
100
AcDbPolyline
 90
        4
 70
     0
 43
0.0
 10
-284.3253288582187
 20
156.3566195845293
 10
-284.6374114215444
 20
156.3491965660902
 10
-284.893169102072
 20
156.1614015321876
 10
-285.0548003577191
 20
155.9028550652922
  0
LWPOLYLINE
  5
BD
330
1F
100
AcDbEntity
  8
0
  6
CONTINUOUS
 62
     7
100
AcDbPolyline
 90
        4
 70
     0
 43
0.0
 10
-290.3218077923129
 20
159.2237462290159
 10
-290.6329566514132
 20
159.2489853854055
 10
-290.9069431909097
 20
159.0889530696621
 10
-291.0947144784944
 20
158.8487180141334
  0
LWPOLYLINE
  5
BE
330
1F
100
AcDbEntity
  8
0
  6
CONTINUOUS
 62
     7
100
AcDbPolyline
 90
        4
 70
     0
 43
0.0
 10
-235.6137723878406
 20
273.6433804155507
 10
-235.3016898245149
 20
273.6508034339895
 10
-235.0459321439873
 20
273.8385984678924
 10
-234.8843008883401
 20
274.0971449347878
  0
LWPOLYLINE
  5
BF
330
1F
100
AcDbEntity
  8
0
  6
CONTINUOUS
 62
     7
100
AcDbPolyline
 90
        4
 70
     0
 43
0.0
 10
-278.0620029210054
 20
154.1320020877917
 10
-278.3715999466853
 20
154.0919982226671
 10
-278.6063266335754
 20
153.8784979922952
 10
-278.7400469914245
 20
153.6044728032285
  0
LWPOLYLINE
  5
C0
330
1F
100
AcDbEntity
  8
0
  6
CONTINUOUS
 62
     7
100
AcDbPolyline
 90
        4
 70
     0
 43
0.0
 10
270.9995527416975
 20
278.4389480670915
 10
270.7907175844355
 20
278.2214836380822
 10
270.7460169977405
 20
277.9164433204302
 10
270.8781147481935
 20
277.653911135284
210
0.0
220
0.0
230
-1.0
  0
LWPOLYLINE
  5
C1
330
1F
100
AcDbEntity
  8
0
  6
CONTINUOUS
 62
     7
100
AcDbPolyline
 90
        4
 70
     0
 43
0.0
 10
290.3218077923129
 20
270.7762537710642
 10
290.6329566514132
 20
270.7510146146745
 10
290.9069431909097
 20
270.9110469304176
 10
291.0947144784945
 20
271.1512819859466
210
0.0
220
0.0
230
-1.0
  0
LWPOLYLINE
  5
C2
330
1F
100
AcDbEntity
  8
0
  6
CONTINUOUS
 62
     7
100
AcDbPolyline
 90
        4
 70
     0
 43
0.0
 10
293.0354053501559
 20
270.030823588779
 10
292.9172718207079
 20
269.7292108354245
 10
292.9251873005965
 20
269.4103730431341
 10
293.0970747320226
 20
269.1739526563496
210
0.0
220
0.0
230
-1.0
  0
LWPOLYLINE
  5
C3
330
1F
100
AcDbEntity
  8
0
  6
CONTINUOUS
 62
     7
100
AcDbPolyline
 90
        4
 70
     0
 43
0.0
 10
199.1015527107813
 20
233.0924522980158
 10
199.0615488456567
 20
233.4020493236955
 10
198.8480486152848
 20
233.6367760105857
 10
198.5740234262183
 20
233.7704963684349
210
0.0
220
0.0
230
-1.0
  0
LWPOLYLINE
  5
C4
330
1F
100
AcDbEntity
  8
0
  6
CONTINUOUS
 62
     7
100
AcDbPolyline
 90
        4
 70
     0
 43
0.0
 10
318.1552325834373
 20
187.8675709069305
 10
317.8429237800104
 20
187.9535301709338
 10
317.5266600074556
 20
187.9123304284125
 10
317.3095018853491
 20
187.7166719546047
210
0.0
220
0.0
230
-1.0
  0
LWPOLYLINE
  5
C5
330
1F
100
AcDbEntity
  8
0
  6
CONTINUOUS
 62
     7
100
AcDbPolyline
 90
        4
 70
     0
 43
0.0
 10
320.837548535278
 20
196.9075477020642
 10
320.8775524004025
 20
196.5979506763842
 10
321.0910526307745
 20
196.3632239894941
 10
321.365077819841
 20
196.2295036316452
210
0.0
220
0.0
230
-1.0
  0
LWPOLYLINE
  5
C6
330
1F
100
AcDbEntity
  8
0
  6
CONTINUOUS
 62
     7
100
AcDbPolyline
 90
        4
 70
     0
 43
0.0
 10
226.9036958959033
 20
159.9691764113007
 10
227.0218294253513
 20
160.2707891646555
 10
227.0139139454628
 20
160.5896269569456
 10
226.8420265140366
 20
160.82604734373
210
0.0
220
0.0
230
-1.0
  0
LWPOLYLINE
  5
C7
330
1F
100
AcDbEntity
  8
0
  6
CONTINUOUS
 62
     7
100
AcDbPolyline
 90
        4
 70
     0
 43
0.0
 10
248.9395485043618
 20
151.5610519329885
 10
249.1483836616238
 20
151.7785163619978
 10
249.1930842483187
 20
152.0835566796495
 10
249.0609864978658
 20
152.3460888647958
210
0.0
220
0.0
230
-1.0
  0
LWPOLYLINE
  5
C8
330
1F
100
AcDbEntity
  8
0
  6
CONTINUOUS
 62
     7
100
AcDbPolyline
 90
        4
 70
     0
 43
0.0
 10
235.6137723878406
 20
156.3566195845293
 10
235.3016898245148
 20
156.3491965660902
 10
235.0459321439873
 20
156.1614015321876
 10
234.8843008883401
 20
155.9028550652922
210
0.0
220
0.0
230
-1.0
  0
LWPOLYLINE
  5
C9
330
1F
100
AcDbEntity
  8
0
  6
CONTINUOUS
 62
     7
100
AcDbPolyline
 90
        4
 70
     0
 43
0.0
 10
315.0003742117687
 20
181.9341452729136
 10
314.6987614584142
 20
182.0522788023615
 10
314.3799236661239
 20
182.0443633224732
 10
314.1435032793395
 20
181.872475891047
210
0.0
220
0.0
230
-1.0
  0
LWPOLYLINE
  5
CA
330
1F
100
AcDbEntity
  8
0
  6
CONTINUOUS
 62
     7
100
AcDbPolyline
 90
        4
 70
     0
 43
0.0
 10
-318.6129310385402
 20
239.355778235229
 10
-318.6203540569793
 20
239.6678607985548
 10
-318.808149090882
 20
239.9236184790822
 10
-319.0666955577775
 20
240.0852497347293
  0
LWPOLYLINE
  5
CB
330
1F
100
AcDbEntity
  8
0
  6
CONTINUOUS
 62
     7
100
AcDbPolyline
 90
        4
 70
     0
 43
0.0
 10
-201.7838686626218
 20
187.8675709069305
 10
-202.0961774660488
 20
187.9535301709338
 10
-202.4124412386036
 20
187.9123304284125
 10
-202.6295993607101
 20
187.7166719546047
  0
LWPOLYLINE
  5
CC
330
1F
100
AcDbEntity
  8
0
  6
CONTINUOUS
 62
     7
100
AcDbPolyline
 90
        4
 70
     0
 43
0.0
 10
-270.9995527416975
 20
151.5610519329885
 10
-270.7907175844354
 20
151.7785163619978
 10
-270.7460169977405
 20
152.0835566796495
 10
-270.8781147481935
 20
152.3460888647958
  0
LWPOLYLINE
  5
CD
330
1F
100
AcDbEntity
  8
0
  6
CONTINUOUS
 62
     7
100
AcDbPolyline
 90
        4
 70
     0
 43
0.0
 10
204.1932968520054
 20
245.3522571693234
 10
204.218536008395
 20
245.6634060284236
 10
204.0585036926519
 20
245.9373925679199
 10
203.818268637123
 20
246.125163855505
210
0.0
220
0.0
230
-1.0
  0
LWPOLYLINE
  5
CE
330
1F
100
AcDbEntity
  8
0
  6
CONTINUOUS
 62
     7
100
AcDbPolyline
 90
        4
 70
     0
 43
0.0
 10
284.3253288582187
 20
273.6433804155507
 10
284.6374114215444
 20
273.6508034339895
 10
284.893169102072
 20
273.8385984678924
 10
285.054800357719
 20
274.0971449347878
210
0.0
220
0.0
230
-1.0
  0
LWPOLYLINE
  5
CF
330
1F
100
AcDbEntity
  8
0
  6
CONTINUOUS
 62
     7
100
AcDbPolyline
 90
        4
 70
     0
 43
0.0
 10
-323.408498690081
 20
226.0300021187077
 10
-323.1910342610718
 20
225.8211669614457
 10
-322.88599394342
 20
225.7764663747506
 10
-322.6234617582737
 20
225.9085641252037
  0
LWPOLYLINE
  5
D0
330
1F
100
AcDbEntity
  8
0
  6
CONTINUOUS
 62
     7
100
AcDbPolyline
 90
        4
 70
     0
 43
0.0
 10
-239.0678157349071
 20
275.7030458244216
 10
-239.1206589457807
 20
275.3834626915273
 10
-239.0466263336274
 20
275.0732379907826
 10
-238.8293404926214
 20
274.877721363183
  0
LWPOLYLINE
  5
D1
330
1F
100
AcDbEntity
  8
0
  6
CONTINUOUS
 62
     7
100
AcDbPolyline
 90
        4
 70
     0
 43
0.0
 10
-226.9036958959034
 20
270.030823588779
 10
-227.0218294253514
 20
269.7292108354245
 10
-227.0139139454628
 20
269.4103730431341
 10
-226.8420265140366
 20
269.1739526563496
  0
LWPOLYLINE
  5
D2
330
1F
100
AcDbEntity
  8
0
  6
CONTINUOUS
 62
     7
100
AcDbPolyline
 90
        4
 70
     0
 43
0.0
 10
-293.0354053501559
 20
159.9691764113007
 10
-292.9172718207079
 20
160.2707891646555
 10
-292.9251873005965
 20
160.5896269569456
 10
-293.0970747320226
 20
160.82604734373
  0
LWPOLYLINE
  5
D3
330
1F
100
AcDbEntity
  8
0
  6
CONTINUOUS
 62
     7
100
AcDbPolyline
 90
        4
 70
     0
 43
0.0
 10
204.9387270342905
 20
248.0658547271661
 10
205.240339787645
 20
247.9477211977182
 10
205.5591775799354
 20
247.9556366776067
 10
205.7955979667198
 20
248.127524109033
210
0.0
220
0.0
230
-1.0
  0
LWPOLYLINE
  5
D4
330
1F
100
AcDbEntity
  8
0
  6
CONTINUOUS
 62
     7
100
AcDbPolyline
 90
        4
 70
     0
 43
0.0
 10
-204.9387270342905
 20
181.9341452729136
 10
-205.240339787645
 20
182.0522788023618
 10
-205.5591775799354
 20
182.0443633224732
 10
-205.7955979667198
 20
181.872475891047
  0
LWPOLYLINE
  5
D5
330
1F
100
AcDbEntity
  8
0
  6
CONTINUOUS
 62
     7
100
AcDbPolyline
 90
        4
 70
     0
 43
0.0
 10
-232.8371215299203
 20
273.1856819604477
 10
-232.9230807939234
 20
272.8733731570207
 10
-232.8818810514021
 20
272.557109384466
 10
-232.6862225775944
 20
272.3399512623594
  0
LWPOLYLINE
  5
D6
330
1F
100
AcDbEntity
  8
0
  6
CONTINUOUS
 62
     7
100
AcDbPolyline
 90
        4
 70
     0
 43
0.0
 10
-199.1015527107813
 20
196.9075477020642
 10
-199.0615488456568
 20
196.5979506763842
 10
-198.8480486152848
 20
196.3632239894941
 10
-198.5740234262183
 20
196.2295036316452
  0
LWPOLYLINE
  5
D7
330
1F
100
AcDbEntity
  8
0
  6
CONTINUOUS
 62
     7
100
AcDbPolyline
 90
        4
 70
     0
 43
0.0
 10
-241.8770983250537
 20
275.8679979122884
 10
-241.567501299374
 20
275.9080017774126
 10
-241.3327746124838
 20
276.1215020077848
 10
-241.1990542546347
 20
276.3955271968515
  0
LWPOLYLINE
  5
D8
330
1F
100
AcDbEntity
  8
0
  6
CONTINUOUS
 62
     7
100
AcDbPolyline
 90
        4
 70
     0
 43
0.0
 10
229.6172934537463
 20
159.2237462290159
 10
229.306144594646
 20
159.2489853854055
 10
229.0321580551496
 20
159.0889530696621
 10
228.8443867675647
 20
158.8487180141334
210
0.0
220
0.0
230
-1.0
  0
MTEXT
  5
D9
330
1F
100
AcDbEntity
  8
0
 62
     7
100
AcDbMText
 10
101.1703763911467
 20
81.5
 30
0.0
 40
5.0
 41
0.0
 71
     1
 72
     1
  1
{\fＭＳ ゴシック;ＫＦＥＶＰＣ－１３０Ｓ}
  0
ARC
  5
DA
330
1F
100
AcDbEntity
  8
0
  6
CONTINUOUS
 62
     7
100
AcDbCircle
 10
-296.769550623027
 20
251.800000000038
 30
0.0
 40
56.19999999999789
100
AcDbArc
 50
89.99999999999982
 51
180.0
  0
LINE
  5
DB
330
1F
100
AcDbEntity
  8
0
  6
CONTINUOUS
 62
     7
100
AcDbLine
 10
-355.9695506230241
 20
219.9978183246297
 30
0.0
 11
-355.9695506230241
 21
210.0021816754503
 31
0.0
  0
ELLIPSE
  5
DC
330
1F
100
AcDbEntity
  8
0
  6
CONTINUOUS
 62
     7
100
AcDbEllipse
 10
-79.34568653590141
 20
178.2000000000639
 30
0.0
 11
-200.8491145453872
 21
0.0
 31
0.0
210
0.0
220
0.0
230
1.0
 40
0.2678999460549337
 41
1.861013817047027
 42
1.908904018566068
  0
ARC
  5
DD
330
1F
100
AcDbEntity
  8
0
  6
CONTINUOUS
 62
     7
100
AcDbCircle
 10
216.7000125004884
 20
306.4999999999336
 30
0.0
 40
0.9999999999991127
100
AcDbArc
 50
90.0
 51
180.0
  0
ARC
  5
DE
330
1F
100
AcDbEntity
  8
0
  6
CONTINUOUS
 62
     7
100
AcDbCircle
 10
-264.9673689476182
 20
119.5000000000448
 30
0.0
 40
0.5000000000000004
100
AcDbArc
 50
269.499999999998
 51
270.0
  0
ARC
  5
DF
330
1F
100
AcDbEntity
  8
0
  6
CONTINUOUS
 62
     7
100
AcDbCircle
 10
223.1695506230307
 20
178.2000000000417
 30
0.0
 40
53.46369863013506
210
0.0
220
0.0
230
-1.0
100
AcDbArc
 50
201.6415821805742
 51
248.3584178194257
  0
LINE
  5
E0
330
1F
100
AcDbEntity
  8
0
  6
CONTINUOUS
 62
     7
100
AcDbLine
 10
-172.4084451969565
 20
268.6195937942802
 30
0.0
 11
-173.4745575020714
 21
271.5173712731472
 31
0.0
  0
ARC
  5
E1
330
1F
100
AcDbEntity
  8
0
  6
CONTINUOUS
 62
     7
100
AcDbCircle
 10
296.7695506230271
 20
178.2000000000417
 30
0.0
 40
53.52534246575158
210
0.0
220
0.0
230
-1.0
100
AcDbArc
 50
286.1091928645987
 51
343.8908071354016
  0
LINE
  5
E2
330
1F
100
AcDbEntity
  8
0
  6
CONTINUOUS
 62
     7
100
AcDbLine
 10
-316.4869218961367
 20
128.5050068790828
 30
0.0
 11
-313.5891444172697
 21
127.4388945739677
 31
0.0
  0
ARC
  5
E3
330
1F
100
AcDbEntity
  8
0
  6
CONTINUOUS
 62
     7
100
AcDbCircle
 10
-259.9695506230295
 20
215.0000000000399
 30
0.0
 40
63.49999999999994
100
AcDbArc
 50
43.44590293478433
 51
46.55409706521549
  0
ARC
  5
E4
330
1F
100
AcDbEntity
  8
0
  6
CONTINUOUS
 62
     7
100
AcDbCircle
 10
296.7695506230272
 20
251.800000000038
 30
0.0
 40
53.46369863013517
210
0.0
220
0.0
230
-1.0
100
AcDbArc
 50
21.6415821805742
 51
68.35841781942577
  0
ARC
  5
E5
330
1F
100
AcDbEntity
  8
0
  6
CONTINUOUS
 62
     7
100
AcDbCircle
 10
-259.9695506230295
 20
215.0000000000399
 30
0.0
 40
63.5
100
AcDbArc
 50
223.4459029347844
 51
226.5540970652156
  0
ARC
  5
E6
330
1F
100
AcDbEntity
  8
0
  6
CONTINUOUS
 62
     7
100
AcDbCircle
 10
-259.9695506230295
 20
215.0000000000399
 30
0.0
 40
63.5
100
AcDbArc
 50
133.4459029347844
 51
136.5540970652155
  0
LINE
  5
E7
330
1F
100
AcDbEntity
  8
0
  6
CONTINUOUS
 62
     7
100
AcDbLine
 10
-164.2551559120514
 20
177.2728754616591
 30
0.0
 11
-163.9695696615011
 21
209.9978184077013
 31
0.0
  0
LWPOLYLINE
  5
E8
330
1F
100
AcDbEntity
  8
0
  6
CONTINUOUS
 62
     7
100
AcDbPolyline
 90
        5
 70
     0
 43
0.0
 10
10.49998749928382
 20
122.559007392078
 10
10.63409900063339
 20
122.2570556009439
 10
10.94772162462537
 20
122.0332068727737
 10
11.31768783729353
 20
121.8821135136003
 42
0.0566127051767381
 10
12.72353036397393
 20
121.6300829316981
210
0.0
220
0.0
230
-1.0
  0
ARC
  5
E9
330
1F
100
AcDbEntity
  8
0
  6
CONTINUOUS
 62
     7
100
AcDbCircle
 10
-215.2000125004899
 20
301.2499999999389
 30
0.0
 40
0.4999999999995008
210
0.0
220
0.0
230
-1.0
100
AcDbArc
 50
180.0
 51
270.0
  0
LWPOLYLINE
  5
EA
330
1F
100
AcDbEntity
  8
0
  6
CONTINUOUS
 62
     7
100
AcDbPolyline
 90
        5
 70
     0
 43
0.0
 10
-10.49998749928382
 20
301.4949931208959
 10
-10.60399523283601
 20
301.799139615148
 10
-10.84914892401484
 20
302.0314866667503
 10
-11.14928715134439
 20
302.1981859348579
 42
0.0794266663025424
 10
-12.72353036397394
 20
302.5611054260098
  0
LINE
  5
EB
330
1F
100
AcDbEntity
  8
0
  6
CONTINUOUS
 62
     7
100
AcDbLine
 10
-206.3499568287884
 20
127.4388945739677
 30
0.0
 11
-203.4521793499213
 21
128.5050068790828
 31
0.0
  0
ELLIPSE
  5
EC
330
1F
100
AcDbEntity
  8
0
  6
CONTINUOUS
 62
     7
100
AcDbEllipse
 10
-295.7377914729637
 20
251.800000000038
 30
0.0
 11
53.81735804299559
 21
6.694644838489693E-11
 31
0.0
210
0.0
220
0.0
230
1.0
 40
0.9998162100219914
 41
1.861013817045787
 42
1.908904018564829
  0
LWPOLYLINE
  5
ED
330
1F
100
AcDbEntity
  8
0
  6
CONTINUOUS
 62
     7
100
AcDbPolyline
 90
        6
 70
     0
 43
0.0
 10
12.72353036397394
 20
308.3699170683519
 42
0.0591684023489381
 10
11.29428591946563
 20
308.1100929569892
 10
10.95507195527368
 20
307.9706730154351
 10
10.65566020553488
 20
307.7651664266538
 10
10.50435920524023
 20
307.4968797980053
 10
10.49998749928382
 20
307.4409926079721
210
0.0
220
0.0
230
-1.0
  0
ELLIPSE
  5
EE
330
1F
100
AcDbEntity
  8
0
  6
CONTINUOUS
 62
     7
100
AcDbEllipse
 10
-73.94025370496854
 20
252.2166222117139
 30
0.0
 11
218.3249722425606
 21
0.0
 31
0.0
210
0.0
220
0.0
230
-1.0
 40
0.2679491924311337
 41
4.953206049891365
 42
4.996592152157252
  0
ARC
  5
EF
330
1F
100
AcDbEntity
  8
0
  6
CONTINUOUS
 62
     7
100
AcDbCircle
 10
-222.7529284113027
 20
177.783377788314
 30
0.0
 40
58.49999999999794
100
AcDbArc
 50
270.4999999999999
 51
359.5000000000001
  0
ARC
  5
F0
330
1F
100
AcDbEntity
  8
0
  6
CONTINUOUS
 62
     7
100
AcDbCircle
 10
-264.9673689476183
 20
310.5000000000351
 30
0.0
 40
0.4999999999999449
100
AcDbArc
 50
89.99999999999841
 51
90.50000000000199
  0
ELLIPSE
  5
F1
330
1F
100
AcDbEntity
  8
0
  6
CONTINUOUS
 62
     7
100
AcDbEllipse
 10
-73.94025370496854
 20
252.2166222117139
 30
0.0
 11
218.3249722425606
 21
0.0
 31
0.0
210
0.0
220
0.0
230
-1.0
 40
0.2679491924311337
 41
4.953206049891365
 42
4.996592152157252
  0
LWPOLYLINE
  5
F2
330
1F
100
AcDbEntity
  8
0
  6
CONTINUOUS
 62
     7
100
AcDbPolyline
 90
        6
 70
     0
 43
0.0
 10
-12.72353036397394
 20
127.4388945740406
 42
0.0658830089105063
 10
-11.30024494557269
 20
127.7390919659331
 10
-10.96157787229746
 20
127.8976236749274
 10
-10.70862325920724
 20
128.0817438728577
 10
-10.51798108599006
 20
128.3766130061124
 10
-10.49998749928385
 20
128.5050068791543
  0
LINE
  5
F3
330
1F
100
AcDbEntity
  8
0
  6
CONTINUOUS
 62
     7
100
AcDbLine
 10
-203.4521793499212
 20
301.4949931209972
 30
0.0
 11
-206.3499568287883
 21
302.5611054261119
 31
0.0
  0
LINE
  5
F4
330
1F
100
AcDbEntity
  8
0
  6
CONTINUOUS
 62
     7
100
AcDbLine
 10
-313.5891444172696
 20
302.561105426112
 30
0.0
 11
-316.4869218961366
 21
301.4949931209973
 31
0.0
  0
LINE
  5
F5
330
1F
100
AcDbEntity
  8
0
  6
CONTINUOUS
 62
     7
100
AcDbLine
 10
-166.9695506230337
 20
178.2000000000417
 30
0.0
 11
-166.9695506230337
 21
251.800000000038
 31
0.0
  0
ARC
  5
F6
330
1F
100
AcDbEntity
  8
0
  6
CONTINUOUS
 62
     7
100
AcDbCircle
 10
223.1695506230306
 20
178.2000000000417
 30
0.0
 40
53.52534246575158
210
0.0
220
0.0
230
-1.0
100
AcDbArc
 50
196.1091928645986
 51
253.8908071354014
  0
ELLIPSE
  5
F7
330
1F
100
AcDbEntity
  8
0
  6
CONTINUOUS
 62
     7
100
AcDbEllipse
 10
-295.7377914729638
 20
178.2000000000417
 30
0.0
 11
53.81735804299548
 21
3.275157922644212E-11
 31
0.0
210
0.0
220
0.0
230
1.0
 40
0.9998162100219934
 41
4.374281288612904
 42
4.422171490131945
  0
ARC
  5
F8
330
1F
100
AcDbEntity
  8
0
  6
CONTINUOUS
 62
     7
100
AcDbCircle
 10
-259.9695506230295
 20
215.0000000000399
 30
0.0
 40
63.5
100
AcDbArc
 50
313.4459029347843
 51
316.5540970652156
  0
LINE
  5
F9
330
1F
100
AcDbEntity
  8
0
  6
CONTINUOUS
 62
     7
100
AcDbLine
 10
-355.6839453340059
 20
252.7271245384209
 30
0.0
 11
-355.9695315845562
 21
220.0021815923786
 31
0.0
  0
LINE
  5
FA
330
1F
100
AcDbEntity
  8
0
  6
CONTINUOUS
 62
     7
100
AcDbLine
 10
-171.6067874505008
 20
266.1516126864614
 30
0.0
 11
-171.612222563297
 21
266.1686497733064
 31
0.0
  0
LINE
  5
FB
330
1F
100
AcDbEntity
  8
0
  6
CONTINUOUS
 62
     7
100
AcDbLine
 10
-348.332313795557
 20
163.8483873136185
 30
0.0
 11
-348.3268786827608
 21
163.8313502267733
 31
0.0
  0
LINE
  5
FC
330
1F
100
AcDbEntity
  8
0
  6
CONTINUOUS
 62
     7
100
AcDbLine
 10
-254.9673690306898
 20
119.0000190385128
 30
0.0
 11
-222.2424260846479
 21
119.285605289063
 31
0.0
  0
LINE
  5
FD
330
1F
100
AcDbEntity
  8
0
  6
CONTINUOUS
 62
     7
100
AcDbLine
 10
216.7000125004884
 20
122.5000000001175
 30
0.0
 11
222.5000125004826
 21
122.5000000001175
 31
0.0
  0
LINE
  5
FE
330
1F
100
AcDbEntity
  8
0
  6
CONTINUOUS
 62
     7
100
AcDbLine
 10
-208.3179379366105
 20
126.7763489561052
 30
0.0
 11
-208.8179379366072
 21
126.6372368275122
 31
0.0
  0
ARC
  5
FF
330
1F
100
AcDbEntity
  8
0
  6
CONTINUOUS
 62
     7
100
AcDbCircle
 10
-355.4695506230241
 20
210.0021816754502
 30
0.0
 40
0.5000000000000004
100
AcDbArc
 50
179.999999999998
 51
180.5000000000005
  0
ELLIPSE
  5
100
330
1F
100
AcDbEntity
  8
0
  6
CONTINUOUS
 62
     7
100
AcDbEllipse
 10
-296.7695506230267
 20
179.2317591501048
 30
0.0
 11
3.599620601590914E-9
 21
53.81735804299392
 31
0.0
210
0.0
220
0.0
230
1.0
 40
0.9998162100220159
 41
1.861013817113901
 42
1.908904018632943
  0
LINE
  5
101
330
1F
100
AcDbEntity
  8
0
  6
CONTINUOUS
 62
     7
100
AcDbLine
 10
-347.5306560491014
 20
161.3804062057995
 30
0.0
 11
-346.4645437439866
 21
158.4826287269325
 31
0.0
  0
ARC
  5
102
330
1F
100
AcDbEntity
  8
0
  6
CONTINUOUS
 62
     7
100
AcDbCircle
 10
223.1695506230306
 20
251.800000000038
 30
0.0
 40
53.52534246575158
210
0.0
220
0.0
230
-1.0
100
AcDbArc
 50
106.1091928645987
 51
163.8908071354015
  0
ARC
  5
103
330
1F
100
AcDbEntity
  8
0
  6
CONTINUOUS
 62
     7
100
AcDbCircle
 10
-296.769550623027
 20
178.2000000000417
 30
0.0
 40
56.19999999999789
100
AcDbArc
 50
180.0
 51
270.0000000000002
  0
LWPOLYLINE
  5
104
330
1F
100
AcDbEntity
  8
0
  6
CONTINUOUS
 62
     7
100
AcDbPolyline
 90
        5
 70
     0
 43
0.0
 10
10.49998749928382
 20
122.559007392078
 10
10.63899970660226
 20
122.2517845649841
 10
10.90385484033118
 20
122.0563377710616
 10
11.21841929844269
 20
121.9163051376456
 42
0.0646162991040042
 10
12.72353036397392
 20
121.6300829316981
210
0.0
220
0.0
230
-1.0
  0
LINE
  5
105
330
1F
100
AcDbEntity
  8
0
  6
CONTINUOUS
 62
     7
100
AcDbLine
 10
-297.6966751614095
 20
119.2856052890631
 30
0.0
 11
-264.9717322153674
 21
119.0000190385128
 31
0.0
  0
ARC
  5
106
330
1F
100
AcDbEntity
  8
0
  6
CONTINUOUS
 62
     7
100
AcDbCircle
 10
-297.1861728347547
 20
252.2166222117659
 30
0.0
 40
58.49999999999805
100
AcDbArc
 50
90.49999999999997
 51
179.5
  0
ELLIPSE
  5
107
330
1F
100
AcDbEntity
  8
0
  6
CONTINUOUS
 62
     7
100
AcDbEllipse
 10
-223.1695506230303
 20
179.2317591501048
 30
0.0
 11
3.633815470749369E-9
 21
53.81735804299409
 31
0.0
210
0.0
220
0.0
230
1.0
 40
0.999816210022015
 41
4.374281288681022
 42
4.422171490200062
  0
LINE
  5
108
330
1F
100
AcDbEntity
  8
0
  6
CONTINUOUS
 62
     7
100
AcDbLine
 10
-171.745899579094
 20
266.651612686458
 30
0.0
 11
-171.6067874505008
 21
266.1516126864614
 31
0.0
  0
LINE
  5
109
330
1F
100
AcDbEntity
  8
0
  6
CONTINUOUS
 62
     7
100
AcDbLine
 10
-352.9695506230242
 20
251.800000000038
 30
0.0
 11
-352.9695506230242
 21
178.2000000000417
 31
0.0
  0
ELLIPSE
  5
10A
330
1F
100
AcDbEntity
  8
0
  6
CONTINUOUS
 62
     7
100
AcDbEllipse
 10
-224.201309773093
 20
178.2000000000417
 30
0.0
 11
-53.81735804299258
 21
6.694644838489693E-11
 31
0.0
210
0.0
220
0.0
230
1.0
 40
0.9998162100220429
 41
1.86101381704827
 42
1.908904018567312
  0
ARC
  5
10B
330
1F
100
AcDbEntity
  8
0
  6
CONTINUOUS
 62
     7
100
AcDbCircle
 10
223.1695506230307
 20
251.800000000038
 30
0.0
 40
53.46369863013517
210
0.0
220
0.0
230
-1.0
100
AcDbArc
 50
111.6415821805743
 51
158.3584178194259
  0
LINE
  5
10C
330
1F
100
AcDbEntity
  8
0
  6
CONTINUOUS
 62
     7
100
AcDbLine
 10
-222.2424260846478
 20
310.7143947110169
 30
0.0
 11
-254.9673690306898
 21
310.999980961567
 31
0.0
  0
ARC
  5
10D
330
1F
100
AcDbEntity
  8
0
  6
CONTINUOUS
 62
     7
100
AcDbCircle
 10
296.7695506230271
 20
251.800000000038
 30
0.0
 40
53.52534246575158
210
0.0
220
0.0
230
-1.0
100
AcDbArc
 50
16.10919286459855
 51
73.89080713540142
  0
LINE
  5
10E
330
1F
100
AcDbEntity
  8
0
  6
CONTINUOUS
 62
     7
100
AcDbLine
 10
-346.4645437439865
 20
271.5173712731475
 30
0.0
 11
-347.5306560491014
 21
268.6195937942804
 31
0.0
  0
LWPOLYLINE
  5
10F
330
1F
100
AcDbEntity
  8
0
  6
CONTINUOUS
 62
     7
100
AcDbPolyline
 90
        5
 70
     0
 43
0.0
 10
-12.72353036397394
 20
127.4388945740406
 42
0.0838580452394233
 10
-11.05025674351406
 20
127.8493822086786
 10
-10.74994415339192
 20
128.0445667663059
 10
-10.54040050700311
 20
128.3133955435218
 10
-10.49998749928382
 20
128.5050068791543
  0
ARC
  5
110
330
1F
100
AcDbEntity
  8
0
  6
CONTINUOUS
 62
     7
100
AcDbCircle
 10
-223.1695506230306
 20
251.800000000038
 30
0.0
 40
56.19999999999767
100
AcDbArc
 50
0.0
 51
89.99999999999982
  0
LINE
  5
111
330
1F
100
AcDbEntity
  8
0
  6
________________
 62
     1
100
AcDbLine
 10
128.1666708335874
 20
131.666666666675
 30
0.0
 11
255.1666708334662
 21
131.666666666675
 31
0.0
  0
LINE
  5
113
330
1F
100
AcDbEntity
  8
0
  6
CONTINUOUS
 62
     7
100
AcDbLine
 10
215.2000125004899
 20
300.7499999999394
 30
0.0
 11
211.0000125004941
 21
300.7499999999394
 31
0.0
  0
LINE
  5
114
330
1F
100
AcDbEntity
  8
0
  6
CONTINUOUS
 62
     7
100
AcDbLine
 10
-208.8179379366072
 20
126.6372368275122
 30
0.0
 11
-208.8009008497622
 21
126.6426719403081
 31
0.0
  0
ELLIPSE
  5
115
330
1F
100
AcDbEntity
  8
0
  6
CONTINUOUS
 62
     7
100
AcDbEllipse
 10
-79.34568653590141
 20
178.2000000000639
 30
0.0
 11
-200.8491145453872
 21
0.0
 31
0.0
210
0.0
220
0.0
230
1.0
 40
0.2678999460549337
 41
1.861013817047027
 42
1.908904018566068
  0
ELLIPSE
  5
116
330
1F
100
AcDbEntity
  8
0
  6
CONTINUOUS
 62
     7
100
AcDbEllipse
 10
-223.1695506230303
 20
250.7682408499752
 30
0.0
 11
3.599565090439682E-9
 21
-53.81735804299386
 31
0.0
210
0.0
220
0.0
230
1.0
 40
0.9998162100220171
 41
1.861013816980155
 42
1.908904018499197
  0
ARC
  5
117
330
1F
100
AcDbEntity
  8
0
  6
CONTINUOUS
 62
     7
100
AcDbCircle
 10
-259.9695506230295
 20
215.0000000000399
 30
0.0
 40
63.5
100
AcDbArc
 50
127.4459029347843
 51
130.5540970652158
  0
LINE
  5
118
330
1F
100
AcDbEntity
  8
0
  6
CONTINUOUS
 62
     7
100
AcDbLine
 10
-217.8500382960855
 20
263.4529563085122
 30
0.0
 11
-209.6439801978687
 21
272.8929462925209
 31
0.0
  0
ARC
  5
119
330
1F
100
AcDbEntity
  8
0
  6
CONTINUOUS
 62
     7
100
AcDbCircle
 10
-293.9695506230296
 20
249.0000000000399
 30
0.0
 40
29.50000000000008
100
AcDbArc
 50
146.6371989089823
 51
155.3283727242363
  0
LINE
  5
11A
330
1F
100
AcDbEntity
  8
0
  6
CONTINUOUS
 62
     7
100
AcDbLine
 10
-203.633338715534
 20
162.465632500452
 30
0.0
 11
-213.0160603279504
 21
171.2151619530603
 31
0.0
  0
LINE
  5
11B
330
1F
100
AcDbEntity
  8
0
  6
CONTINUOUS
 62
     7
100
AcDbLine
 10
-302.0890629499744
 20
263.4529563085131
 30
0.0
 11
-310.2951210481905
 21
272.8929462925209
 31
0.0
  0
LINE
  5
11C
330
1F
100
AcDbEntity
  8
0
  6
CONTINUOUS
 62
     7
100
AcDbLine
 10
-203.5951115706443
 20
161.7741196017045
 30
0.0
 11
-203.633338715534
 21
162.465632500452
 31
0.0
  0
ARC
  5
11D
330
1F
100
AcDbEntity
  8
0
  6
CONTINUOUS
 62
     7
100
AcDbCircle
 10
296.7695506230272
 20
178.2000000000417
 30
0.0
 40
53.46369863013517
210
0.0
220
0.0
230
-1.0
100
AcDbArc
 50
291.6415821805743
 51
338.3584178194258
  0
ARC
  5
11E
330
1F
100
AcDbEntity
  8
0
  6
CONTINUOUS
 62
     7
100
AcDbCircle
 10
-259.9695506230295
 20
215.0000000000399
 30
0.0
 40
63.5
100
AcDbArc
 50
307.4459029347844
 51
310.5540970652159
  0
LINE
  5
11F
330
1F
100
AcDbEntity
  8
0
  6
CONTINUOUS
 62
     7
100
AcDbLine
 10
-207.4351831234417
 20
271.3362119075355
 30
0.0
 11
-216.1847125760499
 21
261.953490295119
 31
0.0
  0
ARC
  5
120
330
1F
100
AcDbEntity
  8
0
  6
CONTINUOUS
 62
     7
100
AcDbCircle
 10
225.9695506230296
 20
181.0000000000398
 30
0.0
 40
29.49999999999997
210
0.0
220
0.0
230
-1.0
100
AcDbArc
 50
220.6717679034982
 51
229.3282320965019
  0
LINE
  5
121
330
1F
100
AcDbEntity
  8
0
  6
CONTINUOUS
 62
     7
100
AcDbLine
 10
-211.5165943145572
 20
172.8804876730959
 30
0.0
 11
-202.0766043305485
 21
164.6744295748791
 31
0.0
  0
ARC
  5
122
330
1F
100
AcDbEntity
  8
0
  6
CONTINUOUS
 62
     7
100
AcDbCircle
 10
-225.9695506230296
 20
181.0000000000398
 30
0.0
 40
29.5
100
AcDbArc
 50
326.6371989089823
 51
335.3283727242364
  0
LINE
  5
123
330
1F
100
AcDbEntity
  8
0
  6
CONTINUOUS
 62
     7
100
AcDbLine
 10
-214.2637484085199
 20
275.6536481468117
 30
0.0
 11
-221.3325466857519
 21
266.2730359979317
 31
0.0
  0
ARC
  5
124
330
1F
100
AcDbEntity
  8
0
  6
CONTINUOUS
 62
     7
100
AcDbCircle
 10
-223.1695506230306
 20
178.2000000000417
 30
0.0
 40
56.19999999999767
100
AcDbArc
 50
270.0000000000002
 51
0.0
  0
ARC
  5
125
330
1F
100
AcDbEntity
  8
0
  6
CONTINUOUS
 62
     7
100
AcDbCircle
 10
-355.4695506230241
 20
219.9978183246297
 30
0.0
 40
0.5000000000000004
100
AcDbArc
 50
179.4999999999997
 51
179.9999999999995
  0
LINE
  5
126
330
1F
100
AcDbEntity
  8
0
  6
CONTINUOUS
 62
     7
100
AcDbLine
 10
-296.7695506230269
 20
122.0000000000448
 30
0.0
 11
-223.1695506230304
 21
122.0000000000451
 31
0.0
  0
LINE
  5
127
330
1F
100
AcDbEntity
  8
0
  6
CONTINUOUS
 62
     7
100
AcDbLine
 10
-313.195431021365
 20
271.3744390524252
 30
0.0
 11
-312.5039181226175
 21
271.3362119075355
 31
0.0
  0
ARC
  5
128
330
1F
100
AcDbEntity
  8
0
  6
CONTINUOUS
 62
     7
100
AcDbCircle
 10
293.9695506230296
 20
249.0000000000399
 30
0.0
 40
29.50000000000008
210
0.0
220
0.0
230
-1.0
100
AcDbArc
 50
56.63719890898231
 51
65.32837272423632
  0
ARC
  5
129
330
1F
100
AcDbEntity
  8
0
  6
CONTINUOUS
 62
     7
100
AcDbCircle
 10
259.9695506230296
 20
215.0000000000399
 30
0.0
 40
63.5
210
0.0
220
0.0
230
-1.0
100
AcDbArc
 50
37.44590293478434
 51
40.55409706521559
  0
ELLIPSE
  5
12A
330
1F
100
AcDbEntity
  8
0
  6
CONTINUOUS
 62
     7
100
AcDbEllipse
 10
-296.7695506230267
 20
250.7682408499752
 30
0.0
 11
3.565425732432459E-9
 21
-53.81735804299403
 31
0.0
210
0.0
220
0.0
230
1.0
 40
0.9998162100220159
 41
4.374281288547277
 42
4.422171490066317
  0
LINE
  5
12B
330
1F
100
AcDbEntity
  8
0
  6
CONTINUOUS
 62
     7
100
AcDbLine
 10
-211.5165943145569
 20
257.1195123269844
 30
0.0
 11
-202.0766043305485
 21
265.3255704252009
 31
0.0
  0
ARC
  5
12C
330
1F
100
AcDbEntity
  8
0
  6
CONTINUOUS
 62
     7
100
AcDbCircle
 10
-293.9695506230296
 20
181.0000000000398
 30
0.0
 40
29.50000000000002
100
AcDbArc
 50
236.6371989089824
 51
245.3283727242363
  0
ARC
  5
12D
330
1F
100
AcDbEntity
  8
0
  6
CONTINUOUS
 62
     7
100
AcDbCircle
 10
225.9695506230296
 20
249.0000000000399
 30
0.0
 40
29.50000000000005
210
0.0
220
0.0
230
-1.0
100
AcDbArc
 50
130.6717679034982
 51
139.3282320965019
  0
ARC
  5
12E
330
1F
100
AcDbEntity
  8
0
  6
CONTINUOUS
 62
     7
100
AcDbCircle
 10
225.9695506230296
 20
181.0000000000398
 30
0.0
 40
29.49999999999997
210
0.0
220
0.0
230
-1.0
100
AcDbArc
 50
236.6371989089824
 51
245.3283727242363
  0
ARC
  5
12F
330
1F
100
AcDbEntity
  8
0
  6
CONTINUOUS
 62
     7
100
AcDbCircle
 10
-254.971732298439
 20
119.5000000000448
 30
0.0
 40
0.5000000000000004
100
AcDbArc
 50
269.9999999999968
 51
270.500000000002
  0
LINE
  5
130
330
1F
100
AcDbEntity
  8
0
  6
CONTINUOUS
 62
     7
100
AcDbLine
 10
-312.5039181226175
 20
271.3362119075355
 30
0.0
 11
-303.7543886700093
 21
261.953490295119
 31
0.0
  0
LINE
  5
131
330
1F
100
AcDbEntity
  8
0
  6
CONTINUOUS
 62
     7
100
AcDbLine
 10
-316.3057625305253
 20
267.5343674996277
 30
0.0
 11
-306.9230409181088
 21
258.7848380470197
 31
0.0
  0
LINE
  5
132
330
1F
100
AcDbEntity
  8
0
  6
CONTINUOUS
 62
     7
100
AcDbLine
 10
-312.5039181226175
 20
158.6637880925442
 30
0.0
 11
-303.7543886700092
 21
168.0465097049607
 31
0.0
  0
ARC
  5
133
330
1F
100
AcDbEntity
  8
0
  6
CONTINUOUS
 62
     7
100
AcDbCircle
 10
-259.9695506230295
 20
215.0000000000399
 30
0.0
 40
63.49999999999994
100
AcDbArc
 50
37.44590293478436
 51
40.55409706521562
  0
LINE
  5
134
330
1F
100
AcDbEntity
  8
0
  6
CONTINUOUS
 62
     7
100
AcDbLine
 10
-203.5951115706443
 20
268.2258803983752
 30
0.0
 11
-203.633338715534
 21
267.5343674996277
 31
0.0
  0
ARC
  5
135
330
1F
100
AcDbEntity
  8
0
  6
CONTINUOUS
 62
     7
100
AcDbCircle
 10
259.9695506230295
 20
215.0000000000399
 30
0.0
 40
63.5
210
0.0
220
0.0
230
-1.0
100
AcDbArc
 50
127.4459029347843
 51
130.5540970652155
  0
ARC
  5
136
330
1F
100
AcDbEntity
  8
0
  6
CONTINUOUS
 62
     7
100
AcDbCircle
 10
293.9695506230296
 20
249.0000000000399
 30
0.0
 40
29.50000000000002
210
0.0
220
0.0
230
-1.0
100
AcDbArc
 50
40.67176790349816
 51
49.32823209650187
  0
ARC
  5
137
330
1F
100
AcDbEntity
  8
0
  6
CONTINUOUS
 62
     7
100
AcDbCircle
 10
225.9695506230296
 20
181.0000000000398
 30
0.0
 40
29.5
210
0.0
220
0.0
230
-1.0
100
AcDbArc
 50
252.7675947562516
 51
261.5739816901919
  0
LINE
  5
138
330
1F
100
AcDbEntity
  8
0
  6
CONTINUOUS
 62
     7
100
AcDbLine
 10
-213.6557452394521
 20
154.1929077113307
 30
0.0
 11
-214.2637484085199
 21
154.3463518532682
 31
0.0
  0
ARC
  5
139
330
1F
100
AcDbEntity
  8
0
  6
CONTINUOUS
 62
     7
100
AcDbCircle
 10
-297.1861728347548
 20
177.783377788314
 30
0.0
 40
58.49999999999797
100
AcDbArc
 50
180.5
 51
269.5000000000001
  0
LINE
  5
13A
330
1F
100
AcDbEntity
  8
0
  6
CONTINUOUS
 62
     7
100
AcDbLine
 10
-207.379336781813
 20
178.1759358323595
 30
0.0
 11
-198.5580918011028
 21
171.9992336004717
 31
0.0
  0
LINE
  5
13B
330
1F
100
AcDbEntity
  8
0
  6
CONTINUOUS
 62
     7
100
AcDbLine
 10
-306.2833560066071
 20
154.1929077113307
 30
0.0
 11
-305.6753528375393
 21
154.3463518532682
 31
0.0
  0
ARC
  5
13C
330
1F
100
AcDbEntity
  8
0
  6
CONTINUOUS
 62
     7
100
AcDbCircle
 10
-225.9695506230296
 20
249.0000000000399
 30
0.0
 40
29.50000000000005
100
AcDbArc
 50
72.76759475625167
 51
81.5739816901917
  0
ARC
  5
13D
330
1F
100
AcDbEntity
  8
0
  6
CONTINUOUS
 62
     7
100
AcDbCircle
 10
225.9695506230296
 20
249.0000000000399
 30
0.0
 40
29.50000000000005
210
0.0
220
0.0
230
-1.0
100
AcDbArc
 50
162.7675947562516
 51
171.5739816901919
  0
LINE
  5
13E
330
1F
100
AcDbEntity
  8
0
  6
CONTINUOUS
 62
     7
100
AcDbLine
 10
-348.1932016669638
 20
163.3483873136217
 30
0.0
 11
-348.332313795557
 21
163.8483873136185
 31
0.0
  0
LINE
  5
13F
330
1F
100
AcDbEntity
  8
0
  6
CONTINUOUS
 62
     7
100
AcDbLine
 10
-316.3057625305252
 20
162.465632500452
 30
0.0
 11
-306.9230409181088
 21
171.2151619530603
 31
0.0
  0
LINE
  5
140
330
1F
100
AcDbEntity
  8
0
  6
CONTINUOUS
 62
     7
100
AcDbLine
 10
-311.1211633094506
 20
303.3627631725678
 30
0.0
 11
-311.1382003962956
 21
303.3573280597715
 31
0.0
  0
LINE
  5
141
330
1F
100
AcDbEntity
  8
0
  6
CONTINUOUS
 62
     7
100
AcDbLine
 10
-316.3439896754149
 20
161.7741196017045
 30
0.0
 11
-316.3057625305253
 21
162.465632500452
 31
0.0
  0
LINE
  5
142
330
1F
100
AcDbEntity
  8
0
  6
CONTINUOUS
 62
     7
100
AcDbLine
 10
-217.8500382960852
 20
166.5470436915672
 30
0.0
 11
-209.6439801978687
 21
157.1070537075588
 31
0.0
  0
ARC
  5
143
330
1F
100
AcDbEntity
  8
0
  6
CONTINUOUS
 62
     7
100
AcDbCircle
 10
293.9695506230296
 20
181.0000000000398
 30
0.0
 40
29.49999999999997
210
0.0
220
0.0
230
-1.0
100
AcDbArc
 50
326.6371989089823
 51
335.3283727242364
  0
ARC
  5
144
330
1F
100
AcDbEntity
  8
0
  6
CONTINUOUS
 62
     7
100
AcDbCircle
 10
293.9695506230296
 20
181.0000000000398
 30
0.0
 40
29.50000000000002
210
0.0
220
0.0
230
-1.0
100
AcDbArc
 50
310.6717679034981
 51
319.3282320965019
  0
ARC
  5
145
330
1F
100
AcDbEntity
  8
0
  6
CONTINUOUS
 62
     7
100
AcDbCircle
 10
-259.9695506230296
 20
215.0000000000399
 30
0.0
 40
63.5
100
AcDbArc
 50
217.4459029347844
 51
220.5540970652159
  0
ARC
  5
146
330
1F
100
AcDbEntity
  8
0
  6
CONTINUOUS
 62
     7
100
AcDbCircle
 10
259.9695506230296
 20
215.0000000000399
 30
0.0
 40
63.5
210
0.0
220
0.0
230
-1.0
100
AcDbArc
 50
307.4459029347844
 51
310.5540970652157
  0
LINE
  5
147
330
1F
100
AcDbEntity
  8
0
  6
CONTINUOUS
 62
     7
100
AcDbLine
 10
-206.7436702246943
 20
158.6255609476545
 30
0.0
 11
-207.4351831234417
 21
158.6637880925442
 31
0.0
  0
ELLIPSE
  5
148
330
1F
100
AcDbEntity
  8
0
  6
CONTINUOUS
 62
     7
100
AcDbEllipse
 10
-224.2013097730931
 20
251.800000000038
 30
0.0
 11
-53.81735804299279
 21
1.011413175433518E-10
 31
0.0
210
0.0
220
0.0
230
1.0
 40
0.9998162100220424
 41
4.374281288615393
 42
4.422171490134434
  0
ARC
  5
149
330
1F
100
AcDbEntity
  8
0
  6
CONTINUOUS
 62
     7
100
AcDbCircle
 10
-225.9695506230296
 20
249.0000000000399
 30
0.0
 40
29.50000000000002
100
AcDbArc
 50
56.63719890898234
 51
65.32837272423639
  0
LINE
  5
14A
330
1F
100
AcDbEntity
  8
0
  6
CONTINUOUS
 62
     7
100
AcDbLine
 10
-207.4351831234417
 20
158.6637880925442
 30
0.0
 11
-216.1847125760499
 21
168.0465097049607
 31
0.0
  0
LINE
  5
14B
330
1F
100
AcDbEntity
  8
0
  6
CONTINUOUS
 62
     7
100
AcDbLine
 10
-311.6211633094473
 20
303.2236510439745
 30
0.0
 11
-311.1211633094506
 21
303.3627631725678
 31
0.0
  0
LINE
  5
14C
330
1F
100
AcDbEntity
  8
0
  6
CONTINUOUS
 62
     7
100
AcDbLine
 10
-223.1695506230304
 20
308.0000000000346
 30
0.0
 11
-296.7695506230269
 21
308.000000000035
 31
0.0
  0
ARC
  5
14D
330
1F
100
AcDbEntity
  8
0
  6
CONTINUOUS
 62
     7
100
AcDbCircle
 10
259.9695506230295
 20
215.0000000000399
 30
0.0
 40
63.5
210
0.0
220
0.0
230
-1.0
100
AcDbArc
 50
217.4459029347843
 51
220.5540970652156
  0
LINE
  5
14E
330
1F
100
AcDbEntity
  8
0
  6
CONTINUOUS
 62
     7
100
AcDbLine
 10
-355.9695315845562
 20
209.997818407701
 30
0.0
 11
-355.683945334006
 21
177.2728754616594
 31
0.0
  0
LINE
  5
14F
330
1F
100
AcDbEntity
  8
0
  6
CONTINUOUS
 62
     7
100
AcDbLine
 10
-173.4745575020714
 20
158.4826287269325
 30
0.0
 11
-172.4084451969565
 21
161.3804062057995
 31
0.0
  0
LINE
  5
150
330
1F
100
AcDbEntity
  8
0
  6
CONTINUOUS
 62
     7
100
AcDbLine
 10
-302.0890629499737
 20
166.5470436915675
 30
0.0
 11
-310.2951210481905
 21
157.1070537075588
 31
0.0
  0
LINE
  5
151
330
1F
100
AcDbEntity
  8
0
  6
CONTINUOUS
 62
     7
100
AcDbLine
 10
-206.7436702246943
 20
271.3744390524252
 30
0.0
 11
-207.4351831234417
 21
271.3362119075355
 31
0.0
  0
LINE
  5
152
330
1F
100
AcDbEntity
  8
0
  6
CONTINUOUS
 62
     7
100
AcDbLine
 10
-264.9673689476182
 20
119.0000000000449
 30
0.0
 11
-254.971732298439
 21
119.0000000000449
 31
0.0
  0
LINE
  5
153
330
1F
100
AcDbEntity
  8
0
  6
CONTINUOUS
 62
     7
100
AcDbLine
 10
-316.3439896754149
 20
268.2258803983752
 30
0.0
 11
-316.3057625305253
 21
267.5343674996277
 31
0.0
  0
LINE
  5
154
330
1F
100
AcDbEntity
  8
0
  6
CONTINUOUS
 62
     7
100
AcDbLine
 10
-313.195431021365
 20
158.6255609476545
 30
0.0
 11
-312.5039181226175
 21
158.6637880925442
 31
0.0
  0
ARC
  5
155
330
1F
100
AcDbEntity
  8
0
  6
CONTINUOUS
 62
     7
100
AcDbCircle
 10
225.9695506230296
 20
249.0000000000399
 30
0.0
 40
29.50000000000005
210
0.0
220
0.0
230
-1.0
100
AcDbArc
 50
146.6371989089823
 51
155.3283727242363
  0
LINE
  5
156
330
1F
100
AcDbEntity
  8
0
  6
CONTINUOUS
 62
     7
100
AcDbLine
 10
-203.633338715534
 20
267.5343674996277
 30
0.0
 11
-213.0160603279504
 21
258.7848380470196
 31
0.0
  0
ELLIPSE
  5
157
330
1F
100
AcDbEntity
  8
0
  6
CONTINUOUS
 62
     7
100
AcDbEllipse
 10
-322.9695315838367
 20
180.6502391145876
 30
0.0
 11
-0.2538066922375681
 21
-0.4308782608498652
 31
0.0
210
0.0
220
0.0
230
-1.0
 40
0.9998522073752791
 41
5.24477904050617
 42
7.321591573853001
  0
LINE
  5
158
330
1F
100
AcDbEntity
  8
0
  6
CONTINUOUS
 62
     7
100
AcDbLine
 10
-222.1486799966116
 20
277.9444989882207
 30
0.0
 11
-226.9036958959034
 21
270.0308235887791
 31
0.0
  0
ARC
  5
159
330
1F
100
AcDbEntity
  8
0
  6
CONTINUOUS
 62
     7
100
AcDbCircle
 10
259.9695506230296
 20
215.0000000000399
 30
0.0
 40
63.49999999999994
210
0.0
220
0.0
230
-1.0
100
AcDbArc
 50
301.4459029347843
 51
304.5540970652156
  0
LINE
  5
15A
330
1F
100
AcDbEntity
  8
0
  6
CONTINUOUS
 62
     7
100
AcDbLine
 10
-213.6557452394521
 20
275.8070922887493
 30
0.0
 11
-214.2637484085199
 21
275.6536481468117
 31
0.0
  0
LINE
  5
15B
330
1F
100
AcDbEntity
  8
0
  6
CONTINUOUS
 62
     7
100
AcDbLine
 10
-297.7904212494477
 20
277.9444989882207
 30
0.0
 11
-293.0354053501558
 21
270.0308235887791
 31
0.0
  0
LINE
  5
15C
330
1F
100
AcDbEntity
  8
0
  6
CONTINUOUS
 62
     7
100
AcDbLine
 10
-225.619725094537
 20
278.5000000000398
 30
0.0
 11
-230.0404913286252
 21
278.5000000000398
 31
0.0
  0
ARC
  5
15D
330
1F
100
AcDbEntity
  8
0
  6
CONTINUOUS
 62
     7
100
AcDbCircle
 10
-259.9695506230295
 20
215.0000000000399
 30
0.0
 40
63.49999999999994
100
AcDbArc
 50
31.44590293478432
 51
34.55409706521582
  0
LINE
  5
15E
330
1F
100
AcDbEntity
  8
0
  6
CONTINUOUS
 62
     7
100
AcDbLine
 10
-296.7936147907101
 20
267.5902138412565
 30
0.0
 11
-302.9703170225979
 21
276.4114588219666
 31
0.0
  0
LINE
  5
15F
330
1F
100
AcDbEntity
  8
0
  6
CONTINUOUS
 62
     7
100
AcDbLine
 10
-320.776642911739
 20
261.3138053836173
 30
0.0
 11
-320.6231987698014
 21
260.7058022145497
 31
0.0
  0
LINE
  5
160
330
1F
100
AcDbEntity
  8
0
  6
CONTINUOUS
 62
     7
100
AcDbLine
 10
-222.1486799966116
 20
152.055501011859
 30
0.0
 11
-226.9036958959034
 21
159.9691764113007
 31
0.0
  0
LINE
  5
161
330
1F
100
AcDbEntity
  8
0
  6
CONTINUOUS
 62
     7
100
AcDbLine
 10
-196.7879767527792
 20
176.6772987085887
 30
0.0
 11
-197.0250516348487
 21
177.1791293736219
 31
0.0
  0
ARC
  5
162
330
1F
100
AcDbEntity
  8
0
  6
CONTINUOUS
 62
     7
100
AcDbCircle
 10
-259.9695506230295
 20
215.0000000000399
 30
0.0
 40
63.49999999999994
100
AcDbArc
 50
25.44590293478436
 51
28.55409706521586
  0
ARC
  5
163
330
1F
100
AcDbEntity
  8
0
  6
CONTINUOUS
 62
     7
100
AcDbCircle
 10
-225.9695506230296
 20
181.0000000000398
 30
0.0
 40
29.50000000000005
100
AcDbArc
 50
342.7675947562516
 51
351.5739816901916
  0
LINE
  5
164
330
1F
100
AcDbEntity
  8
0
  6
CONTINUOUS
 62
     7
100
AcDbLine
 10
-225.619725094537
 20
151.5000000000399
 30
0.0
 11
-230.0404913286251
 21
151.5000000000399
 31
0.0
  0
LINE
  5
165
330
1F
100
AcDbEntity
  8
0
  6
CONTINUOUS
 62
     7
100
AcDbLine
 10
-298.292251914481
 20
278.1815738702904
 30
0.0
 11
-297.7904212494477
 21
277.9444989882207
 31
0.0
  0
ARC
  5
166
330
1F
100
AcDbEntity
  8
0
  6
CONTINUOUS
 62
     7
100
AcDbCircle
 10
259.9695506230295
 20
215.0000000000399
 30
0.0
 40
63.49999999999994
210
0.0
220
0.0
230
-1.0
100
AcDbArc
 50
121.4459029347843
 51
124.5540970652158
  0
LINE
  5
167
330
1F
100
AcDbEntity
  8
0
  6
CONTINUOUS
 62
     7
100
AcDbLine
 10
-297.7904212494477
 20
152.055501011859
 30
0.0
 11
-293.0354053501559
 21
159.9691764113007
 31
0.0
  0
LINE
  5
168
330
1F
100
AcDbEntity
  8
0
  6
CONTINUOUS
 62
     7
100
AcDbLine
 10
-228.8443867675648
 20
271.1512819859466
 30
0.0
 11
-225.1824318923865
 21
277.757623458417
 31
0.0
  0
LINE
  5
169
330
1F
100
AcDbEntity
  8
0
  6
CONTINUOUS
 62
     7
100
AcDbLine
 10
-305.6753528375393
 20
275.6536481468117
 30
0.0
 11
-298.6065545603074
 21
266.2730359979317
 31
0.0
  0
LINE
  5
16A
330
1F
100
AcDbEntity
  8
0
  6
CONTINUOUS
 62
     7
100
AcDbLine
 10
-320.6231987698014
 20
169.2941977855302
 30
0.0
 11
-311.2425866209215
 21
176.362996062762
 31
0.0
  0
LINE
  5
16B
330
1F
100
AcDbEntity
  8
0
  6
CONTINUOUS
 62
     7
100
AcDbLine
 10
-196.4695506230296
 20
180.6501744715474
 30
0.0
 11
-196.4695506230296
 21
185.0709407056356
 31
0.0
  0
LINE
  5
16C
330
1F
100
AcDbEntity
  8
0
  6
CONTINUOUS
 62
     7
100
AcDbLine
 10
-199.1624583343203
 20
168.6861946164624
 30
0.0
 11
-199.3159024762578
 21
169.2941977855302
 31
0.0
  0
ARC
  5
16D
330
1F
100
AcDbEntity
  8
0
  6
CONTINUOUS
 62
     7
100
AcDbCircle
 10
-293.9695506230296
 20
249.0000000000399
 30
0.0
 40
29.50000000000002
100
AcDbArc
 50
162.7675947562517
 51
171.5739816901917
  0
ARC
  5
16E
330
1F
100
AcDbEntity
  8
0
  6
CONTINUOUS
 62
     7
100
AcDbCircle
 10
259.9695506230295
 20
215.0000000000399
 30
0.0
 40
63.5
210
0.0
220
0.0
230
-1.0
100
AcDbArc
 50
205.4459029347843
 51
208.5540970652156
  0
LINE
  5
16F
330
1F
100
AcDbEntity
  8
0
  6
CONTINUOUS
 62
     7
100
AcDbLine
 10
-207.379336781813
 20
251.8240641677205
 30
0.0
 11
-198.5580918011028
 21
258.0007663996082
 31
0.0
  0
LINE
  5
170
330
1F
100
AcDbEntity
  8
0
  6
CONTINUOUS
 62
     7
100
AcDbLine
 10
-197.0250516348487
 20
252.8208706264581
 30
0.0
 11
-204.9387270342905
 21
248.0658547271662
 31
0.0
  0
LINE
  5
171
330
1F
100
AcDbEntity
  8
0
  6
CONTINUOUS
 62
     7
100
AcDbLine
 10
-196.7879767527792
 20
253.3227012914913
 30
0.0
 11
-197.0250516348487
 21
252.8208706264581
 31
0.0
  0
LINE
  5
172
330
1F
100
AcDbEntity
  8
0
  6
CONTINUOUS
 62
     7
100
AcDbLine
 10
-320.776642911739
 20
168.6861946164624
 30
0.0
 11
-320.6231987698014
 21
169.2941977855302
 31
0.0
  0
LINE
  5
173
330
1F
100
AcDbEntity
  8
0
  6
CONTINUOUS
 62
     7
100
AcDbLine
 10
-308.422506931502
 20
257.1195123269841
 30
0.0
 11
-317.8624969155107
 21
265.3255704252009
 31
0.0
  0
LINE
  5
174
330
1F
100
AcDbEntity
  8
0
  6
CONTINUOUS
 62
     7
100
AcDbLine
 10
-199.3159024762578
 20
169.2941977855302
 30
0.0
 11
-208.6965146251378
 21
176.3629960627623
 31
0.0
  0
ARC
  5
175
330
1F
100
AcDbEntity
  8
0
  6
CONTINUOUS
 62
     7
100
AcDbCircle
 10
259.9695506230295
 20
215.0000000000399
 30
0.0
 40
63.5
210
0.0
220
0.0
230
-1.0
100
AcDbArc
 50
31.44590293478431
 51
34.5540970652158
  0
LINE
  5
176
330
1F
100
AcDbEntity
  8
0
  6
CONTINUOUS
 62
     7
100
AcDbLine
 10
-291.0947144784949
 20
271.1512819859472
 30
0.0
 11
-294.7566693536727
 21
277.757623458417
 31
0.0
  0
ARC
  5
177
330
1F
100
AcDbEntity
  8
0
  6
CONTINUOUS
 62
     7
100
AcDbCircle
 10
-259.9695506230295
 20
215.0000000000399
 30
0.0
 40
63.49999999999994
100
AcDbArc
 50
121.4459029347843
 51
124.5540970652157
  0
LINE
  5
178
330
1F
100
AcDbEntity
  8
0
  6
CONTINUOUS
 62
     7
100
AcDbLine
 10
-322.9140496112105
 20
177.1791293736219
 30
0.0
 11
-315.0003742117687
 21
181.9341452729136
 31
0.0
  0
LINE
  5
179
330
1F
100
AcDbEntity
  8
0
  6
CONTINUOUS
 62
     7
100
AcDbLine
 10
-221.6468493315782
 20
151.8184261297896
 30
0.0
 11
-222.1486799966116
 21
152.055501011859
 31
0.0
  0
ARC
  5
17A
330
1F
100
AcDbEntity
  8
0
  6
CONTINUOUS
 62
     7
100
AcDbCircle
 10
259.9695506230296
 20
215.0000000000399
 30
0.0
 40
63.49999999999989
210
0.0
220
0.0
230
-1.0
100
AcDbArc
 50
295.4459029347843
 51
298.5540970652158
  0
LINE
  5
17B
330
1F
100
AcDbEntity
  8
0
  6
CONTINUOUS
 62
     7
100
AcDbLine
 10
-223.1454864553492
 20
267.5902138412565
 30
0.0
 11
-216.9687842234613
 21
276.4114588219666
 31
0.0
  0
ELLIPSE
  5
17C
330
1F
100
AcDbEntity
  8
0
  6
CONTINUOUS
 62
     7
100
AcDbEllipse
 10
-294.3193115084819
 20
152.0000190392328
 30
0.0
 11
-0.4308782608497539
 21
-0.2538066922375681
 31
0.0
210
0.0
220
0.0
230
1.0
 40
0.9998522073754703
 41
5.24477904050617
 42
7.321591573852998
  0
LINE
  5
17D
330
1F
100
AcDbEntity
  8
0
  6
CONTINUOUS
 62
     7
100
AcDbLine
 10
-322.9140496112105
 20
252.8208706264581
 30
0.0
 11
-315.0003742117687
 21
248.0658547271662
 31
0.0
  0
ARC
  5
17E
330
1F
100
AcDbEntity
  8
0
  6
CONTINUOUS
 62
     7
100
AcDbCircle
 10
293.9695506230296
 20
181.0000000000398
 30
0.0
 40
29.50000000000002
210
0.0
220
0.0
230
-1.0
100
AcDbArc
 50
342.7675947562516
 51
351.5739816901918
  0
LINE
  5
17F
330
1F
100
AcDbEntity
  8
0
  6
CONTINUOUS
 62
     7
100
AcDbLine
 10
-298.292251914481
 20
151.8184261297893
 30
0.0
 11
-297.7904212494477
 21
152.055501011859
 31
0.0
  0
ARC
  5
180
330
1F
100
AcDbEntity
  8
0
  6
CONTINUOUS
 62
     7
100
AcDbCircle
 10
293.9695506230296
 20
249.0000000000399
 30
0.0
 40
29.50000000000002
210
0.0
220
0.0
230
-1.0
100
AcDbArc
 50
72.76759475625164
 51
81.57398169019189
  0
ARC
  5
181
330
1F
100
AcDbEntity
  8
0
  6
CONTINUOUS
 62
     7
100
AcDbCircle
 10
-259.9695506230295
 20
215.0000000000399
 30
0.0
 40
63.5
100
AcDbArc
 50
301.4459029347843
 51
304.5540970652158
  0
LINE
  5
182
330
1F
100
AcDbEntity
  8
0
  6
CONTINUOUS
 62
     7
100
AcDbLine
 10
-199.3159024762579
 20
260.7058022145497
 30
0.0
 11
-208.6965146251378
 21
253.6370039373177
 31
0.0
  0
LINE
  5
183
330
1F
100
AcDbEntity
  8
0
  6
CONTINUOUS
 62
     7
100
AcDbLine
 10
-320.6231987698014
 20
260.7058022145497
 30
0.0
 11
-311.2425866209215
 21
253.6370039373177
 31
0.0
  0
LINE
  5
184
330
1F
100
AcDbEntity
  8
0
  6
CONTINUOUS
 62
     7
100
AcDbLine
 10
-312.5597644642462
 20
178.1759358323595
 30
0.0
 11
-321.3810094449564
 21
171.9992336004717
 31
0.0
  0
ARC
  5
185
330
1F
100
AcDbEntity
  8
0
  6
CONTINUOUS
 62
     7
100
AcDbCircle
 10
-293.9695506230296
 20
181.0000000000398
 30
0.0
 40
29.50000000000008
100
AcDbArc
 50
252.7675947562517
 51
261.5739816901917
  0
ARC
  5
186
330
1F
100
AcDbEntity
  8
0
  6
CONTINUOUS
 62
     7
100
AcDbCircle
 10
259.9695506230295
 20
215.0000000000399
 30
0.0
 40
63.5
210
0.0
220
0.0
230
-1.0
100
AcDbArc
 50
211.4459029347844
 51
214.5540970652157
  0
LINE
  5
187
330
1F
100
AcDbEntity
  8
0
  6
CONTINUOUS
 62
     7
100
AcDbLine
 10
-306.2833560066071
 20
275.8070922887493
 30
0.0
 11
-305.6753528375394
 21
275.6536481468117
 31
0.0
  0
LINE
  5
188
330
1F
100
AcDbEntity
  8
0
  6
CONTINUOUS
 62
     7
100
AcDbLine
 10
-199.1624583343203
 20
261.3138053836173
 30
0.0
 11
-199.3159024762578
 21
260.7058022145497
 31
0.0
  0
LINE
  5
189
330
1F
100
AcDbEntity
  8
0
  6
CONTINUOUS
 62
     7
100
AcDbLine
 10
-308.4225069315028
 20
172.880487673095
 30
0.0
 11
-317.8624969155107
 21
164.6744295748791
 31
0.0
  0
LINE
  5
18A
330
1F
100
AcDbEntity
  8
0
  6
CONTINUOUS
 62
     7
100
AcDbLine
 10
-305.6753528375393
 20
154.3463518532682
 30
0.0
 11
-298.6065545603073
 21
163.7269640021481
 31
0.0
  0
ARC
  5
18B
330
1F
100
AcDbEntity
  8
0
  6
CONTINUOUS
 62
     7
100
AcDbCircle
 10
-259.9695506230295
 20
215.0000000000399
 30
0.0
 40
63.5
100
AcDbArc
 50
211.4459029347844
 51
214.5540970652158
  0
LINE
  5
18C
330
1F
100
AcDbEntity
  8
0
  6
CONTINUOUS
 62
     7
100
AcDbLine
 10
-214.2637484085199
 20
154.3463518532682
 30
0.0
 11
-221.3325466857518
 21
163.7269640021481
 31
0.0
  0
ARC
  5
18D
330
1F
100
AcDbEntity
  8
0
  6
CONTINUOUS
 62
     7
100
AcDbCircle
 10
259.9695506230295
 20
215.0000000000399
 30
0.0
 40
63.49999999999994
210
0.0
220
0.0
230
-1.0
100
AcDbArc
 50
115.4459029347843
 51
118.5540970652158
  0
LINE
  5
18E
330
1F
100
AcDbEntity
  8
0
  6
CONTINUOUS
 62
     7
100
AcDbLine
 10
-323.1511244932801
 20
176.6772987085884
 30
0.0
 11
-322.9140496112105
 21
177.1791293736219
 31
0.0
  0
LINE
  5
18F
330
1F
100
AcDbEntity
  8
0
  6
CONTINUOUS
 62
     7
100
AcDbLine
 10
-296.7936147907101
 20
162.4097861588232
 30
0.0
 11
-302.9703170225979
 21
153.5885411781132
 31
0.0
  0
LINE
  5
190
330
1F
100
AcDbEntity
  8
0
  6
CONTINUOUS
 62
     7
100
AcDbLine
 10
-323.1511244932801
 20
253.3227012914913
 30
0.0
 11
-322.9140496112105
 21
252.8208706264581
 31
0.0
  0
LINE
  5
191
330
1F
100
AcDbEntity
  8
0
  6
CONTINUOUS
 62
     7
100
AcDbLine
 10
-312.5597644642462
 20
251.8240641677205
 30
0.0
 11
-321.3810094449564
 21
258.0007663996082
 31
0.0
  0
LINE
  5
192
330
1F
100
AcDbEntity
  8
0
  6
CONTINUOUS
 62
     7
100
AcDbLine
 10
-223.1454864553491
 20
162.4097861588232
 30
0.0
 11
-216.9687842234613
 21
153.5885411781132
 31
0.0
  0
LINE
  5
193
330
1F
100
AcDbEntity
  8
0
  6
CONTINUOUS
 62
     7
100
AcDbLine
 10
-203.8182686371228
 20
246.1251638555049
 30
0.0
 11
-197.2119271646525
 21
249.7871187306831
 31
0.0
  0
ELLIPSE
  5
194
330
1F
100
AcDbEntity
  8
0
  6
CONTINUOUS
 62
     7
100
AcDbEllipse
 10
-322.9695315838367
 20
249.3497608854921
 30
0.0
 11
-0.2538066922375681
 21
0.4308782608498652
 31
0.0
210
0.0
220
0.0
230
1.0
 40
0.9998522073752791
 41
5.244779040506163
 42
7.321591573853
  0
LINE
  5
195
330
1F
100
AcDbEntity
  8
0
  6
CONTINUOUS
 62
     7
100
AcDbLine
 10
-197.0250516348487
 20
177.1791293736219
 30
0.0
 11
-204.9387270342905
 21
181.9341452729136
 31
0.0
  0
ARC
  5
196
330
1F
100
AcDbEntity
  8
0
  6
CONTINUOUS
 62
     7
100
AcDbCircle
 10
-259.9695506230295
 20
215.0000000000399
 30
0.0
 40
63.49999999999994
100
AcDbArc
 50
115.4459029347844
 51
118.5540970652159
  0
ARC
  5
197
330
1F
100
AcDbEntity
  8
0
  6
CONTINUOUS
 62
     7
100
AcDbCircle
 10
92.03379189541977
 20
308.999999999931
 30
0.0
 40
1.999999999998003
100
AcDbArc
 50
17.50894601527324
 51
90.00000000000001
  0
LINE
  5
198
330
1F
100
AcDbEntity
  8
0
  6
CONTINUOUS
 62
     7
100
AcDbLine
 10
-254.9717322984391
 20
311.000000000035
 30
0.0
 11
-264.9673689476183
 21
311.000000000035
 31
0.0
  0
LINE
  5
199
330
1F
100
AcDbEntity
  8
0
  6
CONTINUOUS
 62
     7
100
AcDbLine
 10
-264.9717322153675
 20
310.9999809615672
 30
0.0
 11
-297.6966751614095
 21
310.7143947110169
 31
0.0
  0
ARC
  5
19A
330
1F
100
AcDbEntity
  8
0
  6
CONTINUOUS
 62
     7
100
AcDbCircle
 10
-254.9717322984391
 20
310.5000000000351
 30
0.0
 40
0.5000000000000004
100
AcDbArc
 50
89.49999999999801
 51
89.99999999999842
  0
LINE
  5
19B
330
1F
100
AcDbEntity
  8
0
  6
CONTINUOUS
 62
     7
100
AcDbLine
 10
-163.9695696615011
 20
220.0021815923787
 30
0.0
 11
-164.2551559120513
 21
252.7271245384206
 31
0.0
  0
ARC
  5
19C
330
1F
100
AcDbEntity
  8
0
  6
CONTINUOUS
 62
     7
100
AcDbCircle
 10
-164.4695506230332
 20
219.9978183246297
 30
0.0
 40
0.5000000000000004
100
AcDbArc
 50
359.9999999999991
 51
0.5000000000006821
  0
LWPOLYLINE
  5
19D
330
1F
100
AcDbEntity
  8
0
  6
CONTINUOUS
 62
     7
100
AcDbPolyline
 90
        5
 70
     0
 43
0.0
 10
-10.49998749928382
 20
301.4949931208959
 10
-10.59549794220604
 20
301.7866271312287
 10
-10.80806002023987
 20
302.0016410497839
 10
-11.13882943639977
 20
302.1933788870376
 42
0.0807947170549601
 10
-12.72353036397392
 20
302.5611054260098
  0
ARC
  5
19E
330
1F
100
AcDbEntity
  8
0
  6
CONTINUOUS
 62
     7
100
AcDbCircle
 10
-222.7529284113026
 20
252.2166222117657
 30
0.0
 40
58.49999999999802
100
AcDbArc
 50
0.4999999999999673
 51
89.50000000000003
  0
LINE
  5
19F
330
1F
100
AcDbEntity
  8
0
  6
CONTINUOUS
 62
     7
100
AcDbLine
 10
-163.9695506230332
 20
210.0021816754502
 30
0.0
 11
-163.9695506230332
 21
219.9978183246296
 31
0.0
  0
ARC
  5
1A0
330
1F
100
AcDbEntity
  8
0
  6
CONTINUOUS
 62
     7
100
AcDbCircle
 10
-164.4695506230332
 20
210.0021816754502
 30
0.0
 40
0.500000000000056
100
AcDbArc
 50
359.4999999999951
 51
359.9999999999993
  0
LWPOLYLINE
  5
1A1
330
1F
100
AcDbEntity
  8
0
  6
CONTINUOUS
 62
     7
100
AcDbPolyline
 90
        4
 70
     0
 43
0.0
 10
22.49998749927151
 20
163.3483873136586
 10
22.39816347458939
 20
163.6508006477982
 10
22.1371512613035
 20
163.829201531397
 10
21.87057797672074
 20
163.8313502268027
210
0.0
220
0.0
230
-1.0
  0
LWPOLYLINE
  5
1A2
330
1F
100
AcDbEntity
  8
0
  6
CONTINUOUS
 62
     7
100
AcDbPolyline
 90
        4
 70
     0
 43
0.0
 10
21.87057797672071
 20
266.1686497732474
 10
22.17263903469391
 20
266.1823690192072
 10
22.41147717352354
 20
266.3675821115991
 10
22.49998749927151
 20
266.6516126863914
210
0.0
220
0.0
230
-1.0
  0
LWPOLYLINE
  5
1A3
330
1F
100
AcDbEntity
  8
0
  6
CONTINUOUS
 62
     7
100
AcDbPolyline
 90
        4
 70
     0
 43
0.0
 10
21.87057797672071
 20
266.1686497732474
 10
22.19192891047167
 20
266.1899217782439
 10
22.43365725488977
 20
266.4027542064039
 10
22.49998749927151
 20
266.6516126863914
210
0.0
220
0.0
230
-1.0
  0
LWPOLYLINE
  5
1A4
330
1F
100
AcDbEntity
  8
0
  6
CONTINUOUS
 62
     7
100
AcDbPolyline
 90
       31
 70
     0
 43
0.0
 10
12.72353036397361
 20
161.3804062058382
 10
12.60565690986692
 20
161.3462118901947
 10
12.48929312922242
 20
161.3072317946481
 10
12.37474238504316
 20
161.263592417958
 10
12.26230804033285
 20
161.2154202588843
 10
12.14884868783733
 20
161.1611274197934
 10
12.03782907323841
 20
161.1021650302017
 10
11.92954012100728
 20
161.0387246128155
 10
11.82427275561543
 20
160.9709976903402
 10
11.7250509192996
 20
160.9012116046095
 10
11.62882491745504
 20
160.8275485637133
 10
11.53581586396918
 20
160.7502205309344
 10
11.44624487273038
 20
160.6694394695565
 10
11.35785153276453
 20
160.5829132101927
 10
11.27320353854461
 20
160.4929343676078
 10
11.19248801575706
 20
160.3997586907137
 10
11.11589209008745
 20
160.303641928422
 10
11.04353732683561
 20
160.2047783416284
 10
10.97536803385829
 20
160.1031846879144
 10
10.91151809786733
 20
159.9991288618281
 10
10.85212140557346
 20
159.892878757918
 10
10.79581450891948
 20
159.7816262894952
 10
10.74424083327474
 20
159.6682781073261
 10
10.69749214376975
 20
159.5531266288527
 10
10.65566020553455
 20
159.4364642715174
 10
10.60833086587171
 20
159.2813358291942
 10
10.56947913907141
 20
159.1238156303784
 10
10.53916198207322
 20
158.9645442479091
 10
10.51743635181629
 20
158.8041622546261
 10
10.5043592052399
 20
158.6433102233676
 10
10.49998749928349
 20
158.4826287269742
210
0.0
220
0.0
230
-1.0
  0
LINE
  5
1A5
330
1F
100
AcDbEntity
  8
0
  6
CONTINUOUS
 62
     7
100
AcDbLine
 10
-279.3633922824573
 20
151.5148411131027
 30
0.0
 11
-279.3834488956546
 21
151.5000000000399
 31
0.0
  0
ELLIPSE
  5
1A6
330
1F
100
AcDbEntity
  8
0
  6
CONTINUOUS
 62
     7
100
AcDbEllipse
 10
-79.34568653590202
 20
251.7999999999864
 30
0.0
 11
-200.8491145453878
 21
0.0
 31
0.0
210
0.0
220
0.0
230
1.0
 40
0.2678999460549334
 41
4.374281288613515
 42
4.422171490132557
  0
LINE
  5
1A7
330
1F
100
AcDbEntity
  8
0
  6
CONTINUOUS
 62
     7
100
AcDbLine
 10
-279.3633922824573
 20
278.4851588869769
 30
0.0
 11
-279.3834488956546
 21
278.5000000000398
 31
0.0
  0
LINE
  5
1A8
330
1F
100
AcDbEntity
  8
0
  6
CONTINUOUS
 62
     7
100
AcDbLine
 10
222.5000125004826
 20
122.5000000001175
 30
0.0
 11
222.5000125004826
 21
307.3052002868073
 31
0.0
  0
LINE
  5
1A9
330
1F
100
AcDbEntity
  8
0
  6
CONTINUOUS
 62
     7
100
AcDbLine
 10
221.0000125004841
 20
307.4999999999325
 30
0.0
 11
216.7000125004884
 21
307.4999999999325
 31
0.0
  0
CIRCLE
  5
1AA
330
1F
100
AcDbEntity
  8
0
  6
CONTINUOUS
 62
     7
100
AcDbCircle
 10
259.9695506230295
 20
215.0000000000399
 30
0.0
 40
61.5
210
0.0
220
0.0
230
-1.0
  0
ARC
  5
1AB
330
1F
100
AcDbEntity
  8
0
  6
CONTINUOUS
 62
     7
100
AcDbCircle
 10
-259.9695506230295
 20
215.0000000000399
 30
0.0
 40
63.49999999999994
100
AcDbArc
 50
280.1417933656799
 51
286.5540970652158
  0
LINE
  5
1AC
330
1F
100
AcDbEntity
  8
0
  6
CONTINUOUS
 62
     7
100
AcDbLine
 10
210.5000125004946
 20
129.3316715467086
 30
0.0
 11
211.0000125004941
 21
129.8350864499871
 31
0.0
  0
ARC
  5
1AD
330
1F
100
AcDbEntity
  8
0
  6
CONTINUOUS
 62
     7
100
AcDbCircle
 10
-259.9695506230295
 20
215.0000000000399
 30
0.0
 40
63.49999999999994
100
AcDbArc
 50
10.14179336567983
 51
16.5540970652157
  0
LINE
  5
1AE
330
1F
100
AcDbEntity
  8
0
  6
CONTINUOUS
 62
     7
100
AcDbLine
 10
-198.5740234262182
 20
233.7704963684349
 30
0.0
 11
-196.4695506230296
 21
234.413898272665
 31
0.0
  0
LINE
  5
1AF
330
1F
100
AcDbEntity
  8
0
  6
CONTINUOUS
 62
     7
100
AcDbLine
 10
-323.3200029428227
 20
234.3495708728065
 30
0.0
 11
-322.6175146085462
 21
233.6197114727217
 31
0.0
  0
LINE
  5
1B0
330
1F
100
AcDbEntity
  8
0
  6
CONTINUOUS
 62
     7
100
AcDbLine
 10
-279.3834488956546
 20
278.5000000000398
 30
0.0
 11
-272.3384582467713
 21
278.5000000000398
 31
0.0
  0
LINE
  5
1B1
330
1F
100
AcDbEntity
  8
0
  6
CONTINUOUS
 62
     7
100
AcDbLine
 10
-270.8781147481915
 20
277.6539111352834
 30
0.0
 11
-271.1509358889457
 21
277.50781250004
 31
0.0
  0
LINE
  5
1B2
330
1F
100
AcDbEntity
  8
0
  6
CONTINUOUS
 62
     7
100
AcDbLine
 10
-249.0609864978677
 20
152.3460888647967
 30
0.0
 11
-248.7881653571136
 21
152.49218750004
 31
0.0
  0
LINE
  5
1B3
330
1F
100
AcDbEntity
  8
0
  6
CONTINUOUS
 62
     7
100
AcDbLine
 10
-278.7400469914245
 20
153.6044728032285
 30
0.0
 11
-279.3834488956546
 21
151.5000000000399
 31
0.0
  0
LINE
  5
1B4
330
1F
100
AcDbEntity
  8
0
  6
CONTINUOUS
 62
     7
100
AcDbLine
 10
-321.365077819841
 20
233.7704963684349
 30
0.0
 11
-323.4695506230296
 21
234.413898272665
 31
0.0
  0
LINE
  5
1B5
330
1F
100
AcDbEntity
  8
0
  6
CONTINUOUS
 62
     7
100
AcDbLine
 10
-241.1990542546347
 20
153.6044728032285
 30
0.0
 11
-240.5556523504047
 21
151.5000000000399
 31
0.0
  0
LINE
  5
1B6
330
1F
100
AcDbEntity
  8
0
  6
CONTINUOUS
 62
     7
100
AcDbLine
 10
-196.4843917360925
 20
234.3938416594674
 30
0.0
 11
-196.4695506230296
 21
234.4138982726649
 31
0.0
  0
LINE
  5
1B7
330
1F
100
AcDbEntity
  8
0
  6
CONTINUOUS
 62
     7
100
AcDbLine
 10
-322.6234617582729
 20
204.0914358748779
 30
0.0
 11
-322.4773631230296
 21
203.818614734124
 31
0.0
  0
LINE
  5
1B8
330
1F
100
AcDbEntity
  8
0
  6
CONTINUOUS
 62
     7
100
AcDbLine
 10
-240.575708963602
 20
278.4851588869769
 30
0.0
 11
-240.5556523504047
 21
278.5000000000398
 31
0.0
  0
ARC
  5
1B9
330
1F
100
AcDbEntity
  8
0
  6
CONTINUOUS
 62
     7
100
AcDbCircle
 10
259.9695506230296
 20
215.0000000000399
 30
0.0
 40
63.5
210
0.0
220
0.0
230
-1.0
100
AcDbArc
 50
10.14179336567987
 51
16.55409706521563
  0
LINE
  5
1BA
330
1F
100
AcDbEntity
  8
0
  6
CONTINUOUS
 62
     7
100
AcDbLine
 10
-270.8781147481915
 20
152.3460888647967
 30
0.0
 11
-271.1509358889456
 21
152.49218750004
 31
0.0
  0
LINE
  5
1BB
330
1F
100
AcDbEntity
  8
0
  6
CONTINUOUS
 62
     7
100
AcDbLine
 10
-323.4547095099667
 20
234.3938416594674
 30
0.0
 11
-323.4695506230296
 21
234.4138982726649
 31
0.0
  0
LINE
  5
1BC
330
1F
100
AcDbEntity
  8
0
  6
________________
 62
     1
100
AcDbLine
 10
-259.9695506230295
 20
107.5000000000399
 30
0.0
 11
-259.9695506230295
 21
322.5000000000398
 31
0.0
  0
ARC
  5
1BD
330
1F
100
AcDbEntity
  8
0
  6
CONTINUOUS
 62
     7
100
AcDbCircle
 10
-259.9695506230297
 20
215.0000000000399
 30
0.0
 40
63.5
100
AcDbArc
 50
190.1417933656798
 51
196.5540970652156
  0
LINE
  5
1BE
330
1F
100
AcDbEntity
  8
0
  6
CONTINUOUS
 62
     7
100
AcDbLine
 10
-278.7400469914245
 20
276.3955271968515
 30
0.0
 11
-279.3834488956546
 21
278.5000000000398
 31
0.0
  0
LINE
  5
1BF
330
1F
100
AcDbEntity
  8
0
  6
CONTINUOUS
 62
     7
100
AcDbLine
 10
-322.6234617582729
 20
225.9085641252018
 30
0.0
 11
-322.4773631230296
 21
226.181385265956
 31
0.0
  0
ARC
  5
1C0
330
1F
100
AcDbEntity
  8
0
  6
CONTINUOUS
 62
     7
100
AcDbCircle
 10
259.9695506230295
 20
215.0000000000399
 30
0.0
 40
63.5
210
0.0
220
0.0
230
-1.0
100
AcDbArc
 50
190.1417933656798
 51
196.5540970652157
  0
LINE
  5
1C1
330
1F
100
AcDbEntity
  8
0
  6
CONTINUOUS
 62
     7
100
AcDbLine
 10
-240.5556523504046
 20
151.5000000000399
 30
0.0
 11
-247.6006429992879
 21
151.5000000000399
 31
0.0
  0
LWPOLYLINE
  5
1C2
330
1F
100
AcDbEntity
  8
0
  6
CONTINUOUS
 62
     7
100
AcDbPolyline
 90
        6
 70
     0
 43
0.0
 10
10.49998749928349
 20
271.5173712730761
 10
10.53374672923973
 20
271.0704541735227
 10
10.63409900063339
 20
270.6306541161972
 42
0.1141406325312545
 10
11.31768783729331
 20
269.458966173452
 10
11.64997881202379
 20
269.1561582267389
 42
0.1011042946672396
 10
12.72353036397359
 20
268.6195937942118
210
0.0
220
0.0
230
-1.0
  0
LINE
  5
1C3
330
1F
100
AcDbEntity
  8
0
  6
CONTINUOUS
 62
     7
100
AcDbLine
 10
-323.4695506230296
 20
234.4138982726649
 30
0.0
 11
-323.4695506230295
 21
227.3689076238138
 31
0.0
  0
LINE
  5
1C4
330
1F
100
AcDbEntity
  8
0
  6
________________
 62
     1
100
AcDbLine
 10
-367.4695506230295
 20
215.0000000000399
 30
0.0
 11
-152.4695506230297
 21
215.0000000000399
 31
0.0
  0
ELLIPSE
  5
1C5
330
1F
100
AcDbEntity
  8
0
  6
CONTINUOUS
 62
     7
100
AcDbEllipse
 10
-73.94025370496854
 20
177.7833777883365
 30
0.0
 11
218.3249722425605
 21
0.0
 31
0.0
210
0.0
220
0.0
230
-1.0
 40
0.2679491924311336
 41
1.286593155022334
 42
1.329979257288221
  0
ELLIPSE
  5
1C6
330
1F
100
AcDbEntity
  8
0
  6
CONTINUOUS
 62
     7
100
AcDbEllipse
 10
-73.94025370496854
 20
177.7833777883365
 30
0.0
 11
218.3249722425605
 21
0.0
 31
0.0
210
0.0
220
0.0
230
-1.0
 40
0.2679491924311336
 41
1.286593155022334
 42
1.329979257288221
  0
LINE
  5
1C7
330
1F
100
AcDbEntity
  8
0
  6
CONTINUOUS
 62
     7
100
AcDbLine
 10
215.2000125004899
 20
129.8350864499868
 30
0.0
 11
211.0000125004941
 21
129.8350864499871
 31
0.0
  0
ELLIPSE
  5
1C8
330
1F
100
AcDbEntity
  8
0
  6
CONTINUOUS
 62
     7
100
AcDbEllipse
 10
-79.34568653590202
 20
251.7999999999864
 30
0.0
 11
-200.8491145453878
 21
0.0
 31
0.0
210
0.0
220
0.0
230
1.0
 40
0.2678999460549334
 41
4.374281288613515
 42
4.422171490132557
  0
LINE
  5
1C9
330
1F
100
AcDbEntity
  8
0
  6
CONTINUOUS
 62
     7
100
AcDbLine
 10
210.5000125004946
 20
303.9999999999361
 30
0.0
 11
102.5000125006026
 21
303.9999999999361
 31
0.0
  0
LINE
  5
1CA
330
1F
100
AcDbEntity
  8
0
  6
CONTINUOUS
 62
     7
100
AcDbLine
 10
-249.0609864978677
 20
277.6539111352834
 30
0.0
 11
-248.7881653571136
 21
277.50781250004
 31
0.0
  0
LINE
  5
1CB
330
1F
100
AcDbEntity
  8
0
  6
CONTINUOUS
 62
     7
100
AcDbLine
 10
-323.4695506230296
 20
195.5861017274148
 30
0.0
 11
-323.4695506230296
 21
202.6310923762984
 31
0.0
  0
LINE
  5
1CC
330
1F
100
AcDbEntity
  8
0
  6
CONTINUOUS
 62
     7
100
AcDbLine
 10
-196.4695506230296
 20
195.5861017274148
 30
0.0
 11
-196.4695506230296
 21
202.6310923762707
 31
0.0
  0
LINE
  5
1CD
330
1F
100
AcDbEntity
  8
0
  6
CONTINUOUS
 62
     7
100
AcDbLine
 10
-196.4843917360925
 20
195.6061583406123
 30
0.0
 11
-196.4695506230296
 21
195.5861017274148
 31
0.0
  0
LWPOLYLINE
  5
1CE
330
1F
100
AcDbEntity
  8
0
  6
CONTINUOUS
 62
     7
100
AcDbPolyline
 90
        9
 70
     0
 43
0.0
 10
10.49998749928349
 20
271.5173712730761
 10
10.52493723873688
 20
271.1313400533072
 10
10.60162327659714
 20
270.7431852566706
 10
10.72955178511986
 20
270.3664504787592
 10
10.90385484033085
 20
270.0140099668302
 10
11.13203035329691
 20
269.675444273712
 10
11.39339676767254
 20
269.3814524068305
 10
11.68925877451682
 20
269.1254736801417
 42
0.0966777343691417
 10
12.72353036397357
 20
268.6195937942118
210
0.0
220
0.0
230
-1.0
  0
LINE
  5
1CF
330
1F
100
AcDbEntity
  8
0
  6
CONTINUOUS
 62
     7
100
AcDbLine
 10
-240.575708963602
 20
151.5148411131027
 30
0.0
 11
-240.5556523504046
 21
151.5000000000399
 31
0.0
  0
LINE
  5
1D0
330
1F
100
AcDbEntity
  8
0
  6
CONTINUOUS
 62
     7
100
AcDbLine
 10
-323.4547095099667
 20
195.6061583406123
 30
0.0
 11
-323.4695506230296
 21
195.5861017274148
 31
0.0
  0
LINE
  5
1D1
330
1F
100
AcDbEntity
  8
0
  6
CONTINUOUS
 62
     7
100
AcDbLine
 10
-240.5556523504046
 20
278.5000000000398
 30
0.0
 11
-247.6006429992586
 21
278.5000000000398
 31
0.0
  0
ARC
  5
1D2
330
1F
100
AcDbEntity
  8
0
  6
CONTINUOUS
 62
     7
100
AcDbCircle
 10
216.7000125004884
 20
123.5000000001165
 30
0.0
 40
0.9999999999990017
100
AcDbArc
 50
180.0
 51
270.0
  0
LINE
  5
1D3
330
1F
100
AcDbEntity
  8
0
  6
CONTINUOUS
 62
     7
100
AcDbLine
 10
102.5000125006025
 20
126.000000000114
 30
0.0
 11
210.5000125004945
 21
126.000000000114
 31
0.0
  0
LINE
  5
1D4
330
1F
100
AcDbEntity
  8
0
  6
CONTINUOUS
 62
     7
100
AcDbLine
 10
102.5000125006025
 20
303.9999999999361
 30
0.0
 11
101.8301395195254
 21
301.4999999999386
 31
0.0
  0
LINE
  5
1D5
330
1F
100
AcDbEntity
  8
0
  6
CONTINUOUS
 62
     7
100
AcDbLine
 10
101.8301395195255
 20
128.5000000001115
 30
0.0
 11
102.5000125006026
 21
126.000000000114
 31
0.0
  0
ARC
  5
1D6
330
1F
100
AcDbEntity
  8
0
  6
CONTINUOUS
 62
     7
100
AcDbCircle
 10
-259.9695506230295
 20
215.0000000000399
 30
0.0
 40
63.49999999999994
100
AcDbArc
 50
100.1417933656799
 51
106.5540970652157
  0
LINE
  5
1D7
330
1F
100
AcDbEntity
  8
0
  6
CONTINUOUS
 62
     7
100
AcDbLine
 10
-197.3156394877862
 20
204.0914358748782
 30
0.0
 11
-197.4617381230296
 21
203.818614734124
 31
0.0
  0
LINE
  5
1D8
330
1F
100
AcDbEntity
  8
0
  6
CONTINUOUS
 62
     7
100
AcDbLine
 10
-241.1990542546347
 20
276.3955271968515
 30
0.0
 11
-240.5556523504046
 21
278.5000000000398
 31
0.0
  0
LINE
  5
1D9
330
1F
100
AcDbEntity
  8
0
  6
CONTINUOUS
 62
     7
100
AcDbLine
 10
-321.365077819841
 20
196.2295036316451
 30
0.0
 11
-323.4695506230296
 21
195.5861017274148
 31
0.0
  0
ARC
  5
1DA
330
1F
100
AcDbEntity
  8
0
  6
CONTINUOUS
 62
     7
100
AcDbCircle
 10
259.9695506230295
 20
215.0000000000399
 30
0.0
 40
63.49999999999994
210
0.0
220
0.0
230
-1.0
100
AcDbArc
 50
100.1417933656799
 51
106.5540970652157
  0
LINE
  5
1DB
330
1F
100
AcDbEntity
  8
0
  6
CONTINUOUS
 62
     7
100
AcDbLine
 10
-197.3156394877862
 20
225.9085641252018
 30
0.0
 11
-197.4617381230296
 21
226.181385265956
 31
0.0
  0
LINE
  5
1DC
330
1F
100
AcDbEntity
  8
0
  6
CONTINUOUS
 62
     7
100
AcDbLine
 10
-279.3834488956546
 20
151.5000000000399
 30
0.0
 11
-272.3384582468016
 21
151.5000000000399
 31
0.0
  0
LINE
  5
1DD
330
1F
100
AcDbEntity
  8
0
  6
CONTINUOUS
 62
     7
100
AcDbLine
 10
91.50001250061362
 20
209.9996257305786
 30
0.0
 11
89.50001250061568
 21
209.9996257305786
 31
0.0
  0
LINE
  5
1DE
330
1F
100
AcDbEntity
  8
0
  6
CONTINUOUS
 62
     7
100
AcDbLine
 10
210.5000125004946
 20
126.000000000114
 30
0.0
 11
210.5000125004946
 21
303.9999999999361
 31
0.0
  0
LINE
  5
1DF
330
1F
100
AcDbEntity
  8
0
  6
CONTINUOUS
 62
     7
100
AcDbLine
 10
101.8301395195255
 20
301.4999999999386
 30
0.0
 11
96.42618940998157
 21
301.4999999999386
 31
0.0
  0
LINE
  5
1E0
330
1F
100
AcDbEntity
  8
0
  6
CONTINUOUS
 62
     7
100
AcDbLine
 10
-22.49998749927179
 20
121.0922757529263
 30
0.0
 11
-22.49998749927179
 21
163.348387313658
 31
0.0
  0
LINE
  5
1E1
330
1F
100
AcDbEntity
  8
0
  6
CONTINUOUS
 62
     7
100
AcDbLine
 10
96.50001250060852
 20
301.4999999999364
 30
0.0
 11
96.50001250060852
 21
128.5000000001116
 31
0.0
  0
LINE
  5
1E2
330
1F
100
AcDbEntity
  8
0
  6
CONTINUOUS
 62
     7
100
AcDbLine
 10
-208.81793793661
 20
303.3627631870012
 30
0.0
 11
-208.3179379366104
 21
303.2236510439745
 31
0.0
  0
LINE
  5
1E3
330
1F
100
AcDbEntity
  8
0
  6
CONTINUOUS
 62
     7
100
AcDbLine
 10
-10.49998749928382
 20
122.5590073920738
 30
0.0
 11
-10.49998749928382
 21
158.482628726973
 31
0.0
  0
LINE
  5
1E4
330
1F
100
AcDbEntity
  8
0
  6
CONTINUOUS
 62
     7
100
AcDbLine
 10
93.94136177998796
 20
120.399019368621
 30
0.0
 11
96.50001250060852
 21
128.5096067935401
 31
0.0
  0
LINE
  5
1E5
330
1F
100
AcDbEntity
  8
0
  6
CONTINUOUS
 62
     7
100
AcDbLine
 10
-10.49998749928382
 20
271.5173712730776
 30
0.0
 11
-10.49998749928382
 21
307.4409926079778
 31
0.0
  0
LINE
  5
1E6
330
1F
100
AcDbEntity
  8
0
  6
CONTINUOUS
 62
     7
100
AcDbLine
 10
215.7000125004895
 20
123.5000000001165
 30
0.0
 11
215.7000125004895
 21
306.4999999999335
 31
0.0
  0
LINE
  5
1E7
330
1F
100
AcDbEntity
  8
0
  6
CONTINUOUS
 62
     7
100
AcDbLine
 10
-348.3323138099901
 20
266.1516126864589
 30
0.0
 11
-348.1932016669637
 21
266.6516126864581
 31
0.0
  0
ARC
  5
1E8
330
1F
100
AcDbEntity
  8
0
  6
CONTINUOUS
 62
     7
100
AcDbCircle
 10
92.03379189541977
 20
121.000000000119
 30
0.0
 40
1.999999999997892
100
AcDbArc
 50
270.0
 51
342.491053984728
  0
LINE
  5
1E9
330
1F
100
AcDbEntity
  8
0
  6
CONTINUOUS
 62
     7
100
AcDbLine
 10
-22.49998749927179
 20
266.6516126863926
 30
0.0
 11
-22.49998749927179
 21
308.9077242471253
 31
0.0
  0
LINE
  5
1EA
330
1F
100
AcDbEntity
  8
0
  6
CONTINUOUS
 62
     7
100
AcDbLine
 10
-21.87057797670838
 20
163.8313502267995
 30
0.0
 11
-12.72353036395882
 21
161.3804062058343
 31
0.0
  0
LINE
  5
1EB
330
1F
100
AcDbEntity
  8
0
  6
CONTINUOUS
 62
     7
100
AcDbLine
 10
-56.49998749923779
 20
119.0000000001253
 30
0.0
 11
92.02949013164881
 21
119.0000000001253
 31
0.0
  0
LINE
  5
1EC
330
1F
100
AcDbEntity
  8
0
  6
CONTINUOUS
 62
     7
100
AcDbLine
 10
-56.49998749906987
 20
119.0000190385939
 30
0.0
 11
-56.49998749923782
 21
310.9999809614562
 31
0.0
  0
LINE
  5
1ED
330
1F
100
AcDbEntity
  8
0
  6
CONTINUOUS
 62
     7
100
AcDbLine
 10
91.50001250061362
 20
119.0000000001252
 30
0.0
 11
91.50001250061362
 21
310.9999999999248
 31
0.0
  0
ARC
  5
1EE
330
1F
100
AcDbEntity
  8
0
  6
CONTINUOUS
 62
     7
100
AcDbCircle
 10
-211.0000125004941
 20
301.2499999999389
 30
0.0
 40
0.4999999999993898
210
0.0
220
0.0
230
-1.0
100
AcDbArc
 50
270.0
 51
0.0
  0
LINE
  5
1EF
330
1F
100
AcDbEntity
  8
0
  6
CONTINUOUS
 62
     7
100
AcDbLine
 10
-21.87057797672098
 20
120.9714870706794
 30
0.0
 11
-22.49998749927176
 21
121.0922757529308
 31
0.0
  0
LINE
  5
1F0
330
1F
100
AcDbEntity
  8
0
  6
CONTINUOUS
 62
     7
100
AcDbLine
 10
89.50001250061563
 20
219.9978183246097
 30
0.0
 11
89.50001250061563
 21
220.0003742694709
 31
0.0
  0
LINE
  5
1F1
330
1F
100
AcDbEntity
  8
0
  6
CONTINUOUS
 62
     7
100
AcDbLine
 10
-56.49998749923779
 20
310.9999999999248
 30
0.0
 11
92.02949013164881
 21
310.9999999999248
 31
0.0
  0
LINE
  5
1F2
330
1F
100
AcDbEntity
  8
0
  6
CONTINUOUS
 62
     7
100
AcDbLine
 10
210.5000125004946
 20
127.9500000001122
 30
0.0
 11
215.7000125004894
 21
127.9500000001122
 31
0.0
  0
LINE
  5
1F3
330
1F
100
AcDbEntity
  8
0
  6
CONTINUOUS
 62
     7
100
AcDbLine
 10
102.5000125006025
 20
126.000000000114
 30
0.0
 11
102.5000125006025
 21
303.9999999999361
 31
0.0
  0
LINE
  5
1F4
330
1F
100
AcDbEntity
  8
0
  6
CONTINUOUS
 62
     7
100
AcDbLine
 10
221.0000125004841
 20
307.4999999999325
 30
0.0
 11
221.0000125004841
 21
307.3052002868073
 31
0.0
  0
LINE
  5
1F5
330
1F
100
AcDbEntity
  8
0
  6
CONTINUOUS
 62
     7
100
AcDbLine
 10
-22.49998749927179
 20
308.9077242471192
 30
0.0
 11
-21.87057797672101
 21
309.0285129293709
 31
0.0
  0
LINE
  5
1F6
330
1F
100
AcDbEntity
  8
0
  6
CONTINUOUS
 62
     7
100
AcDbLine
 10
215.2000125004899
 20
129.8350864499868
 30
0.0
 11
215.7000125004894
 21
129.3316715467086
 31
0.0
  0
LWPOLYLINE
  5
1F7
330
1F
100
AcDbEntity
  8
0
  6
CONTINUOUS
 62
     7
100
AcDbPolyline
 90
        5
 70
     0
 43
0.0
 10
12.72353036397394
 20
308.3699170683519
 42
0.0754500259183481
 10
11.04353732683588
 20
308.01306268152
 10
10.74424083327474
 20
307.8411939863258
 10
10.53916198207322
 20
307.6070410172943
 10
10.4999874992838
 20
307.440992607972
210
0.0
220
0.0
230
-1.0
  0
LINE
  5
1F8
330
1F
100
AcDbEntity
  8
0
  6
CONTINUOUS
 62
     7
100
AcDbLine
 10
221.0000125004841
 20
307.3052002868073
 30
0.0
 11
222.5000125004826
 21
307.3052002868073
 31
0.0
  0
LINE
  5
1F9
330
1F
100
AcDbEntity
  8
0
  6
CONTINUOUS
 62
     7
100
AcDbLine
 10
96.50001250058277
 20
301.4903932065021
 30
0.0
 11
93.94136177999427
 21
309.6009806314311
 31
0.0
  0
LINE
  5
1FA
330
1F
100
AcDbEntity
  8
0
  6
CONTINUOUS
 62
     7
100
AcDbLine
 10
-21.87057797672098
 20
303.3573280596656
 30
0.0
 11
-22.49998749927176
 21
303.2236510438707
 31
0.0
  0
LINE
  5
1FB
330
1F
100
AcDbEntity
  8
0
  6
CONTINUOUS
 62
     7
100
AcDbLine
 10
101.8301395195255
 20
128.5000000001115
 30
0.0
 11
101.8301395195255
 21
301.4999999999386
 31
0.0
  0
LINE
  5
1FC
330
1F
100
AcDbEntity
  8
0
  6
CONTINUOUS
 62
     7
100
AcDbLine
 10
-12.72353036395918
 20
268.619593794216
 30
0.0
 11
-21.87057797670841
 21
266.1686497732509
 31
0.0
  0
LINE
  5
1FD
330
1F
100
AcDbEntity
  8
0
  6
CONTINUOUS
 62
     7
100
AcDbLine
 10
89.50001250061563
 20
209.9996257305786
 30
0.0
 11
89.50001250061563
 21
210.0021816754404
 31
0.0
  0
LINE
  5
1FE
330
1F
100
AcDbEntity
  8
0
  6
CONTINUOUS
 62
     7
100
AcDbLine
 10
96.42618940998155
 20
128.5000000001115
 30
0.0
 11
101.8301395195255
 21
128.5000000001115
 31
0.0
  0
LINE
  5
1FF
330
1F
100
AcDbEntity
  8
0
  6
CONTINUOUS
 62
     7
100
AcDbLine
 10
89.50001250061563
 20
220.0003742694708
 30
0.0
 11
91.50001250061356
 21
220.0003742694708
 31
0.0
  0
LINE
  5
200
330
1F
100
AcDbEntity
  8
0
  6
CONTINUOUS
 62
     7
100
AcDbLine
 10
-22.49998749927179
 20
126.7763489561796
 30
0.0
 11
-21.87057797672101
 21
126.6426719403846
 31
0.0
  0
LINE
  5
201
330
1F
100
AcDbEntity
  8
0
  6
CONTINUOUS
 62
     7
100
AcDbLine
 10
-171.6067874360677
 20
163.8483873136212
 30
0.0
 11
-171.7458995790941
 21
163.3483873136217
 31
0.0
  0
LINE
  5
202
330
1F
100
AcDbEntity
  8
0
  6
CONTINUOUS
 62
     7
100
AcDbLine
 10
-311.1211633094478
 20
126.6372368130789
 30
0.0
 11
-311.6211633094475
 21
126.7763489561052
 31
0.0
  0
LINE
  5
203
330
1F
100
AcDbEntity
  8
0
  6
CONTINUOUS
 62
     7
100
AcDbLine
 10
-323.4695506230296
 20
202.6310923762983
 30
0.0
 11
-323.4084986900812
 21
203.9699978813721
 31
0.0
  0
ELLIPSE
  5
204
330
1F
100
AcDbEntity
  8
0
  6
CONTINUOUS
 62
     7
100
AcDbEllipse
 10
-196.9695696622225
 20
192.7785364416735
 30
0.0
 11
0.4070811453045775
 21
0.2903681590173957
 31
0.0
210
0.0
220
0.0
230
1.0
 40
0.9999425516836807
 41
5.663620582472882
 42
6.902750031886251
  0
LINE
  5
205
330
1F
100
AcDbEntity
  8
0
  6
CONTINUOUS
 62
     7
100
AcDbLine
 10
-323.3200029428227
 20
195.6504291272733
 30
0.0
 11
-322.6175146085462
 21
196.3802885273583
 31
0.0
  0
LINE
  5
206
330
1F
100
AcDbEntity
  8
0
  6
CONTINUOUS
 62
     7
100
AcDbLine
 10
-196.4695506230296
 20
202.6310923762983
 30
0.0
 11
-196.5306025559782
 21
203.9699978813721
 31
0.0
  0
LINE
  5
207
330
1F
100
AcDbEntity
  8
0
  6
CONTINUOUS
 62
     7
100
AcDbLine
 10
-247.6006429992879
 20
151.5000000000399
 30
0.0
 11
-248.9395485043618
 21
151.5610519329885
 31
0.0
  0
LINE
  5
208
330
1F
100
AcDbEntity
  8
0
  6
CONTINUOUS
 62
     7
100
AcDbLine
 10
-323.3200029428227
 20
234.3495708728065
 30
0.0
 11
-323.4547095099667
 21
234.3938416594674
 31
0.0
  0
LINE
  5
209
330
1F
100
AcDbEntity
  8
0
  6
CONTINUOUS
 62
     7
100
AcDbLine
 10
-196.6190983032365
 20
195.6504291272733
 30
0.0
 11
-196.4843917360925
 21
195.6061583406123
 31
0.0
  0
LINE
  5
20A
330
1F
100
AcDbEntity
  8
0
  6
CONTINUOUS
 62
     7
100
AcDbLine
 10
-323.4695506230296
 20
227.3689076237816
 30
0.0
 11
-323.4084986900811
 21
226.0300021187076
 31
0.0
  0
ELLIPSE
  5
20B
330
1F
100
AcDbEntity
  8
0
  6
CONTINUOUS
 62
     7
100
AcDbEllipse
 10
-196.9695696622225
 20
188.80129553262
 30
0.0
 11
0.2760029863863588
 21
-0.4169950253753438
 31
0.0
210
0.0
220
0.0
230
1.0
 40
0.9998750240684056
 41
5.297131805277703
 42
7.269238809081452
  0
ELLIPSE
  5
20C
330
1F
100
AcDbEntity
  8
0
  6
CONTINUOUS
 62
     7
100
AcDbEllipse
 10
-322.9695315838367
 20
237.2214635584064
 30
0.0
 11
-0.4070811453045775
 21
-0.2903681590173401
 31
0.0
210
0.0
220
0.0
230
1.0
 40
0.9999425516835
 41
5.663620582472884
 42
6.902750031886275
  0
LINE
  5
20D
330
1F
100
AcDbEntity
  8
0
  6
CONTINUOUS
 62
     7
100
AcDbLine
 10
-196.4695506230296
 20
227.3689076237816
 30
0.0
 11
-196.5306025559781
 21
226.0300021187076
 31
0.0
  0
LINE
  5
20E
330
1F
100
AcDbEntity
  8
0
  6
CONTINUOUS
 62
     7
100
AcDbLine
 10
-198.5740234262183
 20
196.2295036316451
 30
0.0
 11
-196.4695506230296
 21
195.5861017274148
 31
0.0
  0
LINE
  5
20F
330
1F
100
AcDbEntity
  8
0
  6
CONTINUOUS
 62
     7
100
AcDbLine
 10
-196.806753705652
 20
193.2513048887793
 30
0.0
 11
-199.266504798648
 21
194.0982651119176
 31
0.0
  0
LINE
  5
210
330
1F
100
AcDbEntity
  8
0
  6
CONTINUOUS
 62
     7
100
AcDbLine
 10
-240.6199797502629
 20
151.6495476802467
 30
0.0
 11
-240.575708963602
 21
151.5148411131027
 31
0.0
  0
LINE
  5
211
330
1F
100
AcDbEntity
  8
0
  6
CONTINUOUS
 62
     7
100
AcDbLine
 10
-247.6006429992879
 20
278.5000000000398
 30
0.0
 11
-248.9395485043618
 21
278.4389480670915
 31
0.0
  0
LINE
  5
212
330
1F
100
AcDbEntity
  8
0
  6
CONTINUOUS
 62
     7
100
AcDbLine
 10
-319.0666955577775
 20
240.0852497347293
 30
0.0
 11
-322.774211536175
 21
241.6589968982538
 31
0.0
  0
ARC
  5
213
330
1F
100
AcDbEntity
  8
0
  6
CONTINUOUS
 62
     7
100
AcDbCircle
 10
259.9695506230296
 20
215.0000000000399
 30
0.0
 40
63.49999999999994
210
0.0
220
0.0
230
-1.0
100
AcDbArc
 50
280.1417933656799
 51
286.5540970652156
  0
ELLIPSE
  5
214
330
1F
100
AcDbEntity
  8
0
  6
CONTINUOUS
 62
     7
100
AcDbEllipse
 10
-289.8986341755793
 20
152.0000190392328
 30
0.0
 11
0.2686641856446959
 21
-0.4217182972945377
 31
0.0
210
0.0
220
0.0
230
1.0
 40
0.9999464704561764
 41
5.715977557777416
 42
6.85039305658167
  0
LINE
  5
215
330
1F
100
AcDbEntity
  8
0
  6
CONTINUOUS
 62
     7
100
AcDbLine
 10
-234.8843008883399
 20
155.9028550652916
 30
0.0
 11
-233.3105537248157
 21
152.1953390868945
 31
0.0
  0
LINE
  5
216
330
1F
100
AcDbEntity
  8
0
  6
CONTINUOUS
 62
     7
100
AcDbLine
 10
-233.7707886265398
 20
278.5000000000398
 30
0.0
 11
-237.7481142251945
 21
278.5000000000398
 31
0.0
  0
ARC
  5
217
330
1F
100
AcDbEntity
  8
0
  6
CONTINUOUS
 62
     7
100
AcDbCircle
 10
259.9695506230296
 20
215.0000000000399
 30
0.0
 40
63.5
210
0.0
220
0.0
230
-1.0
100
AcDbArc
 50
289.4459029347843
 51
292.5540970652156
  0
LINE
  5
218
330
1F
100
AcDbEntity
  8
0
  6
CONTINUOUS
 62
     7
100
AcDbLine
 10
-285.0548003577191
 20
155.9028550652922
 30
0.0
 11
-286.6285475212435
 21
152.1953390868945
 31
0.0
  0
LINE
  5
219
330
1F
100
AcDbEntity
  8
0
  6
CONTINUOUS
 62
     7
100
AcDbLine
 10
-323.1808707463637
 20
244.4759226556377
 30
0.0
 11
-318.1552325834375
 21
242.1324290931493
 31
0.0
  0
LINE
  5
21A
330
1F
100
AcDbEntity
  8
0
  6
CONTINUOUS
 62
     7
100
AcDbLine
 10
-279.3191214957963
 20
151.6495476802467
 30
0.0
 11
-278.5892620957113
 21
152.3520360145233
 31
0.0
  0
LINE
  5
21B
330
1F
100
AcDbEntity
  8
0
  6
CONTINUOUS
 62
     7
100
AcDbLine
 10
-281.7182457342902
 20
278.1627969174177
 30
0.0
 11
-280.8712855111522
 21
275.7030458244216
 31
0.0
  0
LINE
  5
21C
330
1F
100
AcDbEntity
  8
0
  6
CONTINUOUS
 62
     7
100
AcDbLine
 10
-240.6199797502629
 20
151.6495476802467
 30
0.0
 11
-241.3498391503479
 21
152.3520360145233
 31
0.0
  0
LINE
  5
21D
330
1F
100
AcDbEntity
  8
0
  6
CONTINUOUS
 62
     7
100
AcDbLine
 10
-196.7582304996955
 20
185.524077344442
 30
0.0
 11
-201.7838686626218
 21
187.8675709069306
 31
0.0
  0
LINE
  5
21E
330
1F
100
AcDbEntity
  8
0
  6
CONTINUOUS
 62
     7
100
AcDbLine
 10
-279.3191214957963
 20
278.3504523198331
 30
0.0
 11
-278.5892620957113
 21
277.6479639855565
 31
0.0
  0
ARC
  5
21F
330
1F
100
AcDbEntity
  8
0
  6
CONTINUOUS
 62
     7
100
AcDbCircle
 10
-259.9695506230295
 20
215.0000000000399
 30
0.0
 40
63.5
100
AcDbArc
 50
19.44590293478436
 51
22.55409706521563
  0
ELLIPSE
  5
220
330
1F
100
AcDbEntity
  8
0
  6
CONTINUOUS
 62
     7
100
AcDbEllipse
 10
-196.9695696622225
 20
237.2214635584064
 30
0.0
 11
0.4070811453045775
 21
-0.2903681590173401
 31
0.0
210
0.0
220
0.0
230
-1.0
 40
0.9999425516835
 41
5.663620582472884
 42
6.902750031886279
  0
LINE
  5
221
330
1F
100
AcDbEntity
  8
0
  6
CONTINUOUS
 62
     7
100
AcDbLine
 10
-323.3200029428227
 20
195.6504291272733
 30
0.0
 11
-323.4547095099667
 21
195.6061583406123
 31
0.0
  0
LINE
  5
222
330
1F
100
AcDbEntity
  8
0
  6
CONTINUOUS
 62
     7
100
AcDbLine
 10
-196.6190983032365
 20
234.3495708728065
 30
0.0
 11
-196.4843917360925
 21
234.3938416594674
 31
0.0
  0
LINE
  5
223
330
1F
100
AcDbEntity
  8
0
  6
CONTINUOUS
 62
     7
100
AcDbLine
 10
-240.6199797502629
 20
278.3504523198331
 30
0.0
 11
-240.575708963602
 21
278.4851588869769
 31
0.0
  0
ELLIPSE
  5
224
330
1F
100
AcDbEntity
  8
0
  6
CONTINUOUS
 62
     7
100
AcDbEllipse
 10
-230.0404670704799
 20
277.9999809608472
 30
0.0
 11
-0.2686641856446681
 21
0.4217182972944821
 31
0.0
210
0.0
220
0.0
230
1.0
 40
0.9999464704561936
 41
5.715977557777415
 42
6.850393056581695
  0
LINE
  5
225
330
1F
100
AcDbEntity
  8
0
  6
CONTINUOUS
 62
     7
100
AcDbLine
 10
-238.2208555117691
 20
151.8372030826623
 30
0.0
 11
-239.0678157349071
 21
154.2969541756584
 31
0.0
  0
ELLIPSE
  5
226
330
1F
100
AcDbEntity
  8
0
  6
CONTINUOUS
 62
     7
100
AcDbEllipse
 10
-282.1910141813962
 20
277.9999809608472
 30
0.0
 11
0.2903681590173402
 21
0.407081145304633
 31
0.0
210
0.0
220
0.0
230
-1.0
 40
0.9999425516835002
 41
5.663620582472883
 42
6.902750031886279
  0
LINE
  5
227
330
1F
100
AcDbEntity
  8
0
  6
CONTINUOUS
 62
     7
100
AcDbLine
 10
-323.1323475404072
 20
236.7486951113005
 30
0.0
 11
-320.6725964474112
 21
235.9017348881625
 31
0.0
  0
ELLIPSE
  5
228
330
1F
100
AcDbEntity
  8
0
  6
CONTINUOUS
 62
     7
100
AcDbEllipse
 10
-237.748087064663
 20
152.0000190392328
 30
0.0
 11
-0.2903681590173401
 21
-0.4070811453045775
 31
0.0
210
0.0
220
0.0
230
-1.0
 40
0.9999425516836354
 41
5.663620582472883
 42
6.902750031886279
  0
LINE
  5
229
330
1F
100
AcDbEntity
  8
0
  6
CONTINUOUS
 62
     7
100
AcDbLine
 10
-323.1323475404072
 20
193.2513048887793
 30
0.0
 11
-320.6725964474112
 21
194.0982651119176
 31
0.0
  0
ELLIPSE
  5
22A
330
1F
100
AcDbEntity
  8
0
  6
CONTINUOUS
 62
     7
100
AcDbEllipse
 10
-282.1910141813962
 20
152.0000190392328
 30
0.0
 11
0.2903681590173402
 21
-0.407081145304633
 31
0.0
210
0.0
220
0.0
230
1.0
 40
0.9999425516835906
 41
5.663620582472882
 42
6.902750031886276
  0
LINE
  5
22B
330
1F
100
AcDbEntity
  8
0
  6
CONTINUOUS
 62
     7
100
AcDbLine
 10
-281.7182457342901
 20
151.8372030826623
 30
0.0
 11
-280.8712855111522
 21
154.2969541756584
 31
0.0
  0
LINE
  5
22C
330
1F
100
AcDbEntity
  8
0
  6
CONTINUOUS
 62
     7
100
AcDbLine
 10
-196.4695506230296
 20
234.4138982726649
 30
0.0
 11
-196.4695506230296
 21
227.3689076237816
 31
0.0
  0
ELLIPSE
  5
22D
330
1F
100
AcDbEntity
  8
0
  6
CONTINUOUS
 62
     7
100
AcDbEllipse
 10
-322.9695315838367
 20
185.0709164474901
 30
0.0
 11
-0.4217182972944821
 21
0.2686641856446959
 31
0.0
210
0.0
220
0.0
230
-1.0
 40
0.9999464704562703
 41
5.715977557777416
 42
6.85039305658164
  0
ELLIPSE
  5
22E
330
1F
100
AcDbEntity
  8
0
  6
CONTINUOUS
 62
     7
100
AcDbEllipse
 10
-289.8986341755794
 20
277.9999809608472
 30
0.0
 11
0.2686641856446959
 21
0.4217182972944821
 31
0.0
210
0.0
220
0.0
230
-1.0
 40
0.9999464704561168
 41
5.715977557777416
 42
6.850393056581639
  0
LINE
  5
22F
330
1F
100
AcDbEntity
  8
0
  6
CONTINUOUS
 62
     7
100
AcDbLine
 10
-323.1808707463637
 20
185.524077344442
 30
0.0
 11
-318.1552325834374
 21
187.8675709069306
 31
0.0
  0
LINE
  5
230
330
1F
100
AcDbEntity
  8
0
  6
CONTINUOUS
 62
     7
100
AcDbLine
 10
-279.3191214957963
 20
278.3504523198331
 30
0.0
 11
-279.3633922824573
 21
278.4851588869769
 31
0.0
  0
LINE
  5
231
330
1F
100
AcDbEntity
  8
0
  6
CONTINUOUS
 62
     7
100
AcDbLine
 10
-196.6190983032365
 20
195.6504291272733
 30
0.0
 11
-197.3215866375131
 21
196.3802885273583
 31
0.0
  0
LINE
  5
232
330
1F
100
AcDbEntity
  8
0
  6
CONTINUOUS
 62
     7
100
AcDbLine
 10
-272.3384582467713
 20
151.5000000000399
 30
0.0
 11
-270.9995527416974
 21
151.5610519329885
 31
0.0
  0
LINE
  5
233
330
1F
100
AcDbEntity
  8
0
  6
CONTINUOUS
 62
     7
100
AcDbLine
 10
-279.3191214957963
 20
151.6495476802467
 30
0.0
 11
-279.3633922824573
 21
151.5148411131027
 31
0.0
  0
LINE
  5
234
330
1F
100
AcDbEntity
  8
0
  6
CONTINUOUS
 62
     7
100
AcDbLine
 10
-240.6199797502629
 20
278.3504523198331
 30
0.0
 11
-241.3498391503479
 21
277.6479639855565
 31
0.0
  0
ELLIPSE
  5
235
330
1F
100
AcDbEntity
  8
0
  6
CONTINUOUS
 62
     7
100
AcDbEllipse
 10
-237.7480870646631
 20
277.9999809608472
 30
0.0
 11
-0.2903681590173402
 21
0.407081145304633
 31
0.0
210
0.0
220
0.0
230
1.0
 40
0.9999425516835002
 41
5.663620582472883
 42
6.902750031886251
  0
LINE
  5
236
330
1F
100
AcDbEntity
  8
0
  6
CONTINUOUS
 62
     7
100
AcDbLine
 10
-272.3384582467713
 20
278.5000000000398
 30
0.0
 11
-270.9995527416975
 21
278.4389480670915
 31
0.0
  0
LINE
  5
237
330
1F
100
AcDbEntity
  8
0
  6
CONTINUOUS
 62
     7
100
AcDbLine
 10
-196.806753705652
 20
236.7486951113005
 30
0.0
 11
-199.266504798648
 21
235.9017348881625
 31
0.0
  0
LINE
  5
238
330
1F
100
AcDbEntity
  8
0
  6
CONTINUOUS
 62
     7
100
AcDbLine
 10
-289.4454732786274
 20
278.211320123374
 30
0.0
 11
-287.1019797161389
 21
273.1856819604478
 31
0.0
  0
LINE
  5
239
330
1F
100
AcDbEntity
  8
0
  6
CONTINUOUS
 62
     7
100
AcDbLine
 10
-286.1683126195194
 20
151.5000000000399
 30
0.0
 11
-282.1909870208647
 21
151.5000000000399
 31
0.0
  0
ELLIPSE
  5
23A
330
1F
100
AcDbEntity
  8
0
  6
CONTINUOUS
 62
     7
100
AcDbEllipse
 10
-322.9695315838367
 20
192.7785364416732
 30
0.0
 11
-0.4070811453045775
 21
0.2903681590173957
 31
0.0
210
0.0
220
0.0
230
-1.0
 40
0.9999425516836163
 41
5.663620582472883
 42
6.902750031886279
  0
LINE
  5
23B
330
1F
100
AcDbEntity
  8
0
  6
CONTINUOUS
 62
     7
100
AcDbLine
 10
-238.2208555117691
 20
278.1627969174177
 30
0.0
 11
-239.0678157349071
 21
275.7030458244217
 31
0.0
  0
LINE
  5
23C
330
1F
100
AcDbEntity
  8
0
  6
CONTINUOUS
 62
     7
100
AcDbLine
 10
-323.4695506230296
 20
241.1987619965297
 30
0.0
 11
-323.4695506230296
 21
237.2214363978749
 31
0.0
  0
LINE
  5
23D
330
1F
100
AcDbEntity
  8
0
  6
CONTINUOUS
 62
     7
100
AcDbLine
 10
-196.6190983032365
 20
234.3495708728065
 30
0.0
 11
-197.3215866375131
 21
233.6197114727217
 31
0.0
  0
LINE
  5
23E
330
1F
100
AcDbEntity
  8
0
  6
CONTINUOUS
 62
     7
100
AcDbLine
 10
-286.1683126195194
 20
278.5000000000398
 30
0.0
 11
-282.1909870208647
 21
278.5000000000398
 31
0.0
  0
ELLIPSE
  5
23F
330
1F
100
AcDbEntity
  8
0
  6
CONTINUOUS
 62
     7
100
AcDbEllipse
 10
-322.9695315838367
 20
241.1987044674598
 30
0.0
 11
-0.2760029863864144
 21
0.416995025375344
 31
0.0
210
0.0
220
0.0
230
1.0
 40
0.9998750240684982
 41
5.297131805277701
 42
7.269238809081449
  0
LINE
  5
240
330
1F
100
AcDbEntity
  8
0
  6
CONTINUOUS
 62
     7
100
AcDbLine
 10
-294.3193761515222
 20
278.5000000000398
 30
0.0
 11
-289.898609917434
 21
278.5000000000398
 31
0.0
  0
LINE
  5
241
330
1F
100
AcDbEntity
  8
0
  6
CONTINUOUS
 62
     7
100
AcDbLine
 10
-230.4936279674318
 20
278.211320123374
 30
0.0
 11
-232.8371215299203
 21
273.1856819604478
 31
0.0
  0
LINE
  5
242
330
1F
100
AcDbEntity
  8
0
  6
CONTINUOUS
 62
     7
100
AcDbLine
 10
-323.4695506230296
 20
188.8012380035502
 30
0.0
 11
-323.4695506230296
 21
192.7785636022047
 31
0.0
  0
LINE
  5
243
330
1F
100
AcDbEntity
  8
0
  6
CONTINUOUS
 62
     7
100
AcDbLine
 10
-316.1208326089371
 20
183.8748361445745
 30
0.0
 11
-322.7271740814068
 21
180.2128812693969
 31
0.0
  0
ELLIPSE
  5
244
330
1F
100
AcDbEntity
  8
0
  6
CONTINUOUS
 62
     7
100
AcDbEllipse
 10
-196.9695696622225
 20
241.1987044674598
 30
0.0
 11
0.2760029863863588
 21
0.4169950253753438
 31
0.0
210
0.0
220
0.0
230
-1.0
 40
0.9998750240684668
 41
5.297131805277712
 42
7.269238809081454
  0
ELLIPSE
  5
245
330
1F
100
AcDbEntity
  8
0
  6
CONTINUOUS
 62
     7
100
AcDbEllipse
 10
-322.9695315838367
 20
244.9290835525896
 30
0.0
 11
-0.4217182972944822
 21
-0.2686641856446403
 31
0.0
210
0.0
220
0.0
230
1.0
 40
0.9999464704562361
 41
5.715977557777417
 42
6.850393056581693
  0
LINE
  5
246
330
1F
100
AcDbEntity
  8
0
  6
CONTINUOUS
 62
     7
100
AcDbLine
 10
-196.4695506230296
 20
188.8012380035502
 30
0.0
 11
-196.4695506230296
 21
192.778563602205
 31
0.0
  0
LINE
  5
247
330
1F
100
AcDbEntity
  8
0
  6
CONTINUOUS
 62
     7
100
AcDbLine
 10
-200.8724056882818
 20
189.9147502653504
 30
0.0
 11
-197.1648897098843
 21
188.3410031018259
 31
0.0
  0
LINE
  5
248
330
1F
100
AcDbEntity
  8
0
  6
CONTINUOUS
 62
     7
100
AcDbLine
 10
-203.8182686371231
 20
183.8748361445751
 30
0.0
 11
-197.2119271646525
 21
180.2128812693969
 31
0.0
  0
LINE
  5
249
330
1F
100
AcDbEntity
  8
0
  6
CONTINUOUS
 62
     7
100
AcDbLine
 10
-234.8843008883401
 20
274.0971449347878
 30
0.0
 11
-233.3105537248157
 21
277.8046609131852
 31
0.0
  0
ARC
  5
24A
330
1F
100
AcDbEntity
  8
0
  6
CONTINUOUS
 62
     7
100
AcDbCircle
 10
-259.9695506230295
 20
215.0000000000399
 30
0.0
 40
63.5
100
AcDbArc
 50
199.4459029347844
 51
202.5540970652155
  0
ELLIPSE
  5
24B
330
1F
100
AcDbEntity
  8
0
  6
CONTINUOUS
 62
     7
100
AcDbEllipse
 10
-286.1682550904494
 20
152.0000190392328
 30
0.0
 11
-0.416995025375344
 21
-0.2760029863864144
 31
0.0
210
0.0
220
0.0
230
1.0
 40
0.9998750240683442
 41
5.297131805277703
 42
7.26923880908145
  0
LINE
  5
24C
330
1F
100
AcDbEntity
  8
0
  6
CONTINUOUS
 62
     7
100
AcDbLine
 10
-323.4695506230296
 20
180.6501744715474
 30
0.0
 11
-323.4695506230296
 21
185.0709407056356
 31
0.0
  0
ELLIPSE
  5
24D
330
1F
100
AcDbEntity
  8
0
  6
CONTINUOUS
 62
     7
100
AcDbEllipse
 10
-225.6197897375773
 20
277.9999809608472
 30
0.0
 11
0.4308782608498096
 21
0.2538066922376236
 31
0.0
210
0.0
220
0.0
230
1.0
 40
0.9998522073753465
 41
5.24477904050617
 42
7.321591573853
  0
LINE
  5
24E
330
1F
100
AcDbEntity
  8
0
  6
CONTINUOUS
 62
     7
100
AcDbLine
 10
-289.4454732786274
 20
151.7886798767058
 30
0.0
 11
-287.1019797161389
 21
156.814318039632
 31
0.0
  0
ARC
  5
24F
330
1F
100
AcDbEntity
  8
0
  6
CONTINUOUS
 62
     7
100
AcDbCircle
 10
-259.9695506230295
 20
215.0000000000399
 30
0.0
 40
63.5
100
AcDbArc
 50
289.4459029347843
 51
292.5540970652157
  0
ARC
  5
250
330
1F
100
AcDbEntity
  8
0
  6
CONTINUOUS
 62
     7
100
AcDbCircle
 10
259.9695506230295
 20
215.0000000000399
 30
0.0
 40
63.5
210
0.0
220
0.0
230
-1.0
100
AcDbArc
 50
199.4459029347843
 51
202.5540970652155
  0
ARC
  5
251
330
1F
100
AcDbEntity
  8
0
  6
CONTINUOUS
 62
     7
100
AcDbCircle
 10
-259.9695506230295
 20
215.0000000000399
 30
0.0
 40
63.5
100
AcDbArc
 50
109.4459029347844
 51
112.5540970652156
  0
LINE
  5
252
330
1F
100
AcDbEntity
  8
0
  6
CONTINUOUS
 62
     7
100
AcDbLine
 10
-319.0666955577784
 20
189.9147502653501
 30
0.0
 11
-322.7742115361749
 21
188.3410031018259
 31
0.0
  0
LINE
  5
253
330
1F
100
AcDbEntity
  8
0
  6
CONTINUOUS
 62
     7
100
AcDbLine
 10
-323.4695506230296
 20
249.3498255285327
 30
0.0
 11
-323.4695506230296
 21
244.9290592944444
 31
0.0
  0
ARC
  5
254
330
1F
100
AcDbEntity
  8
0
  6
CONTINUOUS
 62
     7
100
AcDbCircle
 10
-259.9695506230295
 20
215.0000000000399
 30
0.0
 40
63.49999999999994
100
AcDbArc
 50
295.4459029347844
 51
298.5540970652158
  0
ARC
  5
255
330
1F
100
AcDbEntity
  8
0
  6
CONTINUOUS
 62
     7
100
AcDbCircle
 10
259.9695506230296
 20
215.0000000000399
 30
0.0
 40
63.5
210
0.0
220
0.0
230
-1.0
100
AcDbArc
 50
25.44590293478435
 51
28.55409706521585
  0
LINE
  5
256
330
1F
100
AcDbEntity
  8
0
  6
CONTINUOUS
 62
     7
100
AcDbLine
 10
-285.0548003577194
 20
274.0971449347884
 30
0.0
 11
-286.6285475212435
 21
277.8046609131852
 31
0.0
  0
ELLIPSE
  5
257
330
1F
100
AcDbEntity
  8
0
  6
CONTINUOUS
 62
     7
100
AcDbEllipse
 10
-230.0404670704799
 20
152.0000190392328
 30
0.0
 11
-0.2686641856446681
 21
-0.4217182972944821
 31
0.0
210
0.0
220
0.0
230
-1.0
 40
0.9999464704562532
 41
5.715977557777417
 42
6.85039305658164
  0
LINE
  5
258
330
1F
100
AcDbEntity
  8
0
  6
CONTINUOUS
 62
     7
100
AcDbLine
 10
-228.8443867675645
 20
158.8487180141328
 30
0.0
 11
-225.1824318923865
 21
152.2423765416627
 31
0.0
  0
ARC
  5
259
330
1F
100
AcDbEntity
  8
0
  6
CONTINUOUS
 62
     7
100
AcDbCircle
 10
259.9695506230295
 20
215.0000000000399
 30
0.0
 40
63.5
210
0.0
220
0.0
230
-1.0
100
AcDbArc
 50
19.44590293478435
 51
22.55409706521549
  0
LINE
  5
25A
330
1F
100
AcDbEntity
  8
0
  6
CONTINUOUS
 62
     7
100
AcDbLine
 10
-294.3193761515222
 20
151.5000000000399
 30
0.0
 11
-289.8986099174341
 21
151.5000000000399
 31
0.0
  0
LINE
  5
25B
330
1F
100
AcDbEntity
  8
0
  6
CONTINUOUS
 62
     7
100
AcDbLine
 10
-221.6468493315782
 20
278.1815738702904
 30
0.0
 11
-222.1486799966116
 21
277.9444989882207
 31
0.0
  0
LINE
  5
25C
330
1F
100
AcDbEntity
  8
0
  6
CONTINUOUS
 62
     7
100
AcDbLine
 10
-196.7582304996955
 20
244.4759226556377
 30
0.0
 11
-201.7838686626218
 21
242.1324290931493
 31
0.0
  0
ELLIPSE
  5
25D
330
1F
100
AcDbEntity
  8
0
  6
CONTINUOUS
 62
     7
100
AcDbEllipse
 10
-286.1682550904494
 20
277.9999809608472
 30
0.0
 11
-0.4169950253753996
 21
0.2760029863864145
 31
0.0
210
0.0
220
0.0
230
-1.0
 40
0.9998750240684368
 41
5.297131805277713
 42
7.269238809081454
  0
ELLIPSE
  5
25E
330
1F
100
AcDbEntity
  8
0
  6
CONTINUOUS
 62
     7
100
AcDbEllipse
 10
-196.9695696622225
 20
249.3497608854921
 30
0.0
 11
0.2538066922375681
 21
0.4308782608498652
 31
0.0
210
0.0
220
0.0
230
-1.0
 40
0.9998522073752791
 41
5.24477904050617
 42
7.321591573853001
  0
LINE
  5
25F
330
1F
100
AcDbEntity
  8
0
  6
CONTINUOUS
 62
     7
100
AcDbLine
 10
-291.0947144784944
 20
158.8487180141334
 30
0.0
 11
-294.7566693536727
 21
152.2423765416627
 31
0.0
  0
ELLIPSE
  5
260
330
1F
100
AcDbEntity
  8
0
  6
CONTINUOUS
 62
     7
100
AcDbEllipse
 10
-196.9695696622225
 20
185.0709164474901
 30
0.0
 11
0.4217182972944821
 21
0.2686641856446959
 31
0.0
210
0.0
220
0.0
230
1.0
 40
0.9999464704563298
 41
5.715977557777416
 42
6.850393056581673
  0
LINE
  5
261
330
1F
100
AcDbEntity
  8
0
  6
CONTINUOUS
 62
     7
100
AcDbLine
 10
-316.1208326089362
 20
246.1251638555049
 30
0.0
 11
-322.7271740814068
 21
249.7871187306831
 31
0.0
  0
ARC
  5
262
330
1F
100
AcDbEntity
  8
0
  6
CONTINUOUS
 62
     7
100
AcDbCircle
 10
259.9695506230295
 20
215.0000000000399
 30
0.0
 40
63.5
210
0.0
220
0.0
230
-1.0
100
AcDbArc
 50
109.4459029347844
 51
112.5540970652156
  0
LINE
  5
263
330
1F
100
AcDbEntity
  8
0
  6
CONTINUOUS
 62
     7
100
AcDbLine
 10
-196.4695506230296
 20
241.1987619965297
 30
0.0
 11
-196.4695506230296
 21
237.2214363978749
 31
0.0
  0
LINE
  5
264
330
1F
100
AcDbEntity
  8
0
  6
CONTINUOUS
 62
     7
100
AcDbLine
 10
-233.7707886265398
 20
151.5000000000399
 30
0.0
 11
-237.7481142251945
 21
151.5000000000399
 31
0.0
  0
ELLIPSE
  5
265
330
1F
100
AcDbEntity
  8
0
  6
CONTINUOUS
 62
     7
100
AcDbEllipse
 10
-322.9695315838367
 20
188.80129553262
 30
0.0
 11
-0.2760029863864144
 21
-0.416995025375344
 31
0.0
210
0.0
220
0.0
230
-1.0
 40
0.9998750240684368
 41
5.297131805277713
 42
7.269238809081454
  0
LINE
  5
266
330
1F
100
AcDbEntity
  8
0
  6
CONTINUOUS
 62
     7
100
AcDbLine
 10
-196.4695506230296
 20
249.3498255285327
 30
0.0
 11
-196.4695506230296
 21
244.9290592944444
 31
0.0
  0
ARC
  5
267
330
1F
100
AcDbEntity
  8
0
  6
CONTINUOUS
 62
     7
100
AcDbCircle
 10
-259.9695506230297
 20
215.0000000000399
 30
0.0
 40
63.5
100
AcDbArc
 50
205.4459029347844
 51
208.5540970652156
  0
LINE
  5
268
330
1F
100
AcDbEntity
  8
0
  6
CONTINUOUS
 62
     7
100
AcDbLine
 10
-230.4936279674317
 20
151.7886798767058
 30
0.0
 11
-232.8371215299203
 21
156.814318039632
 31
0.0
  0
LINE
  5
269
330
1F
100
AcDbEntity
  8
0
  6
CONTINUOUS
 62
     7
100
AcDbLine
 10
-200.8724056882815
 20
240.0852497347296
 30
0.0
 11
-197.1648897098843
 21
241.6589968982539
 31
0.0
  0
ELLIPSE
  5
26A
330
1F
100
AcDbEntity
  8
0
  6
CONTINUOUS
 62
     7
100
AcDbEllipse
 10
-233.7708461556098
 20
152.0000190392328
 30
0.0
 11
0.4169950253753718
 21
-0.2760029863864144
 31
0.0
210
0.0
220
0.0
230
-1.0
 40
0.999875024068298
 41
5.297131805277713
 42
7.269238809081454
  0
ELLIPSE
  5
26B
330
1F
100
AcDbEntity
  8
0
  6
CONTINUOUS
 62
     7
100
AcDbEllipse
 10
-196.9695696622225
 20
244.9290835525896
 30
0.0
 11
0.4217182972944822
 21
-0.2686641856446403
 31
0.0
210
0.0
220
0.0
230
-1.0
 40
0.9999464704562361
 41
5.715977557777415
 42
6.850393056581639
  0
ELLIPSE
  5
26C
330
1F
100
AcDbEntity
  8
0
  6
CONTINUOUS
 62
     7
100
AcDbEllipse
 10
-294.3193115084819
 20
277.9999809608472
 30
0.0
 11
-0.4308782608498096
 21
0.2538066922376236
 31
0.0
210
0.0
220
0.0
230
-1.0
 40
0.9998522073753183
 41
5.24477904050617
 42
7.321591573853001
  0
ELLIPSE
  5
26D
330
1F
100
AcDbEntity
  8
0
  6
CONTINUOUS
 62
     7
100
AcDbEllipse
 10
-233.7708461556098
 20
277.9999809608472
 30
0.0
 11
0.4169950253753163
 21
0.2760029863864144
 31
0.0
210
0.0
220
0.0
230
1.0
 40
0.9998750240685754
 41
5.297131805277703
 42
7.269238809081449
  0
ELLIPSE
  5
26E
330
1F
100
AcDbEntity
  8
0
  6
CONTINUOUS
 62
     7
100
AcDbEllipse
 10
-196.9695696622225
 20
180.6502391145876
 30
0.0
 11
0.2538066922375127
 21
-0.4308782608498651
 31
0.0
210
0.0
220
0.0
230
1.0
 40
0.9998522073753354
 41
5.24477904050617
 42
7.321591573853
  0
ELLIPSE
  5
26F
330
1F
100
AcDbEntity
  8
0
  6
CONTINUOUS
 62
     7
100
AcDbEllipse
 10
-225.6197897375773
 20
152.0000190392328
 30
0.0
 11
0.4308782608498096
 21
-0.2538066922375126
 31
0.0
210
0.0
220
0.0
230
-1.0
 40
0.9998522073754593
 41
5.24477904050617
 42
7.321591573853
  0
ENDSEC
  0
SECTION
  2
OBJECTS
  0
DICTIONARY
  5
C
330
0
100
AcDbDictionary
  3
ACAD_GROUP
350
D
  3
ACAD_LAYOUT
350
1A
  3
ACAD_MATERIAL
350
43
  3
ACAD_MLEADERSTYLE
350
6B
  3
ACAD_MLINESTYLE
350
17
  3
ACAD_PLOTSETTINGS
350
19
  3
ACAD_SCALELIST
350
47
  3
ACAD_VISUALSTYLE
350
2A
  3
ACDBHEADERROUNDTRIPXREC
350
270
  3
ACDBVARIABLEDICTIONARY
350
291
  0
DICTIONARY
  5
298
330
8
100
AcDbDictionary
280
     1
  3
ACAD_XREC_ROUNDTRIP
360
299
  0
DICTIONARY
  5
D
102
{ACAD_REACTORS
330
C
102
}
330
C
100
AcDbDictionary
  0
DICTIONARY
  5
1A
102
{ACAD_REACTORS
330
C
102
}
330
C
100
AcDbDictionary
  0
DICTIONARY
  5
43
102
{ACAD_REACTORS
330
C
102
}
330
C
100
AcDbDictionary
  3
BYBLOCK
350
45
  3
BYLAYER
350
44
  3
GLOBAL
350
46
  0
DICTIONARY
  5
6B
102
{ACAD_REACTORS
330
C
102
}
330
C
100
AcDbDictionary
  3
STANDARD
350
6C
  0
DICTIONARY
  5
17
102
{ACAD_REACTORS
330
C
102
}
330
C
100
AcDbDictionary
  3
STANDARD
350
18
  0
DICTIONARY
  5
19
102
{ACAD_REACTORS
330
C
102
}
330
C
100
AcDbDictionary
  0
DICTIONARY
  5
47
102
{ACAD_REACTORS
330
C
102
}
330
C
100
AcDbDictionary
  3
A0
350
48
  3
A1
350
49
  3
A2
350
4A
  3
A3
350
4B
  3
A4
350
4C
  3
A5
350
4D
  3
A6
350
4E
  3
A7
350
4F
  3
A8
350
50
  3
A9
350
51
  3
B0
350
52
  3
B1
350
53
  3
B2
350
54
  3
B3
350
55
  3
B4
350
56
  3
B5
350
57
  3
B6
350
58
  3
B7
350
59
  3
B8
350
5A
  3
B9
350
5B
  3
C0
350
5C
  3
C1
350
5D
  3
C2
350
5E
  3
C3
350
5F
  3
C4
350
60
  3
C5
350
61
  3
C6
350
62
  3
C7
350
63
  3
C8
350
64
  3
C9
350
65
  3
D0
350
66
  3
D1
350
67
  3
D2
350
68
  0
DICTIONARY
  5
2A
102
{ACAD_REACTORS
330
C
102
}
330
C
100
AcDbDictionary
  3
2DWIREFRAME
350
2F
  3
BASIC
350
32
  3
BRIGHTEN
350
36
  3
COLORCHANGE
350
3A
  3
CONCEPTUAL
350
34
  3
DIM
350
35
  3
EDGECOLOROFF
350
3D
  3
FACEPATTERN
350
39
  3
FLAT
350
2B
  3
FLATWITHEDGES
350
2C
  3
GOURAUD
350
2D
  3
GOURAUDWITHEDGES
350
2E
  3
HIDDEN
350
31
  3
JITTEROFF
350
3B
  3
LINEPATTERN
350
38
  3
OVERHANGOFF
350
3C
  3
REALISTIC
350
33
  3
SHADED
350
42
  3
SHADED_WITH_EDGES
350
41
  3
SHADES_OF_GRAY
350
3E
  3
SKETCHY
350
3F
  3
THICKEN
350
37
  3
WIREFRAME
350
30
  3
X-RAY
350
40
  0
DICTIONARY
  5
270
102
{ACAD_REACTORS
330
C
102
}
330
C
100
AcDbDictionary
  3
CEPSNID
350
27A
  3
CEPSNTYPE
350
279
  3
DIMSTYLEDATA
350
290
  3
FINGERPRINTGUID
350
27B
  3
HYPERLINKBASE
350
273
  3
INSUNITS
350
278
  3
LAYOUTDICT
350
275
  3
LWETCUNION
350
277
  3
PLOTSETDICT
350
276
  3
PSVPSCALE
350
27D
  3
PUCSBASE
350
280
  3
PUCSORGBACK
350
286
  3
PUCSORGBOTTOM
350
282
  3
PUCSORGFRONT
350
285
  3
PUCSORGLEFT
350
283
  3
PUCSORGRIGHT
350
284
  3
PUCSORGTOP
350
281
  3
PUCSORTHOREF
350
27E
  3
PUCSORTHOVIEW
350
27F
  3
STYLESHEET
350
274
  3
TSTACKALIGN
350
271
  3
TSTACKSIZE
350
272
  3
UCSBASE
350
289
  3
UCSORGBACK
350
28F
  3
UCSORGBOTTOM
350
28B
  3
UCSORGFRONT
350
28E
  3
UCSORGLEFT
350
28C
  3
UCSORGRIGHT
350
28D
  3
UCSORGTOP
350
28A
  3
UCSORTHOREF
350
287
  3
UCSORTHOVIEW
350
288
  3
VERSIONGUID
350
27C
  0
DICTIONARY
  5
291
102
{ACAD_REACTORS
330
C
102
}
330
C
100
AcDbDictionary
  3
CANNOSCALE
350
29A
  3
CMLEADERSTYLE
350
293
  3
CTABLESTYLE
350
292
  3
DIMASSOC
350
296
  3
HIDETEXT
350
297
  3
MSLTSCALE
350
29B
  0
XRECORD
  5
299
102
{ACAD_REACTORS
330
298
102
}
330
298
100
AcDbXrecord
102
VTR_0.000_0.000_1.000_1.000_VISUALSTYLE
340
2F
102
VTR_0.000_0.000_1.000_1.000_GRIDDISPLAY
 70
     3
102
VTR_0.000_0.000_1.000_1.000_GRIDMAJOR
 70
     5
102
VTR_0.000_0.000_1.000_1.000_DEFAULTLIGHTING
280
     1
102
VTR_0.000_0.000_1.000_1.000_DEFAULTLIGHTINGTYPE
 70
     1
102
VTR_0.000_0.000_1.000_1.000_BRIGHTNESS
141
0.0
102
VTR_0.000_0.000_1.000_1.000_CONTRAST
142
0.0
  0
MATERIAL
  5
45
102
{ACAD_REACTORS
330
43
102
}
102
{ACAD_XDICTIONARY
360
29E
102
}
330
43
100
AcDbMaterial
  1
BYBLOCK
  0
MATERIAL
  5
44
102
{ACAD_REACTORS
330
43
102
}
102
{ACAD_XDICTIONARY
360
29C
102
}
330
43
100
AcDbMaterial
  1
BYLAYER
  0
MATERIAL
  5
46
102
{ACAD_REACTORS
330
43
102
}
102
{ACAD_XDICTIONARY
360
2A0
102
}
330
43
100
AcDbMaterial
  1
GLOBAL
  0
ACAD_PROXY_OBJECT
  5
6C
102
{ACAD_REACTORS
330
6B
102
}
330
6B
100
AcDbProxyObject
 90
      499
 91
      505
 93
      610
310
40901902A4063FBFFFFFE056BD1B81E855B9FC0AD7A3703D0AD73F4214DD185B99185C9900AD7A3703D0AC73F90141901A02B5E8DC0F42B1CFC02B5E8DC0F42B1CFE5764000000000000300FC0
340
14
340
0
340
11
340
0
 94
        0
1001
ACAD_MLEADERVER
1070
     2
  0
MLINESTYLE
  5
18
102
{ACAD_REACTORS
330
17
102
}
330
17
100
AcDbMlineStyle
  2
Standard
 70
     0
  3

 62
   256
 51
90.0
 52
90.0
 71
     2
 49
0.5
 62
   256
  6
BYLAYER
 49
-0.5
 62
   256
  6
BYLAYER
  0
ACAD_PROXY_OBJECT
  5
48
102
{ACAD_REACTORS
330
47
102
}
330
47
100
AcDbProxyObject
 90
      499
 91
      503
 93
       41
310
903313A31580
  0
ACAD_PROXY_OBJECT
  5
49
102
{ACAD_REACTORS
330
47
102
}
330
47
100
AcDbProxyObject
 90
      499
 91
      503
 93
      105
310
903313A324000000000000004000
  0
ACAD_PROXY_OBJECT
  5
4A
102
{ACAD_REACTORS
330
47
102
}
330
47
100
AcDbProxyObject
 90
      499
 91
      503
 93
      105
310
903313A344000000000000104000
  0
ACAD_PROXY_OBJECT
  5
4B
102
{ACAD_REACTORS
330
47
102
}
330
47
100
AcDbProxyObject
 90
      499
 91
      503
 93
      105
310
903313A354000000000000144000
  0
ACAD_PROXY_OBJECT
  5
4C
102
{ACAD_REACTORS
330
47
102
}
330
47
100
AcDbProxyObject
 90
      499
 91
      503
 93
      105
310
903313A384000000000000204000
  0
ACAD_PROXY_OBJECT
  5
4D
102
{ACAD_REACTORS
330
47
102
}
330
47
100
AcDbProxyObject
 90
      499
 91
      503
 93
      113
310
904313A31304000000000000244000
  0
ACAD_PROXY_OBJECT
  5
4E
102
{ACAD_REACTORS
330
47
102
}
330
47
100
AcDbProxyObject
 90
      499
 91
      503
 93
      113
310
904313A31364000000000000304000
  0
ACAD_PROXY_OBJECT
  5
4F
102
{ACAD_REACTORS
330
47
102
}
330
47
100
AcDbProxyObject
 90
      499
 91
      503
 93
      113
310
904313A32304000000000000344000
  0
ACAD_PROXY_OBJECT
  5
50
102
{ACAD_REACTORS
330
47
102
}
330
47
100
AcDbProxyObject
 90
      499
 91
      503
 93
      113
310
904313A333040000000000003E4000
  0
ACAD_PROXY_OBJECT
  5
51
102
{ACAD_REACTORS
330
47
102
}
330
47
100
AcDbProxyObject
 90
      499
 91
      503
 93
      113
310
904313A34304000000000000444000
  0
ACAD_PROXY_OBJECT
  5
52
102
{ACAD_REACTORS
330
47
102
}
330
47
100
AcDbProxyObject
 90
      499
 91
      503
 93
      113
310
904313A35304000000000000494000
  0
ACAD_PROXY_OBJECT
  5
53
102
{ACAD_REACTORS
330
47
102
}
330
47
100
AcDbProxyObject
 90
      499
 91
      503
 93
      121
310
905313A3130304000000000000594000
  0
ACAD_PROXY_OBJECT
  5
54
102
{ACAD_REACTORS
330
47
102
}
330
47
100
AcDbProxyObject
 90
      499
 91
      503
 93
      105
310
903323A310000000000000010100
  0
ACAD_PROXY_OBJECT
  5
55
102
{ACAD_REACTORS
330
47
102
}
330
47
100
AcDbProxyObject
 90
      499
 91
      503
 93
      105
310
903343A310000000000000410100
  0
ACAD_PROXY_OBJECT
  5
56
102
{ACAD_REACTORS
330
47
102
}
330
47
100
AcDbProxyObject
 90
      499
 91
      503
 93
      105
310
903383A310000000000000810100
  0
ACAD_PROXY_OBJECT
  5
57
102
{ACAD_REACTORS
330
47
102
}
330
47
100
AcDbProxyObject
 90
      499
 91
      503
 93
      113
310
90431303A310000000000000910100
  0
ACAD_PROXY_OBJECT
  5
58
102
{ACAD_REACTORS
330
47
102
}
330
47
100
AcDbProxyObject
 90
      499
 91
      503
 93
      121
310
9053130303A310000000000001650100
  0
ACAD_PROXY_OBJECT
  5
59
102
{ACAD_REACTORS
330
47
102
}
330
47
100
AcDbProxyObject
 90
      499
 91
      503
 93
      257
310
90E312F31323822203D2031272D3022000000000000200FC000000000000284000
  0
ACAD_PROXY_OBJECT
  5
5A
102
{ACAD_REACTORS
330
47
102
}
330
47
100
AcDbProxyObject
 90
      499
 91
      503
 93
      249
310
90D312F363422203D2031272D3022000000000000240FC000000000000284000
  0
ACAD_PROXY_OBJECT
  5
5B
102
{ACAD_REACTORS
330
47
102
}
330
47
100
AcDbProxyObject
 90
      499
 91
      503
 93
      249
310
90D312F333222203D2031272D3022000000000000280FC000000000000284000
  0
ACAD_PROXY_OBJECT
  5
5C
102
{ACAD_REACTORS
330
47
102
}
330
47
100
AcDbProxyObject
 90
      499
 91
      503
 93
      249
310
90D312F313622203D2031272D30220000000000002C0FC000000000000284000
  0
ACAD_PROXY_OBJECT
  5
5D
102
{ACAD_REACTORS
330
47
102
}
330
47
100
AcDbProxyObject
 90
      499
 91
      503
 93
      249
310
90D332F333222203D2031272D30220000000000002E0FC000000000000284000
  0
ACAD_PROXY_OBJECT
  5
5E
102
{ACAD_REACTORS
330
47
102
}
330
47
100
AcDbProxyObject
 90
      499
 91
      503
 93
      241
310
90C312F3822203D2031272D3022000000000000300FC000000000000284000
  0
ACAD_PROXY_OBJECT
  5
5F
102
{ACAD_REACTORS
330
47
102
}
330
47
100
AcDbProxyObject
 90
      499
 91
      503
 93
      249
310
90D332F313622203D2031272D3022000000000000320FC000000000000284000
  0
ACAD_PROXY_OBJECT
  5
60
102
{ACAD_REACTORS
330
47
102
}
330
47
100
AcDbProxyObject
 90
      499
 91
      503
 93
      241
310
90C312F3422203D2031272D3022000000000000340FC000000000000284000
  0
ACAD_PROXY_OBJECT
  5
61
102
{ACAD_REACTORS
330
47
102
}
330
47
100
AcDbProxyObject
 90
      499
 91
      503
 93
      241
310
90C332F3822203D2031272D3022000000000000360FC000000000000284000
  0
ACAD_PROXY_OBJECT
  5
62
102
{ACAD_REACTORS
330
47
102
}
330
47
100
AcDbProxyObject
 90
      499
 91
      503
 93
      241
310
90C312F3222203D2031272D3022000000000000380FC000000000000284000
  0
ACAD_PROXY_OBJECT
  5
63
102
{ACAD_REACTORS
330
47
102
}
330
47
100
AcDbProxyObject
 90
      499
 91
      503
 93
      241
310
90C332F3422203D2031272D30220000000000003A0FC000000000000284000
  0
ACAD_PROXY_OBJECT
  5
64
102
{ACAD_REACTORS
330
47
102
}
330
47
100
AcDbProxyObject
 90
      499
 91
      503
 93
      161
310
90A3122203D2031272D30224000000000000284000
  0
ACAD_PROXY_OBJECT
  5
65
102
{ACAD_REACTORS
330
47
102
}
330
47
100
AcDbProxyObject
 90
      499
 91
      503
 93
      257
310
90E312D312F3222203D2031272D30220000000000003E0FC000000000000284000
  0
ACAD_PROXY_OBJECT
  5
66
102
{ACAD_REACTORS
330
47
102
}
330
47
100
AcDbProxyObject
 90
      499
 91
      503
 93
      225
310
90A3322203D2031272D302200000000000002100000000000000284000
  0
ACAD_PROXY_OBJECT
  5
67
102
{ACAD_REACTORS
330
47
102
}
330
47
100
AcDbProxyObject
 90
      499
 91
      503
 93
      225
310
90A3622203D2031272D302200000000000006100000000000000284000
  0
ACAD_PROXY_OBJECT
  5
68
102
{ACAD_REACTORS
330
47
102
}
330
47
100
AcDbProxyObject
 90
      499
 91
      503
 93
      249
310
90D31272D3022203D2031272D30220000000000000A100000000000000284000
  0
ACAD_PROXY_OBJECT
  5
2F
102
{ACAD_REACTORS
330
2A
102
}
330
2A
100
AcDbProxyObject
 90
      499
 91
      501
 93
      436
310
42CC9915DA5C99599C985B595049028333333333333E33F0000000000000F90107901411070040501600405405064090741402480A0340
1001
ACAD
1000
AcDbSavedByObjectVersion
1070
     0
  0
ACAD_PROXY_OBJECT
  5
32
102
{ACAD_REACTORS
330
2A
102
}
330
2A
100
AcDbProxyObject
 90
      499
 91
      501
 93
      388
310
4150985CDA58D07406404333333333333E33F0000000000000F90107A41107004050150841D405064090741402480A0350
1001
ACAD
1000
AcDbSavedByObjectVersion
1070
     0
  0
ACAD_PROXY_OBJECT
  5
36
102
{ACAD_REACTORS
330
2A
102
}
330
2A
100
AcDbProxyObject
 90
      499
 91
      501
 93
      428
310
42109C9A59DA1D195B90C409028333333333333E33F0000000000000F9010790141107004050150841D405064090741402480A029950
1001
ACAD
1000
AcDbSavedByObjectVersion
1070
     0
  0
ACAD_PROXY_OBJECT
  5
3A
102
{ACAD_REACTORS
330
2A
102
}
330
2A
100
AcDbProxyObject
 90
      499
 91
      501
 93
      452
310
42D0DBDB1BDC90DA185B99D95104090240C333333333333E33F0000000000000F90108901411070040501508421405064090741402480A0350
1001
ACAD
1000
AcDbSavedByObjectVersion
1070
     0
  0
ACAD_PROXY_OBJECT
  5
34
102
{ACAD_REACTORS
330
2A
102
}
330
2A
100
AcDbProxyObject
 90
      499
 91
      501
 93
      500
310
4290DBDB98D95C1D1D585B10940D028333333333333E33F0000000000000F90107902409070040501000000000018199010841D405064090740C02480A0340
1001
ACAD
1000
AcDbSavedByObjectVersion
1070
     0
  0
ACAD_PROXY_OBJECT
  5
35
102
{ACAD_REACTORS
330
2A
102
}
330
2A
100
AcDbProxyObject
 90
      499
 91
      501
 93
      412
310
40D11A5B50B409028333333333333E33F0000000000000F9010790141107004050150841D405064090741402480A02677FFFFFD0
1001
ACAD
1000
AcDbSavedByObjectVersion
1070
     0
  0
ACAD_PROXY_OBJECT
  5
3D
102
{ACAD_REACTORS
330
2A
102
}
330
2A
100
AcDbProxyObject
 90
      499
 91
      501
 93
      452
310
43115919D950DBDB1BDC93D999916409028333333333333E33F0000000000000F9010790141107004050150841D405064090741402480A0350
1001
ACAD
1000
AcDbSavedByObjectVersion
1070
     0
  0
ACAD_PROXY_OBJECT
  5
39
102
{ACAD_REACTORS
330
2A
102
}
330
2A
100
AcDbProxyObject
 90
      499
 91
      501
 93
      444
310
42D19858D95C185D1D195C9B90F409028333333333333E33F0000000000000F9010790141107004050150841D405064090741402480A0350
1001
ACAD
1000
AcDbSavedByObjectVersion
1070
     0
  0
ACAD_PROXY_OBJECT
  5
2B
102
{ACAD_REACTORS
330
2A
102
}
330
2A
100
AcDbProxyObject
 90
      499
 91
      501
 93
      380
310
41119B185D240901404333333333333E33F0000000000000F9010740A907004050150841D405064090741402480A1B50
1001
ACAD
1000
AcDbSavedByObjectVersion
1070
     0
  0
ACAD_PROXY_OBJECT
  5
2C
102
{ACAD_REACTORS
330
2A
102
}
330
2A
100
AcDbProxyObject
 90
      499
 91
      501
 93
      468
310
43519B185D15DA5D1A115919D95CD0140901404333333333333E33F0000000000000F90107409019070040501600405405064090741402480A1B50
1001
ACAD
1000
AcDbSavedByObjectVersion
1070
     0
  0
ACAD_PROXY_OBJECT
  5
2D
102
{ACAD_REACTORS
330
2A
102
}
330
2A
100
AcDbProxyObject
 90
      499
 91
      501
 93
      404
310
41D1DBDD5C985D5910240902404333333333333E33F0000000000000F9010740A9070040501641D405064090741402480A1B50
1001
ACAD
1000
AcDbSavedByObjectVersion
1070
     0
  0
ACAD_PROXY_OBJECT
  5
2E
102
{ACAD_REACTORS
330
2A
102
}
330
2A
100
AcDbProxyObject
 90
      499
 91
      501
 93
      492
310
4411DBDD5C985D5915DA5D1A115919D95CD0340902404333333333333E33F0000000000000F90107409019070040501600405405064090741402480A1B50
1001
ACAD
1000
AcDbSavedByObjectVersion
1070
     0
  0
ACAD_PROXY_OBJECT
  5
31
102
{ACAD_REACTORS
330
2A
102
}
330
2A
100
AcDbProxyObject
 90
      499
 91
      501
 93
      476
310
41921A5919195B90640502408333333333333E33F0000000000000F901079024090700405020000000000001110200405405064090740C02480A0340
1001
ACAD
1000
AcDbSavedByObjectVersion
1070
     0
  0
ACAD_PROXY_OBJECT
  5
3B
102
{ACAD_REACTORS
330
2A
102
}
330
2A
100
AcDbProxyObject
 90
      499
 91
      501
 93
      428
310
42529A5D1D195C93D999914409028333333333333E33F0000000000000F9010790141107004050150A41D405064090741402480A0350
1001
ACAD
1000
AcDbSavedByObjectVersion
1070
     0
  0
ACAD_PROXY_OBJECT
  5
38
102
{ACAD_REACTORS
330
2A
102
}
330
2A
100
AcDbProxyObject
 90
      499
 91
      501
 93
      444
310
42D31A5B995C185D1D195C9B90E409028333333333333E33F0000000000000F9010790141107004050750841D405064090741402483A0350
1001
ACAD
1000
AcDbSavedByObjectVersion
1070
     0
  0
ACAD_PROXY_OBJECT
  5
3C
102
{ACAD_REACTORS
330
2A
102
}
330
2A
100
AcDbProxyObject
 90
      499
 91
      501
 93
      444
310
42D3DD995C9A185B99D3D999915409028333333333333E33F0000000000000F9010790141107004050150941D405064090741402480A0350
1001
ACAD
1000
AcDbSavedByObjectVersion
1070
     0
  0
ACAD_PROXY_OBJECT
  5
33
102
{ACAD_REACTORS
330
2A
102
}
330
2A
100
AcDbProxyObject
 90
      499
 91
      501
 93
      428
310
425499585B1A5CDD1A58D08409038333333333333E33F0000000000000F9010740A907004050150800405405064090740C02480A1B40
1001
ACAD
1000
AcDbSavedByObjectVersion
1070
     0
  0
ACAD_PROXY_OBJECT
  5
42
102
{ACAD_REACTORS
330
2A
102
}
330
2A
100
AcDbProxyObject
 90
      499
 91
      501
 93
      420
310
4194DA1859195911B40902404333333333333E33F0000000000000F9010740A41107004050150800405405064090840C02480A0B40
1001
ACAD
1000
AcDbSavedByObjectVersion
1070
     0
  0
ACAD_PROXY_OBJECT
  5
41
102
{ACAD_REACTORS
330
2A
102
}
330
2A
100
AcDbProxyObject
 90
      499
 91
      501
 93
      516
310
4454DA18591959081DDA5D1A08195919D95CD1A40902404333333333333E33F0000000000000F901074090142907004050250800405405064090740C02480A0B40
1001
ACAD
1000
AcDbSavedByObjectVersion
1070
     0
  0
ACAD_PROXY_OBJECT
  5
3E
102
{ACAD_REACTORS
330
2A
102
}
330
2A
100
AcDbProxyObject
 90
      499
 91
      501
 93
      532
310
4394DA1859195CC81BD98811DC985E5174090240C333333333333E33F0000000000000F901079024090741D01000000000000111010841D405064090740C02480A0340
1001
ACAD
1000
AcDbSavedByObjectVersion
1070
     0
  0
ACAD_PROXY_OBJECT
  5
3F
102
{ACAD_REACTORS
330
2A
102
}
330
2A
100
AcDbProxyObject
 90
      499
 91
      501
 93
      476
310
41D4DAD95D18DA1E51840502408333333333333E33F0000000000000F901079024090741D01000000000000111010B41D405064090741802480A0340
1001
ACAD
1000
AcDbSavedByObjectVersion
1070
     0
  0
ACAD_PROXY_OBJECT
  5
37
102
{ACAD_REACTORS
330
2A
102
}
330
2A
100
AcDbProxyObject
 90
      499
 91
      501
 93
      412
310
41D51A1A58DAD95B90D409028333333333333E33F0000000000000F9010790141107004050150C41D405064090741402480A0350
1001
ACAD
1000
AcDbSavedByObjectVersion
1070
     0
  0
ACAD_PROXY_OBJECT
  5
30
102
{ACAD_REACTORS
330
2A
102
}
330
2A
100
AcDbProxyObject
 90
      499
 91
      501
 93
      420
310
4255DA5C99599C985B595059028333333333333E33F0000000000000F90107901411070040501600405405064090740C02480A0340
1001
ACAD
1000
AcDbSavedByObjectVersion
1070
     0
  0
ACAD_PROXY_OBJECT
  5
40
102
{ACAD_REACTORS
330
2A
102
}
330
2A
100
AcDbProxyObject
 90
      499
 91
      501
 93
      404
310
41560B54985E51940902404000000000000E03F0000000000000F9010740501907004050150841D405064090740C02480A1B40
1001
ACAD
1000
AcDbSavedByObjectVersion
1070
     0
  0
XRECORD
  5
27A
102
{ACAD_REACTORS
330
270
102
}
330
270
100
AcDbXrecord
340
0
  0
XRECORD
  5
279
102
{ACAD_REACTORS
330
270
102
}
330
270
100
AcDbXrecord
 90
        0
  0
XRECORD
  5
290
102
{ACAD_REACTORS
330
270
102
}
330
270
100
AcDbXrecord
1000
DSTYLE
1002
{
1070
   179
 70
     2
1070
   171
 70
     2
1070
   143
 40
25.4
1070
   274
 70
     2
1070
    41
 40
3.0
1070
   141
 40
0.09
1070
    43
 40
0.38
1070
   278
 70
    46
1070
    44
 40
1.5
1070
    42
 40
0.0625
1070
   147
 40
1.5
1070
   272
 70
     4
1070
    73
 70
     1
1070
   172
 70
     0
1070
    74
 70
     1
1070
   283
 70
     1
1070
   340
340
6E
1070
   140
 40
3.0
1070
   284
 70
     0
1070
    78
 70
     0
1002
}
  0
XRECORD
  5
27B
102
{ACAD_REACTORS
330
270
102
}
330
270
100
AcDbXrecord
  1
{301E2E0E-C0FA-4EC3-83B6-C180BE42A300}
  0
XRECORD
  5
273
102
{ACAD_REACTORS
330
270
102
}
330
270
100
AcDbXrecord
  1

  0
XRECORD
  5
278
102
{ACAD_REACTORS
330
270
102
}
330
270
100
AcDbXrecord
 90
        4
  0
XRECORD
  5
275
102
{ACAD_REACTORS
330
270
102
}
330
270
100
AcDbXrecord
340
1A
  0
XRECORD
  5
277
102
{ACAD_REACTORS
330
270
102
}
330
270
100
AcDbXrecord
 90
    10269
  0
XRECORD
  5
276
102
{ACAD_REACTORS
330
270
102
}
330
270
100
AcDbXrecord
340
19
  0
XRECORD
  5
27D
102
{ACAD_REACTORS
330
270
102
}
330
270
100
AcDbXrecord
 40
0.0
  0
XRECORD
  5
280
102
{ACAD_REACTORS
330
270
102
}
330
270
100
AcDbXrecord
340
0
  0
XRECORD
  5
286
102
{ACAD_REACTORS
330
270
102
}
330
270
100
AcDbXrecord
 10
0.0
 20
0.0
 30
0.0
  0
XRECORD
  5
282
102
{ACAD_REACTORS
330
270
102
}
330
270
100
AcDbXrecord
 10
0.0
 20
0.0
 30
0.0
  0
XRECORD
  5
285
102
{ACAD_REACTORS
330
270
102
}
330
270
100
AcDbXrecord
 10
0.0
 20
0.0
 30
0.0
  0
XRECORD
  5
283
102
{ACAD_REACTORS
330
270
102
}
330
270
100
AcDbXrecord
 10
0.0
 20
0.0
 30
0.0
  0
XRECORD
  5
284
102
{ACAD_REACTORS
330
270
102
}
330
270
100
AcDbXrecord
 10
0.0
 20
0.0
 30
0.0
  0
XRECORD
  5
281
102
{ACAD_REACTORS
330
270
102
}
330
270
100
AcDbXrecord
 10
0.0
 20
0.0
 30
0.0
  0
XRECORD
  5
27E
102
{ACAD_REACTORS
330
270
102
}
330
270
100
AcDbXrecord
340
0
  0
XRECORD
  5
27F
102
{ACAD_REACTORS
330
270
102
}
330
270
100
AcDbXrecord
 70
     0
  0
XRECORD
  5
274
102
{ACAD_REACTORS
330
270
102
}
330
270
100
AcDbXrecord
  1

  0
XRECORD
  5
271
102
{ACAD_REACTORS
330
270
102
}
330
270
100
AcDbXrecord
 90
        1
  0
XRECORD
  5
272
102
{ACAD_REACTORS
330
270
102
}
330
270
100
AcDbXrecord
 90
       70
  0
XRECORD
  5
289
102
{ACAD_REACTORS
330
270
102
}
330
270
100
AcDbXrecord
340
0
  0
XRECORD
  5
28F
102
{ACAD_REACTORS
330
270
102
}
330
270
100
AcDbXrecord
 10
0.0
 20
0.0
 30
0.0
  0
XRECORD
  5
28B
102
{ACAD_REACTORS
330
270
102
}
330
270
100
AcDbXrecord
 10
0.0
 20
0.0
 30
0.0
  0
XRECORD
  5
28E
102
{ACAD_REACTORS
330
270
102
}
330
270
100
AcDbXrecord
 10
0.0
 20
0.0
 30
0.0
  0
XRECORD
  5
28C
102
{ACAD_REACTORS
330
270
102
}
330
270
100
AcDbXrecord
 10
0.0
 20
0.0
 30
0.0
  0
XRECORD
  5
28D
102
{ACAD_REACTORS
330
270
102
}
330
270
100
AcDbXrecord
 10
0.0
 20
0.0
 30
0.0
  0
XRECORD
  5
28A
102
{ACAD_REACTORS
330
270
102
}
330
270
100
AcDbXrecord
 10
0.0
 20
0.0
 30
0.0
  0
XRECORD
  5
287
102
{ACAD_REACTORS
330
270
102
}
330
270
100
AcDbXrecord
340
0
  0
XRECORD
  5
288
102
{ACAD_REACTORS
330
270
102
}
330
270
100
AcDbXrecord
 70
     0
  0
XRECORD
  5
27C
102
{ACAD_REACTORS
330
270
102
}
330
270
100
AcDbXrecord
  1
{FAEB1C32-E019-11D5-929B-00C0DF256EC4}
  0
DICTIONARYVAR
  5
29A
102
{ACAD_REACTORS
330
291
102
}
330
291
100
DictionaryVariables
280
     0
  1
1:1
  0
DICTIONARYVAR
  5
293
102
{ACAD_REACTORS
330
291
102
}
330
291
100
DictionaryVariables
280
     0
  1
Standard
  0
DICTIONARYVAR
  5
292
102
{ACAD_REACTORS
330
291
102
}
330
291
100
DictionaryVariables
280
     0
  1
Standard
  0
DICTIONARYVAR
  5
296
102
{ACAD_REACTORS
330
291
102
}
330
291
100
DictionaryVariables
280
     0
  1
2
  0
DICTIONARYVAR
  5
297
102
{ACAD_REACTORS
330
291
102
}
330
291
100
DictionaryVariables
280
     0
  1
1
  0
DICTIONARYVAR
  5
29B
102
{ACAD_REACTORS
330
291
102
}
330
291
100
DictionaryVariables
280
     0
  1
1
  0
DICTIONARY
  5
29E
330
45
100
AcDbDictionary
280
     1
  3
ACAD_XREC_ROUNDTRIP
360
29F
  0
DICTIONARY
  5
29C
330
44
100
AcDbDictionary
280
     1
  3
ACAD_XREC_ROUNDTRIP
360
29D
  0
DICTIONARY
  5
2A0
330
46
100
AcDbDictionary
280
     1
  3
ACAD_XREC_ROUNDTRIP
360
2A1
  0
XRECORD
  5
29F
102
{ACAD_REACTORS
330
29E
102
}
330
29E
100
AcDbXrecord
102
MATERIAL
148
0.0
149
0.0
149
0.0
 93
        0
 94
      127
282
     0
 72
     1
 77
     1
171
     1
175
     1
179
     1
273
     0
  0
XRECORD
  5
29D
102
{ACAD_REACTORS
330
29C
102
}
330
29C
100
AcDbXrecord
102
MATERIAL
148
0.0
149
0.0
149
0.0
 93
        0
 94
      127
282
     0
 72
     1
 77
     1
171
     1
175
     1
179
     1
273
     0
  0
XRECORD
  5
2A1
102
{ACAD_REACTORS
330
2A0
102
}
330
2A0
100
AcDbXrecord
102
MATERIAL
148
0.0
149
0.0
149
0.0
 93
        0
 94
      127
282
     0
 72
     1
 77
     1
171
     1
175
     1
179
     1
273
     0
  0
ENDSEC
  0
EOF
