  0
SECTION
  2
HEADER
  9
$ACADVER
  1
AC1006
  9
$DWGCODEPAGE
  3
ansi_932
  9
$INSBASE
 10
0.0
 20
0.0
 30
0.0
  9
$EXTMIN
 10
31.99999999999999
 20
113.9795454545454
  9
$EXTMAX
 10
181.0
 20
263.4999999999999
  9
$LIMMIN
 10
0.0
 20
0.0
  9
$LIMMAX
 10
12.0
 20
9.0
  9
$ORTHOMODE
 70
     0
  9
$REGENMODE
 70
     1
  9
$FILLMODE
 70
     1
  9
$QTEXTMODE
 70
     0
  9
$MIRRTEXT
 70
     1
  9
$DRAGMODE
 70
     2
  9
$LTSCALE
 40
1.0
  9
$OSMODE
 70
    37
  9
$ATTMODE
 70
     1
  9
$TEXTSIZE
 40
0.2
  9
$TRACEWID
 40
0.05
  9
$TEXTSTYLE
  7
STANDARD
  9
$CLAYER
  8
0
  9
$CELTYPE
  6
BYLAYER
  9
$CECOLOR
 62
   256
  9
$DIMSCALE
 40
1.0
  9
$DIMASZ
 40
3.0
  9
$DIMEXO
 40
0.0625
  9
$DIMDLI
 40
0.38
  9
$DIMRND
 40
0.0
  9
$DIMDLE
 40
0.0
  9
$DIMEXE
 40
1.5
  9
$DIMTP
 40
0.0
  9
$DIMTM
 40
0.0
  9
$DIMTXT
 40
3.0
  9
$DIMCEN
 40
0.09
  9
$DIMTSZ
 40
0.0
  9
$DIMTOL
 70
     0
  9
$DIMLIM
 70
     0
  9
$DIMTIH
 70
     1
  9
$DIMTOH
 70
     1
  9
$DIMSE1
 70
     0
  9
$DIMSE2
 70
     0
  9
$DIMTAD
 70
     1
  9
$DIMZIN
 70
     0
  9
$DIMBLK
  1

  9
$DIMASO
 70
     1
  9
$DIMSHO
 70
     1
  9
$DIMPOST
  1

  9
$DIMAPOST
  1

  9
$DIMALT
 70
     0
  9
$DIMALTD
 70
     2
  9
$DIMALTF
 40
25.4
  9
$DIMLFAC
 40
1.0
  9
$DIMTOFL
 70
     0
  9
$DIMTVP
 40
0.0
  9
$DIMTIX
 70
     0
  9
$DIMSOXD
 70
     0
  9
$DIMSAH
 70
     0
  9
$DIMBLK1
  1

  9
$DIMBLK2
  1

  9
$LUNITS
 70
     2
  9
$LUPREC
 70
     4
  9
$SKETCHINC
 40
0.1
  9
$FILLETRAD
 40
0.5
  9
$AUNITS
 70
     0
  9
$AUPREC
 70
     0
  9
$MENU
  1
.
  9
$ELEVATION
 40
0.0
  9
$THICKNESS
 40
0.0
  9
$LIMCHECK
 70
     0
  9
$CHAMFERA
 40
0.0
  9
$CHAMFERB
 40
0.0
  9
$SKPOLY
 70
     0
  9
$TDCREATE
 40
2460413.61276537
  9
$TDUPDATE
 40
2460413.612765833
  9
$TDINDWG
 40
0.0000000116
  9
$TDUSRTIMER
 40
0.0000000116
  9
$USRTIMER
 70
     1
  9
$ANGBASE
 50
0.0
  9
$ANGDIR
 70
     0
  9
$PDMODE
 70
     0
  9
$PDSIZE
 40
0.0
  9
$PLINEWID
 40
0.0
  9
$COORDS
 70
     1
  9
$SPLFRAME
 70
     0
  9
$SPLINETYPE
 70
     6
  9
$SPLINESEGS
 70
     8
  9
$ATTDIA
 70
     0
  9
$ATTREQ
 70
     1
  9
$HANDLING
 70
     1
  9
$HANDSEED
  5
80C
  9
$SURFTAB1
 70
     6
  9
$SURFTAB2
 70
     6
  9
$SURFTYPE
 70
     6
  9
$SURFU
 70
     6
  9
$SURFV
 70
     6
  9
$UCSNAME
  2

  9
$UCSORG
 10
0.0
 20
0.0
 30
0.0
  9
$UCSXDIR
 10
1.0
 20
0.0
 30
0.0
  9
$UCSYDIR
 10
0.0
 20
1.0
 30
0.0
  9
$USERI1
 70
     0
  9
$USERI2
 70
     0
  9
$USERI3
 70
     0
  9
$USERI4
 70
     0
  9
$USERI5
 70
     0
  9
$USERR1
 40
0.0
  9
$USERR2
 40
0.0
  9
$USERR3
 40
0.0
  9
$USERR4
 40
0.0
  9
$USERR5
 40
0.0
  9
$WORLDVIEW
 70
     1
  0
ENDSEC
  0
SECTION
  2
TABLES
  0
TABLE
  2
VPORT
 70
     1
  0
VPORT
  2
*ACTIVE
 70
     0
 10
0.0
 20
0.0
 11
1.0
 21
1.0
 12
106.5
 22
188.7397727272727
 13
0.0
 23
0.0
 14
0.5
 24
0.5
 15
0.5
 25
0.5
 16
0.0
 26
0.0
 36
1.0
 17
0.0
 27
0.0
 37
0.0
 40
149.5204545454545
 41
1.6
 42
50.0
 43
0.0
 44
0.0
 50
0.0
 51
0.0
 71
     0
 72
   100
 73
     1
 74
     3
 75
     0
 76
     0
 77
     0
 78
     0
  0
ENDTAB
  0
TABLE
  2
LTYPE
 70
     2
  0
LTYPE
  2
CONTINUOUS
 70
     0
  3
Solid line
 72
    65
 73
     0
 40
0.0
  0
LTYPE
  2
CENTER
 70
     0
  3

 72
    65
 73
     0
 40
0.0
  0
ENDTAB
  0
TABLE
  2
LAYER
 70
     1
  0
LAYER
  2
0
 70
     0
 62
     7
  6
CONTINUOUS
  0
ENDTAB
  0
TABLE
  2
STYLE
 70
     2
  0
STYLE
  2
STANDARD
 70
     0
 40
0.0
 41
1.0
 50
0.0
 71
     0
 42
0.2
  3
txt
  4

  0
STYLE
  2
ＭＳ_ゴシック
 70
     0
 40
0.0
 41
1.0
 50
0.0
 71
     0
 42
0.2
  3
ＭＳ ゴシック.shx
  4

  0
ENDTAB
  0
TABLE
  2
VIEW
 70
     0
  0
ENDTAB
  0
TABLE
  2
UCS
 70
     0
  0
ENDTAB
  0
ENDSEC
  0
SECTION
  2
BLOCKS
  0
ENDSEC
  0
SECTION
  2
ENTITIES
  0
TEXT
  5
6F
  8
0
  6
CONTINUOUS
 62
     7
 10
93.53854257846695
 20
113.665909090909
 30
0.0
 40
3.0
  1
ＫＧ－ＳＢ１
  0
POINT
  5
70
  8
0
 62
     1
 10
106.5
 20
212.9999999999999
 30
0.0
  0
LINE
  5
71
  8
0
  6
CONTINUOUS
 62
     7
 10
166.9153246960697
 20
248.7499999999999
 30
0.0
 11
162.9305459037027
 21
248.7499999999999
 31
0.0
  0
LINE
  5
72
  8
0
  6
CONTINUOUS
 62
     7
 10
171.5694540962973
 20
248.7499999999999
 30
0.0
 11
167.5846753039303
 21
248.7499999999999
 31
0.0
  0
LINE
  5
73
  8
0
  6
CONTINUOUS
 62
     7
 10
166.9153246960697
 20
248.7499999999999
 30
0.0
 11
167.5846753039303
 21
248.7499999999999
 31
0.0
  0
LINE
  5
74
  8
0
  6
CONTINUOUS
 62
     7
 10
166.9153246960697
 20
223.2499999999999
 30
0.0
 11
167.5846753039303
 21
223.2499999999999
 31
0.0
  0
LINE
  5
75
  8
0
  6
CONTINUOUS
 62
     7
 10
167.5846753039303
 20
223.2499999999999
 30
0.0
 11
171.5694540962973
 21
223.2499999999999
 31
0.0
  0
LINE
  5
76
  8
0
  6
CONTINUOUS
 62
     7
 10
162.9305459037027
 20
223.2499999999999
 30
0.0
 11
166.9153246960697
 21
223.2499999999999
 31
0.0
  0
LINE
  5
77
  8
0
  6
CONTINUOUS
 62
   253
 10
162.5
 20
240.9999999999999
 30
0.0
 11
162.5
 21
230.9999999999999
 31
0.0
  0
LINE
  5
78
  8
0
  6
CONTINUOUS
 62
   253
 10
172.0
 20
240.9999999999999
 30
0.0
 11
172.0
 21
230.9999999999999
 31
0.0
  0
LINE
  5
79
  8
0
  6
CONTINUOUS
 62
     7
 10
161.35
 20
242.7870879821637
 30
0.0
 11
161.35
 21
244.4583460257571
 31
0.0
  0
LINE
  5
7A
  8
0
  6
CONTINUOUS
 62
     7
 10
161.35
 20
229.2129120178362
 30
0.0
 11
161.35
 21
242.7870879821637
 31
0.0
  0
LINE
  5
7B
  8
0
  6
CONTINUOUS
 62
     7
 10
173.15
 20
242.7870879821637
 30
0.0
 11
173.15
 21
229.2129120178362
 31
0.0
  0
LINE
  5
7C
  8
0
  6
CONTINUOUS
 62
     7
 10
173.15
 20
244.4583460257571
 30
0.0
 11
173.15
 21
242.7870879821637
 31
0.0
  0
LINE
  5
7D
  8
0
  6
CONTINUOUS
 62
     7
 10
173.15
 20
229.2129120178362
 30
0.0
 11
173.15
 21
227.5416539742427
 31
0.0
  0
LINE
  5
7E
  8
0
  6
CONTINUOUS
 62
     7
 10
161.35
 20
227.5416539742427
 30
0.0
 11
161.35
 21
229.2129120178362
 31
0.0
  0
LINE
  5
7F
  8
0
  6
CONTINUOUS
 62
     7
 10
161.35
 20
224.0643046618229
 30
0.0
 11
161.35
 21
227.5416539742427
 31
0.0
  0
LINE
  5
80
  8
0
  6
CONTINUOUS
 62
     7
 10
161.35
 20
244.4583460257571
 30
0.0
 11
161.35
 21
247.935695338177
 31
0.0
  0
LINE
  5
81
  8
0
  6
CONTINUOUS
 62
     7
 10
173.15
 20
247.935695338177
 30
0.0
 11
173.15
 21
244.4583460257571
 31
0.0
  0
LINE
  5
82
  8
0
  6
CONTINUOUS
 62
     7
 10
173.15
 20
227.5416539742427
 30
0.0
 11
173.15
 21
224.0643046618229
 31
0.0
  0
LINE
  5
83
  8
0
  6
CONTINUOUS
 62
     7
 10
162.7688123506074
 20
248.7499999999999
 30
0.0
 11
162.9305459037027
 21
248.7499999999999
 31
0.0
  0
LINE
  5
84
  8
0
  6
CONTINUOUS
 62
     7
 10
171.7311876493926
 20
248.7499999999999
 30
0.0
 11
171.5694540962973
 21
248.7499999999999
 31
0.0
  0
LINE
  5
85
  8
0
  6
CONTINUOUS
 62
     7
 10
162.7688123506074
 20
223.2499999999999
 30
0.0
 11
162.9305459037027
 21
223.2499999999999
 31
0.0
  0
LINE
  5
86
  8
0
  6
CONTINUOUS
 62
     7
 10
171.7311876493926
 20
223.2499999999999
 30
0.0
 11
171.5694540962973
 21
223.2499999999999
 31
0.0
  0
LINE
  5
87
  8
0
  6
CONTINUOUS
 62
     7
 10
161.85
 20
248.7499999999999
 30
0.0
 11
162.4053721693519
 21
248.7499999999999
 31
0.0
  0
ARC
  5
88
  8
0
  6
CONTINUOUS
 62
     7
 10
161.85
 20
248.2499999999999
 30
0.0
 40
0.5000000000000004
 50
90.0
 51
180.0
  0
LINE
  5
89
  8
0
  6
CONTINUOUS
 62
     7
 10
161.35
 20
247.935695338177
 30
0.0
 11
161.35
 21
248.2499999999999
 31
0.0
  0
ARC
  5
8A
  8
0
  6
CONTINUOUS
 62
     7
 10
172.65
 20
248.2499999999999
 30
0.0
 40
0.5000000000000004
 50
0.0
 51
90.0
  0
LINE
  5
8B
  8
0
  6
CONTINUOUS
 62
     7
 10
173.15
 20
248.2499999999999
 30
0.0
 11
173.15
 21
247.935695338177
 31
0.0
  0
LINE
  5
8C
  8
0
  6
CONTINUOUS
 62
     7
 10
172.0946278306482
 20
248.7499999999999
 30
0.0
 11
172.65
 21
248.7499999999999
 31
0.0
  0
LINE
  5
8D
  8
0
  6
CONTINUOUS
 62
     7
 10
162.4053721693519
 20
223.2499999999999
 30
0.0
 11
161.85
 21
223.2499999999999
 31
0.0
  0
ARC
  5
8E
  8
0
  6
CONTINUOUS
 62
     7
 10
161.85
 20
223.7499999999999
 30
0.0
 40
0.5000000000000004
 50
180.0
 51
269.9999999999992
  0
LINE
  5
8F
  8
0
  6
CONTINUOUS
 62
     7
 10
161.35
 20
223.7499999999999
 30
0.0
 11
161.35
 21
224.0643046618229
 31
0.0
  0
LINE
  5
90
  8
0
  6
CONTINUOUS
 62
     7
 10
172.0946278306482
 20
223.2499999999999
 30
0.0
 11
172.1
 21
223.2761129252188
 31
0.0
  0
LINE
  5
91
  8
0
  6
CONTINUOUS
 62
     7
 10
172.65
 20
223.2499999999999
 30
0.0
 11
172.0946278306482
 21
223.2499999999999
 31
0.0
  0
ARC
  5
92
  8
0
  6
CONTINUOUS
 62
     7
 10
172.65
 20
223.7499999999999
 30
0.0
 40
0.5000000000000004
 50
270.0
 51
0.0
  0
LINE
  5
93
  8
0
  6
CONTINUOUS
 62
     7
 10
173.15
 20
224.0643046618229
 30
0.0
 11
173.15
 21
223.7499999999999
 31
0.0
  0
LINE
  5
94
  8
0
  6
CONTINUOUS
 62
     7
 10
175.15
 20
239.2499999999999
 30
0.0
 11
175.15
 21
232.7499999999999
 31
0.0
  0
LINE
  5
95
  8
0
  6
CONTINUOUS
 62
     7
 10
175.15
 20
239.7499999999999
 30
0.0
 11
175.15
 21
239.2499999999999
 31
0.0
  0
ARC
  5
96
  8
0
  6
CONTINUOUS
 62
     7
 10
174.65
 20
239.7499999999999
 30
0.0
 40
0.5000000000000004
 50
0.0
 51
90.0
  0
LINE
  5
97
  8
0
  6
CONTINUOUS
 62
     7
 10
173.15
 20
240.2499999999999
 30
0.0
 11
174.65
 21
240.2499999999999
 31
0.0
  0
LINE
  5
98
  8
0
  6
CONTINUOUS
 62
     7
 10
174.65
 20
231.7499999999999
 30
0.0
 11
173.15
 21
231.7499999999999
 31
0.0
  0
LINE
  5
99
  8
0
  6
CONTINUOUS
 62
     7
 10
175.15
 20
232.7499999999999
 30
0.0
 11
175.15
 21
232.2499999999999
 31
0.0
  0
ARC
  5
9A
  8
0
  6
CONTINUOUS
 62
     7
 10
174.65
 20
232.2499999999999
 30
0.0
 40
0.5000000000000004
 50
270.0
 51
0.0
  0
LINE
  5
9B
  8
0
  6
CONTINUOUS
 62
     7
 10
166.5149629347713
 20
223.2499999999999
 30
0.0
 11
166.7672247889724
 21
223.5001638237665
 31
0.0
  0
LINE
  5
9C
  8
0
  6
CONTINUOUS
 62
     7
 10
162.4053721693519
 20
223.2499999999999
 30
0.0
 11
162.5162515012012
 21
223.2499999999999
 31
0.0
  0
LINE
  5
9D
  8
0
  6
CONTINUOUS
 62
     7
 10
162.5162515012012
 20
248.7499999999999
 30
0.0
 11
162.4053721693519
 21
248.7499999999999
 31
0.0
  0
LINE
  5
9E
  8
0
  6
CONTINUOUS
 62
     7
 10
166.7672113596597
 20
248.4998449709283
 30
0.0
 11
166.5149629347713
 21
248.7499999999999
 31
0.0
  0
LINE
  5
9F
  8
0
  6
CONTINUOUS
 62
     7
 10
167.9850370652284
 20
248.7499999999999
 30
0.0
 11
167.7327752110276
 21
248.4998361762333
 31
0.0
  0
LINE
  5
A0
  8
0
  6
CONTINUOUS
 62
     7
 10
172.0946278306482
 20
248.7499999999999
 30
0.0
 11
171.9837484987988
 21
248.7499999999999
 31
0.0
  0
LINE
  5
A1
  8
0
  6
CONTINUOUS
 62
     7
 10
171.9837484987988
 20
223.2499999999999
 30
0.0
 11
172.0946278306482
 21
223.2499999999999
 31
0.0
  0
LINE
  5
A2
  8
0
  6
CONTINUOUS
 62
     7
 10
167.7327886403403
 20
223.5001550290716
 30
0.0
 11
167.9850370652287
 21
223.2499999999999
 31
0.0
  0
LINE
  5
A3
  8
0
  6
CONTINUOUS
 62
     7
 10
161.75
 20
250.7499999999999
 30
0.0
 11
163.8929285785729
 21
250.7499999999999
 31
0.0
  0
LINE
  5
A4
  8
0
  6
CONTINUOUS
 62
     7
 10
164.6070714214271
 20
250.7499999999999
 30
0.0
 11
169.8929285785729
 21
250.7499999999999
 31
0.0
  0
LINE
  5
A5
  8
0
  6
CONTINUOUS
 62
     7
 10
170.6070714214272
 20
250.7499999999999
 30
0.0
 11
172.75
 21
250.7499999999999
 31
0.0
  0
ARC
  5
A6
  8
0
  6
CONTINUOUS
 62
     7
 10
161.75
 20
249.7499999999999
 30
0.0
 40
1.000000000000001
 50
90.0
 51
180.0
  0
LINE
  5
A7
  8
0
  6
CONTINUOUS
 62
     7
 10
173.75
 20
249.7499999999999
 30
0.0
 11
173.75
 21
240.2499999999999
 31
0.0
  0
LINE
  5
A8
  8
0
  6
CONTINUOUS
 62
     7
 10
162.5162515012012
 20
248.7499999999999
 30
0.0
 11
162.7688123506074
 21
248.7499999999999
 31
0.0
  0
ARC
  5
A9
  8
0
  6
CONTINUOUS
 62
     7
 10
172.75
 20
249.7499999999999
 30
0.0
 40
1.000000000000001
 50
0.0
 51
90.0
  0
LINE
  5
AA
  8
0
  6
CONTINUOUS
 62
     7
 10
171.7311876493926
 20
248.7499999999999
 30
0.0
 11
171.9837484987988
 21
248.7499999999999
 31
0.0
  0
LINE
  5
AB
  8
0
  6
CONTINUOUS
 62
     7
 10
160.75
 20
222.2499999999999
 30
0.0
 11
160.75
 21
249.7499999999999
 31
0.0
  0
LINE
  5
AC
  8
0
  6
CONTINUOUS
 62
     7
 10
162.5162515012012
 20
223.2499999999999
 30
0.0
 11
162.7688123506074
 21
223.2499999999999
 31
0.0
  0
LINE
  5
AD
  8
0
  6
CONTINUOUS
 62
     7
 10
171.7311876493926
 20
223.2499999999999
 30
0.0
 11
171.9837484987988
 21
223.2499999999999
 31
0.0
  0
LINE
  5
AE
  8
0
  6
CONTINUOUS
 62
     7
 10
172.75
 20
221.2499999999999
 30
0.0
 11
170.6070714214272
 21
221.2499999999999
 31
0.0
  0
LINE
  5
AF
  8
0
  6
CONTINUOUS
 62
     7
 10
169.8929285785728
 20
221.2499999999999
 30
0.0
 11
164.6070714214271
 21
221.2499999999999
 31
0.0
  0
LINE
  5
B0
  8
0
  6
CONTINUOUS
 62
     7
 10
163.8929285785728
 20
221.2499999999999
 30
0.0
 11
161.75
 21
221.2499999999999
 31
0.0
  0
ARC
  5
B1
  8
0
  6
CONTINUOUS
 62
     7
 10
161.75
 20
222.2499999999999
 30
0.0
 40
1.000000000000001
 50
180.0
 51
270.0
  0
ARC
  5
B2
  8
0
  6
CONTINUOUS
 62
     7
 10
172.75
 20
222.2499999999999
 30
0.0
 40
1.000000000000001
 50
270.0
 51
0.0
  0
LINE
  5
B3
  8
0
  6
CONTINUOUS
 62
     7
 10
173.75
 20
231.7499999999999
 30
0.0
 11
173.75
 21
222.2499999999999
 31
0.0
  0
LINE
  5
B4
  8
0
  6
CONTINUOUS
 62
     7
 10
162.5
 20
223.4999999999999
 30
0.0
 11
172.0
 21
223.4999999999999
 31
0.0
  0
LINE
  5
B5
  8
0
  6
CONTINUOUS
 62
     7
 10
162.5
 20
248.4999999999999
 30
0.0
 11
172.0
 21
248.4999999999999
 31
0.0
  0
LINE
  5
B6
  8
0
  6
CONTINUOUS
 62
     7
 10
144.25
 20
177.8346753039302
 30
0.0
 11
144.25
 21
177.1653246960696
 31
0.0
  0
LINE
  5
B7
  8
0
  6
CONTINUOUS
 62
     7
 10
169.75
 20
173.1805459037026
 30
0.0
 11
169.75
 21
177.1653246960696
 31
0.0
  0
LINE
  5
B8
  8
0
  6
CONTINUOUS
 62
     7
 10
144.25
 20
181.8194540962972
 30
0.0
 11
144.25
 21
177.8346753039302
 31
0.0
  0
LINE
  5
B9
  8
0
  6
CONTINUOUS
 62
     7
 10
144.25
 20
177.1653246960696
 30
0.0
 11
144.25
 21
173.1805459037026
 31
0.0
  0
LINE
  5
BA
  8
0
  6
CONTINUOUS
 62
     7
 10
169.75
 20
177.8346753039302
 30
0.0
 11
169.75
 21
177.1653246960696
 31
0.0
  0
LINE
  5
BB
  8
0
  6
CONTINUOUS
 62
     7
 10
169.75
 20
177.8346753039302
 30
0.0
 11
169.75
 21
181.8194540962972
 31
0.0
  0
LINE
  5
BC
  8
0
  6
CONTINUOUS
 62
     7
 10
163.7870879821637
 20
183.3999999999999
 30
0.0
 11
165.4583460257572
 21
183.3999999999999
 31
0.0
  0
LINE
  5
BD
  8
0
  6
CONTINUOUS
 62
     7
 10
150.2129120178363
 20
171.5999999999999
 30
0.0
 11
148.5416539742428
 21
171.5999999999999
 31
0.0
  0
LINE
  5
BE
  8
0
  6
CONTINUOUS
 62
   253
 10
162.0
 20
182.2499999999999
 30
0.0
 11
152.0
 21
182.2499999999999
 31
0.0
  0
LINE
  5
BF
  8
0
  6
CONTINUOUS
 62
   253
 10
162.0
 20
172.7499999999999
 30
0.0
 11
152.0
 21
172.7499999999999
 31
0.0
  0
LINE
  5
C0
  8
0
  6
CONTINUOUS
 62
     7
 10
163.7870879821637
 20
171.5999999999999
 30
0.0
 11
150.2129120178363
 21
171.5999999999999
 31
0.0
  0
LINE
  5
C1
  8
0
  6
CONTINUOUS
 62
     7
 10
148.5416539742428
 20
183.3999999999999
 30
0.0
 11
150.2129120178363
 21
183.3999999999999
 31
0.0
  0
LINE
  5
C2
  8
0
  6
CONTINUOUS
 62
     7
 10
165.4583460257572
 20
171.5999999999999
 30
0.0
 11
163.7870879821637
 21
171.5999999999999
 31
0.0
  0
LINE
  5
C3
  8
0
  6
CONTINUOUS
 62
     7
 10
150.2129120178363
 20
183.3999999999999
 30
0.0
 11
163.7870879821637
 21
183.3999999999999
 31
0.0
  0
LINE
  5
C4
  8
0
  6
CONTINUOUS
 62
     7
 10
145.064304661823
 20
183.3999999999999
 30
0.0
 11
148.5416539742428
 21
183.3999999999999
 31
0.0
  0
LINE
  5
C5
  8
0
  6
CONTINUOUS
 62
     7
 10
165.4583460257572
 20
183.3999999999999
 30
0.0
 11
168.9356953381771
 21
183.3999999999999
 31
0.0
  0
LINE
  5
C6
  8
0
  6
CONTINUOUS
 62
     7
 10
168.9356953381771
 20
171.5999999999999
 30
0.0
 11
165.4583460257572
 21
171.5999999999999
 31
0.0
  0
LINE
  5
C7
  8
0
  6
CONTINUOUS
 62
     7
 10
148.5416539742428
 20
171.5999999999999
 30
0.0
 11
145.064304661823
 21
171.5999999999999
 31
0.0
  0
LINE
  5
C8
  8
0
  6
CONTINUOUS
 62
     7
 10
144.25
 20
181.9811876493925
 30
0.0
 11
144.25
 21
181.8194540962972
 31
0.0
  0
LINE
  5
C9
  8
0
  6
CONTINUOUS
 62
     7
 10
169.75
 20
181.9811876493925
 30
0.0
 11
169.75
 21
181.8194540962972
 31
0.0
  0
LINE
  5
CA
  8
0
  6
CONTINUOUS
 62
     7
 10
144.25
 20
173.0188123506073
 30
0.0
 11
144.25
 21
173.1805459037026
 31
0.0
  0
LINE
  5
CB
  8
0
  6
CONTINUOUS
 62
     7
 10
169.75
 20
173.0188123506073
 30
0.0
 11
169.75
 21
173.1805459037026
 31
0.0
  0
ARC
  5
CC
  8
0
  6
CONTINUOUS
 62
     7
 10
144.75
 20
182.8999999999999
 30
0.0
 40
0.5000000000000004
 50
90.0
 51
179.9999999999996
  0
LINE
  5
CD
  8
0
  6
CONTINUOUS
 62
     7
 10
144.75
 20
183.3999999999999
 30
0.0
 11
145.064304661823
 21
183.3999999999999
 31
0.0
  0
ARC
  5
CE
  8
0
  6
CONTINUOUS
 62
     7
 10
144.75
 20
172.0999999999999
 30
0.0
 40
0.5000000000000004
 50
180.0
 51
270.0
  0
LINE
  5
CF
  8
0
  6
CONTINUOUS
 62
     7
 10
145.064304661823
 20
171.5999999999999
 30
0.0
 11
144.75
 21
171.5999999999999
 31
0.0
  0
LINE
  5
D0
  8
0
  6
CONTINUOUS
 62
     7
 10
144.25
 20
172.0999999999999
 30
0.0
 11
144.25
 21
172.6553721693518
 31
0.0
  0
ARC
  5
D1
  8
0
  6
CONTINUOUS
 62
     7
 10
169.25
 20
182.8999999999999
 30
0.0
 40
0.5000000000000004
 50
0.0000000000003976
 51
90.0
  0
LINE
  5
D2
  8
0
  6
CONTINUOUS
 62
     7
 10
168.9356953381771
 20
183.3999999999999
 30
0.0
 11
169.25
 21
183.3999999999999
 31
0.0
  0
ARC
  5
D3
  8
0
  6
CONTINUOUS
 62
     7
 10
169.25
 20
172.0999999999999
 30
0.0
 40
0.5000000000000004
 50
270.0
 51
0.0
  0
LINE
  5
D4
  8
0
  6
CONTINUOUS
 62
     7
 10
169.25
 20
171.5999999999999
 30
0.0
 11
168.9356953381771
 21
171.5999999999999
 31
0.0
  0
LINE
  5
D5
  8
0
  6
CONTINUOUS
 62
     7
 10
169.75
 20
172.6553721693518
 30
0.0
 11
169.75
 21
172.0999999999999
 31
0.0
  0
LINE
  5
D6
  8
0
  6
CONTINUOUS
 62
     7
 10
169.75
 20
182.3446278306481
 30
0.0
 11
169.7238870747811
 21
182.3499999999999
 31
0.0
  0
LINE
  5
D7
  8
0
  6
CONTINUOUS
 62
     7
 10
169.75
 20
182.8999999999999
 30
0.0
 11
169.75
 21
182.3446278306481
 31
0.0
  0
LINE
  5
D8
  8
0
  6
CONTINUOUS
 62
     7
 10
144.25
 20
182.3446278306481
 30
0.0
 11
144.25
 21
182.8999999999999
 31
0.0
  0
LINE
  5
D9
  8
0
  6
CONTINUOUS
 62
     7
 10
160.25
 20
169.5999999999999
 30
0.0
 11
153.75
 21
169.5999999999999
 31
0.0
  0
LINE
  5
DA
  8
0
  6
CONTINUOUS
 62
     7
 10
160.75
 20
169.5999999999999
 30
0.0
 11
160.25
 21
169.5999999999999
 31
0.0
  0
ARC
  5
DB
  8
0
  6
CONTINUOUS
 62
     7
 10
160.75
 20
170.0999999999999
 30
0.0
 40
0.5000000000000004
 50
270.0
 51
0.0
  0
LINE
  5
DC
  8
0
  6
CONTINUOUS
 62
     7
 10
161.25
 20
171.5999999999999
 30
0.0
 11
161.25
 21
170.0999999999999
 31
0.0
  0
LINE
  5
DD
  8
0
  6
CONTINUOUS
 62
     7
 10
153.75
 20
169.5999999999999
 30
0.0
 11
153.25
 21
169.5999999999999
 31
0.0
  0
ARC
  5
DE
  8
0
  6
CONTINUOUS
 62
     7
 10
153.25
 20
170.0999999999999
 30
0.0
 40
0.5000000000000004
 50
180.0
 51
270.0
  0
LINE
  5
DF
  8
0
  6
CONTINUOUS
 62
     7
 10
152.75
 20
170.0999999999999
 30
0.0
 11
152.75
 21
171.5999999999999
 31
0.0
  0
LINE
  5
E0
  8
0
  6
CONTINUOUS
 62
     7
 10
144.25
 20
182.3446278306481
 30
0.0
 11
144.25
 21
182.2337484987987
 31
0.0
  0
LINE
  5
E1
  8
0
  6
CONTINUOUS
 62
     7
 10
169.75
 20
182.2337484987987
 30
0.0
 11
169.75
 21
182.3446278306481
 31
0.0
  0
LINE
  5
E2
  8
0
  6
CONTINUOUS
 62
     7
 10
169.75
 20
172.6553721693518
 30
0.0
 11
169.75
 21
172.7662515012011
 31
0.0
  0
LINE
  5
E3
  8
0
  6
CONTINUOUS
 62
     7
 10
144.25
 20
172.7662515012011
 30
0.0
 11
144.25
 21
172.6553721693518
 31
0.0
  0
ARC
  5
E4
  8
0
  6
CONTINUOUS
 62
     7
 10
170.75
 20
171.9999999999999
 30
0.0
 40
1.000000000000001
 50
270.0
 51
0.0
  0
LINE
  5
E5
  8
0
  6
CONTINUOUS
 62
     7
 10
143.25
 20
183.9999999999999
 30
0.0
 11
170.75
 21
183.9999999999999
 31
0.0
  0
ARC
  5
E6
  8
0
  6
CONTINUOUS
 62
     7
 10
143.25
 20
182.9999999999999
 30
0.0
 40
1.000000000000001
 50
90.0
 51
180.0
  0
LINE
  5
E7
  8
0
  6
CONTINUOUS
 62
     7
 10
144.25
 20
182.2337484987987
 30
0.0
 11
144.25
 21
181.9811876493925
 31
0.0
  0
LINE
  5
E8
  8
0
  6
CONTINUOUS
 62
     7
 10
169.75
 20
173.0188123506073
 30
0.0
 11
169.75
 21
172.7662515012011
 31
0.0
  0
LINE
  5
E9
  8
0
  6
CONTINUOUS
 62
     7
 10
144.25
 20
173.0188123506073
 30
0.0
 11
144.25
 21
172.7662515012011
 31
0.0
  0
LINE
  5
EA
  8
0
  6
CONTINUOUS
 62
     7
 10
142.25
 20
171.9999999999999
 30
0.0
 11
142.25
 21
174.1429285785728
 31
0.0
  0
LINE
  5
EB
  8
0
  6
CONTINUOUS
 62
     7
 10
142.25
 20
174.8570714214271
 30
0.0
 11
142.25
 21
180.1429285785728
 31
0.0
  0
LINE
  5
EC
  8
0
  6
CONTINUOUS
 62
     7
 10
142.25
 20
180.8570714214271
 30
0.0
 11
142.25
 21
182.9999999999999
 31
0.0
  0
LINE
  5
ED
  8
0
  6
CONTINUOUS
 62
     7
 10
170.75
 20
170.9999999999999
 30
0.0
 11
161.25
 21
170.9999999999999
 31
0.0
  0
LINE
  5
EE
  8
0
  6
CONTINUOUS
 62
     7
 10
171.75
 20
182.9999999999999
 30
0.0
 11
171.75
 21
180.8570714214271
 31
0.0
  0
LINE
  5
EF
  8
0
  6
CONTINUOUS
 62
     7
 10
171.75
 20
180.1429285785728
 30
0.0
 11
171.75
 21
174.8570714214271
 31
0.0
  0
LINE
  5
F0
  8
0
  6
CONTINUOUS
 62
     7
 10
171.75
 20
174.1429285785728
 30
0.0
 11
171.75
 21
171.9999999999999
 31
0.0
  0
ARC
  5
F1
  8
0
  6
CONTINUOUS
 62
     7
 10
170.75
 20
182.9999999999999
 30
0.0
 40
1.000000000000001
 50
0.0
 51
90.0
  0
ARC
  5
F2
  8
0
  6
CONTINUOUS
 62
     7
 10
143.25
 20
171.9999999999999
 30
0.0
 40
1.000000000000001
 50
180.0
 51
270.0
  0
LINE
  5
F3
  8
0
  6
CONTINUOUS
 62
     7
 10
169.75
 20
182.2337484987987
 30
0.0
 11
169.75
 21
181.9811876493925
 31
0.0
  0
LINE
  5
F4
  8
0
  6
CONTINUOUS
 62
     7
 10
152.75
 20
170.9999999999999
 30
0.0
 11
143.25
 21
170.9999999999999
 31
0.0
  0
LINE
  5
F5
  8
0
  6
CONTINUOUS
 62
     7
 10
144.5
 20
182.2499999999999
 30
0.0
 11
144.5
 21
172.7499999999999
 31
0.0
  0
LINE
  5
F6
  8
0
  6
CONTINUOUS
 62
     7
 10
169.5
 20
182.2499999999999
 30
0.0
 11
169.5
 21
172.7499999999999
 31
0.0
  0
LINE
  5
F7
  8
0
  6
CONTINUOUS
 62
   253
 10
140.8198039027185
 20
185.9213820345615
 30
0.0
 11
140.6287075693249
 21
185.9018762485523
 31
0.0
  0
LINE
  5
F8
  8
0
  6
CONTINUOUS
 62
   253
 10
140.6287075693249
 20
185.9018762485523
 30
0.0
 11
140.4449390185958
 21
185.8447738778425
 31
0.0
  0
LINE
  5
F9
  8
0
  6
CONTINUOUS
 62
   253
 10
140.4449390185958
 20
185.8447738778425
 30
0.0
 11
140.2755450419394
 21
185.7522645707355
 31
0.0
  0
LINE
  5
FA
  8
0
  6
CONTINUOUS
 62
   253
 10
140.2755450419394
 20
185.7522645707355
 30
0.0
 11
140.1270212231462
 21
185.6278956904115
 31
0.0
  0
LINE
  5
FB
  8
0
  6
CONTINUOUS
 62
   253
 10
140.1270212231462
 20
185.6278956904115
 30
0.0
 11
140.0050628586422
 21
185.476436287689
 31
0.0
  0
LINE
  5
FC
  8
0
  6
CONTINUOUS
 62
   253
 10
140.0050628586422
 20
185.476436287689
 30
0.0
 11
139.9143465655731
 21
185.3036942269366
 31
0.0
  0
LINE
  5
FD
  8
0
  6
CONTINUOUS
 62
   253
 10
139.9143465655731
 20
185.3036942269366
 30
0.0
 11
139.8583509521776
 21
185.1162934776242
 31
0.0
  0
LINE
  5
FE
  8
0
  6
CONTINUOUS
 62
   253
 10
139.8583509521776
 20
185.1162934776242
 30
0.0
 11
139.8392232270276
 21
184.9214201114974
 31
0.0
  0
LINE
  5
FF
  8
0
  6
CONTINUOUS
 62
   253
 10
158.8286179654384
 20
219.8198039027185
 30
0.0
 11
158.8481237514477
 21
219.6287075693249
 31
0.0
  0
LINE
  5
100
  8
0
  6
CONTINUOUS
 62
   253
 10
158.8481237514477
 20
219.6287075693249
 30
0.0
 11
158.9052261221575
 21
219.4449390185957
 31
0.0
  0
LINE
  5
101
  8
0
  6
CONTINUOUS
 62
   253
 10
158.9052261221575
 20
219.4449390185957
 30
0.0
 11
158.9977354292644
 21
219.2755450419393
 31
0.0
  0
LINE
  5
102
  8
0
  6
CONTINUOUS
 62
   253
 10
158.9977354292644
 20
219.2755450419393
 30
0.0
 11
159.1221043095885
 21
219.1270212231461
 31
0.0
  0
LINE
  5
103
  8
0
  6
CONTINUOUS
 62
   253
 10
159.1221043095885
 20
219.1270212231461
 30
0.0
 11
159.2735637123109
 21
219.0050628586422
 31
0.0
  0
LINE
  5
104
  8
0
  6
CONTINUOUS
 62
   253
 10
159.2735637123109
 20
219.0050628586422
 30
0.0
 11
159.4463057730633
 21
218.9143465655731
 31
0.0
  0
LINE
  5
105
  8
0
  6
CONTINUOUS
 62
   253
 10
159.4463057730633
 20
218.9143465655731
 30
0.0
 11
159.6337065223757
 21
218.8583509521776
 31
0.0
  0
LINE
  5
106
  8
0
  6
CONTINUOUS
 62
   253
 10
159.6337065223757
 20
218.8583509521776
 30
0.0
 11
159.8285798885026
 21
218.8392232270276
 31
0.0
  0
LINE
  5
107
  8
0
  6
CONTINUOUS
 62
     7
 10
173.8294101659174
 20
223.0900496280978
 30
0.0
 11
173.8372686779076
 21
222.0950124378879
 31
0.0
  0
LINE
  5
108
  8
0
  6
CONTINUOUS
 62
     7
 10
173.8372686779076
 20
222.0950124378878
 30
0.0
 11
173.8372686779076
 21
220.9127313220924
 31
0.0
  0
LINE
  5
109
  8
0
  6
CONTINUOUS
 62
     7
 10
173.8372686779076
 20
220.9127313220924
 30
0.0
 11
173.75
 21
220.9999999999999
 31
0.0
  0
LINE
  5
10A
  8
0
  6
CONTINUOUS
 62
     7
 10
173.75
 20
222.2499999999999
 30
0.0
 11
173.75
 21
220.9999999999999
 31
0.0
  0
LINE
  5
10B
  8
0
  6
CONTINUOUS
 62
     7
 10
173.75
 20
223.9999999999999
 30
0.0
 11
173.8294101659174
 21
223.0900496280978
 31
0.0
  0
LINE
  5
10C
  8
0
  6
CONTINUOUS
 62
     7
 10
169.9099503719021
 20
184.0794101659173
 30
0.0
 11
169.0
 21
183.9999999999999
 31
0.0
  0
LINE
  5
10D
  8
0
  6
CONTINUOUS
 62
     7
 10
170.9049875621121
 20
184.0872686779075
 30
0.0
 11
169.9099503719021
 21
184.0794101659173
 31
0.0
  0
LINE
  5
10E
  8
0
  6
CONTINUOUS
 62
     7
 10
172.0872686779076
 20
184.0872686779075
 30
0.0
 11
170.9049875621121
 21
184.0872686779075
 31
0.0
  0
LINE
  5
10F
  8
0
  6
CONTINUOUS
 62
     7
 10
171.008688789405
 20
183.9999999999999
 30
0.0
 11
172.0086507124692
 21
184.0086507124691
 31
0.0
  0
LINE
  5
110
  8
0
  6
CONTINUOUS
 62
     7
 10
171.008688789405
 20
183.9999999999999
 30
0.0
 11
170.75
 21
183.9999999999999
 31
0.0
  0
LINE
  5
111
  8
0
  6
CONTINUOUS
 62
   253
 10
160.6705898340826
 20
223.0900496280978
 30
0.0
 11
159.8285798885026
 21
223.0900496280978
 31
0.0
  0
LINE
  5
112
  8
0
  6
CONTINUOUS
 62
     7
 10
160.6627313220924
 20
222.0950124378878
 30
0.0
 11
160.6705898340826
 21
223.0900496280978
 31
0.0
  0
LINE
  5
113
  8
0
  6
CONTINUOUS
 62
     7
 10
170.9049875621121
 20
170.9127313220924
 30
0.0
 11
172.0872686779076
 21
170.9127313220924
 31
0.0
  0
LINE
  5
114
  8
0
  6
CONTINUOUS
 62
     7
 10
169.9099503719021
 20
170.9205898340825
 30
0.0
 11
170.9049875621121
 21
170.9127313220924
 31
0.0
  0
LINE
  5
115
  8
0
  6
CONTINUOUS
 62
     7
 10
169.0
 20
170.9999999999999
 30
0.0
 11
169.9099503719021
 21
170.9205898340825
 31
0.0
  0
LINE
  5
116
  8
0
  6
CONTINUOUS
 62
     7
 10
170.75
 20
170.9999999999999
 30
0.0
 11
171.008688789405
 21
170.9999999999999
 31
0.0
  0
LINE
  5
117
  8
0
  6
CONTINUOUS
 62
     7
 10
172.0086507124692
 20
170.9913492875307
 30
0.0
 11
171.008688789405
 21
170.9999999999999
 31
0.0
  0
LINE
  5
118
  8
0
  6
CONTINUOUS
 62
     7
 10
160.75
 20
250.9999999999999
 30
0.0
 11
160.75
 21
249.7499999999999
 31
0.0
  0
LINE
  5
119
  8
0
  6
CONTINUOUS
 62
     7
 10
160.6705898340826
 20
248.909950371902
 30
0.0
 11
160.75
 21
247.9999999999999
 31
0.0
  0
LINE
  5
11A
  8
0
  6
CONTINUOUS
 62
     7
 10
160.6627313220924
 20
249.904987562112
 30
0.0
 11
160.6705898340826
 21
248.909950371902
 31
0.0
  0
LINE
  5
11B
  8
0
  6
CONTINUOUS
 62
     7
 10
160.6627313220924
 20
251.0872686779075
 30
0.0
 11
160.6627313220924
 21
249.904987562112
 31
0.0
  0
LINE
  5
11C
  8
0
  6
CONTINUOUS
 62
   253
 10
144.0900496280979
 20
184.0794101659174
 30
0.0
 11
144.0900496280979
 21
184.9214201114974
 31
0.0
  0
LINE
  5
11D
  8
0
  6
CONTINUOUS
 62
     7
 10
143.0950124378879
 20
184.0872686779075
 30
0.0
 11
144.0900496280979
 21
184.0794101659174
 31
0.0
  0
LINE
  5
11E
  8
0
  6
CONTINUOUS
 62
     7
 10
173.75
 20
249.7499999999999
 30
0.0
 11
173.75
 21
250.9999999999999
 31
0.0
  0
LINE
  5
11F
  8
0
  6
CONTINUOUS
 62
     7
 10
173.8372686779076
 20
249.904987562112
 30
0.0
 11
173.8372686779076
 21
251.0872686779075
 31
0.0
  0
LINE
  5
120
  8
0
  6
CONTINUOUS
 62
     7
 10
173.8294101659174
 20
248.909950371902
 30
0.0
 11
173.8372686779076
 21
249.904987562112
 31
0.0
  0
LINE
  5
121
  8
0
  6
CONTINUOUS
 62
     7
 10
173.75
 20
247.9999999999999
 30
0.0
 11
173.8294101659174
 21
248.909950371902
 31
0.0
  0
LINE
  5
122
  8
0
  6
CONTINUOUS
 62
     7
 10
141.9127313220924
 20
184.0872686779075
 30
0.0
 11
143.0950124378879
 21
184.0872686779075
 31
0.0
  0
LINE
  5
123
  8
0
  6
CONTINUOUS
 62
     7
 10
144.0900496280979
 20
184.0794101659174
 30
0.0
 11
145.0
 21
183.9999999999999
 31
0.0
  0
LINE
  5
124
  8
0
  6
CONTINUOUS
 62
     7
 10
142.991311210595
 20
183.9999999999999
 30
0.0
 11
143.25
 21
183.9999999999999
 31
0.0
  0
LINE
  5
125
  8
0
  6
CONTINUOUS
 62
     7
 10
141.9913492875308
 20
184.0086507124691
 30
0.0
 11
142.991311210595
 21
183.9999999999999
 31
0.0
  0
LINE
  5
126
  8
0
  6
CONTINUOUS
 62
   253
 10
174.6714201114974
 20
248.909950371902
 30
0.0
 11
173.8294101659174
 21
248.909950371902
 31
0.0
  0
LINE
  5
127
  8
0
  6
CONTINUOUS
 62
   253
 10
169.9099503719021
 20
184.0794101659173
 30
0.0
 11
169.9099503719021
 21
184.9214201114974
 31
0.0
  0
LINE
  5
128
  8
0
  6
CONTINUOUS
 62
   253
 10
159.8285798885026
 20
223.0900496280978
 30
0.0
 11
159.6336033733021
 21
223.0707828630958
 31
0.0
  0
LINE
  5
129
  8
0
  6
CONTINUOUS
 62
   253
 10
159.6336033733021
 20
223.0707828630958
 30
0.0
 11
159.4461114411667
 21
223.0140591008117
 31
0.0
  0
LINE
  5
12A
  8
0
  6
CONTINUOUS
 62
   253
 10
159.4461114411667
 20
223.0140591008117
 30
0.0
 11
159.27330136372
 21
222.9220558020035
 31
0.0
  0
LINE
  5
12B
  8
0
  6
CONTINUOUS
 62
   253
 10
159.27330136372
 20
222.9220558020035
 30
0.0
 11
159.1218068187554
 21
222.7983047065398
 31
0.0
  0
LINE
  5
12C
  8
0
  6
CONTINUOUS
 62
   253
 10
159.1218068187554
 20
222.7983047065398
 30
0.0
 11
158.9974432425809
 21
222.6475562601471
 31
0.0
  0
LINE
  5
12D
  8
0
  6
CONTINUOUS
 62
   253
 10
158.9974432425809
 20
222.6475562601471
 30
0.0
 11
158.9049845922814
 21
222.4755972585727
 31
0.0
  0
LINE
  5
12E
  8
0
  6
CONTINUOUS
 62
   253
 10
158.9049845922814
 20
222.4755972585727
 30
0.0
 11
158.8479800873492
 21
222.289028709275
 31
0.0
  0
LINE
  5
12F
  8
0
  6
CONTINUOUS
 62
   253
 10
158.8479800873492
 20
222.289028709275
 30
0.0
 11
158.8286179654384
 21
222.0950124378879
 31
0.0
  0
LINE
  5
130
  8
0
  6
CONTINUOUS
 62
   253
 10
158.8286179654384
 20
222.0950124378878
 30
0.0
 11
158.8286179654384
 21
219.8198039027185
 31
0.0
  0
LINE
  5
131
  8
0
  6
CONTINUOUS
 62
   253
 10
143.0950124378879
 20
169.0786179654383
 30
0.0
 11
143.289028709275
 21
169.0979800873491
 31
0.0
  0
LINE
  5
132
  8
0
  6
CONTINUOUS
 62
   253
 10
143.289028709275
 20
169.0979800873491
 30
0.0
 11
143.4755972585727
 21
169.1549845922814
 31
0.0
  0
LINE
  5
133
  8
0
  6
CONTINUOUS
 62
   253
 10
143.4755972585727
 20
169.1549845922814
 30
0.0
 11
143.6475562601472
 21
169.2474432425808
 31
0.0
  0
LINE
  5
134
  8
0
  6
CONTINUOUS
 62
   253
 10
143.6475562601472
 20
169.2474432425808
 30
0.0
 11
143.7983047065398
 21
169.3718068187553
 31
0.0
  0
LINE
  5
135
  8
0
  6
CONTINUOUS
 62
   253
 10
143.7983047065398
 20
169.3718068187553
 30
0.0
 11
143.9220558020035
 21
169.52330136372
 31
0.0
  0
LINE
  5
136
  8
0
  6
CONTINUOUS
 62
   253
 10
143.9220558020035
 20
169.52330136372
 30
0.0
 11
144.0140591008117
 21
169.6961114411667
 31
0.0
  0
LINE
  5
137
  8
0
  6
CONTINUOUS
 62
   253
 10
144.0140591008117
 20
169.6961114411667
 30
0.0
 11
144.0707828630959
 21
169.883603373302
 31
0.0
  0
LINE
  5
138
  8
0
  6
CONTINUOUS
 62
   253
 10
144.0707828630959
 20
169.883603373302
 30
0.0
 11
144.0900496280979
 21
170.0785798885025
 31
0.0
  0
LINE
  5
139
  8
0
  6
CONTINUOUS
 62
   253
 10
140.8198039027185
 20
169.0786179654384
 30
0.0
 11
143.0950124378879
 21
169.0786179654383
 31
0.0
  0
LINE
  5
13A
  8
0
  6
CONTINUOUS
 62
   253
 10
170.9049875621121
 20
185.9213820345615
 30
0.0
 11
170.710971290725
 21
185.9020199126507
 31
0.0
  0
LINE
  5
13B
  8
0
  6
CONTINUOUS
 62
   253
 10
170.710971290725
 20
185.9020199126507
 30
0.0
 11
170.5244027414273
 21
185.8450154077185
 31
0.0
  0
LINE
  5
13C
  8
0
  6
CONTINUOUS
 62
   253
 10
170.5244027414273
 20
185.8450154077185
 30
0.0
 11
170.3524437398528
 21
185.7525567574191
 31
0.0
  0
LINE
  5
13D
  8
0
  6
CONTINUOUS
 62
   253
 10
170.3524437398528
 20
185.7525567574191
 30
0.0
 11
170.2016952934602
 21
185.6281931812445
 31
0.0
  0
LINE
  5
13E
  8
0
  6
CONTINUOUS
 62
   253
 10
170.2016952934602
 20
185.6281931812445
 30
0.0
 11
170.0779441979965
 21
185.4766986362799
 31
0.0
  0
LINE
  5
13F
  8
0
  6
CONTINUOUS
 62
   253
 10
170.0779441979965
 20
185.4766986362799
 30
0.0
 11
169.9859408991883
 21
185.3038885588332
 31
0.0
  0
LINE
  5
140
  8
0
  6
CONTINUOUS
 62
   253
 10
169.9859408991883
 20
185.3038885588332
 30
0.0
 11
169.9292171369041
 21
185.1163966266978
 31
0.0
  0
LINE
  5
141
  8
0
  6
CONTINUOUS
 62
   253
 10
169.9292171369041
 20
185.1163966266978
 30
0.0
 11
169.9099503719021
 21
184.9214201114974
 31
0.0
  0
LINE
  5
142
  8
0
  6
CONTINUOUS
 62
   253
 10
174.6714201114974
 20
223.0900496280978
 30
0.0
 11
173.8294101659174
 21
223.0900496280978
 31
0.0
  0
LINE
  5
143
  8
0
  6
CONTINUOUS
 62
   253
 10
173.1801960972815
 20
169.0786179654383
 30
0.0
 11
170.9049875621121
 21
169.0786179654383
 31
0.0
  0
LINE
  5
144
  8
0
  6
CONTINUOUS
 62
   253
 10
159.8285798885026
 20
253.1607767729723
 30
0.0
 11
159.6337065223757
 21
253.1416490478223
 31
0.0
  0
LINE
  5
145
  8
0
  6
CONTINUOUS
 62
   253
 10
159.6337065223757
 20
253.1416490478223
 30
0.0
 11
159.4463057730633
 21
253.0856534344267
 31
0.0
  0
LINE
  5
146
  8
0
  6
CONTINUOUS
 62
   253
 10
159.4463057730633
 20
253.0856534344267
 30
0.0
 11
159.2735637123109
 21
252.9949371413576
 31
0.0
  0
LINE
  5
147
  8
0
  6
CONTINUOUS
 62
   253
 10
159.2735637123109
 20
252.9949371413576
 30
0.0
 11
159.1221043095885
 21
252.8729787768537
 31
0.0
  0
LINE
  5
148
  8
0
  6
CONTINUOUS
 62
   253
 10
159.1221043095885
 20
252.8729787768537
 30
0.0
 11
158.9977354292644
 21
252.7244549580605
 31
0.0
  0
LINE
  5
149
  8
0
  6
CONTINUOUS
 62
   253
 10
158.9977354292644
 20
252.7244549580605
 30
0.0
 11
158.9052261221574
 21
252.5550609814041
 31
0.0
  0
LINE
  5
14A
  8
0
  6
CONTINUOUS
 62
   253
 10
158.9052261221574
 20
252.5550609814041
 30
0.0
 11
158.8481237514477
 21
252.371292430675
 31
0.0
  0
LINE
  5
14B
  8
0
  6
CONTINUOUS
 62
   253
 10
158.8481237514477
 20
252.371292430675
 30
0.0
 11
158.8286179654384
 21
252.1801960972813
 31
0.0
  0
LINE
  5
14C
  8
0
  6
CONTINUOUS
 62
   253
 10
175.6713820345616
 20
222.0950124378878
 30
0.0
 11
175.6520199126508
 21
222.289028709275
 31
0.0
  0
LINE
  5
14D
  8
0
  6
CONTINUOUS
 62
   253
 10
175.6520199126508
 20
222.289028709275
 30
0.0
 11
175.5950154077185
 21
222.4755972585726
 31
0.0
  0
LINE
  5
14E
  8
0
  6
CONTINUOUS
 62
   253
 10
175.5950154077185
 20
222.4755972585726
 30
0.0
 11
175.5025567574191
 21
222.6475562601471
 31
0.0
  0
LINE
  5
14F
  8
0
  6
CONTINUOUS
 62
   253
 10
175.5025567574191
 20
222.6475562601471
 30
0.0
 11
175.3781931812446
 21
222.7983047065397
 31
0.0
  0
LINE
  5
150
  8
0
  6
CONTINUOUS
 62
   253
 10
175.3781931812446
 20
222.7983047065397
 30
0.0
 11
175.22669863628
 21
222.9220558020034
 31
0.0
  0
LINE
  5
151
  8
0
  6
CONTINUOUS
 62
   253
 10
175.22669863628
 20
222.9220558020034
 30
0.0
 11
175.0538885588333
 21
223.0140591008117
 31
0.0
  0
LINE
  5
152
  8
0
  6
CONTINUOUS
 62
   253
 10
175.0538885588333
 20
223.0140591008117
 30
0.0
 11
174.8663966266979
 21
223.0707828630958
 31
0.0
  0
LINE
  5
153
  8
0
  6
CONTINUOUS
 62
   253
 10
174.8663966266979
 20
223.0707828630958
 30
0.0
 11
174.6714201114975
 21
223.0900496280978
 31
0.0
  0
LINE
  5
154
  8
0
  6
CONTINUOUS
 62
   253
 10
160.6705898340826
 20
248.909950371902
 30
0.0
 11
159.8285798885026
 21
248.9099503719021
 31
0.0
  0
LINE
  5
155
  8
0
  6
CONTINUOUS
 62
   253
 10
158.8286179654384
 20
249.904987562112
 30
0.0
 11
158.8286179654384
 21
252.1801960972814
 31
0.0
  0
LINE
  5
156
  8
0
  6
CONTINUOUS
 62
   253
 10
144.0900496280979
 20
184.9214201114974
 30
0.0
 11
144.0707828630959
 21
185.1163966266978
 31
0.0
  0
LINE
  5
157
  8
0
  6
CONTINUOUS
 62
   253
 10
144.0707828630959
 20
185.1163966266978
 30
0.0
 11
144.0140591008117
 21
185.3038885588332
 31
0.0
  0
LINE
  5
158
  8
0
  6
CONTINUOUS
 62
   253
 10
144.0140591008117
 20
185.3038885588332
 30
0.0
 11
143.9220558020035
 21
185.4766986362799
 31
0.0
  0
LINE
  5
159
  8
0
  6
CONTINUOUS
 62
   253
 10
143.9220558020035
 20
185.4766986362799
 30
0.0
 11
143.7983047065398
 21
185.6281931812445
 31
0.0
  0
LINE
  5
15A
  8
0
  6
CONTINUOUS
 62
   253
 10
143.7983047065398
 20
185.6281931812445
 30
0.0
 11
143.6475562601472
 21
185.7525567574191
 31
0.0
  0
LINE
  5
15B
  8
0
  6
CONTINUOUS
 62
   253
 10
143.6475562601472
 20
185.7525567574191
 30
0.0
 11
143.4755972585727
 21
185.8450154077185
 31
0.0
  0
LINE
  5
15C
  8
0
  6
CONTINUOUS
 62
   253
 10
143.4755972585727
 20
185.8450154077185
 30
0.0
 11
143.289028709275
 21
185.9020199126507
 31
0.0
  0
LINE
  5
15D
  8
0
  6
CONTINUOUS
 62
   253
 10
143.289028709275
 20
185.9020199126507
 30
0.0
 11
143.0950124378879
 21
185.9213820345615
 31
0.0
  0
LINE
  5
15E
  8
0
  6
CONTINUOUS
 62
   253
 10
143.0950124378879
 20
185.9213820345615
 30
0.0
 11
140.8198039027185
 21
185.9213820345615
 31
0.0
  0
LINE
  5
15F
  8
0
  6
CONTINUOUS
 62
   253
 10
169.9099503719021
 20
170.0785798885025
 30
0.0
 11
169.9292171369041
 21
169.883603373302
 31
0.0
  0
LINE
  5
160
  8
0
  6
CONTINUOUS
 62
   253
 10
169.9292171369041
 20
169.883603373302
 30
0.0
 11
169.9859408991883
 21
169.6961114411667
 31
0.0
  0
LINE
  5
161
  8
0
  6
CONTINUOUS
 62
   253
 10
169.9859408991883
 20
169.6961114411667
 30
0.0
 11
170.0779441979965
 21
169.52330136372
 31
0.0
  0
LINE
  5
162
  8
0
  6
CONTINUOUS
 62
   253
 10
170.0779441979965
 20
169.52330136372
 30
0.0
 11
170.2016952934602
 21
169.3718068187553
 31
0.0
  0
LINE
  5
163
  8
0
  6
CONTINUOUS
 62
   253
 10
170.2016952934602
 20
169.3718068187553
 30
0.0
 11
170.3524437398528
 21
169.2474432425808
 31
0.0
  0
LINE
  5
164
  8
0
  6
CONTINUOUS
 62
   253
 10
170.3524437398528
 20
169.2474432425808
 30
0.0
 11
170.5244027414273
 21
169.1549845922814
 31
0.0
  0
LINE
  5
165
  8
0
  6
CONTINUOUS
 62
   253
 10
170.5244027414273
 20
169.1549845922814
 30
0.0
 11
170.710971290725
 21
169.0979800873491
 31
0.0
  0
LINE
  5
166
  8
0
  6
CONTINUOUS
 62
   253
 10
170.710971290725
 20
169.0979800873491
 30
0.0
 11
170.9049875621121
 21
169.0786179654383
 31
0.0
  0
LINE
  5
167
  8
0
  6
CONTINUOUS
 62
   253
 10
170.9049875621121
 20
185.9213820345615
 30
0.0
 11
173.1801960972815
 21
185.9213820345615
 31
0.0
  0
LINE
  5
168
  8
0
  6
CONTINUOUS
 62
   253
 10
175.6713820345616
 20
252.1801960972814
 30
0.0
 11
175.6713820345616
 21
249.904987562112
 31
0.0
  0
LINE
  5
169
  8
0
  6
CONTINUOUS
 62
     7
 10
145.0
 20
170.9999999999999
 30
0.0
 11
144.0900496280979
 21
170.9205898340825
 31
0.0
  0
LINE
  5
16A
  8
0
  6
CONTINUOUS
 62
     7
 10
144.0900496280979
 20
170.9205898340825
 30
0.0
 11
143.0950124378879
 21
170.9127313220924
 31
0.0
  0
LINE
  5
16B
  8
0
  6
CONTINUOUS
 62
     7
 10
143.0950124378879
 20
170.9127313220924
 30
0.0
 11
141.9127313220924
 21
170.9127313220924
 31
0.0
  0
LINE
  5
16C
  8
0
  6
CONTINUOUS
 62
     7
 10
142.991311210595
 20
170.9999999999999
 30
0.0
 11
141.9913492875308
 21
170.9913492875308
 31
0.0
  0
LINE
  5
16D
  8
0
  6
CONTINUOUS
 62
     7
 10
143.25
 20
170.9999999999999
 30
0.0
 11
142.991311210595
 21
170.9999999999999
 31
0.0
  0
LINE
  5
16E
  8
0
  6
CONTINUOUS
 62
   253
 10
174.6714201114974
 20
248.909950371902
 30
0.0
 11
174.8663966266979
 21
248.929217136904
 31
0.0
  0
LINE
  5
16F
  8
0
  6
CONTINUOUS
 62
   253
 10
174.8663966266979
 20
248.929217136904
 30
0.0
 11
175.0538885588333
 21
248.9859408991882
 31
0.0
  0
LINE
  5
170
  8
0
  6
CONTINUOUS
 62
   253
 10
175.0538885588333
 20
248.9859408991882
 30
0.0
 11
175.22669863628
 21
249.0779441979964
 31
0.0
  0
LINE
  5
171
  8
0
  6
CONTINUOUS
 62
   253
 10
175.22669863628
 20
249.0779441979964
 30
0.0
 11
175.3781931812446
 21
249.2016952934601
 31
0.0
  0
LINE
  5
172
  8
0
  6
CONTINUOUS
 62
   253
 10
175.3781931812446
 20
249.2016952934601
 30
0.0
 11
175.5025567574191
 21
249.3524437398528
 31
0.0
  0
LINE
  5
173
  8
0
  6
CONTINUOUS
 62
   253
 10
175.5025567574191
 20
249.3524437398528
 30
0.0
 11
175.5950154077186
 21
249.5244027414272
 31
0.0
  0
LINE
  5
174
  8
0
  6
CONTINUOUS
 62
   253
 10
175.5950154077186
 20
249.5244027414272
 30
0.0
 11
175.6520199126508
 21
249.7109712907249
 31
0.0
  0
LINE
  5
175
  8
0
  6
CONTINUOUS
 62
   253
 10
175.6520199126508
 20
249.7109712907249
 30
0.0
 11
175.6713820345616
 21
249.904987562112
 31
0.0
  0
LINE
  5
176
  8
0
  6
CONTINUOUS
 62
   253
 10
144.0900496280979
 20
170.0785798885025
 30
0.0
 11
144.0900496280979
 21
170.9205898340825
 31
0.0
  0
LINE
  5
177
  8
0
  6
CONTINUOUS
 62
     7
 10
160.6705898340826
 20
223.0900496280978
 30
0.0
 11
160.75
 21
223.9999999999999
 31
0.0
  0
LINE
  5
178
  8
0
  6
CONTINUOUS
 62
     7
 10
160.75
 20
220.9999999999999
 30
0.0
 11
160.75
 21
222.2499999999999
 31
0.0
  0
LINE
  5
179
  8
0
  6
CONTINUOUS
 62
     7
 10
160.6627313220924
 20
220.9127313220924
 30
0.0
 11
160.75
 21
220.9999999999999
 31
0.0
  0
LINE
  5
17A
  8
0
  6
CONTINUOUS
 62
     7
 10
160.6627313220924
 20
220.9127313220924
 30
0.0
 11
160.6627313220924
 21
222.0950124378878
 31
0.0
  0
LINE
  5
17B
  8
0
  6
CONTINUOUS
 62
   253
 10
175.6713820345616
 20
219.8198039027185
 30
0.0
 11
175.6713820345616
 21
222.0950124378878
 31
0.0
  0
LINE
  5
17C
  8
0
  6
CONTINUOUS
 62
   253
 10
174.1607767729724
 20
184.9214201114974
 30
0.0
 11
174.1416490478223
 21
185.1162934776242
 31
0.0
  0
LINE
  5
17D
  8
0
  6
CONTINUOUS
 62
   253
 10
174.1416490478223
 20
185.1162934776242
 30
0.0
 11
174.0856534344268
 21
185.3036942269366
 31
0.0
  0
LINE
  5
17E
  8
0
  6
CONTINUOUS
 62
   253
 10
174.0856534344268
 20
185.3036942269366
 30
0.0
 11
173.9949371413577
 21
185.476436287689
 31
0.0
  0
LINE
  5
17F
  8
0
  6
CONTINUOUS
 62
   253
 10
173.9949371413577
 20
185.476436287689
 30
0.0
 11
173.8729787768538
 21
185.6278956904114
 31
0.0
  0
LINE
  5
180
  8
0
  6
CONTINUOUS
 62
   253
 10
173.8729787768538
 20
185.6278956904114
 30
0.0
 11
173.7244549580606
 21
185.7522645707355
 31
0.0
  0
LINE
  5
181
  8
0
  6
CONTINUOUS
 62
   253
 10
173.7244549580606
 20
185.7522645707355
 30
0.0
 11
173.5550609814042
 21
185.8447738778424
 31
0.0
  0
LINE
  5
182
  8
0
  6
CONTINUOUS
 62
   253
 10
173.5550609814042
 20
185.8447738778424
 30
0.0
 11
173.3712924306751
 21
185.9018762485522
 31
0.0
  0
LINE
  5
183
  8
0
  6
CONTINUOUS
 62
   253
 10
173.3712924306751
 20
185.9018762485522
 30
0.0
 11
173.1801960972815
 21
185.9213820345615
 31
0.0
  0
LINE
  5
184
  8
0
  6
CONTINUOUS
 62
   253
 10
158.8286179654384
 20
249.904987562112
 30
0.0
 11
158.8479800873492
 21
249.7109712907249
 31
0.0
  0
LINE
  5
185
  8
0
  6
CONTINUOUS
 62
   253
 10
158.8479800873492
 20
249.7109712907249
 30
0.0
 11
158.9049845922814
 21
249.5244027414272
 31
0.0
  0
LINE
  5
186
  8
0
  6
CONTINUOUS
 62
   253
 10
158.9049845922814
 20
249.5244027414272
 30
0.0
 11
158.9974432425809
 21
249.3524437398528
 31
0.0
  0
LINE
  5
187
  8
0
  6
CONTINUOUS
 62
   253
 10
158.9974432425809
 20
249.3524437398528
 30
0.0
 11
159.1218068187554
 21
249.2016952934601
 31
0.0
  0
LINE
  5
188
  8
0
  6
CONTINUOUS
 62
   253
 10
159.1218068187554
 20
249.2016952934601
 30
0.0
 11
159.27330136372
 21
249.0779441979964
 31
0.0
  0
LINE
  5
189
  8
0
  6
CONTINUOUS
 62
   253
 10
159.27330136372
 20
249.0779441979964
 30
0.0
 11
159.4461114411667
 21
248.9859408991882
 31
0.0
  0
LINE
  5
18A
  8
0
  6
CONTINUOUS
 62
   253
 10
159.4461114411667
 20
248.9859408991882
 30
0.0
 11
159.6336033733021
 21
248.929217136904
 31
0.0
  0
LINE
  5
18B
  8
0
  6
CONTINUOUS
 62
   253
 10
159.6336033733021
 20
248.929217136904
 30
0.0
 11
159.8285798885026
 21
248.909950371902
 31
0.0
  0
LINE
  5
18C
  8
0
  6
CONTINUOUS
 62
   253
 10
169.9099503719021
 20
170.0785798885025
 30
0.0
 11
169.9099503719021
 21
170.9205898340825
 31
0.0
  0
LINE
  5
18D
  8
0
  6
CONTINUOUS
 62
   253
 10
139.8392232270276
 20
184.9214201114974
 30
0.0
 11
139.8392232270276
 21
170.0785798885025
 31
0.0
  0
LINE
  5
18E
  8
0
  6
CONTINUOUS
 62
   253
 10
159.8285798885026
 20
253.1607767729723
 30
0.0
 11
174.6714201114974
 21
253.1607767729723
 31
0.0
  0
LINE
  5
18F
  8
0
  6
CONTINUOUS
 62
   253
 10
173.1801960972814
 20
169.0786179654383
 30
0.0
 11
173.3712924306751
 21
169.0981237514476
 31
0.0
  0
LINE
  5
190
  8
0
  6
CONTINUOUS
 62
   253
 10
173.3712924306751
 20
169.0981237514476
 30
0.0
 11
173.5550609814042
 21
169.1552261221574
 31
0.0
  0
LINE
  5
191
  8
0
  6
CONTINUOUS
 62
   253
 10
173.5550609814042
 20
169.1552261221574
 30
0.0
 11
173.7244549580606
 21
169.2477354292643
 31
0.0
  0
LINE
  5
192
  8
0
  6
CONTINUOUS
 62
   253
 10
173.7244549580606
 20
169.2477354292643
 30
0.0
 11
173.8729787768538
 21
169.3721043095884
 31
0.0
  0
LINE
  5
193
  8
0
  6
CONTINUOUS
 62
   253
 10
173.8729787768538
 20
169.3721043095884
 30
0.0
 11
173.9949371413577
 21
169.5235637123108
 31
0.0
  0
LINE
  5
194
  8
0
  6
CONTINUOUS
 62
   253
 10
173.9949371413577
 20
169.5235637123108
 30
0.0
 11
174.0856534344268
 21
169.6963057730632
 31
0.0
  0
LINE
  5
195
  8
0
  6
CONTINUOUS
 62
   253
 10
174.0856534344268
 20
169.6963057730632
 30
0.0
 11
174.1416490478224
 21
169.8837065223757
 31
0.0
  0
LINE
  5
196
  8
0
  6
CONTINUOUS
 62
   253
 10
174.1416490478224
 20
169.8837065223757
 30
0.0
 11
174.1607767729724
 21
170.0785798885025
 31
0.0
  0
LINE
  5
197
  8
0
  6
CONTINUOUS
 62
     7
 10
169.7531872462841
 20
220.9563656610461
 30
0.0
 11
164.7468127537159
 21
220.9563656610461
 31
0.0
  0
LINE
  5
198
  8
0
  6
CONTINUOUS
 62
     7
 10
169.7531872462841
 20
220.9563656610461
 30
0.0
 11
169.762649342686
 21
220.9555192470916
 31
0.0
  0
LINE
  5
199
  8
0
  6
CONTINUOUS
 62
     7
 10
169.762649342686
 20
220.9555192470916
 30
0.0
 11
169.790863592054
 21
220.9547052360738
 31
0.0
  0
LINE
  5
19A
  8
0
  6
CONTINUOUS
 62
     7
 10
169.790863592054
 20
220.9547052360738
 30
0.0
 11
169.8367443737738
 21
220.9539549492989
 31
0.0
  0
LINE
  5
19B
  8
0
  6
CONTINUOUS
 62
     7
 10
169.8367443737738
 20
220.9539549492989
 30
0.0
 11
169.8985262989532
 21
220.9532972561081
 31
0.0
  0
LINE
  5
19C
  8
0
  6
CONTINUOUS
 62
     7
 10
169.8985262989532
 20
220.9532972561081
 30
0.0
 11
169.9738321386008
 21
220.9527574630504
 31
0.0
  0
LINE
  5
19D
  8
0
  6
CONTINUOUS
 62
     7
 10
169.9738321386008
 20
220.9527574630504
 30
0.0
 11
170.0597642940306
 21
220.9523563401439
 31
0.0
  0
LINE
  5
19E
  8
0
  6
CONTINUOUS
 62
     7
 10
170.0597642940306
 20
220.9523563401439
 30
0.0
 11
170.1530162899169
 21
220.9521093216925
 31
0.0
  0
LINE
  5
19F
  8
0
  6
CONTINUOUS
 62
     7
 10
170.1530162899169
 20
220.9521093216925
 30
0.0
 11
170.2500000000001
 21
220.9520259124083
 31
0.0
  0
LINE
  5
1A0
  8
0
  6
CONTINUOUS
 62
     7
 10
170.2500000000001
 20
220.9520259124083
 30
0.0
 11
170.3469837100832
 21
220.9521093216925
 31
0.0
  0
LINE
  5
1A1
  8
0
  6
CONTINUOUS
 62
     7
 10
170.3469837100832
 20
220.9521093216925
 30
0.0
 11
170.4402357059695
 21
220.9523563401439
 31
0.0
  0
LINE
  5
1A2
  8
0
  6
CONTINUOUS
 62
     7
 10
170.4402357059695
 20
220.9523563401439
 30
0.0
 11
170.5261678613993
 21
220.9527574630504
 31
0.0
  0
LINE
  5
1A3
  8
0
  6
CONTINUOUS
 62
     7
 10
170.5261678613993
 20
220.9527574630504
 30
0.0
 11
170.6014737010469
 21
220.9532972561081
 31
0.0
  0
LINE
  5
1A4
  8
0
  6
CONTINUOUS
 62
     7
 10
170.6014737010469
 20
220.9532972561081
 30
0.0
 11
170.6632556262263
 21
220.9539549492989
 31
0.0
  0
LINE
  5
1A5
  8
0
  6
CONTINUOUS
 62
     7
 10
170.6632556262263
 20
220.9539549492989
 30
0.0
 11
170.709136407946
 21
220.9547052360738
 31
0.0
  0
LINE
  5
1A6
  8
0
  6
CONTINUOUS
 62
     7
 10
170.709136407946
 20
220.9547052360738
 30
0.0
 11
170.737350657314
 21
220.9555192470916
 31
0.0
  0
LINE
  5
1A7
  8
0
  6
CONTINUOUS
 62
     7
 10
170.737350657314
 20
220.9555192470916
 30
0.0
 11
170.7468127537159
 21
220.9563656610461
 31
0.0
  0
LINE
  5
1A8
  8
0
  6
CONTINUOUS
 62
     7
 10
171.25
 20
220.9563656610461
 30
0.0
 11
170.7468127537159
 21
220.9563656610461
 31
0.0
  0
LINE
  5
1A9
  8
0
  6
CONTINUOUS
 62
     7
 10
171.25
 20
220.9563656610461
 30
0.0
 11
171.5120388964152
 21
220.9999999999999
 31
0.0
  0
LINE
  5
1AA
  8
0
  6
CONTINUOUS
 62
     7
 10
173.75
 20
220.9999999999999
 30
0.0
 11
171.5120388964152
 21
220.9999999999999
 31
0.0
  0
LINE
  5
1AB
  8
0
  6
CONTINUOUS
 62
     7
 10
173.8372686779076
 20
220.9127313220924
 30
0.0
 11
160.6627313220924
 21
220.9127313220924
 31
0.0
  0
LINE
  5
1AC
  8
0
  6
CONTINUOUS
 62
     7
 10
162.9879611035848
 20
220.9999999999999
 30
0.0
 11
160.75
 21
220.9999999999999
 31
0.0
  0
LINE
  5
1AD
  8
0
  6
CONTINUOUS
 62
     7
 10
162.9879611035848
 20
220.9999999999999
 30
0.0
 11
163.25
 21
220.9563656610461
 31
0.0
  0
LINE
  5
1AE
  8
0
  6
CONTINUOUS
 62
     7
 10
163.753187246284
 20
220.9563656610461
 30
0.0
 11
163.25
 21
220.9563656610461
 31
0.0
  0
LINE
  5
1AF
  8
0
  6
CONTINUOUS
 62
     7
 10
163.753187246284
 20
220.9563656610461
 30
0.0
 11
163.762649342686
 21
220.9555192470916
 31
0.0
  0
LINE
  5
1B0
  8
0
  6
CONTINUOUS
 62
     7
 10
163.762649342686
 20
220.9555192470916
 30
0.0
 11
163.790863592054
 21
220.9547052360738
 31
0.0
  0
LINE
  5
1B1
  8
0
  6
CONTINUOUS
 62
     7
 10
163.790863592054
 20
220.9547052360738
 30
0.0
 11
163.8367443737738
 21
220.9539549492989
 31
0.0
  0
LINE
  5
1B2
  8
0
  6
CONTINUOUS
 62
     7
 10
163.8367443737738
 20
220.9539549492989
 30
0.0
 11
163.8985262989531
 21
220.9532972561081
 31
0.0
  0
LINE
  5
1B3
  8
0
  6
CONTINUOUS
 62
     7
 10
163.8985262989531
 20
220.9532972561081
 30
0.0
 11
163.9738321386008
 21
220.9527574630504
 31
0.0
  0
LINE
  5
1B4
  8
0
  6
CONTINUOUS
 62
     7
 10
163.9738321386008
 20
220.9527574630504
 30
0.0
 11
164.0597642940306
 21
220.9523563401439
 31
0.0
  0
LINE
  5
1B5
  8
0
  6
CONTINUOUS
 62
     7
 10
164.0597642940306
 20
220.9523563401439
 30
0.0
 11
164.1530162899169
 21
220.9521093216925
 31
0.0
  0
LINE
  5
1B6
  8
0
  6
CONTINUOUS
 62
     7
 10
164.1530162899169
 20
220.9521093216925
 30
0.0
 11
164.2500000000001
 21
220.9520259124083
 31
0.0
  0
LINE
  5
1B7
  8
0
  6
CONTINUOUS
 62
     7
 10
164.2500000000001
 20
220.9520259124083
 30
0.0
 11
164.3469837100832
 21
220.9521093216925
 31
0.0
  0
LINE
  5
1B8
  8
0
  6
CONTINUOUS
 62
     7
 10
164.3469837100832
 20
220.9521093216925
 30
0.0
 11
164.4402357059695
 21
220.9523563401439
 31
0.0
  0
LINE
  5
1B9
  8
0
  6
CONTINUOUS
 62
     7
 10
164.4402357059695
 20
220.9523563401439
 30
0.0
 11
164.5261678613993
 21
220.9527574630504
 31
0.0
  0
LINE
  5
1BA
  8
0
  6
CONTINUOUS
 62
     7
 10
164.5261678613993
 20
220.9527574630504
 30
0.0
 11
164.601473701047
 21
220.9532972561081
 31
0.0
  0
LINE
  5
1BB
  8
0
  6
CONTINUOUS
 62
     7
 10
164.601473701047
 20
220.9532972561081
 30
0.0
 11
164.6632556262263
 21
220.9539549492989
 31
0.0
  0
LINE
  5
1BC
  8
0
  6
CONTINUOUS
 62
     7
 10
164.6632556262263
 20
220.9539549492989
 30
0.0
 11
164.709136407946
 21
220.9547052360738
 31
0.0
  0
LINE
  5
1BD
  8
0
  6
CONTINUOUS
 62
     7
 10
164.709136407946
 20
220.9547052360738
 30
0.0
 11
164.737350657314
 21
220.9555192470916
 31
0.0
  0
LINE
  5
1BE
  8
0
  6
CONTINUOUS
 62
     7
 10
164.737350657314
 20
220.9555192470916
 30
0.0
 11
164.746812753716
 21
220.9563656610461
 31
0.0
  0
LINE
  5
1BF
  8
0
  6
CONTINUOUS
 62
   253
 10
175.6713820345616
 20
252.1801960972813
 30
0.0
 11
175.6518762485524
 21
252.371292430675
 31
0.0
  0
LINE
  5
1C0
  8
0
  6
CONTINUOUS
 62
   253
 10
175.6518762485524
 20
252.371292430675
 30
0.0
 11
175.5947738778426
 21
252.5550609814041
 31
0.0
  0
LINE
  5
1C1
  8
0
  6
CONTINUOUS
 62
   253
 10
175.5947738778426
 20
252.5550609814041
 30
0.0
 11
175.5022645707356
 21
252.7244549580605
 31
0.0
  0
LINE
  5
1C2
  8
0
  6
CONTINUOUS
 62
   253
 10
175.5022645707356
 20
252.7244549580605
 30
0.0
 11
175.3778956904116
 21
252.8729787768537
 31
0.0
  0
LINE
  5
1C3
  8
0
  6
CONTINUOUS
 62
   253
 10
175.3778956904116
 20
252.8729787768537
 30
0.0
 11
175.2264362876891
 21
252.9949371413576
 31
0.0
  0
LINE
  5
1C4
  8
0
  6
CONTINUOUS
 62
   253
 10
175.2264362876891
 20
252.9949371413576
 30
0.0
 11
175.0536942269367
 21
253.0856534344267
 31
0.0
  0
LINE
  5
1C5
  8
0
  6
CONTINUOUS
 62
   253
 10
175.0536942269367
 20
253.0856534344267
 30
0.0
 11
174.8662934776243
 21
253.1416490478223
 31
0.0
  0
LINE
  5
1C6
  8
0
  6
CONTINUOUS
 62
   253
 10
174.8662934776243
 20
253.1416490478223
 30
0.0
 11
174.6714201114974
 21
253.1607767729723
 31
0.0
  0
LINE
  5
1C7
  8
0
  6
CONTINUOUS
 62
   253
 10
174.1607767729724
 20
184.9214201114974
 30
0.0
 11
174.1607767729724
 21
170.0785798885025
 31
0.0
  0
LINE
  5
1C8
  8
0
  6
CONTINUOUS
 62
   253
 10
174.6714201114974
 20
218.8392232270276
 30
0.0
 11
174.8662934776243
 21
218.8583509521776
 31
0.0
  0
LINE
  5
1C9
  8
0
  6
CONTINUOUS
 62
   253
 10
174.8662934776243
 20
218.8583509521776
 30
0.0
 11
175.0536942269367
 21
218.9143465655731
 31
0.0
  0
LINE
  5
1CA
  8
0
  6
CONTINUOUS
 62
   253
 10
175.0536942269367
 20
218.9143465655731
 30
0.0
 11
175.2264362876891
 21
219.0050628586422
 31
0.0
  0
LINE
  5
1CB
  8
0
  6
CONTINUOUS
 62
   253
 10
175.2264362876891
 20
219.0050628586422
 30
0.0
 11
175.3778956904116
 21
219.1270212231461
 31
0.0
  0
LINE
  5
1CC
  8
0
  6
CONTINUOUS
 62
   253
 10
175.3778956904116
 20
219.1270212231461
 30
0.0
 11
175.5022645707356
 21
219.2755450419393
 31
0.0
  0
LINE
  5
1CD
  8
0
  6
CONTINUOUS
 62
   253
 10
175.5022645707356
 20
219.2755450419393
 30
0.0
 11
175.5947738778426
 21
219.4449390185957
 31
0.0
  0
LINE
  5
1CE
  8
0
  6
CONTINUOUS
 62
   253
 10
175.5947738778426
 20
219.4449390185957
 30
0.0
 11
175.6518762485524
 21
219.6287075693249
 31
0.0
  0
LINE
  5
1CF
  8
0
  6
CONTINUOUS
 62
   253
 10
175.6518762485524
 20
219.6287075693249
 30
0.0
 11
175.6713820345616
 21
219.8198039027185
 31
0.0
  0
LINE
  5
1D0
  8
0
  6
CONTINUOUS
 62
   253
 10
139.8392232270276
 20
170.0785798885025
 30
0.0
 11
139.8583509521777
 21
169.8837065223757
 31
0.0
  0
LINE
  5
1D1
  8
0
  6
CONTINUOUS
 62
   253
 10
139.8583509521777
 20
169.8837065223757
 30
0.0
 11
139.9143465655732
 21
169.6963057730632
 31
0.0
  0
LINE
  5
1D2
  8
0
  6
CONTINUOUS
 62
   253
 10
139.9143465655732
 20
169.6963057730632
 30
0.0
 11
140.0050628586423
 21
169.5235637123108
 31
0.0
  0
LINE
  5
1D3
  8
0
  6
CONTINUOUS
 62
   253
 10
140.0050628586423
 20
169.5235637123108
 30
0.0
 11
140.1270212231462
 21
169.3721043095884
 31
0.0
  0
LINE
  5
1D4
  8
0
  6
CONTINUOUS
 62
   253
 10
140.1270212231462
 20
169.3721043095884
 30
0.0
 11
140.2755450419394
 21
169.2477354292643
 31
0.0
  0
LINE
  5
1D5
  8
0
  6
CONTINUOUS
 62
   253
 10
140.2755450419394
 20
169.2477354292643
 30
0.0
 11
140.4449390185958
 21
169.1552261221574
 31
0.0
  0
LINE
  5
1D6
  8
0
  6
CONTINUOUS
 62
   253
 10
140.4449390185958
 20
169.1552261221574
 30
0.0
 11
140.6287075693249
 21
169.0981237514476
 31
0.0
  0
LINE
  5
1D7
  8
0
  6
CONTINUOUS
 62
   253
 10
140.6287075693249
 20
169.0981237514476
 30
0.0
 11
140.8198039027186
 21
169.0786179654384
 31
0.0
  0
LINE
  5
1D8
  8
0
  6
CONTINUOUS
 62
     7
 10
172.0872686779076
 20
170.9127313220924
 30
0.0
 11
172.0872686779076
 21
184.0872686779075
 31
0.0
  0
LINE
  5
1D9
  8
0
  6
CONTINUOUS
 62
   253
 10
159.8285798885026
 20
218.8392232270276
 30
0.0
 11
174.6714201114974
 21
218.8392232270276
 31
0.0
  0
LINE
  5
1DA
  8
0
  6
CONTINUOUS
 62
     7
 10
141.9127313220924
 20
170.9127313220924
 30
0.0
 11
141.9127313220924
 21
184.0872686779075
 31
0.0
  0
LINE
  5
1DB
  8
0
  6
CONTINUOUS
 62
     7
 10
172.0436343389538
 20
174.003187246284
 30
0.0
 11
172.0436343389538
 21
173.4999999999999
 31
0.0
  0
LINE
  5
1DC
  8
0
  6
CONTINUOUS
 62
     7
 10
172.0436343389538
 20
174.003187246284
 30
0.0
 11
172.0444807529084
 21
174.0126493426864
 31
0.0
  0
LINE
  5
1DD
  8
0
  6
CONTINUOUS
 62
     7
 10
172.0444807529084
 20
174.0126493426864
 30
0.0
 11
172.0452947639261
 21
174.0408635920547
 31
0.0
  0
LINE
  5
1DE
  8
0
  6
CONTINUOUS
 62
     7
 10
172.0452947639261
 20
174.0408635920547
 30
0.0
 11
172.046045050701
 21
174.0867443737747
 31
0.0
  0
LINE
  5
1DF
  8
0
  6
CONTINUOUS
 62
     7
 10
172.046045050701
 20
174.0867443737747
 30
0.0
 11
172.0467027438918
 21
174.1485262989542
 31
0.0
  0
LINE
  5
1E0
  8
0
  6
CONTINUOUS
 62
     7
 10
172.0467027438918
 20
174.1485262989542
 30
0.0
 11
172.0472425369495
 21
174.2238321386019
 31
0.0
  0
LINE
  5
1E1
  8
0
  6
CONTINUOUS
 62
     7
 10
172.0472425369495
 20
174.2238321386019
 30
0.0
 11
172.047643659856
 21
174.3097642940316
 31
0.0
  0
LINE
  5
1E2
  8
0
  6
CONTINUOUS
 62
     7
 10
172.047643659856
 20
174.3097642940316
 30
0.0
 11
172.0478906783075
 21
174.4030162899179
 31
0.0
  0
LINE
  5
1E3
  8
0
  6
CONTINUOUS
 62
     7
 10
172.0478906783075
 20
174.4030162899179
 30
0.0
 11
172.0479740875916
 21
174.5000000000008
 31
0.0
  0
LINE
  5
1E4
  8
0
  6
CONTINUOUS
 62
     7
 10
172.0479740875916
 20
174.5000000000008
 30
0.0
 11
172.0478906783075
 21
174.5969837100837
 31
0.0
  0
LINE
  5
1E5
  8
0
  6
CONTINUOUS
 62
     7
 10
172.0478906783075
 20
174.5969837100837
 30
0.0
 11
172.047643659856
 21
174.6902357059699
 31
0.0
  0
LINE
  5
1E6
  8
0
  6
CONTINUOUS
 62
     7
 10
172.047643659856
 20
174.6902357059699
 30
0.0
 11
172.0472425369495
 21
174.7761678613995
 31
0.0
  0
LINE
  5
1E7
  8
0
  6
CONTINUOUS
 62
     7
 10
172.0472425369495
 20
174.7761678613995
 30
0.0
 11
172.0467027438918
 21
174.851473701047
 31
0.0
  0
LINE
  5
1E8
  8
0
  6
CONTINUOUS
 62
     7
 10
172.0467027438918
 20
174.851473701047
 30
0.0
 11
172.046045050701
 21
174.9132556262262
 31
0.0
  0
LINE
  5
1E9
  8
0
  6
CONTINUOUS
 62
     7
 10
172.046045050701
 20
174.9132556262262
 30
0.0
 11
172.0452947639261
 21
174.9591364079459
 31
0.0
  0
LINE
  5
1EA
  8
0
  6
CONTINUOUS
 62
     7
 10
172.0452947639261
 20
174.9591364079459
 30
0.0
 11
172.0444807529084
 21
174.9873506573139
 31
0.0
  0
LINE
  5
1EB
  8
0
  6
CONTINUOUS
 62
     7
 10
172.0444807529084
 20
174.9873506573139
 30
0.0
 11
172.0436343389538
 21
174.9968127537159
 31
0.0
  0
LINE
  5
1EC
  8
0
  6
CONTINUOUS
 62
     7
 10
172.0436343389538
 20
180.003187246284
 30
0.0
 11
172.0436343389538
 21
174.9968127537159
 31
0.0
  0
LINE
  5
1ED
  8
0
  6
CONTINUOUS
 62
     7
 10
172.0436343389538
 20
180.003187246284
 30
0.0
 11
172.0444807529084
 21
180.0126493426864
 31
0.0
  0
LINE
  5
1EE
  8
0
  6
CONTINUOUS
 62
     7
 10
172.0444807529084
 20
180.0126493426864
 30
0.0
 11
172.0452947639261
 21
180.0408635920547
 31
0.0
  0
LINE
  5
1EF
  8
0
  6
CONTINUOUS
 62
     7
 10
172.0452947639261
 20
180.0408635920547
 30
0.0
 11
172.046045050701
 21
180.0867443737747
 31
0.0
  0
LINE
  5
1F0
  8
0
  6
CONTINUOUS
 62
     7
 10
172.046045050701
 20
180.0867443737747
 30
0.0
 11
172.0467027438918
 21
180.1485262989542
 31
0.0
  0
LINE
  5
1F1
  8
0
  6
CONTINUOUS
 62
     7
 10
172.0467027438918
 20
180.1485262989542
 30
0.0
 11
172.0472425369495
 21
180.2238321386019
 31
0.0
  0
LINE
  5
1F2
  8
0
  6
CONTINUOUS
 62
     7
 10
172.0472425369495
 20
180.2238321386019
 30
0.0
 11
172.047643659856
 21
180.3097642940317
 31
0.0
  0
LINE
  5
1F3
  8
0
  6
CONTINUOUS
 62
     7
 10
172.047643659856
 20
180.3097642940317
 30
0.0
 11
172.0478906783075
 21
180.4030162899179
 31
0.0
  0
LINE
  5
1F4
  8
0
  6
CONTINUOUS
 62
     7
 10
172.0478906783075
 20
180.4030162899179
 30
0.0
 11
172.0479740875916
 21
180.5000000000008
 31
0.0
  0
LINE
  5
1F5
  8
0
  6
CONTINUOUS
 62
     7
 10
172.0479740875916
 20
180.5000000000008
 30
0.0
 11
172.0478906783075
 21
180.5969837100837
 31
0.0
  0
LINE
  5
1F6
  8
0
  6
CONTINUOUS
 62
     7
 10
172.0478906783075
 20
180.5969837100837
 30
0.0
 11
172.047643659856
 21
180.6902357059699
 31
0.0
  0
LINE
  5
1F7
  8
0
  6
CONTINUOUS
 62
     7
 10
172.047643659856
 20
180.6902357059699
 30
0.0
 11
172.0472425369495
 21
180.7761678613995
 31
0.0
  0
LINE
  5
1F8
  8
0
  6
CONTINUOUS
 62
     7
 10
172.0472425369495
 20
180.7761678613995
 30
0.0
 11
172.0467027438918
 21
180.8514737010469
 31
0.0
  0
LINE
  5
1F9
  8
0
  6
CONTINUOUS
 62
     7
 10
172.0467027438918
 20
180.8514737010469
 30
0.0
 11
172.046045050701
 21
180.9132556262261
 31
0.0
  0
LINE
  5
1FA
  8
0
  6
CONTINUOUS
 62
     7
 10
172.046045050701
 20
180.9132556262261
 30
0.0
 11
172.0452947639261
 21
180.9591364079458
 31
0.0
  0
LINE
  5
1FB
  8
0
  6
CONTINUOUS
 62
     7
 10
172.0452947639261
 20
180.9591364079458
 30
0.0
 11
172.0444807529084
 21
180.9873506573138
 31
0.0
  0
LINE
  5
1FC
  8
0
  6
CONTINUOUS
 62
     7
 10
172.0444807529084
 20
180.9873506573138
 30
0.0
 11
172.0436343389538
 21
180.9968127537159
 31
0.0
  0
LINE
  5
1FD
  8
0
  6
CONTINUOUS
 62
     7
 10
172.0436343389538
 20
181.4999999999999
 30
0.0
 11
172.0436343389538
 21
180.9968127537159
 31
0.0
  0
LINE
  5
1FE
  8
0
  6
CONTINUOUS
 62
     7
 10
172.0436343389538
 20
181.4999999999999
 30
0.0
 11
172.0086507124692
 21
181.7100884554784
 31
0.0
  0
LINE
  5
1FF
  8
0
  6
CONTINUOUS
 62
   253
 10
172.0086507124692
 20
184.0086507124691
 30
0.0
 11
172.0086507124692
 21
181.7100884554784
 31
0.0
  0
LINE
  5
200
  8
0
  6
CONTINUOUS
 62
   253
 10
172.0086507124692
 20
173.2899115445214
 30
0.0
 11
172.0086507124692
 21
170.9913492875307
 31
0.0
  0
LINE
  5
201
  8
0
  6
CONTINUOUS
 62
     7
 10
172.0086507124692
 20
173.2899115445214
 30
0.0
 11
172.0436343389538
 21
173.4999999999999
 31
0.0
  0
LINE
  5
202
  8
0
  6
CONTINUOUS
 62
   253
 10
141.9913492875308
 20
181.7100884554784
 30
0.0
 11
141.9913492875308
 21
184.0086507124691
 31
0.0
  0
LINE
  5
203
  8
0
  6
CONTINUOUS
 62
     7
 10
141.9913492875308
 20
181.7100884554784
 30
0.0
 11
141.9563656610462
 21
181.4999999999999
 31
0.0
  0
LINE
  5
204
  8
0
  6
CONTINUOUS
 62
     7
 10
141.9563656610462
 20
180.9968127537159
 30
0.0
 11
141.9563656610462
 21
181.4999999999999
 31
0.0
  0
LINE
  5
205
  8
0
  6
CONTINUOUS
 62
     7
 10
141.9563656610462
 20
180.9968127537159
 30
0.0
 11
141.9555192470916
 21
180.987350657314
 31
0.0
  0
LINE
  5
206
  8
0
  6
CONTINUOUS
 62
     7
 10
141.9555192470916
 20
180.987350657314
 30
0.0
 11
141.9547052360739
 21
180.9591364079459
 31
0.0
  0
LINE
  5
207
  8
0
  6
CONTINUOUS
 62
     7
 10
141.9547052360739
 20
180.9591364079459
 30
0.0
 11
141.953954949299
 21
180.9132556262262
 31
0.0
  0
LINE
  5
208
  8
0
  6
CONTINUOUS
 62
     7
 10
141.953954949299
 20
180.9132556262262
 30
0.0
 11
141.9532972561082
 21
180.8514737010468
 31
0.0
  0
LINE
  5
209
  8
0
  6
CONTINUOUS
 62
     7
 10
141.9532972561082
 20
180.8514737010468
 30
0.0
 11
141.9527574630505
 21
180.7761678613992
 31
0.0
  0
LINE
  5
20A
  8
0
  6
CONTINUOUS
 62
     7
 10
141.9527574630505
 20
180.7761678613992
 30
0.0
 11
141.952356340144
 21
180.6902357059694
 31
0.0
  0
LINE
  5
20B
  8
0
  6
CONTINUOUS
 62
     7
 10
141.952356340144
 20
180.6902357059694
 30
0.0
 11
141.9521093216925
 21
180.596983710083
 31
0.0
  0
LINE
  5
20C
  8
0
  6
CONTINUOUS
 62
     7
 10
141.9521093216925
 20
180.596983710083
 30
0.0
 11
141.9520259124084
 21
180.4999999999999
 31
0.0
  0
LINE
  5
20D
  8
0
  6
CONTINUOUS
 62
     7
 10
141.9520259124084
 20
180.4999999999999
 30
0.0
 11
141.9521093216925
 21
180.4030162899168
 31
0.0
  0
LINE
  5
20E
  8
0
  6
CONTINUOUS
 62
     7
 10
141.9521093216925
 20
180.4030162899168
 30
0.0
 11
141.952356340144
 21
180.3097642940304
 31
0.0
  0
LINE
  5
20F
  8
0
  6
CONTINUOUS
 62
     7
 10
141.952356340144
 20
180.3097642940304
 30
0.0
 11
141.9527574630505
 21
180.2238321386006
 31
0.0
  0
LINE
  5
210
  8
0
  6
CONTINUOUS
 62
     7
 10
141.9527574630505
 20
180.2238321386006
 30
0.0
 11
141.9532972561082
 21
180.148526298953
 31
0.0
  0
LINE
  5
211
  8
0
  6
CONTINUOUS
 62
     7
 10
141.9532972561082
 20
180.148526298953
 30
0.0
 11
141.953954949299
 21
180.0867443737737
 31
0.0
  0
LINE
  5
212
  8
0
  6
CONTINUOUS
 62
     7
 10
141.953954949299
 20
180.0867443737737
 30
0.0
 11
141.9547052360739
 21
180.0408635920539
 31
0.0
  0
LINE
  5
213
  8
0
  6
CONTINUOUS
 62
     7
 10
141.9547052360739
 20
180.0408635920539
 30
0.0
 11
141.9555192470916
 21
180.0126493426859
 31
0.0
  0
LINE
  5
214
  8
0
  6
CONTINUOUS
 62
     7
 10
141.9555192470916
 20
180.0126493426859
 30
0.0
 11
141.9563656610462
 21
180.003187246284
 31
0.0
  0
LINE
  5
215
  8
0
  6
CONTINUOUS
 62
     7
 10
141.9563656610462
 20
174.9968127537159
 30
0.0
 11
141.9563656610462
 21
180.003187246284
 31
0.0
  0
LINE
  5
216
  8
0
  6
CONTINUOUS
 62
     7
 10
141.9563656610462
 20
174.9968127537159
 30
0.0
 11
141.9555192470916
 21
174.987350657314
 31
0.0
  0
LINE
  5
217
  8
0
  6
CONTINUOUS
 62
     7
 10
141.9555192470916
 20
174.987350657314
 30
0.0
 11
141.9547052360739
 21
174.9591364079461
 31
0.0
  0
LINE
  5
218
  8
0
  6
CONTINUOUS
 62
     7
 10
141.9547052360739
 20
174.9591364079461
 30
0.0
 11
141.953954949299
 21
174.9132556262263
 31
0.0
  0
LINE
  5
219
  8
0
  6
CONTINUOUS
 62
     7
 10
141.953954949299
 20
174.9132556262263
 30
0.0
 11
141.9532972561082
 21
174.8514737010468
 31
0.0
  0
LINE
  5
21A
  8
0
  6
CONTINUOUS
 62
     7
 10
141.9532972561082
 20
174.8514737010468
 30
0.0
 11
141.9527574630505
 21
174.776167861399
 31
0.0
  0
LINE
  5
21B
  8
0
  6
CONTINUOUS
 62
     7
 10
141.9527574630505
 20
174.776167861399
 30
0.0
 11
141.952356340144
 21
174.690235705969
 31
0.0
  0
LINE
  5
21C
  8
0
  6
CONTINUOUS
 62
     7
 10
141.952356340144
 20
174.690235705969
 30
0.0
 11
141.9521093216925
 21
174.5969837100824
 31
0.0
  0
LINE
  5
21D
  8
0
  6
CONTINUOUS
 62
     7
 10
141.9521093216925
 20
174.5969837100824
 30
0.0
 11
141.9520259124084
 21
174.4999999999991
 31
0.0
  0
LINE
  5
21E
  8
0
  6
CONTINUOUS
 62
     7
 10
141.9520259124084
 20
174.4999999999991
 30
0.0
 11
141.9521093216925
 21
174.4030162899158
 31
0.0
  0
LINE
  5
21F
  8
0
  6
CONTINUOUS
 62
     7
 10
141.9521093216925
 20
174.4030162899158
 30
0.0
 11
141.952356340144
 21
174.3097642940293
 31
0.0
  0
LINE
  5
220
  8
0
  6
CONTINUOUS
 62
     7
 10
141.952356340144
 20
174.3097642940293
 30
0.0
 11
141.9527574630505
 21
174.2238321385994
 31
0.0
  0
LINE
  5
221
  8
0
  6
CONTINUOUS
 62
     7
 10
141.9527574630505
 20
174.2238321385994
 30
0.0
 11
141.9532972561082
 21
174.1485262989519
 31
0.0
  0
LINE
  5
222
  8
0
  6
CONTINUOUS
 62
     7
 10
141.9532972561082
 20
174.1485262989519
 30
0.0
 11
141.953954949299
 21
174.0867443737727
 31
0.0
  0
LINE
  5
223
  8
0
  6
CONTINUOUS
 62
     7
 10
141.953954949299
 20
174.0867443737727
 30
0.0
 11
141.9547052360739
 21
174.0408635920531
 31
0.0
  0
LINE
  5
224
  8
0
  6
CONTINUOUS
 62
     7
 10
141.9547052360739
 20
174.0408635920531
 30
0.0
 11
141.9555192470916
 21
174.0126493426855
 31
0.0
  0
LINE
  5
225
  8
0
  6
CONTINUOUS
 62
     7
 10
141.9555192470916
 20
174.0126493426855
 30
0.0
 11
141.9563656610462
 21
174.003187246284
 31
0.0
  0
LINE
  5
226
  8
0
  6
CONTINUOUS
 62
     7
 10
141.9563656610462
 20
173.4999999999999
 30
0.0
 11
141.9563656610462
 21
174.003187246284
 31
0.0
  0
LINE
  5
227
  8
0
  6
CONTINUOUS
 62
     7
 10
141.9563656610462
 20
173.4999999999999
 30
0.0
 11
141.9913492875308
 21
173.2899115445215
 31
0.0
  0
LINE
  5
228
  8
0
  6
CONTINUOUS
 62
   253
 10
141.9913492875308
 20
170.9913492875308
 30
0.0
 11
141.9913492875308
 21
173.2899115445215
 31
0.0
  0
LINE
  5
229
  8
0
  6
CONTINUOUS
 62
     7
 10
173.8372686779076
 20
251.0872686779075
 30
0.0
 11
160.6627313220924
 21
251.0872686779075
 31
0.0
  0
LINE
  5
22A
  8
0
  6
CONTINUOUS
 62
     7
 10
163.25
 20
251.0436343389537
 30
0.0
 11
163.7531872462841
 21
251.0436343389537
 31
0.0
  0
LINE
  5
22B
  8
0
  6
CONTINUOUS
 62
     7
 10
163.25
 20
251.0436343389537
 30
0.0
 11
162.9879611035848
 21
250.9999999999999
 31
0.0
  0
LINE
  5
22C
  8
0
  6
CONTINUOUS
 62
     7
 10
162.9879611035848
 20
250.9999999999999
 30
0.0
 11
160.75
 21
250.9999999999999
 31
0.0
  0
LINE
  5
22D
  8
0
  6
CONTINUOUS
 62
     7
 10
173.75
 20
250.9999999999999
 30
0.0
 11
171.5120388964152
 21
250.9999999999999
 31
0.0
  0
LINE
  5
22E
  8
0
  6
CONTINUOUS
 62
     7
 10
171.5120388964152
 20
250.9999999999999
 30
0.0
 11
171.25
 21
251.0436343389537
 31
0.0
  0
LINE
  5
22F
  8
0
  6
CONTINUOUS
 62
     7
 10
170.746812753716
 20
251.0436343389537
 30
0.0
 11
171.25
 21
251.0436343389537
 31
0.0
  0
LINE
  5
230
  8
0
  6
CONTINUOUS
 62
     7
 10
170.746812753716
 20
251.0436343389537
 30
0.0
 11
170.7373506573146
 21
251.0444807529083
 31
0.0
  0
LINE
  5
231
  8
0
  6
CONTINUOUS
 62
     7
 10
170.7373506573146
 20
251.0444807529083
 30
0.0
 11
170.7091364079469
 21
251.0452947639261
 31
0.0
  0
LINE
  5
232
  8
0
  6
CONTINUOUS
 62
     7
 10
170.7091364079469
 20
251.0452947639261
 30
0.0
 11
170.6632556262273
 21
251.0460450507009
 31
0.0
  0
LINE
  5
233
  8
0
  6
CONTINUOUS
 62
     7
 10
170.6632556262273
 20
251.0460450507009
 30
0.0
 11
170.601473701048
 21
251.0467027438917
 31
0.0
  0
LINE
  5
234
  8
0
  6
CONTINUOUS
 62
     7
 10
170.601473701048
 20
251.0467027438917
 30
0.0
 11
170.5261678614002
 21
251.0472425369495
 31
0.0
  0
LINE
  5
235
  8
0
  6
CONTINUOUS
 62
     7
 10
170.5261678614002
 20
251.0472425369495
 30
0.0
 11
170.4402357059702
 21
251.0476436598559
 31
0.0
  0
LINE
  5
236
  8
0
  6
CONTINUOUS
 62
     7
 10
170.4402357059702
 20
251.0476436598559
 30
0.0
 11
170.3469837100835
 21
251.0478906783074
 31
0.0
  0
LINE
  5
237
  8
0
  6
CONTINUOUS
 62
     7
 10
170.3469837100835
 20
251.0478906783074
 30
0.0
 11
170.25
 21
251.0479740875915
 31
0.0
  0
LINE
  5
238
  8
0
  6
CONTINUOUS
 62
     7
 10
170.25
 20
251.0479740875915
 30
0.0
 11
170.1530162899165
 21
251.0478906783074
 31
0.0
  0
LINE
  5
239
  8
0
  6
CONTINUOUS
 62
     7
 10
170.1530162899165
 20
251.0478906783074
 30
0.0
 11
170.0597642940297
 21
251.0476436598559
 31
0.0
  0
LINE
  5
23A
  8
0
  6
CONTINUOUS
 62
     7
 10
170.0597642940297
 20
251.0476436598559
 30
0.0
 11
169.9738321385997
 21
251.0472425369495
 31
0.0
  0
LINE
  5
23B
  8
0
  6
CONTINUOUS
 62
     7
 10
169.9738321385997
 20
251.0472425369495
 30
0.0
 11
169.8985262989519
 21
251.0467027438917
 31
0.0
  0
LINE
  5
23C
  8
0
  6
CONTINUOUS
 62
     7
 10
169.8985262989519
 20
251.0467027438917
 30
0.0
 11
169.8367443737726
 21
251.0460450507009
 31
0.0
  0
LINE
  5
23D
  8
0
  6
CONTINUOUS
 62
     7
 10
169.8367443737726
 20
251.0460450507009
 30
0.0
 11
169.7908635920531
 21
251.0452947639261
 31
0.0
  0
LINE
  5
23E
  8
0
  6
CONTINUOUS
 62
     7
 10
169.7908635920531
 20
251.0452947639261
 30
0.0
 11
169.7626493426854
 21
251.0444807529083
 31
0.0
  0
LINE
  5
23F
  8
0
  6
CONTINUOUS
 62
     7
 10
169.7626493426854
 20
251.0444807529083
 30
0.0
 11
169.753187246284
 21
251.0436343389537
 31
0.0
  0
LINE
  5
240
  8
0
  6
CONTINUOUS
 62
     7
 10
164.7468127537159
 20
251.0436343389537
 30
0.0
 11
169.7531872462841
 21
251.0436343389537
 31
0.0
  0
LINE
  5
241
  8
0
  6
CONTINUOUS
 62
     7
 10
164.7468127537159
 20
251.0436343389537
 30
0.0
 11
164.7373506573145
 21
251.0444807529083
 31
0.0
  0
LINE
  5
242
  8
0
  6
CONTINUOUS
 62
     7
 10
164.7373506573145
 20
251.0444807529083
 30
0.0
 11
164.7091364079469
 21
251.0452947639261
 31
0.0
  0
LINE
  5
243
  8
0
  6
CONTINUOUS
 62
     7
 10
164.7091364079469
 20
251.0452947639261
 30
0.0
 11
164.6632556262273
 21
251.0460450507009
 31
0.0
  0
LINE
  5
244
  8
0
  6
CONTINUOUS
 62
     7
 10
164.6632556262273
 20
251.0460450507009
 30
0.0
 11
164.601473701048
 21
251.0467027438917
 31
0.0
  0
LINE
  5
245
  8
0
  6
CONTINUOUS
 62
     7
 10
164.601473701048
 20
251.0467027438917
 30
0.0
 11
164.5261678614002
 21
251.0472425369495
 31
0.0
  0
LINE
  5
246
  8
0
  6
CONTINUOUS
 62
     7
 10
164.5261678614002
 20
251.0472425369495
 30
0.0
 11
164.4402357059702
 21
251.0476436598559
 31
0.0
  0
LINE
  5
247
  8
0
  6
CONTINUOUS
 62
     7
 10
164.4402357059702
 20
251.0476436598559
 30
0.0
 11
164.3469837100835
 21
251.0478906783074
 31
0.0
  0
LINE
  5
248
  8
0
  6
CONTINUOUS
 62
     7
 10
164.3469837100835
 20
251.0478906783074
 30
0.0
 11
164.25
 21
251.0479740875915
 31
0.0
  0
LINE
  5
249
  8
0
  6
CONTINUOUS
 62
     7
 10
164.25
 20
251.0479740875915
 30
0.0
 11
164.1530162899165
 21
251.0478906783074
 31
0.0
  0
LINE
  5
24A
  8
0
  6
CONTINUOUS
 62
     7
 10
164.1530162899165
 20
251.0478906783074
 30
0.0
 11
164.0597642940297
 21
251.0476436598559
 31
0.0
  0
LINE
  5
24B
  8
0
  6
CONTINUOUS
 62
     7
 10
164.0597642940297
 20
251.0476436598559
 30
0.0
 11
163.9738321385997
 21
251.0472425369495
 31
0.0
  0
LINE
  5
24C
  8
0
  6
CONTINUOUS
 62
     7
 10
163.9738321385997
 20
251.0472425369495
 30
0.0
 11
163.898526298952
 21
251.0467027438917
 31
0.0
  0
LINE
  5
24D
  8
0
  6
CONTINUOUS
 62
     7
 10
163.898526298952
 20
251.0467027438917
 30
0.0
 11
163.8367443737727
 21
251.0460450507009
 31
0.0
  0
LINE
  5
24E
  8
0
  6
CONTINUOUS
 62
     7
 10
163.8367443737727
 20
251.0460450507009
 30
0.0
 11
163.7908635920531
 21
251.0452947639261
 31
0.0
  0
LINE
  5
24F
  8
0
  6
CONTINUOUS
 62
     7
 10
163.7908635920531
 20
251.0452947639261
 30
0.0
 11
163.7626493426855
 21
251.0444807529083
 31
0.0
  0
LINE
  5
250
  8
0
  6
CONTINUOUS
 62
     7
 10
163.7626493426855
 20
251.0444807529083
 30
0.0
 11
163.7531872462841
 21
251.0436343389537
 31
0.0
  0
LINE
  5
251
  8
0
  6
CONTINUOUS
 62
     7
 10
139.0180585956189
 20
185.9999999999999
 30
0.0
 11
138.8193524537726
 21
185.9808262629521
 31
0.0
  0
LINE
  5
252
  8
0
  6
CONTINUOUS
 62
     7
 10
138.8193524537726
 20
185.9808262629521
 30
0.0
 11
138.6283328259823
 21
185.9240402881966
 31
0.0
  0
LINE
  5
253
  8
0
  6
CONTINUOUS
 62
     7
 10
138.6283328259823
 20
185.9240402881966
 30
0.0
 11
138.4523245535581
 21
185.8318195915131
 31
0.0
  0
LINE
  5
254
  8
0
  6
CONTINUOUS
 62
     7
 10
138.4523245535581
 20
185.8318195915131
 30
0.0
 11
138.2980768521684
 21
185.7077004690224
 31
0.0
  0
LINE
  5
255
  8
0
  6
CONTINUOUS
 62
     7
 10
138.2980768521684
 20
185.7077004690224
 30
0.0
 11
138.171504506321
 21
185.5564423943258
 31
0.0
  0
LINE
  5
256
  8
0
  6
CONTINUOUS
 62
     7
 10
138.171504506321
 20
185.5564423943258
 30
0.0
 11
138.0774610609543
 21
185.3838455116645
 31
0.0
  0
LINE
  5
257
  8
0
  6
CONTINUOUS
 62
     7
 10
138.0774610609543
 20
185.3838455116645
 30
0.0
 11
138.0195527073356
 21
185.1965282235072
 31
0.0
  0
LINE
  5
258
  8
0
  6
CONTINUOUS
 62
     7
 10
138.0195527073356
 20
185.1965282235072
 30
0.0
 11
138.0
 21
185.0016734011972
 31
0.0
  0
LINE
  5
259
  8
0
  6
CONTINUOUS
 62
     7
 10
175.75
 20
253.9819414043811
 30
0.0
 11
175.7308262629521
 21
254.1806475462273
 31
0.0
  0
LINE
  5
25A
  8
0
  6
CONTINUOUS
 62
     7
 10
175.7308262629521
 20
254.1806475462273
 30
0.0
 11
175.6740402881966
 21
254.3716671740177
 31
0.0
  0
LINE
  5
25B
  8
0
  6
CONTINUOUS
 62
     7
 10
175.6740402881966
 20
254.3716671740177
 30
0.0
 11
175.5818195915131
 21
254.5476754464418
 31
0.0
  0
LINE
  5
25C
  8
0
  6
CONTINUOUS
 62
     7
 10
175.5818195915131
 20
254.5476754464418
 30
0.0
 11
175.4577004690224
 21
254.7019231478316
 31
0.0
  0
LINE
  5
25D
  8
0
  6
CONTINUOUS
 62
     7
 10
175.4577004690224
 20
254.7019231478316
 30
0.0
 11
175.3064423943259
 21
254.828495493679
 31
0.0
  0
LINE
  5
25E
  8
0
  6
CONTINUOUS
 62
     7
 10
175.3064423943259
 20
254.828495493679
 30
0.0
 11
175.1338455116646
 21
254.9225389390456
 31
0.0
  0
LINE
  5
25F
  8
0
  6
CONTINUOUS
 62
     7
 10
175.1338455116646
 20
254.9225389390456
 30
0.0
 11
174.9465282235073
 21
254.9804472926644
 31
0.0
  0
LINE
  5
260
  8
0
  6
CONTINUOUS
 62
     7
 10
174.9465282235073
 20
254.9804472926644
 30
0.0
 11
174.7516734011973
 21
255.0
 31
0.0
  0
LINE
  5
261
  8
0
  6
CONTINUOUS
 62
     7
 10
174.9819414043811
 20
168.9999999999999
 30
0.0
 11
175.1806475462273
 21
169.0191737370478
 31
0.0
  0
LINE
  5
262
  8
0
  6
CONTINUOUS
 62
     7
 10
175.1806475462273
 20
169.0191737370478
 30
0.0
 11
175.3716671740177
 21
169.0759597118033
 31
0.0
  0
LINE
  5
263
  8
0
  6
CONTINUOUS
 62
     7
 10
175.3716671740177
 20
169.0759597118033
 30
0.0
 11
175.5476754464418
 21
169.1681804084868
 31
0.0
  0
LINE
  5
264
  8
0
  6
CONTINUOUS
 62
     7
 10
175.5476754464418
 20
169.1681804084868
 30
0.0
 11
175.7019231478316
 21
169.2922995309775
 31
0.0
  0
LINE
  5
265
  8
0
  6
CONTINUOUS
 62
     7
 10
175.7019231478316
 20
169.2922995309775
 30
0.0
 11
175.828495493679
 21
169.4435576056741
 31
0.0
  0
LINE
  5
266
  8
0
  6
CONTINUOUS
 62
     7
 10
175.828495493679
 20
169.4435576056741
 30
0.0
 11
175.9225389390456
 21
169.6161544883354
 31
0.0
  0
LINE
  5
267
  8
0
  6
CONTINUOUS
 62
     7
 10
175.9225389390456
 20
169.6161544883354
 30
0.0
 11
175.9804472926644
 21
169.8034717764926
 31
0.0
  0
LINE
  5
268
  8
0
  6
CONTINUOUS
 62
     7
 10
175.9804472926644
 20
169.8034717764926
 30
0.0
 11
176.0
 21
169.9983265988027
 31
0.0
  0
LINE
  5
269
  8
0
  6
CONTINUOUS
 62
     7
 10
138.0
 20
169.9983265988027
 30
0.0
 11
138.0195527073356
 21
169.8034717764926
 31
0.0
  0
LINE
  5
26A
  8
0
  6
CONTINUOUS
 62
     7
 10
138.0195527073356
 20
169.8034717764926
 30
0.0
 11
138.0774610609543
 21
169.6161544883354
 31
0.0
  0
LINE
  5
26B
  8
0
  6
CONTINUOUS
 62
     7
 10
138.0774610609543
 20
169.6161544883354
 30
0.0
 11
138.171504506321
 21
169.4435576056741
 31
0.0
  0
LINE
  5
26C
  8
0
  6
CONTINUOUS
 62
     7
 10
138.171504506321
 20
169.4435576056741
 30
0.0
 11
138.2980768521684
 21
169.2922995309775
 31
0.0
  0
LINE
  5
26D
  8
0
  6
CONTINUOUS
 62
     7
 10
138.2980768521684
 20
169.2922995309775
 30
0.0
 11
138.4523245535581
 21
169.1681804084868
 31
0.0
  0
LINE
  5
26E
  8
0
  6
CONTINUOUS
 62
     7
 10
138.4523245535581
 20
169.1681804084868
 30
0.0
 11
138.6283328259823
 21
169.0759597118034
 31
0.0
  0
LINE
  5
26F
  8
0
  6
CONTINUOUS
 62
     7
 10
138.6283328259823
 20
169.0759597118034
 30
0.0
 11
138.8193524537726
 21
169.0191737370479
 31
0.0
  0
LINE
  5
270
  8
0
  6
CONTINUOUS
 62
     7
 10
138.8193524537726
 20
169.0191737370479
 30
0.0
 11
139.0180585956189
 21
169.0
 31
0.0
  0
LINE
  5
271
  8
0
  6
CONTINUOUS
 62
     7
 10
158.75
 20
218.0180585956188
 30
0.0
 11
158.7691737370479
 21
217.8193524537726
 31
0.0
  0
LINE
  5
272
  8
0
  6
CONTINUOUS
 62
     7
 10
158.7691737370479
 20
217.8193524537726
 30
0.0
 11
158.8259597118034
 21
217.6283328259822
 31
0.0
  0
LINE
  5
273
  8
0
  6
CONTINUOUS
 62
     7
 10
158.8259597118034
 20
217.6283328259822
 30
0.0
 11
158.9181804084868
 21
217.452324553558
 31
0.0
  0
LINE
  5
274
  8
0
  6
CONTINUOUS
 62
     7
 10
158.9181804084868
 20
217.452324553558
 30
0.0
 11
159.0422995309776
 21
217.2980768521683
 31
0.0
  0
LINE
  5
275
  8
0
  6
CONTINUOUS
 62
     7
 10
159.0422995309776
 20
217.2980768521683
 30
0.0
 11
159.1935576056741
 21
217.1715045063209
 31
0.0
  0
LINE
  5
276
  8
0
  6
CONTINUOUS
 62
     7
 10
159.1935576056741
 20
217.1715045063209
 30
0.0
 11
159.3661544883354
 21
217.0774610609542
 31
0.0
  0
LINE
  5
277
  8
0
  6
CONTINUOUS
 62
     7
 10
159.3661544883354
 20
217.0774610609542
 30
0.0
 11
159.5534717764927
 21
217.0195527073355
 31
0.0
  0
LINE
  5
278
  8
0
  6
CONTINUOUS
 62
     7
 10
159.5534717764927
 20
217.0195527073355
 30
0.0
 11
159.7483265988027
 21
216.9999999999999
 31
0.0
  0
LINE
  5
279
  8
0
  6
CONTINUOUS
 62
     7
 10
174.7516734011973
 20
216.9999999999999
 30
0.0
 11
174.9465282235073
 21
217.0195527073355
 31
0.0
  0
LINE
  5
27A
  8
0
  6
CONTINUOUS
 62
     7
 10
174.9465282235073
 20
217.0195527073355
 30
0.0
 11
175.1338455116646
 21
217.0774610609542
 31
0.0
  0
LINE
  5
27B
  8
0
  6
CONTINUOUS
 62
     7
 10
175.1338455116646
 20
217.0774610609542
 30
0.0
 11
175.3064423943259
 21
217.1715045063209
 31
0.0
  0
LINE
  5
27C
  8
0
  6
CONTINUOUS
 62
     7
 10
175.3064423943259
 20
217.1715045063209
 30
0.0
 11
175.4577004690224
 21
217.2980768521683
 31
0.0
  0
LINE
  5
27D
  8
0
  6
CONTINUOUS
 62
     7
 10
175.4577004690224
 20
217.2980768521683
 30
0.0
 11
175.5818195915131
 21
217.452324553558
 31
0.0
  0
LINE
  5
27E
  8
0
  6
CONTINUOUS
 62
     7
 10
175.5818195915131
 20
217.452324553558
 30
0.0
 11
175.6740402881966
 21
217.6283328259822
 31
0.0
  0
LINE
  5
27F
  8
0
  6
CONTINUOUS
 62
     7
 10
175.6740402881966
 20
217.6283328259822
 30
0.0
 11
175.7308262629521
 21
217.8193524537726
 31
0.0
  0
LINE
  5
280
  8
0
  6
CONTINUOUS
 62
     7
 10
175.7308262629521
 20
217.8193524537726
 30
0.0
 11
175.75
 21
218.0180585956188
 31
0.0
  0
LINE
  5
281
  8
0
  6
CONTINUOUS
 62
     7
 10
159.7483265988028
 20
254.9999999999999
 30
0.0
 11
159.5534717764927
 21
254.9804472926643
 31
0.0
  0
LINE
  5
282
  8
0
  6
CONTINUOUS
 62
     7
 10
159.5534717764927
 20
254.9804472926643
 30
0.0
 11
159.3661544883354
 21
254.9225389390456
 31
0.0
  0
LINE
  5
283
  8
0
  6
CONTINUOUS
 62
     7
 10
159.3661544883354
 20
254.9225389390456
 30
0.0
 11
159.1935576056742
 21
254.828495493679
 31
0.0
  0
LINE
  5
284
  8
0
  6
CONTINUOUS
 62
     7
 10
159.1935576056742
 20
254.828495493679
 30
0.0
 11
159.0422995309776
 21
254.7019231478315
 31
0.0
  0
LINE
  5
285
  8
0
  6
CONTINUOUS
 62
     7
 10
159.0422995309776
 20
254.7019231478315
 30
0.0
 11
158.9181804084869
 21
254.5476754464418
 31
0.0
  0
LINE
  5
286
  8
0
  6
CONTINUOUS
 62
     7
 10
158.9181804084869
 20
254.5476754464418
 30
0.0
 11
158.8259597118034
 21
254.3716671740177
 31
0.0
  0
LINE
  5
287
  8
0
  6
CONTINUOUS
 62
     7
 10
158.8259597118034
 20
254.3716671740177
 30
0.0
 11
158.7691737370479
 21
254.1806475462273
 31
0.0
  0
LINE
  5
288
  8
0
  6
CONTINUOUS
 62
     7
 10
158.7691737370479
 20
254.1806475462273
 30
0.0
 11
158.75
 21
253.9819414043811
 31
0.0
  0
LINE
  5
289
  8
0
  6
CONTINUOUS
 62
     7
 10
176.0
 20
185.0016734011972
 30
0.0
 11
175.9804472926644
 21
185.1965282235072
 31
0.0
  0
LINE
  5
28A
  8
0
  6
CONTINUOUS
 62
     7
 10
175.9804472926644
 20
185.1965282235072
 30
0.0
 11
175.9225389390457
 21
185.3838455116645
 31
0.0
  0
LINE
  5
28B
  8
0
  6
CONTINUOUS
 62
     7
 10
175.9225389390457
 20
185.3838455116645
 30
0.0
 11
175.828495493679
 21
185.5564423943258
 31
0.0
  0
LINE
  5
28C
  8
0
  6
CONTINUOUS
 62
     7
 10
175.828495493679
 20
185.5564423943258
 30
0.0
 11
175.7019231478316
 21
185.7077004690223
 31
0.0
  0
LINE
  5
28D
  8
0
  6
CONTINUOUS
 62
     7
 10
175.7019231478316
 20
185.7077004690223
 30
0.0
 11
175.5476754464419
 21
185.8318195915131
 31
0.0
  0
LINE
  5
28E
  8
0
  6
CONTINUOUS
 62
     7
 10
175.5476754464419
 20
185.8318195915131
 30
0.0
 11
175.3716671740177
 21
185.9240402881966
 31
0.0
  0
LINE
  5
28F
  8
0
  6
CONTINUOUS
 62
     7
 10
175.3716671740177
 20
185.9240402881966
 30
0.0
 11
175.1806475462274
 21
185.9808262629521
 31
0.0
  0
LINE
  5
290
  8
0
  6
CONTINUOUS
 62
     7
 10
175.1806475462274
 20
185.9808262629521
 30
0.0
 11
174.9819414043811
 21
185.9999999999999
 31
0.0
  0
LINE
  5
291
  8
0
  6
CONTINUOUS
 62
     7
 10
159.7483265988027
 20
216.9999999999999
 30
0.0
 11
174.7516734011972
 21
216.9999999999999
 31
0.0
  0
LINE
  5
292
  8
0
  6
CONTINUOUS
 62
     7
 10
176.0
 20
185.0016734011972
 30
0.0
 11
176.0
 21
169.9983265988027
 31
0.0
  0
LINE
  5
293
  8
0
  6
CONTINUOUS
 62
     7
 10
138.0
 20
185.0016734011972
 30
0.0
 11
138.0
 21
169.9983265988027
 31
0.0
  0
LINE
  5
294
  8
0
  6
CONTINUOUS
 62
     7
 10
159.7483265988028
 20
254.9999999999999
 30
0.0
 11
174.7516734011972
 21
254.9999999999999
 31
0.0
  0
LINE
  5
295
  8
0
  6
CONTINUOUS
 62
     7
 10
159.7491697225852
 20
223.9999999999999
 30
0.0
 11
159.5541951721712
 21
223.980710720775
 31
0.0
  0
LINE
  5
296
  8
0
  6
CONTINUOUS
 62
     7
 10
159.5541951721712
 20
223.980710720775
 30
0.0
 11
159.3667384630611
 21
223.9235833425983
 31
0.0
  0
LINE
  5
297
  8
0
  6
CONTINUOUS
 62
     7
 10
159.3667384630611
 20
223.9235833425983
 30
0.0
 11
159.1939955147687
 21
223.8308108198719
 31
0.0
  0
LINE
  5
298
  8
0
  6
CONTINUOUS
 62
     7
 10
159.1939955147687
 20
223.8308108198719
 30
0.0
 11
159.0425974281939
 21
223.70595442074
 31
0.0
  0
LINE
  5
299
  8
0
  6
CONTINUOUS
 62
     7
 10
159.0425974281939
 20
223.70595442074
 30
0.0
 11
158.9183559368867
 21
223.5538070203322
 31
0.0
  0
LINE
  5
29A
  8
0
  6
CONTINUOUS
 62
     7
 10
158.9183559368867
 20
223.5538070203322
 30
0.0
 11
158.8260403114482
 21
223.3802091161837
 31
0.0
  0
LINE
  5
29B
  8
0
  6
CONTINUOUS
 62
     7
 10
158.8260403114482
 20
223.3802091161837
 30
0.0
 11
158.7691942810606
 21
223.1918246284709
 31
0.0
  0
LINE
  5
29C
  8
0
  6
CONTINUOUS
 62
     7
 10
158.7691942810606
 20
223.1918246284709
 30
0.0
 11
158.75
 21
222.9958850914377
 31
0.0
  0
LINE
  5
29D
  8
0
  6
CONTINUOUS
 62
     7
 10
174.7508302774149
 20
247.9999999999999
 30
0.0
 11
174.9458048278289
 21
248.0192892792249
 31
0.0
  0
LINE
  5
29E
  8
0
  6
CONTINUOUS
 62
     7
 10
174.9458048278289
 20
248.0192892792249
 30
0.0
 11
175.1332615369389
 21
248.0764166574015
 31
0.0
  0
LINE
  5
29F
  8
0
  6
CONTINUOUS
 62
     7
 10
175.1332615369389
 20
248.0764166574015
 30
0.0
 11
175.3060044852313
 21
248.169189180128
 31
0.0
  0
LINE
  5
2A0
  8
0
  6
CONTINUOUS
 62
     7
 10
175.3060044852313
 20
248.169189180128
 30
0.0
 11
175.4574025718061
 21
248.2940455792598
 31
0.0
  0
LINE
  5
2A1
  8
0
  6
CONTINUOUS
 62
     7
 10
175.4574025718061
 20
248.2940455792598
 30
0.0
 11
175.5816440631133
 21
248.4461929796677
 31
0.0
  0
LINE
  5
2A2
  8
0
  6
CONTINUOUS
 62
     7
 10
175.5816440631133
 20
248.4461929796677
 30
0.0
 11
175.6739596885519
 21
248.6197908838161
 31
0.0
  0
LINE
  5
2A3
  8
0
  6
CONTINUOUS
 62
     7
 10
175.6739596885519
 20
248.6197908838161
 30
0.0
 11
175.7308057189395
 21
248.808175371529
 31
0.0
  0
LINE
  5
2A4
  8
0
  6
CONTINUOUS
 62
     7
 10
175.7308057189395
 20
248.808175371529
 30
0.0
 11
175.75
 21
249.0041149085622
 31
0.0
  0
LINE
  5
2A5
  8
0
  6
CONTINUOUS
 62
     7
 10
145.0
 20
185.0008302774148
 30
0.0
 11
144.9807107207751
 21
185.1958048278288
 31
0.0
  0
LINE
  5
2A6
  8
0
  6
CONTINUOUS
 62
     7
 10
144.9807107207751
 20
185.1958048278288
 30
0.0
 11
144.9235833425984
 21
185.3832615369388
 31
0.0
  0
LINE
  5
2A7
  8
0
  6
CONTINUOUS
 62
     7
 10
144.9235833425984
 20
185.3832615369388
 30
0.0
 11
144.830810819872
 21
185.5560044852312
 31
0.0
  0
LINE
  5
2A8
  8
0
  6
CONTINUOUS
 62
     7
 10
144.830810819872
 20
185.5560044852312
 30
0.0
 11
144.7059544207401
 21
185.707402571806
 31
0.0
  0
LINE
  5
2A9
  8
0
  6
CONTINUOUS
 62
     7
 10
144.7059544207401
 20
185.707402571806
 30
0.0
 11
144.5538070203323
 21
185.8316440631132
 31
0.0
  0
LINE
  5
2AA
  8
0
  6
CONTINUOUS
 62
     7
 10
144.5538070203323
 20
185.8316440631132
 30
0.0
 11
144.3802091161838
 21
185.9239596885518
 31
0.0
  0
LINE
  5
2AB
  8
0
  6
CONTINUOUS
 62
     7
 10
144.3802091161838
 20
185.9239596885518
 30
0.0
 11
144.191824628471
 21
185.9808057189393
 31
0.0
  0
LINE
  5
2AC
  8
0
  6
CONTINUOUS
 62
     7
 10
144.191824628471
 20
185.9808057189393
 30
0.0
 11
143.9958850914378
 21
185.9999999999999
 31
0.0
  0
LINE
  5
2AD
  8
0
  6
CONTINUOUS
 62
     7
 10
175.75
 20
222.9958850914377
 30
0.0
 11
175.7308057189394
 21
223.1918246284709
 31
0.0
  0
LINE
  5
2AE
  8
0
  6
CONTINUOUS
 62
     7
 10
175.7308057189394
 20
223.1918246284709
 30
0.0
 11
175.6739596885518
 21
223.3802091161837
 31
0.0
  0
LINE
  5
2AF
  8
0
  6
CONTINUOUS
 62
     7
 10
175.6739596885518
 20
223.3802091161837
 30
0.0
 11
175.5816440631132
 21
223.5538070203322
 31
0.0
  0
LINE
  5
2B0
  8
0
  6
CONTINUOUS
 62
     7
 10
175.5816440631132
 20
223.5538070203322
 30
0.0
 11
175.4574025718061
 21
223.7059544207401
 31
0.0
  0
LINE
  5
2B1
  8
0
  6
CONTINUOUS
 62
     7
 10
175.4574025718061
 20
223.7059544207401
 30
0.0
 11
175.3060044852312
 21
223.8308108198719
 31
0.0
  0
LINE
  5
2B2
  8
0
  6
CONTINUOUS
 62
     7
 10
175.3060044852312
 20
223.8308108198719
 30
0.0
 11
175.1332615369389
 21
223.9235833425984
 31
0.0
  0
LINE
  5
2B3
  8
0
  6
CONTINUOUS
 62
     7
 10
175.1332615369389
 20
223.9235833425984
 30
0.0
 11
174.9458048278288
 21
223.980710720775
 31
0.0
  0
LINE
  5
2B4
  8
0
  6
CONTINUOUS
 62
     7
 10
174.9458048278288
 20
223.980710720775
 30
0.0
 11
174.7508302774148
 21
223.9999999999999
 31
0.0
  0
LINE
  5
2B5
  8
0
  6
CONTINUOUS
 62
     7
 10
170.0041149085622
 20
185.9999999999999
 30
0.0
 11
169.808175371529
 21
185.9808057189393
 31
0.0
  0
LINE
  5
2B6
  8
0
  6
CONTINUOUS
 62
     7
 10
169.808175371529
 20
185.9808057189393
 30
0.0
 11
169.6197908838162
 21
185.9239596885517
 31
0.0
  0
LINE
  5
2B7
  8
0
  6
CONTINUOUS
 62
     7
 10
169.6197908838162
 20
185.9239596885517
 30
0.0
 11
169.4461929796677
 21
185.8316440631132
 31
0.0
  0
LINE
  5
2B8
  8
0
  6
CONTINUOUS
 62
     7
 10
169.4461929796677
 20
185.8316440631132
 30
0.0
 11
169.2940455792599
 21
185.707402571806
 31
0.0
  0
LINE
  5
2B9
  8
0
  6
CONTINUOUS
 62
     7
 10
169.2940455792599
 20
185.707402571806
 30
0.0
 11
169.169189180128
 21
185.5560044852312
 31
0.0
  0
LINE
  5
2BA
  8
0
  6
CONTINUOUS
 62
     7
 10
169.169189180128
 20
185.5560044852312
 30
0.0
 11
169.0764166574016
 21
185.3832615369388
 31
0.0
  0
LINE
  5
2BB
  8
0
  6
CONTINUOUS
 62
     7
 10
169.0764166574016
 20
185.3832615369388
 30
0.0
 11
169.0192892792249
 21
185.1958048278288
 31
0.0
  0
LINE
  5
2BC
  8
0
  6
CONTINUOUS
 62
     7
 10
169.0192892792249
 20
185.1958048278288
 30
0.0
 11
169.0
 21
185.0008302774148
 31
0.0
  0
LINE
  5
2BD
  8
0
  6
CONTINUOUS
 62
     7
 10
143.9958850914378
 20
168.9999999999999
 30
0.0
 11
144.191824628471
 21
169.0191942810605
 31
0.0
  0
LINE
  5
2BE
  8
0
  6
CONTINUOUS
 62
     7
 10
144.191824628471
 20
169.0191942810605
 30
0.0
 11
144.3802091161838
 21
169.0760403114481
 31
0.0
  0
LINE
  5
2BF
  8
0
  6
CONTINUOUS
 62
     7
 10
144.3802091161838
 20
169.0760403114481
 30
0.0
 11
144.5538070203323
 21
169.1683559368867
 31
0.0
  0
LINE
  5
2C0
  8
0
  6
CONTINUOUS
 62
     7
 10
144.5538070203323
 20
169.1683559368867
 30
0.0
 11
144.7059544207401
 21
169.2925974281938
 31
0.0
  0
LINE
  5
2C1
  8
0
  6
CONTINUOUS
 62
     7
 10
144.7059544207401
 20
169.2925974281938
 30
0.0
 11
144.830810819872
 21
169.4439955147687
 31
0.0
  0
LINE
  5
2C2
  8
0
  6
CONTINUOUS
 62
     7
 10
144.830810819872
 20
169.4439955147687
 30
0.0
 11
144.9235833425984
 21
169.6167384630611
 31
0.0
  0
LINE
  5
2C3
  8
0
  6
CONTINUOUS
 62
     7
 10
144.9235833425984
 20
169.6167384630611
 30
0.0
 11
144.9807107207751
 21
169.8041951721711
 31
0.0
  0
LINE
  5
2C4
  8
0
  6
CONTINUOUS
 62
     7
 10
144.9807107207751
 20
169.8041951721711
 30
0.0
 11
145.0
 21
169.9991697225851
 31
0.0
  0
LINE
  5
2C5
  8
0
  6
CONTINUOUS
 62
     7
 10
158.75
 20
249.0041149085622
 30
0.0
 11
158.7691942810606
 21
248.808175371529
 31
0.0
  0
LINE
  5
2C6
  8
0
  6
CONTINUOUS
 62
     7
 10
158.7691942810606
 20
248.808175371529
 30
0.0
 11
158.8260403114482
 21
248.6197908838161
 31
0.0
  0
LINE
  5
2C7
  8
0
  6
CONTINUOUS
 62
     7
 10
158.8260403114482
 20
248.6197908838161
 30
0.0
 11
158.9183559368868
 21
248.4461929796677
 31
0.0
  0
LINE
  5
2C8
  8
0
  6
CONTINUOUS
 62
     7
 10
158.9183559368868
 20
248.4461929796677
 30
0.0
 11
159.0425974281939
 21
248.2940455792598
 31
0.0
  0
LINE
  5
2C9
  8
0
  6
CONTINUOUS
 62
     7
 10
159.0425974281939
 20
248.2940455792598
 30
0.0
 11
159.1939955147688
 21
248.169189180128
 31
0.0
  0
LINE
  5
2CA
  8
0
  6
CONTINUOUS
 62
     7
 10
159.1939955147688
 20
248.169189180128
 30
0.0
 11
159.3667384630612
 21
248.0764166574015
 31
0.0
  0
LINE
  5
2CB
  8
0
  6
CONTINUOUS
 62
     7
 10
159.3667384630612
 20
248.0764166574015
 30
0.0
 11
159.5541951721712
 21
248.0192892792249
 31
0.0
  0
LINE
  5
2CC
  8
0
  6
CONTINUOUS
 62
     7
 10
159.5541951721712
 20
248.0192892792249
 30
0.0
 11
159.7491697225852
 21
247.9999999999999
 31
0.0
  0
LINE
  5
2CD
  8
0
  6
CONTINUOUS
 62
     7
 10
169.0
 20
169.9991697225851
 30
0.0
 11
169.0192892792249
 21
169.8041951721711
 31
0.0
  0
LINE
  5
2CE
  8
0
  6
CONTINUOUS
 62
     7
 10
169.0192892792249
 20
169.8041951721711
 30
0.0
 11
169.0764166574016
 21
169.6167384630611
 31
0.0
  0
LINE
  5
2CF
  8
0
  6
CONTINUOUS
 62
     7
 10
169.0764166574016
 20
169.6167384630611
 30
0.0
 11
169.169189180128
 21
169.4439955147687
 31
0.0
  0
LINE
  5
2D0
  8
0
  6
CONTINUOUS
 62
     7
 10
169.169189180128
 20
169.4439955147687
 30
0.0
 11
169.2940455792599
 21
169.2925974281939
 31
0.0
  0
LINE
  5
2D1
  8
0
  6
CONTINUOUS
 62
     7
 10
169.2940455792599
 20
169.2925974281939
 30
0.0
 11
169.4461929796677
 21
169.1683559368867
 31
0.0
  0
LINE
  5
2D2
  8
0
  6
CONTINUOUS
 62
     7
 10
169.4461929796677
 20
169.1683559368867
 30
0.0
 11
169.6197908838162
 21
169.0760403114481
 31
0.0
  0
LINE
  5
2D3
  8
0
  6
CONTINUOUS
 62
     7
 10
169.6197908838162
 20
169.0760403114481
 30
0.0
 11
169.808175371529
 21
169.0191942810605
 31
0.0
  0
LINE
  5
2D4
  8
0
  6
CONTINUOUS
 62
     7
 10
169.808175371529
 20
169.0191942810605
 30
0.0
 11
170.0041149085622
 21
168.9999999999999
 31
0.0
  0
LINE
  5
2D5
  8
0
  6
CONTINUOUS
 62
     7
 10
160.75
 20
223.9999999999999
 30
0.0
 11
159.7491697225852
 21
223.9999999999999
 31
0.0
  0
LINE
  5
2D6
  8
0
  6
CONTINUOUS
 62
     7
 10
169.0
 20
183.9999999999999
 30
0.0
 11
169.0
 21
185.0008302774148
 31
0.0
  0
LINE
  5
2D7
  8
0
  6
CONTINUOUS
 62
     7
 10
174.7508302774148
 20
247.9999999999999
 30
0.0
 11
173.75
 21
247.9999999999999
 31
0.0
  0
LINE
  5
2D8
  8
0
  6
CONTINUOUS
 62
     7
 10
160.75
 20
247.9999999999999
 30
0.0
 11
159.7491697225852
 21
247.9999999999999
 31
0.0
  0
LINE
  5
2D9
  8
0
  6
CONTINUOUS
 62
     7
 10
174.7508302774148
 20
223.9999999999999
 30
0.0
 11
173.75
 21
223.9999999999999
 31
0.0
  0
LINE
  5
2DA
  8
0
  6
CONTINUOUS
 62
     7
 10
169.0
 20
169.9991697225851
 30
0.0
 11
169.0
 21
170.9999999999999
 31
0.0
  0
LINE
  5
2DB
  8
0
  6
CONTINUOUS
 62
     7
 10
145.0
 20
169.9991697225851
 30
0.0
 11
145.0
 21
170.9999999999999
 31
0.0
  0
LINE
  5
2DC
  8
0
  6
CONTINUOUS
 62
     7
 10
145.0
 20
183.9999999999999
 30
0.0
 11
145.0
 21
185.0008302774148
 31
0.0
  0
LINE
  5
2DD
  8
0
  6
CONTINUOUS
 62
     7
 10
170.0041149085623
 20
185.9999999999999
 30
0.0
 11
174.9819414043811
 21
185.9999999999999
 31
0.0
  0
LINE
  5
2DE
  8
0
  6
CONTINUOUS
 62
     7
 10
143.9958850914378
 20
185.9999999999999
 30
0.0
 11
139.0180585956189
 21
185.9999999999999
 31
0.0
  0
LINE
  5
2DF
  8
0
  6
CONTINUOUS
 62
     7
 10
158.75
 20
249.0041149085622
 30
0.0
 11
158.75
 21
253.9819414043811
 31
0.0
  0
LINE
  5
2E0
  8
0
  6
CONTINUOUS
 62
     7
 10
175.75
 20
253.9819414043811
 30
0.0
 11
175.75
 21
249.0041149085622
 31
0.0
  0
LINE
  5
2E1
  8
0
  6
CONTINUOUS
 62
     7
 10
175.75
 20
218.0180585956188
 30
0.0
 11
175.75
 21
222.9958850914377
 31
0.0
  0
LINE
  5
2E2
  8
0
  6
CONTINUOUS
 62
     7
 10
158.75
 20
222.9958850914377
 30
0.0
 11
158.75
 21
218.0180585956188
 31
0.0
  0
LINE
  5
2E3
  8
0
  6
CONTINUOUS
 62
     7
 10
139.0180585956189
 20
168.9999999999999
 30
0.0
 11
143.9958850914378
 21
168.9999999999999
 31
0.0
  0
LINE
  5
2E4
  8
0
  6
CONTINUOUS
 62
     7
 10
174.9819414043811
 20
168.9999999999999
 30
0.0
 11
170.0041149085623
 21
168.9999999999999
 31
0.0
  0
LINE
  5
2E5
  8
0
  6
CONTINUOUS
 62
   253
 10
171.008688789405
 20
183.9659607187852
 30
0.0
 11
171.008688789405
 21
183.9999999999999
 31
0.0
  0
LINE
  5
2E6
  8
0
  6
CONTINUOUS
 62
   253
 10
171.008688789405
 20
170.9999999999999
 30
0.0
 11
171.008688789405
 21
171.0340392812147
 31
0.0
  0
LINE
  5
2E7
  8
0
  6
CONTINUOUS
 62
   253
 10
124.9575395321776
 20
239.0976315935988
 30
0.0
 11
124.9243006061472
 21
239.1638136970572
 31
0.0
  0
ARC
  5
2E8
  8
0
  6
CONTINUOUS
 62
     7
 10
106.5
 20
212.9999999999999
 30
0.0
 40
31.96509252883696
 50
54.73015536867399
 51
89.55188332714852
  0
LINE
  5
2E9
  8
0
  6
CONTINUOUS
 62
     7
 10
106.75
 20
244.9667330253374
 30
0.0
 11
106.75
 21
244.9641148849316
 31
0.0
  0
ARC
  5
2EA
  8
0
  6
CONTINUOUS
 62
     7
 10
106.5
 20
212.9999999999999
 30
0.0
 40
31.96771058917417
 50
89.55192002731826
 51
90.44807997268175
  0
LINE
  5
2EB
  8
0
  6
CONTINUOUS
 62
     7
 10
106.25
 20
244.9641148849316
 30
0.0
 11
106.25
 21
244.9667330253374
 31
0.0
  0
ARC
  5
2EC
  8
0
  6
CONTINUOUS
 62
     7
 10
106.5
 20
212.9999999999999
 30
0.0
 40
31.96509252883696
 50
90.44811667285154
 51
125.2698446313259
  0
LINE
  5
2ED
  8
0
  6
CONTINUOUS
 62
   253
 10
88.07569939385277
 20
239.1638136970572
 30
0.0
 11
88.04246046782237
 21
239.0976315935988
 31
0.0
  0
ARC
  5
2EE
  8
0
  6
CONTINUOUS
 62
     7
 10
106.5
 20
212.9999999999999
 30
0.0
 40
32.00000000000001
 50
54.84716962155829
 51
125.1528303784417
  0
LINE
  5
2EF
  8
0
  6
CONTINUOUS
 62
     7
 10
106.25
 20
181.0332669746626
 30
0.0
 11
106.25
 21
181.0358851150683
 31
0.0
  0
ARC
  5
2F0
  8
0
  6
CONTINUOUS
 62
     7
 10
106.5
 20
212.9999999999999
 30
0.0
 40
31.96771058917417
 50
269.5519200273184
 51
270.4480799726817
  0
ARC
  5
2F1
  8
0
  6
CONTINUOUS
 62
     7
 10
106.5
 20
212.9999999999999
 30
0.0
 40
31.96509252883697
 50
270.4481166728515
 51
305.2698446313259
  0
LINE
  5
2F2
  8
0
  6
CONTINUOUS
 62
   253
 10
124.9243006061472
 20
186.8361863029426
 30
0.0
 11
124.9575395321776
 21
186.9023684064011
 31
0.0
  0
ARC
  5
2F3
  8
0
  6
CONTINUOUS
 62
     7
 10
106.5
 20
212.9999999999999
 30
0.0
 40
32.00000000000001
 50
234.8471696215584
 51
305.1528303784417
  0
LINE
  5
2F4
  8
0
  6
CONTINUOUS
 62
   253
 10
88.04246046782235
 20
186.9023684064011
 30
0.0
 11
88.07569939385276
 21
186.8361863029426
 31
0.0
  0
ARC
  5
2F5
  8
0
  6
CONTINUOUS
 62
     7
 10
106.5
 20
212.9999999999999
 30
0.0
 40
31.96509252883696
 50
234.7301553686742
 51
269.5518833271485
  0
LINE
  5
2F6
  8
0
  6
CONTINUOUS
 62
     7
 10
106.75
 20
181.0358851150683
 30
0.0
 11
106.75
 21
181.0332669746626
 31
0.0
  0
LINE
  5
2F7
  8
0
  6
CONTINUOUS
 62
     7
 10
128.965092528837
 20
186.1612292071564
 30
0.0
 11
128.965092528837
 21
194.4999999999999
 31
0.0
  0
LINE
  5
2F8
  8
0
  6
CONTINUOUS
 62
     7
 10
128.965092528837
 20
194.4999999999999
 30
0.0
 11
129.4177277244477
 21
194.4999999999999
 31
0.0
  0
LINE
  5
2F9
  8
0
  6
CONTINUOUS
 62
     7
 10
129.4177277244477
 20
194.4999999999999
 30
0.0
 11
129.4177277244478
 21
194.9999999999999
 31
0.0
  0
LINE
  5
2FA
  8
0
  6
CONTINUOUS
 62
     7
 10
129.4177277244478
 20
194.9999999999999
 30
0.0
 11
128.965092528837
 21
194.9999999999999
 31
0.0
  0
LINE
  5
2FB
  8
0
  6
CONTINUOUS
 62
     7
 10
128.965092528837
 20
194.9999999999999
 30
0.0
 11
128.965092528837
 21
212.1550893554381
 31
0.0
  0
ARC
  5
2FC
  8
0
  6
CONTINUOUS
 62
     7
 10
129.5
 20
212.9999999999999
 30
0.0
 40
1.000000000000001
 50
237.662363446341
 51
122.337636553659
  0
LINE
  5
2FD
  8
0
  6
CONTINUOUS
 62
     7
 10
128.965092528837
 20
213.8449106445618
 30
0.0
 11
128.965092528837
 21
230.9999999999999
 31
0.0
  0
LINE
  5
2FE
  8
0
  6
CONTINUOUS
 62
     7
 10
128.965092528837
 20
230.9999999999999
 30
0.0
 11
129.4177277244478
 21
230.9999999999999
 31
0.0
  0
LINE
  5
2FF
  8
0
  6
CONTINUOUS
 62
     7
 10
129.4177277244478
 20
230.9999999999999
 30
0.0
 11
129.4177277244478
 21
231.4999999999999
 31
0.0
  0
LINE
  5
300
  8
0
  6
CONTINUOUS
 62
     7
 10
129.4177277244478
 20
231.4999999999999
 30
0.0
 11
128.965092528837
 21
231.4999999999999
 31
0.0
  0
LINE
  5
301
  8
0
  6
CONTINUOUS
 62
     7
 10
128.965092528837
 20
231.4999999999999
 30
0.0
 11
128.965092528837
 21
239.8387707928435
 31
0.0
  0
LINE
  5
302
  8
0
  6
CONTINUOUS
 62
     7
 10
128.965092528837
 20
239.8387707928435
 30
0.0
 11
128.965092528837
 21
249.6040129731468
 31
0.0
  0
LINE
  5
303
  8
0
  6
CONTINUOUS
 62
     7
 10
131.9825455998337
 20
249.4290423086953
 30
0.0
 11
131.9825455998337
 21
176.5709576913045
 31
0.0
  0
LINE
  5
304
  8
0
  6
CONTINUOUS
 62
     7
 10
128.965092528837
 20
176.3959870268531
 30
0.0
 11
128.965092528837
 21
186.1612292071564
 31
0.0
  0
LINE
  5
305
  8
0
  6
CONTINUOUS
 62
     7
 10
106.75
 20
199.4934164902525
 30
0.0
 11
106.75
 21
208.2565835097474
 31
0.0
  0
ARC
  5
306
  8
0
  6
CONTINUOUS
 62
     7
 10
106.5
 20
212.9999999999999
 30
0.0
 40
4.750000000000006
 50
273.0169613098159
 51
356.9830386901841
  0
LINE
  5
307
  8
0
  6
CONTINUOUS
 62
     7
 10
111.2434164902526
 20
212.7499999999999
 30
0.0
 11
128.5317541634481
 21
212.7499999999999
 31
0.0
  0
ARC
  5
308
  8
0
  6
CONTINUOUS
 62
     7
 10
129.5
 20
212.9999999999999
 30
0.0
 40
0.999999999999998
 50
194.4775121859299
 51
237.6623634463415
  0
ARC
  5
309
  8
0
  6
CONTINUOUS
 62
     7
 10
106.5
 20
194.7499999999999
 30
0.0
 40
4.75000000000002
 50
3.016961309815827
 51
86.983038690184
  0
LINE
  5
30A
  8
0
  6
CONTINUOUS
 62
     7
 10
111.2434164902526
 20
194.9999999999999
 30
0.0
 11
128.965092528837
 21
194.9999999999999
 31
0.0
  0
ARC
  5
30B
  8
0
  6
CONTINUOUS
 62
     7
 10
129.5
 20
212.9999999999999
 30
0.0
 40
1.000000000000008
 50
122.3376365536586
 51
165.5224878140701
  0
LINE
  5
30C
  8
0
  6
CONTINUOUS
 62
     7
 10
128.5317541634481
 20
213.2499999999999
 30
0.0
 11
111.2434164902526
 21
213.2499999999999
 31
0.0
  0
ARC
  5
30D
  8
0
  6
CONTINUOUS
 62
     7
 10
106.5
 20
212.9999999999999
 30
0.0
 40
4.749999999999992
 50
3.016961309815997
 51
86.983038690184
  0
LINE
  5
30E
  8
0
  6
CONTINUOUS
 62
     7
 10
106.75
 20
217.7434164902525
 30
0.0
 11
106.75
 21
226.5065835097474
 31
0.0
  0
ARC
  5
30F
  8
0
  6
CONTINUOUS
 62
     7
 10
106.5
 20
231.2499999999999
 30
0.0
 40
4.750000000000006
 50
273.0169613098159
 51
356.9830386901839
  0
LINE
  5
310
  8
0
  6
CONTINUOUS
 62
     7
 10
128.965092528837
 20
230.9999999999999
 30
0.0
 11
111.2434164902526
 21
230.9999999999999
 31
0.0
  0
LINE
  5
311
  8
0
  6
CONTINUOUS
 62
     7
 10
126.534907471163
 20
239.9140421155521
 30
0.0
 11
126.5337290599671
 21
239.8660021472937
 31
0.0
  0
LINE
  5
312
  8
0
  6
CONTINUOUS
 62
     7
 10
126.5337290599671
 20
239.8660021472937
 30
0.0
 11
126.5302124494853
 21
239.8179375207708
 31
0.0
  0
LINE
  5
313
  8
0
  6
CONTINUOUS
 62
     7
 10
126.5302124494853
 20
239.8179375207708
 30
0.0
 11
126.5243855743763
 21
239.7700126151204
 31
0.0
  0
LINE
  5
314
  8
0
  6
CONTINUOUS
 62
     7
 10
126.5243855743763
 20
239.7700126151204
 30
0.0
 11
126.5162763692989
 21
239.7223918094791
 31
0.0
  0
LINE
  5
315
  8
0
  6
CONTINUOUS
 62
     7
 10
126.5162763692989
 20
239.7223918094791
 30
0.0
 11
126.505912768912
 21
239.6752394829839
 31
0.0
  0
LINE
  5
316
  8
0
  6
CONTINUOUS
 62
     7
 10
126.505912768912
 20
239.6752394829839
 30
0.0
 11
126.4933227078743
 21
239.6287200147715
 31
0.0
  0
LINE
  5
317
  8
0
  6
CONTINUOUS
 62
     7
 10
126.4933227078743
 20
239.6287200147715
 30
0.0
 11
126.4785341208447
 21
239.5829977839785
 31
0.0
  0
LINE
  5
318
  8
0
  6
CONTINUOUS
 62
     7
 10
126.4785341208447
 20
239.5829977839785
 30
0.0
 11
126.4615210653945
 21
239.5380554851351
 31
0.0
  0
LINE
  5
319
  8
0
  6
CONTINUOUS
 62
     7
 10
126.4615210653945
 20
239.5380554851351
 30
0.0
 11
126.4422930128958
 21
239.4938639824236
 31
0.0
  0
LINE
  5
31A
  8
0
  6
CONTINUOUS
 62
     7
 10
126.4422930128958
 20
239.4938639824236
 30
0.0
 11
126.4209307676602
 21
239.4505691937341
 31
0.0
  0
LINE
  5
31B
  8
0
  6
CONTINUOUS
 62
     7
 10
126.4209307676602
 20
239.4505691937341
 30
0.0
 11
126.3975151339988
 21
239.4083170369567
 31
0.0
  0
LINE
  5
31C
  8
0
  6
CONTINUOUS
 62
     7
 10
126.3975151339988
 20
239.4083170369567
 30
0.0
 11
126.372126916223
 21
239.3672534299813
 31
0.0
  0
LINE
  5
31D
  8
0
  6
CONTINUOUS
 62
     7
 10
126.372126916223
 20
239.3672534299813
 30
0.0
 11
126.3448469186442
 21
239.327524290698
 31
0.0
  0
LINE
  5
31E
  8
0
  6
CONTINUOUS
 62
     7
 10
126.3448469186442
 20
239.327524290698
 30
0.0
 11
126.3157559455737
 21
239.2892755369968
 31
0.0
  0
LINE
  5
31F
  8
0
  6
CONTINUOUS
 62
     7
 10
126.3157559455737
 20
239.2892755369968
 30
0.0
 11
126.2848280585739
 21
239.2525042464963
 31
0.0
  0
LINE
  5
320
  8
0
  6
CONTINUOUS
 62
     7
 10
126.2848280585739
 20
239.2525042464963
 30
0.0
 11
126.2520588070346
 21
239.2171745563055
 31
0.0
  0
LINE
  5
321
  8
0
  6
CONTINUOUS
 62
     7
 10
126.2520588070346
 20
239.2171745563055
 30
0.0
 11
126.2175727471122
 21
239.1833973729174
 31
0.0
  0
LINE
  5
322
  8
0
  6
CONTINUOUS
 62
     7
 10
126.2175727471122
 20
239.1833973729174
 30
0.0
 11
126.1814944349633
 21
239.1512836028246
 31
0.0
  0
LINE
  5
323
  8
0
  6
CONTINUOUS
 62
     7
 10
126.1814944349633
 20
239.1512836028246
 30
0.0
 11
126.1439484267444
 21
239.1209441525199
 31
0.0
  0
LINE
  5
324
  8
0
  6
CONTINUOUS
 62
     7
 10
126.1439484267444
 20
239.1209441525199
 30
0.0
 11
126.105059278612
 21
239.0924899284962
 31
0.0
  0
LINE
  5
325
  8
0
  6
CONTINUOUS
 62
     7
 10
126.105059278612
 20
239.0924899284962
 30
0.0
 11
126.0649515467227
 21
239.0660318372462
 31
0.0
  0
LINE
  5
326
  8
0
  6
CONTINUOUS
 62
     7
 10
126.0649515467227
 20
239.0660318372462
 30
0.0
 11
126.0236000439215
 21
239.0415758023901
 31
0.0
  0
LINE
  5
327
  8
0
  6
CONTINUOUS
 62
     7
 10
126.0236000439215
 20
239.0415758023901
 30
0.0
 11
125.9809885135398
 21
239.0190892782742
 31
0.0
  0
LINE
  5
328
  8
0
  6
CONTINUOUS
 62
     7
 10
125.9809885135398
 20
239.0190892782742
 30
0.0
 11
125.9372711644738
 21
238.9986356284575
 31
0.0
  0
LINE
  5
329
  8
0
  6
CONTINUOUS
 62
     7
 10
125.9372711644738
 20
238.9986356284575
 30
0.0
 11
125.8926022056196
 21
238.9802782164988
 31
0.0
  0
LINE
  5
32A
  8
0
  6
CONTINUOUS
 62
     7
 10
125.8926022056196
 20
238.9802782164988
 30
0.0
 11
125.8471358458737
 21
238.9640804059573
 31
0.0
  0
LINE
  5
32B
  8
0
  6
CONTINUOUS
 62
     7
 10
125.8471358458737
 20
238.9640804059573
 30
0.0
 11
125.8010262941321
 21
238.9501055603918
 31
0.0
  0
LINE
  5
32C
  8
0
  6
CONTINUOUS
 62
     7
 10
125.8010262941321
 20
238.9501055603918
 30
0.0
 11
125.7544277592912
 21
238.9384170433612
 31
0.0
  0
LINE
  5
32D
  8
0
  6
CONTINUOUS
 62
     7
 10
125.7544277592912
 20
238.9384170433612
 30
0.0
 11
125.7073136539923
 21
238.9290278951822
 31
0.0
  0
LINE
  5
32E
  8
0
  6
CONTINUOUS
 62
     7
 10
125.7073136539923
 20
238.9290278951822
 30
0.0
 11
125.6596625724932
 21
238.9219140526757
 31
0.0
  0
LINE
  5
32F
  8
0
  6
CONTINUOUS
 62
     7
 10
125.6596625724932
 20
238.9219140526757
 30
0.0
 11
125.6116409613223
 21
238.9170842284589
 31
0.0
  0
LINE
  5
330
  8
0
  6
CONTINUOUS
 62
     7
 10
125.6116409613223
 20
238.9170842284589
 30
0.0
 11
125.563415267008
 21
238.9145471351489
 31
0.0
  0
LINE
  5
331
  8
0
  6
CONTINUOUS
 62
     7
 10
125.563415267008
 20
238.9145471351489
 30
0.0
 11
125.5151519360787
 21
238.9143114853625
 31
0.0
  0
LINE
  5
332
  8
0
  6
CONTINUOUS
 62
     7
 10
125.5151519360787
 20
238.9143114853625
 30
0.0
 11
125.4670174150626
 21
238.9163859917169
 31
0.0
  0
LINE
  5
333
  8
0
  6
CONTINUOUS
 62
     7
 10
125.4670174150626
 20
238.9163859917169
 30
0.0
 11
125.419178150488
 21
238.9207793668291
 31
0.0
  0
LINE
  5
334
  8
0
  6
CONTINUOUS
 62
     7
 10
125.419178150488
 20
238.9207793668291
 30
0.0
 11
125.3716078934334
 21
238.9275135866182
 31
0.0
  0
LINE
  5
335
  8
0
  6
CONTINUOUS
 62
     7
 10
125.3716078934334
 20
238.9275135866182
 30
0.0
 11
125.3242840114551
 21
238.9365726391311
 31
0.0
  0
LINE
  5
336
  8
0
  6
CONTINUOUS
 62
     7
 10
125.3242840114551
 20
238.9365726391311
 30
0.0
 11
125.2773664379263
 21
238.9479096474678
 31
0.0
  0
LINE
  5
337
  8
0
  6
CONTINUOUS
 62
     7
 10
125.2773664379263
 20
238.9479096474678
 30
0.0
 11
125.2310151062201
 21
238.9614777347283
 31
0.0
  0
LINE
  5
338
  8
0
  6
CONTINUOUS
 62
     7
 10
125.2310151062201
 20
238.9614777347283
 30
0.0
 11
125.1853899497096
 21
238.9772300240126
 31
0.0
  0
LINE
  5
339
  8
0
  6
CONTINUOUS
 62
     7
 10
125.1853899497096
 20
238.9772300240126
 30
0.0
 11
125.1406509017677
 21
238.9951196384206
 31
0.0
  0
LINE
  5
33A
  8
0
  6
CONTINUOUS
 62
     7
 10
125.1406509017677
 20
238.9951196384206
 30
0.0
 11
125.0969578957677
 21
239.0150997010522
 31
0.0
  0
LINE
  5
33B
  8
0
  6
CONTINUOUS
 62
     7
 10
125.0969578957677
 20
239.0150997010522
 30
0.0
 11
125.0608929257681
 21
239.0335900630698
 31
0.0
  0
LINE
  5
33C
  8
0
  6
CONTINUOUS
 62
     7
 10
125.0608929257681
 20
239.0335900630698
 30
0.0
 11
125.025577634714
 21
239.0535427422248
 31
0.0
  0
LINE
  5
33D
  8
0
  6
CONTINUOUS
 62
     7
 10
125.025577634714
 20
239.0535427422248
 30
0.0
 11
124.9910978832892
 21
239.0749068739302
 31
0.0
  0
LINE
  5
33E
  8
0
  6
CONTINUOUS
 62
     7
 10
124.9910978832892
 20
239.0749068739302
 30
0.0
 11
124.9575395321776
 21
239.0976315935988
 31
0.0
  0
LINE
  5
33F
  8
0
  6
CONTINUOUS
 62
     7
 10
126.534907471163
 20
239.9140421155521
 30
0.0
 11
126.534907471163
 21
241.6984752665003
 31
0.0
  0
ARC
  5
340
  8
0
  6
CONTINUOUS
 62
   253
 10
106.5
 20
212.9999999999999
 30
0.0
 40
35.00000000000001
 50
50.0693606980508
 51
55.08043308571132
  0
LINE
  5
341
  8
0
  6
CONTINUOUS
 62
     7
 10
111.2434164902526
 20
231.4999999999999
 30
0.0
 11
128.965092528837
 21
231.4999999999999
 31
0.0
  0
ARC
  5
342
  8
0
  6
CONTINUOUS
 62
     7
 10
106.5
 20
231.2499999999999
 30
0.0
 40
4.749999999999992
 50
3.016961309815997
 51
86.983038690184
  0
LINE
  5
343
  8
0
  6
CONTINUOUS
 62
     7
 10
106.75
 20
235.9934164902525
 30
0.0
 11
106.75
 21
244.9641148849316
 31
0.0
  0
LINE
  5
344
  8
0
  6
CONTINUOUS
 62
     7
 10
84.03490747116304
 20
239.8387707928435
 30
0.0
 11
84.03490747116304
 21
231.4999999999999
 31
0.0
  0
LINE
  5
345
  8
0
  6
CONTINUOUS
 62
     7
 10
84.03490747116304
 20
231.4999999999999
 30
0.0
 11
83.58227227555223
 21
231.4999999999999
 31
0.0
  0
LINE
  5
346
  8
0
  6
CONTINUOUS
 62
     7
 10
83.58227227555223
 20
231.4999999999999
 30
0.0
 11
83.58227227555223
 21
230.9999999999999
 31
0.0
  0
LINE
  5
347
  8
0
  6
CONTINUOUS
 62
     7
 10
83.58227227555223
 20
230.9999999999999
 30
0.0
 11
84.03490747116304
 21
230.9999999999999
 31
0.0
  0
LINE
  5
348
  8
0
  6
CONTINUOUS
 62
     7
 10
84.03490747116304
 20
230.9999999999999
 30
0.0
 11
84.03490747116304
 21
213.8449106445618
 31
0.0
  0
ARC
  5
349
  8
0
  6
CONTINUOUS
 62
     7
 10
83.5
 20
212.9999999999999
 30
0.0
 40
1.000000000000001
 50
57.6623634463403
 51
302.3376365536597
  0
LINE
  5
34A
  8
0
  6
CONTINUOUS
 62
     7
 10
84.03490747116304
 20
212.1550893554381
 30
0.0
 11
84.03490747116304
 21
194.9999999999999
 31
0.0
  0
LINE
  5
34B
  8
0
  6
CONTINUOUS
 62
     7
 10
84.03490747116304
 20
194.9999999999999
 30
0.0
 11
83.58227227555223
 21
194.9999999999999
 31
0.0
  0
LINE
  5
34C
  8
0
  6
CONTINUOUS
 62
     7
 10
83.58227227555223
 20
194.9999999999999
 30
0.0
 11
83.58227227555223
 21
194.4999999999999
 31
0.0
  0
LINE
  5
34D
  8
0
  6
CONTINUOUS
 62
     7
 10
84.03490747116304
 20
194.4999999999999
 30
0.0
 11
84.03490747116304
 21
186.1612292071563
 31
0.0
  0
LINE
  5
34E
  8
0
  6
CONTINUOUS
 62
     7
 10
84.03490747116304
 20
186.1612292071563
 30
0.0
 11
84.03490747116304
 21
176.3959870268531
 31
0.0
  0
LINE
  5
34F
  8
0
  6
CONTINUOUS
 62
     7
 10
81.01745440016629
 20
176.5709576913045
 30
0.0
 11
81.01745440016629
 21
249.4290423086954
 31
0.0
  0
LINE
  5
350
  8
0
  6
CONTINUOUS
 62
     7
 10
84.03490747116304
 20
249.6040129731468
 30
0.0
 11
84.03490747116304
 21
239.8387707928435
 31
0.0
  0
LINE
  5
351
  8
0
  6
CONTINUOUS
 62
     7
 10
83.58227227555223
 20
194.4999999999999
 30
0.0
 11
84.03490747116304
 21
194.4999999999999
 31
0.0
  0
LINE
  5
352
  8
0
  6
CONTINUOUS
 62
     7
 10
86.46509252883695
 20
186.0859578844477
 30
0.0
 11
86.46627094003287
 21
186.1339978527062
 31
0.0
  0
LINE
  5
353
  8
0
  6
CONTINUOUS
 62
     7
 10
86.46627094003287
 20
186.1339978527062
 30
0.0
 11
86.46978755051472
 21
186.1820624792291
 31
0.0
  0
LINE
  5
354
  8
0
  6
CONTINUOUS
 62
     7
 10
86.46978755051472
 20
186.1820624792291
 30
0.0
 11
86.47561442562373
 21
186.2299873848795
 31
0.0
  0
LINE
  5
355
  8
0
  6
CONTINUOUS
 62
     7
 10
86.47561442562373
 20
186.2299873848795
 30
0.0
 11
86.48372363070108
 21
186.2776081905207
 31
0.0
  0
LINE
  5
356
  8
0
  6
CONTINUOUS
 62
     7
 10
86.48372363070108
 20
186.2776081905207
 30
0.0
 11
86.494087231088
 21
186.324760517016
 31
0.0
  0
LINE
  5
357
  8
0
  6
CONTINUOUS
 62
     7
 10
86.494087231088
 20
186.324760517016
 30
0.0
 11
86.50667729212569
 21
186.3712799852284
 31
0.0
  0
LINE
  5
358
  8
0
  6
CONTINUOUS
 62
     7
 10
86.50667729212569
 20
186.3712799852284
 30
0.0
 11
86.52146587915531
 21
186.4170022160214
 31
0.0
  0
LINE
  5
359
  8
0
  6
CONTINUOUS
 62
     7
 10
86.52146587915531
 20
186.4170022160214
 30
0.0
 11
86.53847893460554
 21
186.4619445148648
 31
0.0
  0
LINE
  5
35A
  8
0
  6
CONTINUOUS
 62
     7
 10
86.53847893460554
 20
186.4619445148648
 30
0.0
 11
86.55770698710415
 21
186.5061360175763
 31
0.0
  0
LINE
  5
35B
  8
0
  6
CONTINUOUS
 62
     7
 10
86.55770698710415
 20
186.5061360175763
 30
0.0
 11
86.57906923233982
 21
186.5494308062657
 31
0.0
  0
LINE
  5
35C
  8
0
  6
CONTINUOUS
 62
     7
 10
86.57906923233982
 20
186.5494308062657
 30
0.0
 11
86.6024848660012
 21
186.5916829630432
 31
0.0
  0
LINE
  5
35D
  8
0
  6
CONTINUOUS
 62
     7
 10
86.6024848660012
 20
186.5916829630432
 30
0.0
 11
86.62787308377698
 21
186.6327465700186
 31
0.0
  0
LINE
  5
35E
  8
0
  6
CONTINUOUS
 62
     7
 10
86.62787308377698
 20
186.6327465700186
 30
0.0
 11
86.65515308135578
 21
186.6724757093019
 31
0.0
  0
LINE
  5
35F
  8
0
  6
CONTINUOUS
 62
     7
 10
86.65515308135578
 20
186.6724757093019
 30
0.0
 11
86.68424405442629
 21
186.7107244630031
 31
0.0
  0
LINE
  5
360
  8
0
  6
CONTINUOUS
 62
     7
 10
86.68424405442629
 20
186.7107244630031
 30
0.0
 11
86.71517194142605
 21
186.7474957535036
 31
0.0
  0
LINE
  5
361
  8
0
  6
CONTINUOUS
 62
     7
 10
86.71517194142605
 20
186.7474957535036
 30
0.0
 11
86.7479411929654
 21
186.7828254436943
 31
0.0
  0
LINE
  5
362
  8
0
  6
CONTINUOUS
 62
     7
 10
86.7479411929654
 20
186.7828254436943
 30
0.0
 11
86.78242725288779
 21
186.8166026270825
 31
0.0
  0
LINE
  5
363
  8
0
  6
CONTINUOUS
 62
     7
 10
86.78242725288779
 20
186.8166026270825
 30
0.0
 11
86.81850556503667
 21
186.8487163971753
 31
0.0
  0
LINE
  5
364
  8
0
  6
CONTINUOUS
 62
     7
 10
86.81850556503667
 20
186.8487163971753
 30
0.0
 11
86.85605157325557
 21
186.8790558474799
 31
0.0
  0
LINE
  5
365
  8
0
  6
CONTINUOUS
 62
     7
 10
86.85605157325557
 20
186.8790558474799
 30
0.0
 11
86.89494072138794
 21
186.9075100715037
 31
0.0
  0
LINE
  5
366
  8
0
  6
CONTINUOUS
 62
     7
 10
86.89494072138794
 20
186.9075100715037
 30
0.0
 11
86.93504845327726
 21
186.9339681627537
 31
0.0
  0
LINE
  5
367
  8
0
  6
CONTINUOUS
 62
     7
 10
86.93504845327726
 20
186.9339681627537
 30
0.0
 11
86.97639995607845
 21
186.9584241976098
 31
0.0
  0
LINE
  5
368
  8
0
  6
CONTINUOUS
 62
     7
 10
86.97639995607845
 20
186.9584241976098
 30
0.0
 11
87.0190114864602
 21
186.9809107217256
 31
0.0
  0
LINE
  5
369
  8
0
  6
CONTINUOUS
 62
     7
 10
87.0190114864602
 20
186.9809107217256
 30
0.0
 11
87.06272883552623
 21
187.0013643715424
 31
0.0
  0
LINE
  5
36A
  8
0
  6
CONTINUOUS
 62
     7
 10
87.06272883552623
 20
187.0013643715424
 30
0.0
 11
87.10739779438036
 21
187.019721783501
 31
0.0
  0
LINE
  5
36B
  8
0
  6
CONTINUOUS
 62
     7
 10
87.10739779438036
 20
187.019721783501
 30
0.0
 11
87.15286415412632
 21
187.0359195940426
 31
0.0
  0
LINE
  5
36C
  8
0
  6
CONTINUOUS
 62
     7
 10
87.15286415412632
 20
187.0359195940426
 30
0.0
 11
87.19897370586784
 21
187.0498944396081
 31
0.0
  0
LINE
  5
36D
  8
0
  6
CONTINUOUS
 62
     7
 10
87.19897370586784
 20
187.0498944396081
 30
0.0
 11
87.24557224070875
 21
187.0615829566387
 31
0.0
  0
LINE
  5
36E
  8
0
  6
CONTINUOUS
 62
     7
 10
87.24557224070875
 20
187.0615829566387
 30
0.0
 11
87.29268634600771
 21
187.0709721048177
 31
0.0
  0
LINE
  5
36F
  8
0
  6
CONTINUOUS
 62
     7
 10
87.29268634600771
 20
187.0709721048177
 30
0.0
 11
87.34033742750681
 21
187.0780859473242
 31
0.0
  0
LINE
  5
370
  8
0
  6
CONTINUOUS
 62
     7
 10
87.34033742750681
 20
187.0780859473242
 30
0.0
 11
87.38835903867766
 21
187.082915771541
 31
0.0
  0
LINE
  5
371
  8
0
  6
CONTINUOUS
 62
     7
 10
87.38835903867766
 20
187.082915771541
 30
0.0
 11
87.43658473299196
 21
187.085452864851
 31
0.0
  0
LINE
  5
372
  8
0
  6
CONTINUOUS
 62
     7
 10
87.43658473299196
 20
187.085452864851
 30
0.0
 11
87.48484806392133
 21
187.0856885146374
 31
0.0
  0
LINE
  5
373
  8
0
  6
CONTINUOUS
 62
     7
 10
87.48484806392133
 20
187.0856885146374
 30
0.0
 11
87.53298258493746
 21
187.083614008283
 31
0.0
  0
LINE
  5
374
  8
0
  6
CONTINUOUS
 62
     7
 10
87.53298258493746
 20
187.083614008283
 30
0.0
 11
87.58082184951199
 21
187.0792206331708
 31
0.0
  0
LINE
  5
375
  8
0
  6
CONTINUOUS
 62
     7
 10
87.58082184951199
 20
187.0792206331708
 30
0.0
 11
87.62839210656662
 21
187.0724864133817
 31
0.0
  0
LINE
  5
376
  8
0
  6
CONTINUOUS
 62
     7
 10
87.62839210656662
 20
187.0724864133817
 30
0.0
 11
87.67571598854487
 21
187.0634273608688
 31
0.0
  0
LINE
  5
377
  8
0
  6
CONTINUOUS
 62
     7
 10
87.67571598854487
 20
187.0634273608688
 30
0.0
 11
87.72263356207365
 21
187.052090352532
 31
0.0
  0
LINE
  5
378
  8
0
  6
CONTINUOUS
 62
     7
 10
87.72263356207365
 20
187.052090352532
 30
0.0
 11
87.76898489377986
 21
187.0385222652715
 31
0.0
  0
LINE
  5
379
  8
0
  6
CONTINUOUS
 62
     7
 10
87.76898489377986
 20
187.0385222652715
 30
0.0
 11
87.81461005029043
 21
187.0227699759873
 31
0.0
  0
LINE
  5
37A
  8
0
  6
CONTINUOUS
 62
     7
 10
87.81461005029043
 20
187.0227699759873
 30
0.0
 11
87.85934909823226
 21
187.0048803615793
 31
0.0
  0
LINE
  5
37B
  8
0
  6
CONTINUOUS
 62
     7
 10
87.85934909823226
 20
187.0048803615793
 30
0.0
 11
87.90304210423227
 21
186.9849002989477
 31
0.0
  0
LINE
  5
37C
  8
0
  6
CONTINUOUS
 62
     7
 10
87.90304210423227
 20
186.9849002989477
 30
0.0
 11
87.93910707423184
 21
186.9664099369301
 31
0.0
  0
LINE
  5
37D
  8
0
  6
CONTINUOUS
 62
     7
 10
87.93910707423184
 20
186.9664099369301
 30
0.0
 11
87.97442236528596
 21
186.9464572577751
 31
0.0
  0
LINE
  5
37E
  8
0
  6
CONTINUOUS
 62
     7
 10
87.97442236528596
 20
186.9464572577751
 30
0.0
 11
88.00890211671074
 21
186.9250931260697
 31
0.0
  0
LINE
  5
37F
  8
0
  6
CONTINUOUS
 62
     7
 10
88.00890211671074
 20
186.9250931260697
 30
0.0
 11
88.04246046782235
 21
186.9023684064011
 31
0.0
  0
LINE
  5
380
  8
0
  6
CONTINUOUS
 62
     7
 10
86.46509252883695
 20
186.0859578844477
 30
0.0
 11
86.46509252883695
 21
184.3015247334995
 31
0.0
  0
ARC
  5
381
  8
0
  6
CONTINUOUS
 62
   253
 10
106.5
 20
212.9999999999999
 30
0.0
 40
35.00000000000001
 50
230.0693606980509
 51
235.0804330857113
  0
ARC
  5
382
  8
0
  6
CONTINUOUS
 62
     7
 10
106.5
 20
194.7499999999999
 30
0.0
 40
4.749999999999992
 50
183.0169613098163
 51
266.9830386901841
  0
LINE
  5
383
  8
0
  6
CONTINUOUS
 62
     7
 10
101.7565835097474
 20
194.4999999999999
 30
0.0
 11
84.03490747116304
 21
194.4999999999999
 31
0.0
  0
LINE
  5
384
  8
0
  6
CONTINUOUS
 62
     7
 10
106.25
 20
190.0065835097474
 30
0.0
 11
106.25
 21
181.0358851150683
 31
0.0
  0
ARC
  5
385
  8
0
  6
CONTINUOUS
 62
     7
 10
83.5
 20
212.9999999999999
 30
0.0
 40
1.000000000000005
 50
302.3376365536601
 51
345.5224878140701
  0
LINE
  5
386
  8
0
  6
CONTINUOUS
 62
     7
 10
84.46824583655184
 20
212.7499999999999
 30
0.0
 11
101.7565835097474
 21
212.7499999999999
 31
0.0
  0
ARC
  5
387
  8
0
  6
CONTINUOUS
 62
     7
 10
106.5
 20
212.9999999999999
 30
0.0
 40
4.749999999999992
 50
183.016961309816
 51
266.9830386901841
  0
LINE
  5
388
  8
0
  6
CONTINUOUS
 62
     7
 10
106.25
 20
208.2565835097474
 30
0.0
 11
106.25
 21
199.4934164902525
 31
0.0
  0
ARC
  5
389
  8
0
  6
CONTINUOUS
 62
     7
 10
106.5
 20
194.7499999999999
 30
0.0
 40
4.750000000000006
 50
93.01696130981594
 51
176.9830386901843
  0
LINE
  5
38A
  8
0
  6
CONTINUOUS
 62
     7
 10
84.03490747116304
 20
194.9999999999999
 30
0.0
 11
101.7565835097474
 21
194.9999999999999
 31
0.0
  0
LINE
  5
38B
  8
0
  6
CONTINUOUS
 62
     7
 10
106.25
 20
226.5065835097474
 30
0.0
 11
106.25
 21
217.7434164902525
 31
0.0
  0
ARC
  5
38C
  8
0
  6
CONTINUOUS
 62
     7
 10
106.5
 20
212.9999999999999
 30
0.0
 40
4.750000000000006
 50
93.016961309816
 51
176.983038690184
  0
LINE
  5
38D
  8
0
  6
CONTINUOUS
 62
     7
 10
101.7565835097474
 20
213.2499999999999
 30
0.0
 11
84.46824583655184
 21
213.2499999999999
 31
0.0
  0
ARC
  5
38E
  8
0
  6
CONTINUOUS
 62
     7
 10
83.5
 20
212.9999999999999
 30
0.0
 40
0.9999999999999941
 50
14.47751218592992
 51
57.66236344633993
  0
ARC
  5
38F
  8
0
  6
CONTINUOUS
 62
     7
 10
106.5
 20
231.2499999999999
 30
0.0
 40
4.749999999999992
 50
183.016961309816
 51
266.9830386901841
  0
LINE
  5
390
  8
0
  6
CONTINUOUS
 62
     7
 10
101.7565835097474
 20
230.9999999999999
 30
0.0
 11
84.03490747116304
 21
230.9999999999999
 31
0.0
  0
CIRCLE
  5
391
  8
0
  6
CONTINUOUS
 62
     7
 10
60.5
 20
194.7499999999999
 30
0.0
 40
1.750000000000002
  0
ARC
  5
392
  8
0
  6
CONTINUOUS
 62
     7
 10
60.5
 20
194.7499999999999
 30
0.0
 40
4.300000000000008
 50
86.66697050605755
 51
93.33302949394232
  0
LINE
  5
393
  8
0
  6
CONTINUOUS
 62
     7
 10
60.75
 20
199.0427264063762
 30
0.0
 11
60.75
 21
199.4934164902525
 31
0.0
  0
ARC
  5
394
  8
0
  6
CONTINUOUS
 62
     7
 10
60.5
 20
194.7499999999999
 30
0.0
 40
4.75000000000002
 50
3.016961309815827
 51
86.983038690184
  0
LINE
  5
395
  8
0
  6
CONTINUOUS
 62
     7
 10
65.24341649025257
 20
194.9999999999999
 30
0.0
 11
64.79272640637626
 21
194.9999999999999
 31
0.0
  0
ARC
  5
396
  8
0
  6
CONTINUOUS
 62
     7
 10
60.5
 20
194.7499999999999
 30
0.0
 40
4.300000000000008
 50
356.6669705060576
 51
3.333029493942319
  0
ARC
  5
397
  8
0
  6
CONTINUOUS
 62
     7
 10
60.5
 20
194.7499999999999
 30
0.0
 40
4.750000000000006
 50
93.01696130981594
 51
356.9830386901838
  0
LINE
  5
398
  8
0
  6
CONTINUOUS
 62
     7
 10
60.25
 20
199.4934164902525
 30
0.0
 11
60.25
 21
199.0427264063762
 31
0.0
  0
LINE
  5
399
  8
0
  6
CONTINUOUS
 62
     7
 10
64.79272640637626
 20
194.4999999999999
 30
0.0
 11
65.24341649025257
 21
194.4999999999999
 31
0.0
  0
LINE
  5
39A
  8
0
  6
CONTINUOUS
 62
   253
 10
64.99134928463099
 20
183.4912350538234
 30
0.0
 11
45.99999999999999
 21
183.4912350538234
 31
0.0
  0
LINE
  5
39B
  8
0
  6
CONTINUOUS
 62
   253
 10
67.9912350538235
 20
180.4913492846309
 30
0.0
 11
67.93359427134071
 21
181.0766101361372
 31
0.0
  0
LINE
  5
39C
  8
0
  6
CONTINUOUS
 62
   253
 10
67.93359427134071
 20
181.0766101361372
 30
0.0
 11
67.76288681275639
 21
181.6393731360625
 31
0.0
  0
LINE
  5
39D
  8
0
  6
CONTINUOUS
 62
   253
 10
67.76288681275639
 20
181.6393731360625
 30
0.0
 11
67.48567223595217
 21
182.158013708057
 31
0.0
  0
LINE
  5
39E
  8
0
  6
CONTINUOUS
 62
   253
 10
67.48567223595217
 20
182.158013708057
 30
0.0
 11
67.11260271205896
 21
182.6126027120589
 31
0.0
  0
LINE
  5
39F
  8
0
  6
CONTINUOUS
 62
   253
 10
67.11260271205896
 20
182.6126027120589
 30
0.0
 11
66.65801370805713
 21
182.9856722359521
 31
0.0
  0
LINE
  5
3A0
  8
0
  6
CONTINUOUS
 62
   253
 10
66.65801370805713
 20
182.9856722359521
 30
0.0
 11
66.1393731360626
 21
183.2628868127563
 31
0.0
  0
LINE
  5
3A1
  8
0
  6
CONTINUOUS
 62
   253
 10
66.1393731360626
 20
183.2628868127563
 30
0.0
 11
65.5766101361373
 21
183.4335942713406
 31
0.0
  0
LINE
  5
3A2
  8
0
  6
CONTINUOUS
 62
   253
 10
65.5766101361373
 20
183.4335942713406
 30
0.0
 11
64.99134928463099
 21
183.4912350538234
 31
0.0
  0
LINE
  5
3A3
  8
0
  6
CONTINUOUS
 62
   253
 10
67.9912350538235
 20
176.508650715369
 30
0.0
 11
67.9912350538235
 21
180.4913492846309
 31
0.0
  0
LINE
  5
3A4
  8
0
  6
CONTINUOUS
 62
   253
 10
64.99134928463099
 20
173.5087649461764
 30
0.0
 11
65.57661013613729
 21
173.5664057286592
 31
0.0
  0
LINE
  5
3A5
  8
0
  6
CONTINUOUS
 62
   253
 10
65.57661013613729
 20
173.5664057286592
 30
0.0
 11
66.13937313606259
 21
173.7371131872436
 31
0.0
  0
LINE
  5
3A6
  8
0
  6
CONTINUOUS
 62
   253
 10
66.13937313606259
 20
173.7371131872436
 30
0.0
 11
66.65801370805711
 21
174.0143277640478
 31
0.0
  0
LINE
  5
3A7
  8
0
  6
CONTINUOUS
 62
   253
 10
66.65801370805711
 20
174.0143277640478
 30
0.0
 11
67.11260271205894
 21
174.387397287941
 31
0.0
  0
LINE
  5
3A8
  8
0
  6
CONTINUOUS
 62
   253
 10
67.11260271205894
 20
174.387397287941
 30
0.0
 11
67.48567223595214
 21
174.8419862919428
 31
0.0
  0
LINE
  5
3A9
  8
0
  6
CONTINUOUS
 62
   253
 10
67.48567223595214
 20
174.8419862919428
 30
0.0
 11
67.76288681275636
 21
175.3606268639373
 31
0.0
  0
LINE
  5
3AA
  8
0
  6
CONTINUOUS
 62
   253
 10
67.76288681275636
 20
175.3606268639373
 30
0.0
 11
67.93359427134068
 21
175.9233898638626
 31
0.0
  0
LINE
  5
3AB
  8
0
  6
CONTINUOUS
 62
   253
 10
67.93359427134068
 20
175.9233898638626
 30
0.0
 11
67.99123505382349
 21
176.508650715369
 31
0.0
  0
LINE
  5
3AC
  8
0
  6
CONTINUOUS
 62
   253
 10
45.99999999999999
 20
173.5087649461765
 30
0.0
 11
64.99134928463099
 21
173.5087649461764
 31
0.0
  0
LINE
  5
3AD
  8
0
  6
CONTINUOUS
 62
   253
 10
45.99999999999999
 20
168.4999999999999
 30
0.0
 11
45.99999999999999
 21
173.5087649461765
 31
0.0
  0
LINE
  5
3AE
  8
0
  6
CONTINUOUS
 62
     7
 10
65.0
 20
168.4999999999999
 30
0.0
 11
45.99999999999999
 21
168.4999999999999
 31
0.0
  0
ARC
  5
3AF
  8
0
  6
CONTINUOUS
 62
     7
 10
65.0
 20
176.4999999999999
 30
0.0
 40
8.000000000000007
 50
270.0
 51
0.0
  0
LINE
  5
3B0
  8
0
  6
CONTINUOUS
 62
     7
 10
73.00000000000001
 20
180.4999999999999
 30
0.0
 11
73.0
 21
176.4999999999999
 31
0.0
  0
ARC
  5
3B1
  8
0
  6
CONTINUOUS
 62
     7
 10
65.0
 20
180.4999999999999
 30
0.0
 40
8.000000000000007
 50
0.0
 51
90.0
  0
LINE
  5
3B2
  8
0
  6
CONTINUOUS
 62
     7
 10
45.99999999999999
 20
188.4999999999999
 30
0.0
 11
65.0
 21
188.4999999999999
 31
0.0
  0
LINE
  5
3B3
  8
0
  6
CONTINUOUS
 62
   253
 10
45.99999999999999
 20
183.4912350538234
 30
0.0
 11
45.99999999999999
 21
188.4999999999999
 31
0.0
  0
LINE
  5
3B4
  8
0
  6
CONTINUOUS
 62
     7
 10
35.49999999999999
 20
212.7499999999999
 30
0.0
 11
55.75658350974742
 21
212.7499999999999
 31
0.0
  0
ARC
  5
3B5
  8
0
  6
CONTINUOUS
 62
     7
 10
60.5
 20
212.9999999999999
 30
0.0
 40
4.749999999999992
 50
183.016961309816
 51
266.9830386901841
  0
LINE
  5
3B6
  8
0
  6
CONTINUOUS
 62
     7
 10
60.25
 20
199.4934164902525
 30
0.0
 11
60.25
 21
208.2565835097474
 31
0.0
  0
ARC
  5
3B7
  8
0
  6
CONTINUOUS
 62
     7
 10
106.5
 20
212.9999999999999
 30
0.0
 40
38.00000000000001
 50
209.1332327839962
 51
220.0968653496276
  0
ARC
  5
3B8
  8
0
  6
CONTINUOUS
 62
     7
 10
74.57354640272969
 20
186.6821370577392
 30
0.0
 40
3.400660240573917
 50
355.8042433508153
 51
32.81182142563381
  0
LINE
  5
3B9
  8
0
  6
CONTINUOUS
 62
     7
 10
77.96509252883696
 20
186.4333300114021
 30
0.0
 11
77.96509252883696
 21
176.4643335635142
 31
0.0
  0
LINE
  5
3BA
  8
0
  6
CONTINUOUS
 62
     7
 10
77.96509252883695
 20
176.4643335635142
 30
0.0
 11
77.9842223891732
 21
176.2691489180002
 31
0.0
  0
LINE
  5
3BB
  8
0
  6
CONTINUOUS
 62
     7
 10
77.9842223891732
 20
176.2691489180002
 30
0.0
 11
78.04088107011673
 21
176.0815966919017
 31
0.0
  0
LINE
  5
3BC
  8
0
  6
CONTINUOUS
 62
     7
 10
78.04088107011673
 20
176.0815966919017
 30
0.0
 11
78.13290379718056
 21
175.9088427469588
 31
0.0
  0
LINE
  5
3BD
  8
0
  6
CONTINUOUS
 62
     7
 10
78.13290379718056
 20
175.9088427469588
 30
0.0
 11
78.25677463161621
 21
175.7574875427359
 31
0.0
  0
LINE
  5
3BE
  8
0
  6
CONTINUOUS
 62
     7
 10
78.25677463161621
 20
175.7574875427359
 30
0.0
 11
78.40776080489464
 21
175.6333139509681
 31
0.0
  0
LINE
  5
3BF
  8
0
  6
CONTINUOUS
 62
     7
 10
78.40776080489464
 20
175.6333139509681
 30
0.0
 11
78.58009354495208
 21
175.5410663077206
 31
0.0
  0
LINE
  5
3C0
  8
0
  6
CONTINUOUS
 62
     7
 10
78.58009354495208
 20
175.5410663077206
 30
0.0
 11
78.76718848532016
 21
175.4842691451792
 31
0.0
  0
LINE
  5
3C1
  8
0
  6
CONTINUOUS
 62
     7
 10
78.76718848532016
 20
175.4842691451792
 30
0.0
 11
78.96189723590571
 21
175.4650925288369
 31
0.0
  0
LINE
  5
3C2
  8
0
  6
CONTINUOUS
 62
     7
 10
78.96189723590571
 20
175.4650925288369
 30
0.0
 11
81.0
 21
175.4650925288369
 31
0.0
  0
LINE
  5
3C3
  8
0
  6
CONTINUOUS
 62
     7
 10
73.3073803383945
 20
194.4999999999999
 30
0.0
 11
65.24341649025257
 21
194.4999999999999
 31
0.0
  0
ARC
  5
3C4
  8
0
  6
CONTINUOUS
 62
     7
 10
152.5
 20
212.9999999999999
 30
0.0
 40
4.749999999999992
 50
3.016961309815997
 51
86.98303869018412
  0
LINE
  5
3C5
  8
0
  6
CONTINUOUS
 62
     7
 10
152.75
 20
226.5065835097474
 30
0.0
 11
152.75
 21
217.7434164902525
 31
0.0
  0
ARC
  5
3C6
  8
0
  6
CONTINUOUS
 62
     7
 10
152.5
 20
231.2499999999999
 30
0.0
 40
4.75000000000002
 50
273.0169613098159
 51
176.983038690184
  0
LINE
  5
3C7
  8
0
  6
CONTINUOUS
 62
     7
 10
139.6926196616055
 20
231.4999999999999
 30
0.0
 11
147.7565835097474
 21
231.4999999999999
 31
0.0
  0
ARC
  5
3C8
  8
0
  6
CONTINUOUS
 62
     7
 10
106.5
 20
212.9999999999999
 30
0.0
 40
38.00000000000001
 50
29.13323278399622
 51
40.09686534962758
  0
ARC
  5
3C9
  8
0
  6
CONTINUOUS
 62
     7
 10
138.4264535972703
 20
239.3178629422607
 30
0.0
 40
3.400660240573901
 50
175.8042433508158
 51
212.8118214256339
  0
LINE
  5
3CA
  8
0
  6
CONTINUOUS
 62
     7
 10
135.034907471163
 20
239.5666699885978
 30
0.0
 11
135.034907471163
 21
249.5356664364857
 31
0.0
  0
LINE
  5
3CB
  8
0
  6
CONTINUOUS
 62
     7
 10
135.0349074711631
 20
249.5356664364857
 30
0.0
 11
135.0157776108268
 21
249.7308510819996
 31
0.0
  0
LINE
  5
3CC
  8
0
  6
CONTINUOUS
 62
     7
 10
135.0157776108268
 20
249.7308510819996
 30
0.0
 11
134.9591189298833
 21
249.9184033080982
 31
0.0
  0
LINE
  5
3CD
  8
0
  6
CONTINUOUS
 62
     7
 10
134.9591189298833
 20
249.9184033080982
 30
0.0
 11
134.8670962028195
 21
250.0911572530411
 31
0.0
  0
LINE
  5
3CE
  8
0
  6
CONTINUOUS
 62
     7
 10
134.8670962028195
 20
250.0911572530411
 30
0.0
 11
134.7432253683838
 21
250.242512457264
 31
0.0
  0
LINE
  5
3CF
  8
0
  6
CONTINUOUS
 62
     7
 10
134.7432253683838
 20
250.242512457264
 30
0.0
 11
134.5922391951053
 21
250.3666860490318
 31
0.0
  0
LINE
  5
3D0
  8
0
  6
CONTINUOUS
 62
     7
 10
134.5922391951053
 20
250.3666860490318
 30
0.0
 11
134.4199064550479
 21
250.4589336922793
 31
0.0
  0
LINE
  5
3D1
  8
0
  6
CONTINUOUS
 62
     7
 10
134.4199064550479
 20
250.4589336922793
 30
0.0
 11
134.2328115146799
 21
250.5157308548207
 31
0.0
  0
LINE
  5
3D2
  8
0
  6
CONTINUOUS
 62
     7
 10
134.2328115146799
 20
250.5157308548207
 30
0.0
 11
134.0381027640943
 21
250.534907471163
 31
0.0
  0
LINE
  5
3D3
  8
0
  6
CONTINUOUS
 62
     7
 10
134.0381027640943
 20
250.534907471163
 30
0.0
 11
132.0
 21
250.534907471163
 31
0.0
  0
LINE
  5
3D4
  8
0
  6
CONTINUOUS
 62
     7
 10
177.5
 20
213.2499999999999
 30
0.0
 11
157.2434164902526
 21
213.2499999999999
 31
0.0
  0
CIRCLE
  5
3D5
  8
0
  6
CONTINUOUS
 62
     7
 10
152.5
 20
231.2499999999999
 30
0.0
 40
1.749999999999974
  0
ARC
  5
3D6
  8
0
  6
CONTINUOUS
 62
     7
 10
152.5
 20
231.2499999999999
 30
0.0
 40
4.300000000000005
 50
266.6669705060574
 51
273.3330294939422
  0
LINE
  5
3D7
  8
0
  6
CONTINUOUS
 62
     7
 10
152.25
 20
226.9572735936237
 30
0.0
 11
152.25
 21
226.5065835097474
 31
0.0
  0
ARC
  5
3D8
  8
0
  6
CONTINUOUS
 62
     7
 10
152.5
 20
231.2499999999999
 30
0.0
 40
4.750000000000021
 50
183.0169613098159
 51
266.9830386901838
  0
LINE
  5
3D9
  8
0
  6
CONTINUOUS
 62
     7
 10
147.7565835097474
 20
230.9999999999999
 30
0.0
 11
148.2072735936238
 21
230.9999999999999
 31
0.0
  0
ARC
  5
3DA
  8
0
  6
CONTINUOUS
 62
     7
 10
152.5
 20
231.2499999999999
 30
0.0
 40
4.300000000000008
 50
176.6669705060577
 51
183.3330294939423
  0
LINE
  5
3DB
  8
0
  6
CONTINUOUS
 62
     7
 10
148.2072735936238
 20
231.4999999999999
 30
0.0
 11
147.7565835097474
 21
231.4999999999999
 31
0.0
  0
LINE
  5
3DC
  8
0
  6
CONTINUOUS
 62
     7
 10
152.75
 20
226.5065835097474
 30
0.0
 11
152.75
 21
226.9572735936237
 31
0.0
  0
ARC
  5
3DD
  8
0
  6
CONTINUOUS
 62
     7
 10
60.5
 20
212.9999999999999
 30
0.0
 40
4.300000000000008
 50
86.6669705060575
 51
93.33302949394232
  0
LINE
  5
3DE
  8
0
  6
CONTINUOUS
 62
     7
 10
60.75
 20
217.2927264063762
 30
0.0
 11
60.75
 21
217.7434164902525
 31
0.0
  0
ARC
  5
3DF
  8
0
  6
CONTINUOUS
 62
     7
 10
60.5
 20
212.9999999999999
 30
0.0
 40
4.749999999999992
 50
3.016961309815997
 51
86.983038690184
  0
ARC
  5
3E0
  8
0
  6
CONTINUOUS
 62
     7
 10
60.5
 20
212.9999999999999
 30
0.0
 40
4.299999999999998
 50
0.0
 51
3.33302949394252
  0
LINE
  5
3E1
  8
0
  6
CONTINUOUS
 62
   253
 10
64.8
 20
212.9999999999999
 30
0.0
 11
62.25
 21
212.9999999999999
 31
0.0
  0
ARC
  5
3E2
  8
0
  6
CONTINUOUS
 62
     7
 10
60.5
 20
212.9999999999999
 30
0.0
 40
1.750000000000002
 50
0.0
 51
180.0
  0
LINE
  5
3E3
  8
0
  6
CONTINUOUS
 62
   253
 10
58.74999999999999
 20
212.9999999999999
 30
0.0
 11
56.19999999999999
 21
212.9999999999999
 31
0.0
  0
ARC
  5
3E4
  8
0
  6
CONTINUOUS
 62
     7
 10
60.5
 20
212.9999999999999
 30
0.0
 40
4.300000000000008
 50
176.6669705060577
 51
180.0
  0
LINE
  5
3E5
  8
0
  6
CONTINUOUS
 62
     7
 10
55.75658350974742
 20
213.2499999999999
 30
0.0
 11
56.20727359362373
 21
213.2499999999999
 31
0.0
  0
ARC
  5
3E6
  8
0
  6
CONTINUOUS
 62
     7
 10
60.5
 20
212.9999999999999
 30
0.0
 40
4.750000000000006
 50
93.016961309816
 51
176.983038690184
  0
LINE
  5
3E7
  8
0
  6
CONTINUOUS
 62
     7
 10
60.25
 20
217.7434164902525
 30
0.0
 11
60.25
 21
217.2927264063762
 31
0.0
  0
LINE
  5
3E8
  8
0
  6
CONTINUOUS
 62
     7
 10
64.79272640637623
 20
213.2499999999999
 30
0.0
 11
65.24341649025257
 21
213.2499999999999
 31
0.0
  0
LINE
  5
3E9
  8
0
  6
CONTINUOUS
 62
     7
 10
73.03359893863697
 20
230.9999999999999
 30
0.0
 11
65.24341649025257
 21
230.9999999999999
 31
0.0
  0
ARC
  5
3EA
  8
0
  6
CONTINUOUS
 62
     7
 10
106.5
 20
212.9999999999999
 30
0.0
 40
38.00000000000001
 50
151.7262863686349
 51
179.6230513629012
  0
LINE
  5
3EB
  8
0
  6
CONTINUOUS
 62
     7
 10
60.75
 20
226.5065835097474
 30
0.0
 11
60.75
 21
217.7434164902525
 31
0.0
  0
ARC
  5
3EC
  8
0
  6
CONTINUOUS
 62
     7
 10
60.5
 20
231.2499999999999
 30
0.0
 40
4.750000000000006
 50
273.0169613098161
 51
356.9830386901841
  0
LINE
  5
3ED
  8
0
  6
CONTINUOUS
 62
     7
 10
68.50082237731979
 20
213.2499999999999
 30
0.0
 11
65.24341649025257
 21
213.2499999999999
 31
0.0
  0
LINE
  5
3EE
  8
0
  6
CONTINUOUS
 62
     7
 10
81.0
 20
250.534907471163
 30
0.0
 11
78.96189723590571
 21
250.534907471163
 31
0.0
  0
LINE
  5
3EF
  8
0
  6
CONTINUOUS
 62
     7
 10
78.96189723590572
 20
250.534907471163
 30
0.0
 11
78.76718848532018
 21
250.5157308548207
 31
0.0
  0
LINE
  5
3F0
  8
0
  6
CONTINUOUS
 62
     7
 10
78.76718848532018
 20
250.5157308548207
 30
0.0
 11
78.58009354495208
 21
250.4589336922793
 31
0.0
  0
LINE
  5
3F1
  8
0
  6
CONTINUOUS
 62
     7
 10
78.58009354495208
 20
250.4589336922793
 30
0.0
 11
78.40776080489465
 21
250.3666860490318
 31
0.0
  0
LINE
  5
3F2
  8
0
  6
CONTINUOUS
 62
     7
 10
78.40776080489465
 20
250.3666860490318
 30
0.0
 11
78.25677463161621
 21
250.242512457264
 31
0.0
  0
LINE
  5
3F3
  8
0
  6
CONTINUOUS
 62
     7
 10
78.25677463161621
 20
250.242512457264
 30
0.0
 11
78.13290379718056
 21
250.091157253041
 31
0.0
  0
LINE
  5
3F4
  8
0
  6
CONTINUOUS
 62
     7
 10
78.13290379718056
 20
250.091157253041
 30
0.0
 11
78.04088107011673
 21
249.9184033080982
 31
0.0
  0
LINE
  5
3F5
  8
0
  6
CONTINUOUS
 62
     7
 10
78.04088107011673
 20
249.9184033080982
 30
0.0
 11
77.9842223891732
 21
249.7308510819996
 31
0.0
  0
LINE
  5
3F6
  8
0
  6
CONTINUOUS
 62
     7
 10
77.9842223891732
 20
249.7308510819996
 30
0.0
 11
77.96509252883696
 21
249.5356664364857
 31
0.0
  0
LINE
  5
3F7
  8
0
  6
CONTINUOUS
 62
     7
 10
77.96509252883696
 20
249.5356664364856
 30
0.0
 11
77.96509252883696
 21
239.5666699885971
 31
0.0
  0
ARC
  5
3F8
  8
0
  6
CONTINUOUS
 62
     7
 10
74.46612734349164
 20
239.3452597553834
 30
0.0
 40
3.505963470949238
 50
327.7631560712742
 51
3.620779152267744
  0
ARC
  5
3F9
  8
0
  6
CONTINUOUS
 62
     7
 10
106.5
 20
212.9999999999999
 30
0.0
 40
38.00000000000001
 50
139.9031346503725
 51
150.8667672160039
  0
LINE
  5
3FA
  8
0
  6
CONTINUOUS
 62
     7
 10
65.24341649025257
 20
231.4999999999999
 30
0.0
 11
73.3073803383945
 21
231.4999999999999
 31
0.0
  0
ARC
  5
3FB
  8
0
  6
CONTINUOUS
 62
     7
 10
60.5
 20
231.2499999999999
 30
0.0
 40
4.75000000000002
 50
3.016961309816169
 51
266.9830386901841
  0
LINE
  5
3FC
  8
0
  6
CONTINUOUS
 62
     7
 10
60.25
 20
217.7434164902525
 30
0.0
 11
60.25
 21
226.5065835097474
 31
0.0
  0
LINE
  5
3FD
  8
0
  6
CONTINUOUS
 62
   253
 10
64.99134928463099
 20
252.4912350538234
 30
0.0
 11
45.99999999999999
 21
252.4912350538234
 31
0.0
  0
LINE
  5
3FE
  8
0
  6
CONTINUOUS
 62
   253
 10
67.99123505382349
 20
249.4913492846309
 30
0.0
 11
67.93359427134068
 21
250.0766101361372
 31
0.0
  0
LINE
  5
3FF
  8
0
  6
CONTINUOUS
 62
   253
 10
67.93359427134068
 20
250.0766101361372
 30
0.0
 11
67.76288681275638
 21
250.6393731360625
 31
0.0
  0
LINE
  5
400
  8
0
  6
CONTINUOUS
 62
   253
 10
67.76288681275638
 20
250.6393731360625
 30
0.0
 11
67.48567223595215
 21
251.158013708057
 31
0.0
  0
LINE
  5
401
  8
0
  6
CONTINUOUS
 62
   253
 10
67.48567223595215
 20
251.158013708057
 30
0.0
 11
67.11260271205894
 21
251.6126027120589
 31
0.0
  0
LINE
  5
402
  8
0
  6
CONTINUOUS
 62
   253
 10
67.11260271205894
 20
251.6126027120589
 30
0.0
 11
66.65801370805713
 21
251.9856722359521
 31
0.0
  0
LINE
  5
403
  8
0
  6
CONTINUOUS
 62
   253
 10
66.65801370805713
 20
251.9856722359521
 30
0.0
 11
66.1393731360626
 21
252.2628868127563
 31
0.0
  0
LINE
  5
404
  8
0
  6
CONTINUOUS
 62
   253
 10
66.1393731360626
 20
252.2628868127563
 30
0.0
 11
65.57661013613732
 21
252.4335942713406
 31
0.0
  0
LINE
  5
405
  8
0
  6
CONTINUOUS
 62
   253
 10
65.57661013613732
 20
252.4335942713406
 30
0.0
 11
64.99134928463099
 21
252.4912350538234
 31
0.0
  0
LINE
  5
406
  8
0
  6
CONTINUOUS
 62
   253
 10
67.99123505382352
 20
245.508650715369
 30
0.0
 11
67.99123505382349
 21
249.4913492846309
 31
0.0
  0
LINE
  5
407
  8
0
  6
CONTINUOUS
 62
   253
 10
64.99134928463097
 20
242.5087649461764
 30
0.0
 11
65.5766101361373
 21
242.5664057286592
 31
0.0
  0
LINE
  5
408
  8
0
  6
CONTINUOUS
 62
   253
 10
65.5766101361373
 20
242.5664057286592
 30
0.0
 11
66.1393731360626
 21
242.7371131872436
 31
0.0
  0
LINE
  5
409
  8
0
  6
CONTINUOUS
 62
   253
 10
66.1393731360626
 20
242.7371131872436
 30
0.0
 11
66.65801370805713
 21
243.0143277640478
 31
0.0
  0
LINE
  5
40A
  8
0
  6
CONTINUOUS
 62
   253
 10
66.65801370805713
 20
243.0143277640478
 30
0.0
 11
67.11260271205896
 21
243.387397287941
 31
0.0
  0
LINE
  5
40B
  8
0
  6
CONTINUOUS
 62
   253
 10
67.11260271205896
 20
243.387397287941
 30
0.0
 11
67.48567223595217
 21
243.8419862919428
 31
0.0
  0
LINE
  5
40C
  8
0
  6
CONTINUOUS
 62
   253
 10
67.48567223595217
 20
243.8419862919428
 30
0.0
 11
67.76288681275639
 21
244.3606268639373
 31
0.0
  0
LINE
  5
40D
  8
0
  6
CONTINUOUS
 62
   253
 10
67.76288681275639
 20
244.3606268639373
 30
0.0
 11
67.93359427134071
 21
244.9233898638626
 31
0.0
  0
LINE
  5
40E
  8
0
  6
CONTINUOUS
 62
   253
 10
67.93359427134071
 20
244.9233898638626
 30
0.0
 11
67.9912350538235
 21
245.508650715369
 31
0.0
  0
LINE
  5
40F
  8
0
  6
CONTINUOUS
 62
   253
 10
45.99999999999999
 20
242.5087649461764
 30
0.0
 11
64.99134928463099
 21
242.5087649461764
 31
0.0
  0
LINE
  5
410
  8
0
  6
CONTINUOUS
 62
   253
 10
45.99999999999999
 20
237.4999999999999
 30
0.0
 11
45.99999999999999
 21
242.5087649461764
 31
0.0
  0
LINE
  5
411
  8
0
  6
CONTINUOUS
 62
     7
 10
65.0
 20
237.4999999999999
 30
0.0
 11
45.99999999999999
 21
237.4999999999999
 31
0.0
  0
ARC
  5
412
  8
0
  6
CONTINUOUS
 62
     7
 10
65.0
 20
245.4999999999999
 30
0.0
 40
8.000000000000007
 50
270.0
 51
0.0
  0
LINE
  5
413
  8
0
  6
CONTINUOUS
 62
     7
 10
73.00000000000001
 20
249.4999999999999
 30
0.0
 11
72.99999999999999
 21
245.4999999999999
 31
0.0
  0
ARC
  5
414
  8
0
  6
CONTINUOUS
 62
     7
 10
65.0
 20
249.4999999999999
 30
0.0
 40
8.000000000000007
 50
0.0
 51
90.0
  0
LINE
  5
415
  8
0
  6
CONTINUOUS
 62
     7
 10
45.99999999999999
 20
257.4999999999999
 30
0.0
 11
65.0
 21
257.4999999999999
 31
0.0
  0
LINE
  5
416
  8
0
  6
CONTINUOUS
 62
   253
 10
45.99999999999999
 20
252.4912350538234
 30
0.0
 11
45.99999999999999
 21
257.4999999999999
 31
0.0
  0
LINE
  5
417
  8
0
  6
CONTINUOUS
 62
     7
 10
55.75658350974742
 20
213.2499999999999
 30
0.0
 11
35.49999999999999
 21
213.2499999999999
 31
0.0
  0
LINE
  5
418
  8
0
  6
CONTINUOUS
 62
     7
 10
65.24341649025257
 20
212.7499999999999
 30
0.0
 11
68.50082237731979
 21
212.7499999999999
 31
0.0
  0
ARC
  5
419
  8
0
  6
CONTINUOUS
 62
     7
 10
106.5
 20
212.9999999999999
 30
0.0
 40
38.0
 50
180.3769486370988
 51
208.273713631365
  0
LINE
  5
41A
  8
0
  6
CONTINUOUS
 62
     7
 10
65.24341649025257
 20
194.9999999999999
 30
0.0
 11
73.03359893863697
 21
194.9999999999999
 31
0.0
  0
LINE
  5
41B
  8
0
  6
CONTINUOUS
 62
     7
 10
60.75
 20
208.2565835097474
 30
0.0
 11
60.75
 21
199.4934164902525
 31
0.0
  0
ARC
  5
41C
  8
0
  6
CONTINUOUS
 62
     7
 10
60.5
 20
212.9999999999999
 30
0.0
 40
4.750000000000006
 50
273.0169613098159
 51
356.9830386901841
  0
ARC
  5
41D
  8
0
  6
CONTINUOUS
 62
     7
 10
152.5
 20
212.9999999999999
 30
0.0
 40
4.299999999999998
 50
0.0
 51
3.33302949394252
  0
LINE
  5
41E
  8
0
  6
CONTINUOUS
 62
   253
 10
156.8
 20
212.9999999999999
 30
0.0
 11
154.25
 21
212.9999999999999
 31
0.0
  0
ARC
  5
41F
  8
0
  6
CONTINUOUS
 62
     7
 10
152.5
 20
212.9999999999999
 30
0.0
 40
1.750000000000002
 50
0.0
 51
180.0
  0
LINE
  5
420
  8
0
  6
CONTINUOUS
 62
   253
 10
150.75
 20
212.9999999999999
 30
0.0
 11
148.2
 21
212.9999999999999
 31
0.0
  0
ARC
  5
421
  8
0
  6
CONTINUOUS
 62
     7
 10
152.5
 20
212.9999999999999
 30
0.0
 40
4.300000000000008
 50
176.6669705060578
 51
180.0
  0
LINE
  5
422
  8
0
  6
CONTINUOUS
 62
     7
 10
147.7565835097474
 20
213.2499999999999
 30
0.0
 11
148.2072735936237
 21
213.2499999999999
 31
0.0
  0
ARC
  5
423
  8
0
  6
CONTINUOUS
 62
     7
 10
152.5
 20
212.9999999999999
 30
0.0
 40
4.749999999999992
 50
93.01696130981611
 51
176.983038690184
  0
LINE
  5
424
  8
0
  6
CONTINUOUS
 62
     7
 10
152.25
 20
217.7434164902525
 30
0.0
 11
152.25
 21
217.2927264063762
 31
0.0
  0
ARC
  5
425
  8
0
  6
CONTINUOUS
 62
     7
 10
152.5
 20
212.9999999999999
 30
0.0
 40
4.300000000000008
 50
86.6669705060578
 51
93.33302949394242
  0
LINE
  5
426
  8
0
  6
CONTINUOUS
 62
     7
 10
152.75
 20
217.2927264063762
 30
0.0
 11
152.75
 21
217.7434164902525
 31
0.0
  0
LINE
  5
427
  8
0
  6
CONTINUOUS
 62
     7
 10
156.7927264063762
 20
213.2499999999999
 30
0.0
 11
157.2434164902526
 21
213.2499999999999
 31
0.0
  0
LINE
  5
428
  8
0
  6
CONTINUOUS
 62
     7
 10
56.20727359362373
 20
212.7499999999999
 30
0.0
 11
55.75658350974742
 21
212.7499999999999
 31
0.0
  0
ARC
  5
429
  8
0
  6
CONTINUOUS
 62
     7
 10
60.5
 20
212.9999999999999
 30
0.0
 40
4.300000000000005
 50
180.0
 51
183.3330294939423
  0
ARC
  5
42A
  8
0
  6
CONTINUOUS
 62
     7
 10
60.5
 20
212.9999999999999
 30
0.0
 40
1.750000000000002
 50
180.0
 51
0.0
  0
ARC
  5
42B
  8
0
  6
CONTINUOUS
 62
     7
 10
60.5
 20
212.9999999999999
 30
0.0
 40
4.300000000000008
 50
356.6669705060578
 51
0.0
  0
LINE
  5
42C
  8
0
  6
CONTINUOUS
 62
     7
 10
65.24341649025257
 20
212.7499999999999
 30
0.0
 11
64.79272640637625
 21
212.7499999999999
 31
0.0
  0
LINE
  5
42D
  8
0
  6
CONTINUOUS
 62
     7
 10
60.75
 20
208.2565835097474
 30
0.0
 11
60.75
 21
208.7072735936237
 31
0.0
  0
ARC
  5
42E
  8
0
  6
CONTINUOUS
 62
     7
 10
60.5
 20
212.9999999999999
 30
0.0
 40
4.300000000000008
 50
266.6669705060576
 51
273.3330294939424
  0
LINE
  5
42F
  8
0
  6
CONTINUOUS
 62
     7
 10
60.25
 20
208.7072735936237
 30
0.0
 11
60.25
 21
208.2565835097474
 31
0.0
  0
LINE
  5
430
  8
0
  6
CONTINUOUS
 62
     7
 10
132.0
 20
175.4650925288369
 30
0.0
 11
134.0381027640943
 21
175.4650925288369
 31
0.0
  0
LINE
  5
431
  8
0
  6
CONTINUOUS
 62
     7
 10
134.0381027640943
 20
175.4650925288369
 30
0.0
 11
134.2328115146798
 21
175.4842691451792
 31
0.0
  0
LINE
  5
432
  8
0
  6
CONTINUOUS
 62
     7
 10
134.2328115146798
 20
175.4842691451792
 30
0.0
 11
134.4199064550479
 21
175.5410663077206
 31
0.0
  0
LINE
  5
433
  8
0
  6
CONTINUOUS
 62
     7
 10
134.4199064550479
 20
175.5410663077206
 30
0.0
 11
134.5922391951053
 21
175.6333139509681
 31
0.0
  0
LINE
  5
434
  8
0
  6
CONTINUOUS
 62
     7
 10
134.5922391951053
 20
175.6333139509681
 30
0.0
 11
134.7432253683838
 21
175.7574875427359
 31
0.0
  0
LINE
  5
435
  8
0
  6
CONTINUOUS
 62
     7
 10
134.7432253683838
 20
175.7574875427359
 30
0.0
 11
134.8670962028194
 21
175.9088427469588
 31
0.0
  0
LINE
  5
436
  8
0
  6
CONTINUOUS
 62
     7
 10
134.8670962028194
 20
175.9088427469588
 30
0.0
 11
134.9591189298833
 21
176.0815966919017
 31
0.0
  0
LINE
  5
437
  8
0
  6
CONTINUOUS
 62
     7
 10
134.9591189298833
 20
176.0815966919017
 30
0.0
 11
135.0157776108268
 21
176.2691489180003
 31
0.0
  0
LINE
  5
438
  8
0
  6
CONTINUOUS
 62
     7
 10
135.0157776108268
 20
176.2691489180003
 30
0.0
 11
135.034907471163
 21
176.4643335635142
 31
0.0
  0
LINE
  5
439
  8
0
  6
CONTINUOUS
 62
     7
 10
135.034907471163
 20
176.4643335635142
 30
0.0
 11
135.034907471163
 21
186.4333300114027
 31
0.0
  0
ARC
  5
43A
  8
0
  6
CONTINUOUS
 62
     7
 10
138.5338726565084
 20
186.6547402446165
 30
0.0
 40
3.505963470949249
 50
147.7631560712742
 51
183.6207791522682
  0
ARC
  5
43B
  8
0
  6
CONTINUOUS
 62
     7
 10
106.5
 20
212.9999999999999
 30
0.0
 40
38.00000000000002
 50
319.9031346503724
 51
330.8667672160038
  0
LINE
  5
43C
  8
0
  6
CONTINUOUS
 62
     7
 10
147.7565835097474
 20
194.4999999999999
 30
0.0
 11
139.6926196616055
 21
194.4999999999999
 31
0.0
  0
ARC
  5
43D
  8
0
  6
CONTINUOUS
 62
     7
 10
152.5
 20
194.7499999999999
 30
0.0
 40
4.750000000000018
 50
183.0169613098161
 51
86.98303869018416
  0
LINE
  5
43E
  8
0
  6
CONTINUOUS
 62
     7
 10
152.75
 20
208.2565835097474
 30
0.0
 11
152.75
 21
199.4934164902525
 31
0.0
  0
ARC
  5
43F
  8
0
  6
CONTINUOUS
 62
     7
 10
152.5
 20
212.9999999999999
 30
0.0
 40
4.75000000000002
 50
273.0169613098159
 51
356.9830386901841
  0
LINE
  5
440
  8
0
  6
CONTINUOUS
 62
     7
 10
157.2434164902526
 20
212.7499999999999
 30
0.0
 11
177.5
 21
212.7499999999999
 31
0.0
  0
ARC
  5
441
  8
0
  6
CONTINUOUS
 62
     7
 10
106.5
 20
212.9999999999999
 30
0.0
 40
38.0
 50
0.3769486370988488
 51
28.27371363136507
  0
LINE
  5
442
  8
0
  6
CONTINUOUS
 62
     7
 10
147.7565835097474
 20
230.9999999999999
 30
0.0
 11
139.966401061363
 21
230.9999999999999
 31
0.0
  0
LINE
  5
443
  8
0
  6
CONTINUOUS
 62
     7
 10
152.25
 20
217.7434164902525
 30
0.0
 11
152.25
 21
226.5065835097474
 31
0.0
  0
LINE
  5
444
  8
0
  6
CONTINUOUS
 62
     7
 10
147.7565835097474
 20
213.2499999999999
 30
0.0
 11
144.4991776226802
 21
213.2499999999999
 31
0.0
  0
ARC
  5
445
  8
0
  6
CONTINUOUS
 62
     7
 10
152.5
 20
212.9999999999999
 30
0.0
 40
4.300000000000008
 50
266.6669705060576
 51
273.3330294939423
  0
LINE
  5
446
  8
0
  6
CONTINUOUS
 62
     7
 10
152.25
 20
208.7072735936237
 30
0.0
 11
152.25
 21
208.2565835097474
 31
0.0
  0
ARC
  5
447
  8
0
  6
CONTINUOUS
 62
     7
 10
152.5
 20
212.9999999999999
 30
0.0
 40
4.749999999999992
 50
183.016961309816
 51
266.9830386901839
  0
LINE
  5
448
  8
0
  6
CONTINUOUS
 62
     7
 10
148.2072735936237
 20
212.7499999999999
 30
0.0
 11
147.7565835097474
 21
212.7499999999999
 31
0.0
  0
ARC
  5
449
  8
0
  6
CONTINUOUS
 62
     7
 10
152.5
 20
212.9999999999999
 30
0.0
 40
4.299999999999998
 50
180.0
 51
183.3330294939422
  0
ARC
  5
44A
  8
0
  6
CONTINUOUS
 62
     7
 10
152.5
 20
212.9999999999999
 30
0.0
 40
1.750000000000002
 50
180.0
 51
0.0
  0
ARC
  5
44B
  8
0
  6
CONTINUOUS
 62
     7
 10
152.5
 20
212.9999999999999
 30
0.0
 40
4.300000000000008
 50
356.6669705060576
 51
0.0
  0
LINE
  5
44C
  8
0
  6
CONTINUOUS
 62
     7
 10
152.75
 20
208.2565835097474
 30
0.0
 11
152.75
 21
208.7072735936237
 31
0.0
  0
LINE
  5
44D
  8
0
  6
CONTINUOUS
 62
     7
 10
157.2434164902526
 20
212.7499999999999
 30
0.0
 11
156.7927264063762
 21
212.7499999999999
 31
0.0
  0
CIRCLE
  5
44E
  8
0
  6
CONTINUOUS
 62
     7
 10
152.5
 20
194.7499999999999
 30
0.0
 40
1.749999999999974
  0
LINE
  5
44F
  8
0
  6
CONTINUOUS
 62
     7
 10
147.7565835097474
 20
194.4999999999999
 30
0.0
 11
148.2072735936238
 21
194.4999999999999
 31
0.0
  0
ARC
  5
450
  8
0
  6
CONTINUOUS
 62
     7
 10
152.5
 20
194.7499999999999
 30
0.0
 40
4.300000000000008
 50
176.6669705060577
 51
183.3330294939425
  0
LINE
  5
451
  8
0
  6
CONTINUOUS
 62
     7
 10
148.2072735936238
 20
194.9999999999999
 30
0.0
 11
147.7565835097474
 21
194.9999999999999
 31
0.0
  0
ARC
  5
452
  8
0
  6
CONTINUOUS
 62
     7
 10
152.5
 20
194.7499999999999
 30
0.0
 40
4.75000000000002
 50
93.01696130981611
 51
176.983038690184
  0
LINE
  5
453
  8
0
  6
CONTINUOUS
 62
     7
 10
152.25
 20
199.4934164902525
 30
0.0
 11
152.25
 21
199.0427264063762
 31
0.0
  0
ARC
  5
454
  8
0
  6
CONTINUOUS
 62
     7
 10
152.5
 20
194.7499999999999
 30
0.0
 40
4.30000000000001
 50
86.66697050605777
 51
93.3330294939425
  0
LINE
  5
455
  8
0
  6
CONTINUOUS
 62
     7
 10
152.75
 20
199.0427264063762
 30
0.0
 11
152.75
 21
199.4934164902525
 31
0.0
  0
LINE
  5
456
  8
0
  6
CONTINUOUS
 62
     7
 10
139.966401061363
 20
194.9999999999999
 30
0.0
 11
147.7565835097474
 21
194.9999999999999
 31
0.0
  0
ARC
  5
457
  8
0
  6
CONTINUOUS
 62
     7
 10
106.5
 20
212.9999999999999
 30
0.0
 40
38.00000000000002
 50
331.7262863686348
 51
359.6230513629012
  0
LINE
  5
458
  8
0
  6
CONTINUOUS
 62
     7
 10
144.4991776226802
 20
212.7499999999999
 30
0.0
 11
147.7565835097474
 21
212.7499999999999
 31
0.0
  0
LINE
  5
459
  8
0
  6
CONTINUOUS
 62
     7
 10
152.25
 20
199.4934164902525
 30
0.0
 11
152.25
 21
208.2565835097474
 31
0.0
  0
CIRCLE
  5
45A
  8
0
  6
CONTINUOUS
 62
     7
 10
60.5
 20
231.2499999999999
 30
0.0
 40
1.750000000000002
  0
LINE
  5
45B
  8
0
  6
CONTINUOUS
 62
     7
 10
65.24341649025257
 20
231.4999999999999
 30
0.0
 11
64.79272640637626
 21
231.4999999999999
 31
0.0
  0
ARC
  5
45C
  8
0
  6
CONTINUOUS
 62
     7
 10
60.5
 20
231.2499999999999
 30
0.0
 40
4.300000000000008
 50
356.6669705060577
 51
3.333029493942433
  0
LINE
  5
45D
  8
0
  6
CONTINUOUS
 62
     7
 10
60.75
 20
226.5065835097474
 30
0.0
 11
60.75
 21
226.9572735936237
 31
0.0
  0
ARC
  5
45E
  8
0
  6
CONTINUOUS
 62
     7
 10
60.5
 20
231.2499999999999
 30
0.0
 40
4.300000000000008
 50
266.6669705060574
 51
273.3330294939424
  0
LINE
  5
45F
  8
0
  6
CONTINUOUS
 62
     7
 10
60.25
 20
226.9572735936237
 30
0.0
 11
60.25
 21
226.5065835097474
 31
0.0
  0
LINE
  5
460
  8
0
  6
CONTINUOUS
 62
     7
 10
64.79272640637626
 20
230.9999999999999
 30
0.0
 11
65.24341649025257
 21
230.9999999999999
 31
0.0
  0
LINE
  5
461
  8
0
  6
CONTINUOUS
 62
   253
 10
46.99996192306416
 20
253.4911969768876
 30
0.0
 11
64.99134928463099
 21
253.4911969768876
 31
0.0
  0
LINE
  5
462
  8
0
  6
CONTINUOUS
 62
     7
 10
46.99996192306417
 20
253.4911969768876
 30
0.0
 11
45.99999999999999
 21
252.4912350538234
 31
0.0
  0
LINE
  5
463
  8
0
  6
CONTINUOUS
 62
     7
 10
162.9879611035848
 20
250.7499999999999
 30
0.0
 11
162.9879611035848
 21
250.9999999999999
 31
0.0
  0
ARC
  5
464
  8
0
  6
CONTINUOUS
 62
     7
 10
106.5
 20
212.9999999999999
 30
0.0
 40
1.750000000000002
 50
180.0
 51
270.0
  0
LINE
  5
465
  8
0
  6
CONTINUOUS
 62
   253
 10
106.5
 20
211.2499999999999
 30
0.0
 11
106.5
 21
208.6999999999999
 31
0.0
  0
ARC
  5
466
  8
0
  6
CONTINUOUS
 62
     7
 10
106.5
 20
212.9999999999999
 30
0.0
 40
4.300000000000008
 50
266.6669705060576
 51
270.0000000000002
  0
LINE
  5
467
  8
0
  6
CONTINUOUS
 62
     7
 10
106.25
 20
208.2565835097474
 30
0.0
 11
106.25
 21
208.7072735936237
 31
0.0
  0
LINE
  5
468
  8
0
  6
CONTINUOUS
 62
     7
 10
102.2072735936237
 20
212.7499999999999
 30
0.0
 11
101.7565835097474
 21
212.7499999999999
 31
0.0
  0
ARC
  5
469
  8
0
  6
CONTINUOUS
 62
     7
 10
106.5
 20
212.9999999999999
 30
0.0
 40
4.299999999999998
 50
180.0
 51
183.3330294939423
  0
LINE
  5
46A
  8
0
  6
CONTINUOUS
 62
   253
 10
102.2
 20
212.9999999999999
 30
0.0
 11
104.75
 21
212.9999999999999
 31
0.0
  0
ARC
  5
46B
  8
0
  6
CONTINUOUS
 62
     7
 10
106.5
 20
212.9999999999999
 30
0.0
 40
1.750000000000002
 50
0.0
 51
90.0
  0
LINE
  5
46C
  8
0
  6
CONTINUOUS
 62
   253
 10
106.5
 20
217.2999999999999
 30
0.0
 11
106.5
 21
214.7499999999999
 31
0.0
  0
ARC
  5
46D
  8
0
  6
CONTINUOUS
 62
     7
 10
106.5
 20
212.9999999999999
 30
0.0
 40
4.300000000000008
 50
86.66697050605768
 51
90.00000000000009
  0
LINE
  5
46E
  8
0
  6
CONTINUOUS
 62
     7
 10
106.75
 20
217.7434164902525
 30
0.0
 11
106.75
 21
217.2927264063762
 31
0.0
  0
LINE
  5
46F
  8
0
  6
CONTINUOUS
 62
     7
 10
110.7927264063762
 20
213.2499999999999
 30
0.0
 11
111.2434164902526
 21
213.2499999999999
 31
0.0
  0
ARC
  5
470
  8
0
  6
CONTINUOUS
 62
     7
 10
106.5
 20
212.9999999999999
 30
0.0
 40
4.299999999999998
 50
0.0
 51
3.33302949394252
  0
LINE
  5
471
  8
0
  6
CONTINUOUS
 62
   253
 10
108.25
 20
212.9999999999999
 30
0.0
 11
110.8
 21
212.9999999999999
 31
0.0
  0
ARC
  5
472
  8
0
  6
CONTINUOUS
 62
     7
 10
106.5
 20
212.9999999999999
 30
0.0
 40
4.299999999999998
 50
90.0
 51
93.3330294939424
  0
ARC
  5
473
  8
0
  6
CONTINUOUS
 62
     7
 10
106.5
 20
212.9999999999999
 30
0.0
 40
1.750000000000002
 50
90.0
 51
180.0
  0
ARC
  5
474
  8
0
  6
CONTINUOUS
 62
     7
 10
106.5
 20
212.9999999999999
 30
0.0
 40
4.299999999999993
 50
176.6669705060577
 51
180.0000000000001
  0
LINE
  5
475
  8
0
  6
CONTINUOUS
 62
     7
 10
101.7565835097474
 20
213.2499999999999
 30
0.0
 11
102.2072735936237
 21
213.2499999999999
 31
0.0
  0
LINE
  5
476
  8
0
  6
CONTINUOUS
 62
     7
 10
106.25
 20
217.2927264063762
 30
0.0
 11
106.25
 21
217.7434164902525
 31
0.0
  0
LINE
  5
477
  8
0
  6
CONTINUOUS
 62
     7
 10
106.75
 20
208.7072735936237
 30
0.0
 11
106.75
 21
208.2565835097474
 31
0.0
  0
ARC
  5
478
  8
0
  6
CONTINUOUS
 62
     7
 10
106.5
 20
212.9999999999999
 30
0.0
 40
4.299999999999998
 50
270.0
 51
273.3330294939425
  0
ARC
  5
479
  8
0
  6
CONTINUOUS
 62
     7
 10
106.5
 20
212.9999999999999
 30
0.0
 40
1.750000000000002
 50
270.0
 51
0.0
  0
ARC
  5
47A
  8
0
  6
CONTINUOUS
 62
     7
 10
106.5
 20
212.9999999999999
 30
0.0
 40
4.299999999999993
 50
356.6669705060576
 51
0.0000000000001137
  0
LINE
  5
47B
  8
0
  6
CONTINUOUS
 62
     7
 10
111.2434164902526
 20
212.7499999999999
 30
0.0
 11
110.7927264063762
 21
212.7499999999999
 31
0.0
  0
LINE
  5
47C
  8
0
  6
CONTINUOUS
 62
   253
 10
126.534907471163
 20
186.0859578844477
 30
0.0
 11
126.5
 21
186.0185982573426
 31
0.0
  0
LINE
  5
47D
  8
0
  6
CONTINUOUS
 62
     7
 10
126.534907471163
 20
184.3015247334995
 30
0.0
 11
126.534907471163
 21
186.0859578844477
 31
0.0
  0
LINE
  5
47E
  8
0
  6
CONTINUOUS
 62
     7
 10
126.534907471163
 20
182.1964661126966
 30
0.0
 11
126.534907471163
 21
184.3015247334995
 31
0.0
  0
LINE
  5
47F
  8
0
  6
CONTINUOUS
 62
   253
 10
126.522048058164
 20
184.819151200348
 30
0.0
 11
126.534907471163
 21
182.1964661126966
 31
0.0
  0
ARC
  5
480
  8
0
  6
CONTINUOUS
 62
   253
 10
107.4999619230642
 20
212.9999999999999
 30
0.0
 40
34.0
 50
303.9745533253978
 51
304.0193684204224
  0
LINE
  5
481
  8
0
  6
CONTINUOUS
 62
     7
 10
126.5
 20
184.8042812988391
 30
0.0
 11
126.5
 21
186.0185982573426
 31
0.0
  0
ARC
  5
482
  8
0
  6
CONTINUOUS
 62
   253
 10
106.5
 20
212.9999999999999
 30
0.0
 40
34.99999999999999
 50
124.9195669142886
 51
129.930639301949
  0
LINE
  5
483
  8
0
  6
CONTINUOUS
 62
     7
 10
86.46509252883696
 20
241.6984752665003
 30
0.0
 11
86.46509252883695
 21
239.9140421155521
 31
0.0
  0
LINE
  5
484
  8
0
  6
CONTINUOUS
 62
     7
 10
88.04246046782237
 20
239.0976315935988
 30
0.0
 11
88.0025581911766
 21
239.0708540746025
 31
0.0
  0
LINE
  5
485
  8
0
  6
CONTINUOUS
 62
     7
 10
88.0025581911766
 20
239.0708540746025
 30
0.0
 11
87.9612856407558
 21
239.0459713204198
 31
0.0
  0
LINE
  5
486
  8
0
  6
CONTINUOUS
 62
     7
 10
87.9612856407558
 20
239.0459713204198
 30
0.0
 11
87.91879315278067
 21
239.0230554411501
 31
0.0
  0
LINE
  5
487
  8
0
  6
CONTINUOUS
 62
     7
 10
87.91879315278067
 20
239.0230554411501
 30
0.0
 11
87.87523106347186
 21
239.0021785468933
 31
0.0
  0
LINE
  5
488
  8
0
  6
CONTINUOUS
 62
     7
 10
87.87523106347186
 20
239.0021785468933
 30
0.0
 11
87.83074970905011
 21
238.9834127477489
 31
0.0
  0
LINE
  5
489
  8
0
  6
CONTINUOUS
 62
     7
 10
87.83074970905011
 20
238.9834127477489
 30
0.0
 11
87.78549942573609
 21
238.9668301538164
 31
0.0
  0
LINE
  5
48A
  8
0
  6
CONTINUOUS
 62
     7
 10
87.78549942573609
 20
238.9668301538164
 30
0.0
 11
87.7396305497505
 21
238.9525028751954
 31
0.0
  0
LINE
  5
48B
  8
0
  6
CONTINUOUS
 62
     7
 10
87.7396305497505
 20
238.9525028751954
 30
0.0
 11
87.69311397229886
 21
238.9404420997016
 31
0.0
  0
LINE
  5
48C
  8
0
  6
CONTINUOUS
 62
     7
 10
87.69311397229886
 20
238.9404420997016
 30
0.0
 11
87.64593137472636
 21
238.9306232706774
 31
0.0
  0
LINE
  5
48D
  8
0
  6
CONTINUOUS
 62
     7
 10
87.64593137472636
 20
238.9306232706774
 30
0.0
 11
87.59824854914268
 21
238.9230646731972
 31
0.0
  0
LINE
  5
48E
  8
0
  6
CONTINUOUS
 62
     7
 10
87.59824854914268
 20
238.9230646731972
 30
0.0
 11
87.55023128765747
 21
238.9177845923353
 31
0.0
  0
LINE
  5
48F
  8
0
  6
CONTINUOUS
 62
     7
 10
87.55023128765747
 20
238.9177845923353
 30
0.0
 11
87.50204538238039
 21
238.9148013131658
 31
0.0
  0
LINE
  5
490
  8
0
  6
CONTINUOUS
 62
     7
 10
87.50204538238039
 20
238.9148013131658
 30
0.0
 11
87.4538566254211
 21
238.9141331207631
 31
0.0
  0
LINE
  5
491
  8
0
  6
CONTINUOUS
 62
     7
 10
87.4538566254211
 20
238.9141331207631
 30
0.0
 11
87.40583080888926
 21
238.9157983002013
 31
0.0
  0
LINE
  5
492
  8
0
  6
CONTINUOUS
 62
     7
 10
87.40583080888926
 20
238.9157983002013
 30
0.0
 11
87.35795056932642
 21
238.9198163412275
 31
0.0
  0
LINE
  5
493
  8
0
  6
CONTINUOUS
 62
     7
 10
87.35795056932642
 20
238.9198163412275
 30
0.0
 11
87.31018405679353
 21
238.9261701692681
 31
0.0
  0
LINE
  5
494
  8
0
  6
CONTINUOUS
 62
     7
 10
87.31018405679353
 20
238.9261701692681
 30
0.0
 11
87.26269374217843
 21
238.9348221320083
 31
0.0
  0
LINE
  5
495
  8
0
  6
CONTINUOUS
 62
     7
 10
87.26269374217843
 20
238.9348221320083
 30
0.0
 11
87.21564209636904
 21
238.9457345771334
 31
0.0
  0
LINE
  5
496
  8
0
  6
CONTINUOUS
 62
     7
 10
87.21564209636904
 20
238.9457345771334
 30
0.0
 11
87.16919159025325
 21
238.9588698523288
 31
0.0
  0
LINE
  5
497
  8
0
  6
CONTINUOUS
 62
     7
 10
87.16919159025325
 20
238.9588698523288
 30
0.0
 11
87.12350469471896
 21
238.9741903052798
 31
0.0
  0
LINE
  5
498
  8
0
  6
CONTINUOUS
 62
     7
 10
87.12350469471896
 20
238.9741903052798
 30
0.0
 11
87.07874388065406
 21
238.9916582836718
 31
0.0
  0
LINE
  5
499
  8
0
  6
CONTINUOUS
 62
     7
 10
87.07874388065406
 20
238.9916582836718
 30
0.0
 11
87.03489944058437
 21
239.0112977718073
 31
0.0
  0
LINE
  5
49A
  8
0
  6
CONTINUOUS
 62
     7
 10
87.03489944058437
 20
239.0112977718073
 30
0.0
 11
86.99193541582333
 21
239.0331032495362
 31
0.0
  0
LINE
  5
49B
  8
0
  6
CONTINUOUS
 62
     7
 10
86.99193541582333
 20
239.0331032495362
 30
0.0
 11
86.949992583551
 21
239.0569854021923
 31
0.0
  0
LINE
  5
49C
  8
0
  6
CONTINUOUS
 62
     7
 10
86.949992583551
 20
239.0569854021923
 30
0.0
 11
86.90921172094737
 21
239.0828549151092
 31
0.0
  0
LINE
  5
49D
  8
0
  6
CONTINUOUS
 62
     7
 10
86.90921172094737
 20
239.0828549151092
 30
0.0
 11
86.86973360519255
 21
239.1106224736207
 31
0.0
  0
LINE
  5
49E
  8
0
  6
CONTINUOUS
 62
     7
 10
86.86973360519255
 20
239.1106224736207
 30
0.0
 11
86.8316990134666
 21
239.1401987630607
 31
0.0
  0
LINE
  5
49F
  8
0
  6
CONTINUOUS
 62
     7
 10
86.8316990134666
 20
239.1401987630607
 30
0.0
 11
86.79524872294955
 21
239.1714944687627
 31
0.0
  0
LINE
  5
4A0
  8
0
  6
CONTINUOUS
 62
     7
 10
86.79524872294955
 20
239.1714944687627
 30
0.0
 11
86.76037802795734
 21
239.204538827651
 31
0.0
  0
LINE
  5
4A1
  8
0
  6
CONTINUOUS
 62
     7
 10
86.76037802795734
 20
239.204538827651
 30
0.0
 11
86.72705492209468
 21
239.2393354214616
 31
0.0
  0
LINE
  5
4A2
  8
0
  6
CONTINUOUS
 62
     7
 10
86.72705492209468
 20
239.2393354214616
 30
0.0
 11
86.69538262959091
 21
239.2757533872321
 31
0.0
  0
LINE
  5
4A3
  8
0
  6
CONTINUOUS
 62
     7
 10
86.69538262959091
 20
239.2757533872321
 30
0.0
 11
86.6654643746754
 21
239.3136618620005
 31
0.0
  0
LINE
  5
4A4
  8
0
  6
CONTINUOUS
 62
     7
 10
86.6654643746754
 20
239.3136618620005
 30
0.0
 11
86.63740338157751
 21
239.3529299828046
 31
0.0
  0
LINE
  5
4A5
  8
0
  6
CONTINUOUS
 62
     7
 10
86.63740338157751
 20
239.3529299828046
 30
0.0
 11
86.61130287452664
 21
239.3934268866821
 31
0.0
  0
LINE
  5
4A6
  8
0
  6
CONTINUOUS
 62
     7
 10
86.61130287452664
 20
239.3934268866821
 30
0.0
 11
86.58726607775216
 21
239.4350217106708
 31
0.0
  0
LINE
  5
4A7
  8
0
  6
CONTINUOUS
 62
     7
 10
86.58726607775216
 20
239.4350217106708
 30
0.0
 11
86.56529577642483
 21
239.4777485750392
 31
0.0
  0
LINE
  5
4A8
  8
0
  6
CONTINUOUS
 62
     7
 10
86.56529577642483
 20
239.4777485750392
 30
0.0
 11
86.54536582913993
 21
239.5216167120634
 31
0.0
  0
LINE
  5
4A9
  8
0
  6
CONTINUOUS
 62
     7
 10
86.54536582913993
 20
239.5216167120634
 30
0.0
 11
86.52753031365492
 21
239.566468477448
 31
0.0
  0
LINE
  5
4AA
  8
0
  6
CONTINUOUS
 62
     7
 10
86.52753031365492
 20
239.566468477448
 30
0.0
 11
86.51184330772726
 21
239.6121462268972
 31
0.0
  0
LINE
  5
4AB
  8
0
  6
CONTINUOUS
 62
     7
 10
86.51184330772726
 20
239.6121462268972
 30
0.0
 11
86.49835888911444
 21
239.6584923161153
 31
0.0
  0
LINE
  5
4AC
  8
0
  6
CONTINUOUS
 62
     7
 10
86.49835888911444
 20
239.6584923161153
 30
0.0
 11
86.48713113557389
 21
239.7053491008067
 31
0.0
  0
LINE
  5
4AD
  8
0
  6
CONTINUOUS
 62
     7
 10
86.48713113557389
 20
239.7053491008067
 30
0.0
 11
86.4782141248631
 21
239.7525589366758
 31
0.0
  0
LINE
  5
4AE
  8
0
  6
CONTINUOUS
 62
     7
 10
86.4782141248631
 20
239.7525589366758
 30
0.0
 11
86.47248550219925
 21
239.7926807315981
 31
0.0
  0
LINE
  5
4AF
  8
0
  6
CONTINUOUS
 62
     7
 10
86.47248550219925
 20
239.7926807315981
 30
0.0
 11
86.46838366170802
 21
239.8330348402995
 31
0.0
  0
LINE
  5
4B0
  8
0
  6
CONTINUOUS
 62
     7
 10
86.46838366170802
 20
239.8330348402995
 30
0.0
 11
86.46591665378779
 21
239.8735217919082
 31
0.0
  0
LINE
  5
4B1
  8
0
  6
CONTINUOUS
 62
     7
 10
86.46591665378779
 20
239.8735217919082
 30
0.0
 11
86.46509252883695
 21
239.9140421155521
 31
0.0
  0
ARC
  5
4B2
  8
0
  6
CONTINUOUS
 62
     7
 10
106.5
 20
231.2499999999999
 30
0.0
 40
4.750000000000006
 50
93.0169613098159
 51
176.9830386901839
  0
LINE
  5
4B3
  8
0
  6
CONTINUOUS
 62
     7
 10
84.03490747116304
 20
231.4999999999999
 30
0.0
 11
101.7565835097474
 21
231.4999999999999
 31
0.0
  0
LINE
  5
4B4
  8
0
  6
CONTINUOUS
 62
     7
 10
106.25
 20
244.9641148849316
 30
0.0
 11
106.25
 21
235.9934164902525
 31
0.0
  0
LINE
  5
4B5
  8
0
  6
CONTINUOUS
 62
   253
 10
86.46509252883695
 20
239.9140421155521
 30
0.0
 11
86.49999999999999
 21
239.9814017426573
 31
0.0
  0
LINE
  5
4B6
  8
0
  6
CONTINUOUS
 62
     7
 10
86.46509252883695
 20
243.8035338873033
 30
0.0
 11
86.46509252883696
 21
241.6984752665003
 31
0.0
  0
LINE
  5
4B7
  8
0
  6
CONTINUOUS
 62
   253
 10
86.47795194183597
 20
241.1808487996518
 30
0.0
 11
86.46509252883695
 21
243.8035338873033
 31
0.0
  0
ARC
  5
4B8
  8
0
  6
CONTINUOUS
 62
   253
 10
105.5000380769358
 20
212.9999999999999
 30
0.0
 40
34.0
 50
123.9745533253978
 51
124.0193684204224
  0
LINE
  5
4B9
  8
0
  6
CONTINUOUS
 62
     7
 10
86.49999999999999
 20
241.1957187011607
 30
0.0
 11
86.49999999999999
 21
239.9814017426573
 31
0.0
  0
LINE
  5
4BA
  8
0
  6
CONTINUOUS
 62
   253
 10
131.9727800729867
 20
175.5421617568326
 30
0.0
 11
130.6436842532728
 21
175.4650925288369
 31
0.0
  0
LINE
  5
4BB
  8
0
  6
CONTINUOUS
 62
     7
 10
128.965092528837
 20
176.3959870268531
 30
0.0
 11
128.9967366859309
 21
176.2108765386191
 31
0.0
  0
LINE
  5
4BC
  8
0
  6
CONTINUOUS
 62
     7
 10
128.9967366859309
 20
176.2108765386191
 30
0.0
 11
129.0905627457381
 21
176.0347880571909
 31
0.0
  0
LINE
  5
4BD
  8
0
  6
CONTINUOUS
 62
     7
 10
129.0905627457381
 20
176.0347880571909
 30
0.0
 11
129.2432901585865
 21
175.8738783689792
 31
0.0
  0
LINE
  5
4BE
  8
0
  6
CONTINUOUS
 62
     7
 10
129.2432901585865
 20
175.8738783689792
 30
0.0
 11
129.4495789382808
 21
175.7337735465909
 31
0.0
  0
LINE
  5
4BF
  8
0
  6
CONTINUOUS
 62
     7
 10
129.4495789382808
 20
175.7337735465909
 30
0.0
 11
129.7022163702516
 21
175.6193722379079
 31
0.0
  0
LINE
  5
4C0
  8
0
  6
CONTINUOUS
 62
     7
 10
129.7022163702516
 20
175.6193722379079
 30
0.0
 11
129.9923691980847
 21
175.5346743889627
 31
0.0
  0
LINE
  5
4C1
  8
0
  6
CONTINUOUS
 62
     7
 10
129.9923691980847
 20
175.5346743889627
 30
0.0
 11
130.3098924709409
 21
175.4826413891727
 31
0.0
  0
LINE
  5
4C2
  8
0
  6
CONTINUOUS
 62
     7
 10
130.3098924709409
 20
175.4826413891727
 30
0.0
 11
130.6436842532728
 21
175.4650925288369
 31
0.0
  0
LINE
  5
4C3
  8
0
  6
CONTINUOUS
 62
     7
 10
131.9825455998337
 20
176.5709576913045
 30
0.0
 11
131.9727800729867
 21
175.5421617568326
 31
0.0
  0
LINE
  5
4C4
  8
0
  6
CONTINUOUS
 62
     7
 10
42.99999999999999
 20
247.9999999999999
 30
0.0
 11
42.99999999999999
 21
251.4999999999999
 31
0.0
  0
ARC
  5
4C5
  8
0
  6
CONTINUOUS
 62
   253
 10
106.5
 20
212.9999999999999
 30
0.0
 40
34.99999999999999
 50
304.9195669142887
 51
309.9306393019492
  0
LINE
  5
4C6
  8
0
  6
CONTINUOUS
 62
     7
 10
124.9575395321776
 20
186.9023684064011
 30
0.0
 11
124.9974418088234
 21
186.9291459253974
 31
0.0
  0
LINE
  5
4C7
  8
0
  6
CONTINUOUS
 62
     7
 10
124.9974418088234
 20
186.9291459253974
 30
0.0
 11
125.0387143592442
 21
186.9540286795801
 31
0.0
  0
LINE
  5
4C8
  8
0
  6
CONTINUOUS
 62
     7
 10
125.0387143592442
 20
186.9540286795801
 30
0.0
 11
125.0812068472193
 21
186.9769445588497
 31
0.0
  0
LINE
  5
4C9
  8
0
  6
CONTINUOUS
 62
     7
 10
125.0812068472193
 20
186.9769445588497
 30
0.0
 11
125.1247689365281
 21
186.9978214531065
 31
0.0
  0
LINE
  5
4CA
  8
0
  6
CONTINUOUS
 62
     7
 10
125.1247689365281
 20
186.9978214531065
 30
0.0
 11
125.1692502909499
 21
187.016587252251
 31
0.0
  0
LINE
  5
4CB
  8
0
  6
CONTINUOUS
 62
     7
 10
125.1692502909499
 20
187.016587252251
 30
0.0
 11
125.2145005742639
 21
187.0331698461835
 31
0.0
  0
LINE
  5
4CC
  8
0
  6
CONTINUOUS
 62
     7
 10
125.2145005742639
 20
187.0331698461835
 30
0.0
 11
125.2603694502495
 21
187.0474971248044
 31
0.0
  0
LINE
  5
4CD
  8
0
  6
CONTINUOUS
 62
     7
 10
125.2603694502495
 20
187.0474971248044
 30
0.0
 11
125.3068860277011
 21
187.0595579002983
 31
0.0
  0
LINE
  5
4CE
  8
0
  6
CONTINUOUS
 62
     7
 10
125.3068860277011
 20
187.0595579002983
 30
0.0
 11
125.3540686252736
 21
187.0693767293225
 31
0.0
  0
LINE
  5
4CF
  8
0
  6
CONTINUOUS
 62
     7
 10
125.3540686252736
 20
187.0693767293225
 30
0.0
 11
125.4017514508573
 21
187.0769353268027
 31
0.0
  0
LINE
  5
4D0
  8
0
  6
CONTINUOUS
 62
     7
 10
125.4017514508573
 20
187.0769353268027
 30
0.0
 11
125.4497687123425
 21
187.0822154076646
 31
0.0
  0
LINE
  5
4D1
  8
0
  6
CONTINUOUS
 62
     7
 10
125.4497687123425
 20
187.0822154076646
 30
0.0
 11
125.4979546176196
 21
187.0851986868341
 31
0.0
  0
LINE
  5
4D2
  8
0
  6
CONTINUOUS
 62
     7
 10
125.4979546176196
 20
187.0851986868341
 30
0.0
 11
125.5461433745789
 21
187.0858668792368
 31
0.0
  0
LINE
  5
4D3
  8
0
  6
CONTINUOUS
 62
     7
 10
125.5461433745789
 20
187.0858668792368
 30
0.0
 11
125.5941691911107
 21
187.0842016997985
 31
0.0
  0
LINE
  5
4D4
  8
0
  6
CONTINUOUS
 62
     7
 10
125.5941691911107
 20
187.0842016997985
 30
0.0
 11
125.6420494306736
 21
187.0801836587723
 31
0.0
  0
LINE
  5
4D5
  8
0
  6
CONTINUOUS
 62
     7
 10
125.6420494306736
 20
187.0801836587723
 30
0.0
 11
125.6898159432065
 21
187.0738298307318
 31
0.0
  0
LINE
  5
4D6
  8
0
  6
CONTINUOUS
 62
     7
 10
125.6898159432065
 20
187.0738298307318
 30
0.0
 11
125.7373062578216
 21
187.0651778679916
 31
0.0
  0
LINE
  5
4D7
  8
0
  6
CONTINUOUS
 62
     7
 10
125.7373062578216
 20
187.0651778679916
 30
0.0
 11
125.7843579036309
 21
187.0542654228665
 31
0.0
  0
LINE
  5
4D8
  8
0
  6
CONTINUOUS
 62
     7
 10
125.7843579036309
 20
187.0542654228665
 30
0.0
 11
125.8308084097467
 21
187.041130147671
 31
0.0
  0
LINE
  5
4D9
  8
0
  6
CONTINUOUS
 62
     7
 10
125.8308084097467
 20
187.041130147671
 30
0.0
 11
125.876495305281
 21
187.02580969472
 31
0.0
  0
LINE
  5
4DA
  8
0
  6
CONTINUOUS
 62
     7
 10
125.876495305281
 20
187.02580969472
 30
0.0
 11
125.9212561193459
 21
187.0083417163281
 31
0.0
  0
LINE
  5
4DB
  8
0
  6
CONTINUOUS
 62
     7
 10
125.9212561193459
 20
187.0083417163281
 30
0.0
 11
125.9651005594156
 21
186.9887022281926
 31
0.0
  0
LINE
  5
4DC
  8
0
  6
CONTINUOUS
 62
     7
 10
125.9651005594156
 20
186.9887022281926
 30
0.0
 11
126.0080645841767
 21
186.9668967504637
 31
0.0
  0
LINE
  5
4DD
  8
0
  6
CONTINUOUS
 62
     7
 10
126.0080645841767
 20
186.9668967504637
 30
0.0
 11
126.050007416449
 21
186.9430145978077
 31
0.0
  0
LINE
  5
4DE
  8
0
  6
CONTINUOUS
 62
     7
 10
126.050007416449
 20
186.9430145978077
 30
0.0
 11
126.0907882790526
 21
186.9171450848907
 31
0.0
  0
LINE
  5
4DF
  8
0
  6
CONTINUOUS
 62
     7
 10
126.0907882790526
 20
186.9171450848907
 30
0.0
 11
126.1302663948074
 21
186.8893775263791
 31
0.0
  0
LINE
  5
4E0
  8
0
  6
CONTINUOUS
 62
     7
 10
126.1302663948074
 20
186.8893775263791
 30
0.0
 11
126.1683009865334
 21
186.8598012369392
 31
0.0
  0
LINE
  5
4E1
  8
0
  6
CONTINUOUS
 62
     7
 10
126.1683009865334
 20
186.8598012369392
 30
0.0
 11
126.2047512770504
 21
186.8285055312371
 31
0.0
  0
LINE
  5
4E2
  8
0
  6
CONTINUOUS
 62
     7
 10
126.2047512770504
 20
186.8285055312371
 30
0.0
 11
126.2396219720426
 21
186.7954611723488
 31
0.0
  0
LINE
  5
4E3
  8
0
  6
CONTINUOUS
 62
     7
 10
126.2396219720426
 20
186.7954611723488
 30
0.0
 11
126.2729450779053
 21
186.7606645785383
 31
0.0
  0
LINE
  5
4E4
  8
0
  6
CONTINUOUS
 62
     7
 10
126.2729450779053
 20
186.7606645785383
 30
0.0
 11
126.3046173704091
 21
186.7242466127677
 31
0.0
  0
LINE
  5
4E5
  8
0
  6
CONTINUOUS
 62
     7
 10
126.3046173704091
 20
186.7242466127677
 30
0.0
 11
126.3345356253246
 21
186.6863381379993
 31
0.0
  0
LINE
  5
4E6
  8
0
  6
CONTINUOUS
 62
     7
 10
126.3345356253246
 20
186.6863381379993
 30
0.0
 11
126.3625966184225
 21
186.6470700171953
 31
0.0
  0
LINE
  5
4E7
  8
0
  6
CONTINUOUS
 62
     7
 10
126.3625966184225
 20
186.6470700171953
 30
0.0
 11
126.3886971254733
 21
186.6065731133178
 31
0.0
  0
LINE
  5
4E8
  8
0
  6
CONTINUOUS
 62
     7
 10
126.3886971254733
 20
186.6065731133178
 30
0.0
 11
126.4127339222478
 21
186.564978289329
 31
0.0
  0
LINE
  5
4E9
  8
0
  6
CONTINUOUS
 62
     7
 10
126.4127339222478
 20
186.564978289329
 30
0.0
 11
126.4347042235752
 21
186.5222514249607
 31
0.0
  0
LINE
  5
4EA
  8
0
  6
CONTINUOUS
 62
     7
 10
126.4347042235752
 20
186.5222514249607
 30
0.0
 11
126.4546341708601
 21
186.4783832879365
 31
0.0
  0
LINE
  5
4EB
  8
0
  6
CONTINUOUS
 62
     7
 10
126.4546341708601
 20
186.4783832879365
 30
0.0
 11
126.4724696863451
 21
186.4335315225519
 31
0.0
  0
LINE
  5
4EC
  8
0
  6
CONTINUOUS
 62
     7
 10
126.4724696863451
 20
186.4335315225519
 30
0.0
 11
126.4881566922727
 21
186.3878537731027
 31
0.0
  0
LINE
  5
4ED
  8
0
  6
CONTINUOUS
 62
     7
 10
126.4881566922727
 20
186.3878537731027
 30
0.0
 11
126.5016411108855
 21
186.3415076838846
 31
0.0
  0
LINE
  5
4EE
  8
0
  6
CONTINUOUS
 62
     7
 10
126.5016411108855
 20
186.3415076838846
 30
0.0
 11
126.5128688644261
 21
186.2946508991931
 31
0.0
  0
LINE
  5
4EF
  8
0
  6
CONTINUOUS
 62
     7
 10
126.5128688644261
 20
186.2946508991931
 30
0.0
 11
126.5217858751369
 21
186.2474410633241
 31
0.0
  0
LINE
  5
4F0
  8
0
  6
CONTINUOUS
 62
     7
 10
126.5217858751369
 20
186.2474410633241
 30
0.0
 11
126.5275144978008
 21
186.2073192684018
 31
0.0
  0
LINE
  5
4F1
  8
0
  6
CONTINUOUS
 62
     7
 10
126.5275144978008
 20
186.2073192684018
 30
0.0
 11
126.531616338292
 21
186.1669651597003
 31
0.0
  0
LINE
  5
4F2
  8
0
  6
CONTINUOUS
 62
     7
 10
126.531616338292
 20
186.1669651597003
 30
0.0
 11
126.5340833462122
 21
186.1264782080917
 31
0.0
  0
LINE
  5
4F3
  8
0
  6
CONTINUOUS
 62
     7
 10
126.5340833462122
 20
186.1264782080917
 30
0.0
 11
126.534907471163
 21
186.0859578844477
 31
0.0
  0
ARC
  5
4F4
  8
0
  6
CONTINUOUS
 62
     7
 10
106.5
 20
194.7499999999999
 30
0.0
 40
4.750000000000006
 50
273.0169613098159
 51
356.9830386901838
  0
LINE
  5
4F5
  8
0
  6
CONTINUOUS
 62
     7
 10
128.965092528837
 20
194.4999999999999
 30
0.0
 11
111.2434164902526
 21
194.4999999999999
 31
0.0
  0
LINE
  5
4F6
  8
0
  6
CONTINUOUS
 62
     7
 10
106.75
 20
181.0358851150683
 30
0.0
 11
106.75
 21
190.0065835097474
 31
0.0
  0
LINE
  5
4F7
  8
0
  6
CONTINUOUS
 62
     7
 10
81.0
 20
175.8150471829406
 30
0.0
 11
81.02721992701333
 21
175.5421617568326
 31
0.0
  0
LINE
  5
4F8
  8
0
  6
CONTINUOUS
 62
   253
 10
82.35631574672719
 20
175.4650925288369
 30
0.0
 11
81.02721992701333
 21
175.5421617568326
 31
0.0
  0
LINE
  5
4F9
  8
0
  6
CONTINUOUS
 62
     7
 10
81.0
 20
175.4650925288369
 30
0.0
 11
82.35631574672719
 21
175.4650925288369
 31
0.0
  0
LINE
  5
4FA
  8
0
  6
CONTINUOUS
 62
     7
 10
79.17152835303789
 20
175.8150471829406
 30
0.0
 11
81.0
 21
175.8150471829406
 31
0.0
  0
LINE
  5
4FB
  8
0
  6
CONTINUOUS
 62
     7
 10
78.17472364596912
 20
249.1857117823819
 30
0.0
 11
78.17472364596912
 21
233.5591517205301
 31
0.0
  0
ARC
  5
4FC
  8
0
  6
CONTINUOUS
 62
     7
 10
106.5
 20
212.9999999999999
 30
0.0
 40
35.00000000000001
 50
144.0269725231434
 51
144.2310488918725
  0
LINE
  5
4FD
  8
0
  6
CONTINUOUS
 62
     7
 10
81.02721992701332
 20
175.5421617568326
 30
0.0
 11
81.01745440016627
 21
176.5709576913045
 31
0.0
  0
LINE
  5
4FE
  8
0
  6
CONTINUOUS
 62
     7
 10
82.35631574672719
 20
175.4650925288369
 30
0.0
 11
82.69010752905913
 21
175.4826413891728
 31
0.0
  0
LINE
  5
4FF
  8
0
  6
CONTINUOUS
 62
     7
 10
82.69010752905913
 20
175.4826413891728
 30
0.0
 11
83.0076308019153
 21
175.5346743889628
 31
0.0
  0
LINE
  5
500
  8
0
  6
CONTINUOUS
 62
     7
 10
83.0076308019153
 20
175.5346743889628
 30
0.0
 11
83.29778362974841
 21
175.6193722379079
 31
0.0
  0
LINE
  5
501
  8
0
  6
CONTINUOUS
 62
     7
 10
83.29778362974841
 20
175.6193722379079
 30
0.0
 11
83.55042106171918
 21
175.7337735465909
 31
0.0
  0
LINE
  5
502
  8
0
  6
CONTINUOUS
 62
     7
 10
83.55042106171918
 20
175.7337735465909
 30
0.0
 11
83.75670984141352
 21
175.8738783689792
 31
0.0
  0
LINE
  5
503
  8
0
  6
CONTINUOUS
 62
     7
 10
83.75670984141352
 20
175.8738783689792
 30
0.0
 11
83.90943725426195
 21
176.0347880571909
 31
0.0
  0
LINE
  5
504
  8
0
  6
CONTINUOUS
 62
     7
 10
83.90943725426195
 20
176.0347880571909
 30
0.0
 11
84.00326331406913
 21
176.2108765386191
 31
0.0
  0
LINE
  5
505
  8
0
  6
CONTINUOUS
 62
     7
 10
84.00326331406913
 20
176.2108765386191
 30
0.0
 11
84.03490747116301
 21
176.3959870268531
 31
0.0
  0
LINE
  5
506
  8
0
  6
CONTINUOUS
 62
     7
 10
133.8284716469621
 20
175.8150471829406
 30
0.0
 11
134.0231803975477
 21
175.8342237992829
 31
0.0
  0
LINE
  5
507
  8
0
  6
CONTINUOUS
 62
     7
 10
134.0231803975477
 20
175.8342237992829
 30
0.0
 11
134.2102753379157
 21
175.8910209618243
 31
0.0
  0
LINE
  5
508
  8
0
  6
CONTINUOUS
 62
     7
 10
134.2102753379157
 20
175.8910209618243
 30
0.0
 11
134.3826080779732
 21
175.9832686050718
 31
0.0
  0
LINE
  5
509
  8
0
  6
CONTINUOUS
 62
     7
 10
134.3826080779732
 20
175.9832686050718
 30
0.0
 11
134.5335942512516
 21
176.1074421968397
 31
0.0
  0
LINE
  5
50A
  8
0
  6
CONTINUOUS
 62
     7
 10
134.5335942512516
 20
176.1074421968397
 30
0.0
 11
134.6574650856872
 21
176.2587974010625
 31
0.0
  0
LINE
  5
50B
  8
0
  6
CONTINUOUS
 62
     7
 10
134.6574650856872
 20
176.2587974010625
 30
0.0
 11
134.7494878127511
 21
176.4315513460054
 31
0.0
  0
LINE
  5
50C
  8
0
  6
CONTINUOUS
 62
     7
 10
134.7494878127511
 20
176.4315513460054
 30
0.0
 11
134.8061464936946
 21
176.619103572104
 31
0.0
  0
LINE
  5
50D
  8
0
  6
CONTINUOUS
 62
     7
 10
134.8061464936946
 20
176.619103572104
 30
0.0
 11
134.8252763540308
 21
176.8142882176179
 31
0.0
  0
LINE
  5
50E
  8
0
  6
CONTINUOUS
 62
   253
 10
130.6436842532728
 20
250.534907471163
 30
0.0
 11
131.9727800729867
 21
250.4578382431673
 31
0.0
  0
LINE
  5
50F
  8
0
  6
CONTINUOUS
 62
     7
 10
131.9727800729867
 20
250.4578382431673
 30
0.0
 11
131.9825455998337
 21
249.4290423086953
 31
0.0
  0
LINE
  5
510
  8
0
  6
CONTINUOUS
 62
     7
 10
130.6436842532728
 20
250.534907471163
 30
0.0
 11
130.3098924709408
 21
250.5173586108272
 31
0.0
  0
LINE
  5
511
  8
0
  6
CONTINUOUS
 62
     7
 10
130.3098924709408
 20
250.5173586108272
 30
0.0
 11
129.9923691980847
 21
250.4653256110371
 31
0.0
  0
LINE
  5
512
  8
0
  6
CONTINUOUS
 62
     7
 10
129.9923691980847
 20
250.4653256110371
 30
0.0
 11
129.7022163702516
 21
250.380627762092
 31
0.0
  0
LINE
  5
513
  8
0
  6
CONTINUOUS
 62
     7
 10
129.7022163702516
 20
250.380627762092
 30
0.0
 11
129.4495789382808
 21
250.266226453409
 31
0.0
  0
LINE
  5
514
  8
0
  6
CONTINUOUS
 62
     7
 10
129.4495789382808
 20
250.266226453409
 30
0.0
 11
129.2432901585864
 21
250.1261216310207
 31
0.0
  0
LINE
  5
515
  8
0
  6
CONTINUOUS
 62
     7
 10
129.2432901585864
 20
250.1261216310207
 30
0.0
 11
129.090562745738
 21
249.965211942809
 31
0.0
  0
LINE
  5
516
  8
0
  6
CONTINUOUS
 62
     7
 10
129.090562745738
 20
249.965211942809
 30
0.0
 11
128.9967366859308
 21
249.7891234613807
 31
0.0
  0
LINE
  5
517
  8
0
  6
CONTINUOUS
 62
     7
 10
128.9967366859308
 20
249.7891234613807
 30
0.0
 11
128.9650925288369
 21
249.6040129731468
 31
0.0
  0
LINE
  5
518
  8
0
  6
CONTINUOUS
 62
     7
 10
46.99999999999999
 20
186.9999999999999
 30
0.0
 11
46.98078528040323
 21
187.2926354830241
 31
0.0
  0
LINE
  5
519
  8
0
  6
CONTINUOUS
 62
     7
 10
46.98078528040323
 20
187.2926354830241
 30
0.0
 11
46.92387953251128
 21
187.5740251485476
 31
0.0
  0
LINE
  5
51A
  8
0
  6
CONTINUOUS
 62
     7
 10
46.92387953251128
 20
187.5740251485476
 30
0.0
 11
46.83146961230254
 21
187.8333553495293
 31
0.0
  0
LINE
  5
51B
  8
0
  6
CONTINUOUS
 62
     7
 10
46.83146961230254
 20
187.8333553495293
 30
0.0
 11
46.70710678118654
 21
188.0606601717798
 31
0.0
  0
LINE
  5
51C
  8
0
  6
CONTINUOUS
 62
     7
 10
46.70710678118654
 20
188.0606601717798
 30
0.0
 11
46.55557023301959
 21
188.2472044184537
 31
0.0
  0
LINE
  5
51D
  8
0
  6
CONTINUOUS
 62
     7
 10
46.55557023301959
 20
188.2472044184537
 30
0.0
 11
46.38268343236508
 21
188.3858192987669
 31
0.0
  0
LINE
  5
51E
  8
0
  6
CONTINUOUS
 62
     7
 10
46.38268343236508
 20
188.3858192987669
 30
0.0
 11
46.19509032201612
 21
188.4711779206048
 31
0.0
  0
LINE
  5
51F
  8
0
  6
CONTINUOUS
 62
     7
 10
46.19509032201612
 20
188.4711779206048
 30
0.0
 11
45.99999999999999
 21
188.4999999999999
 31
0.0
  0
LINE
  5
520
  8
0
  6
CONTINUOUS
 62
     7
 10
65.0
 20
185.4999999999999
 30
0.0
 11
46.99999999999999
 21
185.4999999999999
 31
0.0
  0
LINE
  5
521
  8
0
  6
CONTINUOUS
 62
     7
 10
79.17152835303789
 20
250.1849528170593
 30
0.0
 11
78.97681960245234
 21
250.165776200717
 31
0.0
  0
LINE
  5
522
  8
0
  6
CONTINUOUS
 62
     7
 10
78.97681960245234
 20
250.165776200717
 30
0.0
 11
78.78972466208424
 21
250.1089790381755
 31
0.0
  0
LINE
  5
523
  8
0
  6
CONTINUOUS
 62
     7
 10
78.78972466208424
 20
250.1089790381755
 30
0.0
 11
78.6173919220268
 21
250.0167313949281
 31
0.0
  0
LINE
  5
524
  8
0
  6
CONTINUOUS
 62
     7
 10
78.6173919220268
 20
250.0167313949281
 30
0.0
 11
78.46640574874837
 21
249.8925578031602
 31
0.0
  0
LINE
  5
525
  8
0
  6
CONTINUOUS
 62
     7
 10
78.46640574874837
 20
249.8925578031602
 30
0.0
 11
78.34253491431272
 21
249.7412025989373
 31
0.0
  0
LINE
  5
526
  8
0
  6
CONTINUOUS
 62
     7
 10
78.34253491431272
 20
249.7412025989373
 30
0.0
 11
78.25051218724887
 21
249.5684486539944
 31
0.0
  0
LINE
  5
527
  8
0
  6
CONTINUOUS
 62
     7
 10
78.25051218724887
 20
249.5684486539944
 30
0.0
 11
78.19385350630536
 21
249.3808964278959
 31
0.0
  0
LINE
  5
528
  8
0
  6
CONTINUOUS
 62
     7
 10
78.19385350630536
 20
249.3808964278959
 30
0.0
 11
78.17472364596912
 21
249.1857117823819
 31
0.0
  0
LINE
  5
529
  8
0
  6
CONTINUOUS
 62
     7
 10
86.46509252883695
 20
184.3015247334995
 30
0.0
 11
86.46509252883695
 21
182.1964661126966
 31
0.0
  0
LINE
  5
52A
  8
0
  6
CONTINUOUS
 62
   253
 10
86.49999999999999
 20
186.0185982573426
 30
0.0
 11
86.46509252883695
 21
186.0859578844477
 31
0.0
  0
LINE
  5
52B
  8
0
  6
CONTINUOUS
 62
     7
 10
86.49999999999999
 20
186.0185982573426
 30
0.0
 11
86.49999999999999
 21
184.8042812988391
 31
0.0
  0
ARC
  5
52C
  8
0
  6
CONTINUOUS
 62
   253
 10
105.5000380769358
 20
212.9999999999999
 30
0.0
 40
34.0
 50
235.9806315795776
 51
236.0254466746022
  0
LINE
  5
52D
  8
0
  6
CONTINUOUS
 62
   253
 10
86.46509252883695
 20
182.1964661126966
 30
0.0
 11
86.47795194183595
 21
184.819151200348
 31
0.0
  0
LINE
  5
52E
  8
0
  6
CONTINUOUS
 62
   253
 10
87.17578665284653
 20
245.7196390339761
 30
0.0
 11
87.1689535713993
 21
242.1772281749874
 31
0.0
  0
LINE
  5
52F
  8
0
  6
CONTINUOUS
 62
     7
 10
87.1689535713993
 20
242.1772281749874
 30
0.0
 11
86.92285136228082
 21
242.0126739756377
 31
0.0
  0
LINE
  5
530
  8
0
  6
CONTINUOUS
 62
     7
 10
86.92285136228082
 20
242.0126739756377
 30
0.0
 11
86.88142959919347
 21
241.9831455058612
 31
0.0
  0
LINE
  5
531
  8
0
  6
CONTINUOUS
 62
     7
 10
86.88142959919347
 20
241.9831455058612
 30
0.0
 11
86.84173855883368
 21
241.9516958464816
 31
0.0
  0
LINE
  5
532
  8
0
  6
CONTINUOUS
 62
     7
 10
86.84173855883368
 20
241.9516958464816
 30
0.0
 11
86.80386661396788
 21
241.9184848398057
 31
0.0
  0
LINE
  5
533
  8
0
  6
CONTINUOUS
 62
     7
 10
86.80386661396788
 20
241.9184848398057
 30
0.0
 11
86.76790213736243
 21
241.8836723281401
 31
0.0
  0
LINE
  5
534
  8
0
  6
CONTINUOUS
 62
     7
 10
86.76790213736243
 20
241.8836723281401
 30
0.0
 11
86.73393350178375
 21
241.8474181537916
 31
0.0
  0
LINE
  5
535
  8
0
  6
CONTINUOUS
 62
     7
 10
86.73393350178375
 20
241.8474181537916
 30
0.0
 11
86.70204907999823
 21
241.8098821590669
 31
0.0
  0
LINE
  5
536
  8
0
  6
CONTINUOUS
 62
     7
 10
86.70204907999823
 20
241.8098821590669
 30
0.0
 11
86.67233724477225
 21
241.7712241862728
 31
0.0
  0
LINE
  5
537
  8
0
  6
CONTINUOUS
 62
     7
 10
86.67233724477225
 20
241.7712241862728
 30
0.0
 11
86.64047819484838
 21
241.7249103622233
 31
0.0
  0
LINE
  5
538
  8
0
  6
CONTINUOUS
 62
     7
 10
86.64047819484838
 20
241.7249103622233
 30
0.0
 11
86.61138200767454
 21
241.6771204470206
 31
0.0
  0
LINE
  5
539
  8
0
  6
CONTINUOUS
 62
     7
 10
86.61138200767454
 20
241.6771204470206
 30
0.0
 11
86.585091123576
 21
241.6280597259505
 31
0.0
  0
LINE
  5
53A
  8
0
  6
CONTINUOUS
 62
     7
 10
86.585091123576
 20
241.6280597259505
 30
0.0
 11
86.56164798287803
 21
241.5779334842986
 31
0.0
  0
LINE
  5
53B
  8
0
  6
CONTINUOUS
 62
     7
 10
86.56164798287803
 20
241.5779334842986
 30
0.0
 11
86.5410950259059
 21
241.5269470073508
 31
0.0
  0
LINE
  5
53C
  8
0
  6
CONTINUOUS
 62
     7
 10
86.5410950259059
 20
241.5269470073508
 30
0.0
 11
86.52347469298488
 21
241.4753055803928
 31
0.0
  0
LINE
  5
53D
  8
0
  6
CONTINUOUS
 62
     7
 10
86.52347469298488
 20
241.4753055803928
 30
0.0
 11
86.50764161291465
 21
241.4185712486986
 31
0.0
  0
LINE
  5
53E
  8
0
  6
CONTINUOUS
 62
     7
 10
86.50764161291465
 20
241.4185712486986
 30
0.0
 11
86.49516582806311
 21
241.361116743273
 31
0.0
  0
LINE
  5
53F
  8
0
  6
CONTINUOUS
 62
     7
 10
86.49516582806311
 20
241.361116743273
 30
0.0
 11
86.48605896978947
 21
241.3031665046282
 31
0.0
  0
LINE
  5
540
  8
0
  6
CONTINUOUS
 62
     7
 10
86.48605896978947
 20
241.3031665046282
 30
0.0
 11
86.48033266945305
 21
241.2449449732762
 31
0.0
  0
LINE
  5
541
  8
0
  6
CONTINUOUS
 62
     7
 10
86.48033266945305
 20
241.2449449732762
 30
0.0
 11
86.47799855841313
 21
241.1866765897292
 31
0.0
  0
LINE
  5
542
  8
0
  6
CONTINUOUS
 62
     7
 10
86.47799855841313
 20
241.1866765897292
 30
0.0
 11
86.47795194183597
 21
241.1808487996518
 31
0.0
  0
ARC
  5
543
  8
0
  6
CONTINUOUS
 62
     7
 10
89.28990163775327
 20
243.9391622486817
 30
0.0
 40
2.828063216094502
 50
146.4990132746778
 51
182.7488475347009
  0
LINE
  5
544
  8
0
  6
CONTINUOUS
 62
     7
 10
86.93164669971489
 20
245.5001155476129
 30
0.0
 11
87.02327713158115
 21
245.6014037358814
 31
0.0
  0
LINE
  5
545
  8
0
  6
CONTINUOUS
 62
     7
 10
87.02327713158115
 20
245.6014037358814
 30
0.0
 11
87.11145796828808
 21
245.6768039296156
 31
0.0
  0
LINE
  5
546
  8
0
  6
CONTINUOUS
 62
     7
 10
87.11145796828808
 20
245.6768039296156
 30
0.0
 11
87.17578665284653
 21
245.7196390339761
 31
0.0
  0
LINE
  5
547
  8
0
  6
CONTINUOUS
 62
     7
 10
134.8252763540309
 20
249.1857117823819
 30
0.0
 11
134.8061464936946
 21
249.3808964278959
 31
0.0
  0
LINE
  5
548
  8
0
  6
CONTINUOUS
 62
     7
 10
134.8061464936946
 20
249.3808964278959
 30
0.0
 11
134.7494878127511
 21
249.5684486539945
 31
0.0
  0
LINE
  5
549
  8
0
  6
CONTINUOUS
 62
     7
 10
134.7494878127511
 20
249.5684486539945
 30
0.0
 11
134.6574650856873
 21
249.7412025989373
 31
0.0
  0
LINE
  5
54A
  8
0
  6
CONTINUOUS
 62
     7
 10
134.6574650856873
 20
249.7412025989373
 30
0.0
 11
134.5335942512516
 21
249.8925578031602
 31
0.0
  0
LINE
  5
54B
  8
0
  6
CONTINUOUS
 62
     7
 10
134.5335942512516
 20
249.8925578031602
 30
0.0
 11
134.3826080779732
 21
250.0167313949281
 31
0.0
  0
LINE
  5
54C
  8
0
  6
CONTINUOUS
 62
     7
 10
134.3826080779732
 20
250.0167313949281
 30
0.0
 11
134.2102753379158
 21
250.1089790381756
 31
0.0
  0
LINE
  5
54D
  8
0
  6
CONTINUOUS
 62
     7
 10
134.2102753379158
 20
250.1089790381756
 30
0.0
 11
134.0231803975477
 21
250.165776200717
 31
0.0
  0
LINE
  5
54E
  8
0
  6
CONTINUOUS
 62
     7
 10
134.0231803975477
 20
250.165776200717
 30
0.0
 11
133.8284716469621
 21
250.1849528170593
 31
0.0
  0
LINE
  5
54F
  8
0
  6
CONTINUOUS
 62
     7
 10
43.49999999999999
 20
260.4999999999999
 30
0.0
 11
81.0
 21
260.4999999999999
 31
0.0
  0
ARC
  5
550
  8
0
  6
CONTINUOUS
 62
     7
 10
176.0
 20
258.4999999999999
 30
0.0
 40
2.000000000000002
 50
0.0
 51
90.0000000000004
  0
LINE
  5
551
  8
0
  6
CONTINUOUS
 62
     7
 10
82.35631574672718
 20
250.534907471163
 30
0.0
 11
81.0
 21
250.534907471163
 31
0.0
  0
LINE
  5
552
  8
0
  6
CONTINUOUS
 62
   253
 10
81.02721992701333
 20
250.4578382431673
 30
0.0
 11
82.35631574672718
 21
250.534907471163
 31
0.0
  0
LINE
  5
553
  8
0
  6
CONTINUOUS
 62
     7
 10
81.02721992701333
 20
250.4578382431673
 30
0.0
 11
81.0
 21
250.1849528170593
 31
0.0
  0
LINE
  5
554
  8
0
  6
CONTINUOUS
 62
     7
 10
81.0
 20
250.1849528170593
 30
0.0
 11
79.17152835303789
 21
250.1849528170593
 31
0.0
  0
LINE
  5
555
  8
0
  6
CONTINUOUS
 62
     7
 10
132.0
 20
260.4999999999999
 30
0.0
 11
176.0
 21
260.4999999999999
 31
0.0
  0
LINE
  5
556
  8
0
  6
CONTINUOUS
 62
     7
 10
78.17472364596912
 20
176.8142882176179
 30
0.0
 11
78.19385350630535
 21
176.6191035721039
 31
0.0
  0
LINE
  5
557
  8
0
  6
CONTINUOUS
 62
     7
 10
78.19385350630535
 20
176.6191035721039
 30
0.0
 11
78.25051218724889
 21
176.4315513460054
 31
0.0
  0
LINE
  5
558
  8
0
  6
CONTINUOUS
 62
     7
 10
78.25051218724889
 20
176.4315513460054
 30
0.0
 11
78.34253491431272
 21
176.2587974010625
 31
0.0
  0
LINE
  5
559
  8
0
  6
CONTINUOUS
 62
     7
 10
78.34253491431272
 20
176.2587974010625
 30
0.0
 11
78.46640574874837
 21
176.1074421968396
 31
0.0
  0
LINE
  5
55A
  8
0
  6
CONTINUOUS
 62
     7
 10
78.46640574874837
 20
176.1074421968396
 30
0.0
 11
78.6173919220268
 21
175.9832686050718
 31
0.0
  0
LINE
  5
55B
  8
0
  6
CONTINUOUS
 62
     7
 10
78.6173919220268
 20
175.9832686050718
 30
0.0
 11
78.78972466208424
 21
175.8910209618243
 31
0.0
  0
LINE
  5
55C
  8
0
  6
CONTINUOUS
 62
     7
 10
78.78972466208424
 20
175.8910209618243
 30
0.0
 11
78.97681960245232
 21
175.8342237992829
 31
0.0
  0
LINE
  5
55D
  8
0
  6
CONTINUOUS
 62
     7
 10
78.97681960245232
 20
175.8342237992829
 30
0.0
 11
79.17152835303787
 21
175.8150471829406
 31
0.0
  0
LINE
  5
55E
  8
0
  6
CONTINUOUS
 62
     7
 10
176.0
 20
165.4999999999999
 30
0.0
 11
132.0
 21
165.4999999999999
 31
0.0
  0
LINE
  5
55F
  8
0
  6
CONTINUOUS
 62
     7
 10
78.10167579389321
 20
233.4581324241693
 30
0.0
 11
77.57063098302285
 21
232.7000408192359
 31
0.0
  0
ARC
  5
560
  8
0
  6
CONTINUOUS
 62
     7
 10
106.5
 20
231.2499999999999
 30
0.0
 40
4.299999999999998
 50
270.0
 51
273.3330294939423
  0
LINE
  5
561
  8
0
  6
CONTINUOUS
 62
   253
 10
106.5
 20
229.4999999999999
 30
0.0
 11
106.5
 21
226.95
 31
0.0
  0
ARC
  5
562
  8
0
  6
CONTINUOUS
 62
     7
 10
106.5
 20
231.2499999999999
 30
0.0
 40
1.750000000000002
 50
270.0
 51
90.0
  0
LINE
  5
563
  8
0
  6
CONTINUOUS
 62
   253
 10
106.5
 20
235.55
 30
0.0
 11
106.5
 21
232.9999999999999
 31
0.0
  0
ARC
  5
564
  8
0
  6
CONTINUOUS
 62
     7
 10
106.5
 20
231.2499999999999
 30
0.0
 40
4.300000000000008
 50
86.66697050605771
 51
89.9999999999999
  0
ARC
  5
565
  8
0
  6
CONTINUOUS
 62
     7
 10
106.5
 20
231.2499999999999
 30
0.0
 40
4.300000000000008
 50
356.6669705060577
 51
3.333029493942206
  0
LINE
  5
566
  8
0
  6
CONTINUOUS
 62
     7
 10
106.75
 20
226.9572735936237
 30
0.0
 11
106.75
 21
226.5065835097474
 31
0.0
  0
LINE
  5
567
  8
0
  6
CONTINUOUS
 62
     7
 10
111.2434164902526
 20
231.4999999999999
 30
0.0
 11
110.7927264063763
 21
231.4999999999999
 31
0.0
  0
LINE
  5
568
  8
0
  6
CONTINUOUS
 62
     7
 10
110.7927264063763
 20
230.9999999999999
 30
0.0
 11
111.2434164902526
 21
230.9999999999999
 31
0.0
  0
LINE
  5
569
  8
0
  6
CONTINUOUS
 62
     7
 10
106.75
 20
235.9934164902525
 30
0.0
 11
106.75
 21
235.5427264063762
 31
0.0
  0
ARC
  5
56A
  8
0
  6
CONTINUOUS
 62
     7
 10
106.5
 20
212.9999999999999
 30
0.0
 40
37.55
 50
28.64366658294318
 51
29.51664796442748
  0
ARC
  5
56B
  8
0
  6
CONTINUOUS
 62
     7
 10
106.5
 20
212.9999999999999
 30
0.0
 40
37.55
 50
359.6185339360506
 51
0.3814660639494037
  0
LINE
  5
56C
  8
0
  6
CONTINUOUS
 62
     7
 10
144.4991776226802
 20
212.7499999999999
 30
0.0
 11
144.0491677670757
 21
212.7499999999999
 31
0.0
  0
ARC
  5
56D
  8
0
  6
CONTINUOUS
 62
     7
 10
106.5
 20
212.9999999999999
 30
0.0
 40
37.55
 50
330.4833520355726
 51
331.3563334170568
  0
LINE
  5
56E
  8
0
  6
CONTINUOUS
 62
     7
 10
139.176482368823
 20
194.4999999999999
 30
0.0
 11
139.6926196616055
 21
194.4999999999999
 31
0.0
  0
ARC
  5
56F
  8
0
  6
CONTINUOUS
 62
     7
 10
106.5
 20
212.9999999999999
 30
0.0
 40
35.00000000000001
 50
325.7462997391829
 51
34.25370026081715
  0
LINE
  5
570
  8
0
  6
CONTINUOUS
 62
     7
 10
139.966401061363
 20
194.9999999999999
 30
0.0
 11
139.4545520376169
 21
194.9999999999999
 31
0.0
  0
LINE
  5
571
  8
0
  6
CONTINUOUS
 62
     7
 10
139.4545520376169
 20
230.9999999999999
 30
0.0
 11
139.966401061363
 21
230.9999999999999
 31
0.0
  0
LINE
  5
572
  8
0
  6
CONTINUOUS
 62
     7
 10
144.0491677670757
 20
213.2499999999999
 30
0.0
 11
144.4991776226802
 21
213.2499999999999
 31
0.0
  0
LINE
  5
573
  8
0
  6
CONTINUOUS
 62
     7
 10
139.6926196616055
 20
231.4999999999999
 30
0.0
 11
139.176482368823
 21
231.4999999999999
 31
0.0
  0
LINE
  5
574
  8
0
  6
CONTINUOUS
 62
     7
 10
78.17472364596911
 20
192.4408482794697
 30
0.0
 11
78.17472364596912
 21
176.8142882176179
 31
0.0
  0
ARC
  5
575
  8
0
  6
CONTINUOUS
 62
     7
 10
106.5
 20
212.9999999999999
 30
0.0
 40
35.00000000000001
 50
215.7689511081275
 51
215.9730274768566
  0
LINE
  5
576
  8
0
  6
CONTINUOUS
 62
     7
 10
84.03490747116301
 20
249.6040129731468
 30
0.0
 11
84.00326331406913
 21
249.7891234613807
 31
0.0
  0
LINE
  5
577
  8
0
  6
CONTINUOUS
 62
     7
 10
84.00326331406913
 20
249.7891234613807
 30
0.0
 11
83.90943725426195
 21
249.965211942809
 31
0.0
  0
LINE
  5
578
  8
0
  6
CONTINUOUS
 62
     7
 10
83.90943725426195
 20
249.965211942809
 30
0.0
 11
83.75670984141354
 21
250.1261216310207
 31
0.0
  0
LINE
  5
579
  8
0
  6
CONTINUOUS
 62
     7
 10
83.75670984141354
 20
250.1261216310207
 30
0.0
 11
83.55042106171918
 21
250.266226453409
 31
0.0
  0
LINE
  5
57A
  8
0
  6
CONTINUOUS
 62
     7
 10
83.55042106171918
 20
250.266226453409
 30
0.0
 11
83.29778362974841
 21
250.380627762092
 31
0.0
  0
LINE
  5
57B
  8
0
  6
CONTINUOUS
 62
     7
 10
83.29778362974841
 20
250.380627762092
 30
0.0
 11
83.0076308019153
 21
250.4653256110371
 31
0.0
  0
LINE
  5
57C
  8
0
  6
CONTINUOUS
 62
     7
 10
83.0076308019153
 20
250.4653256110371
 30
0.0
 11
82.69010752905913
 21
250.5173586108271
 31
0.0
  0
LINE
  5
57D
  8
0
  6
CONTINUOUS
 62
     7
 10
82.69010752905913
 20
250.5173586108271
 30
0.0
 11
82.35631574672718
 21
250.534907471163
 31
0.0
  0
LINE
  5
57E
  8
0
  6
CONTINUOUS
 62
     7
 10
81.01745440016627
 20
249.4290423086953
 30
0.0
 11
81.02721992701332
 21
250.4578382431673
 31
0.0
  0
LINE
  5
57F
  8
0
  6
CONTINUOUS
 62
     7
 10
88.07569939385276
 20
186.8361863029426
 30
0.0
 11
88.03574255182436
 21
186.8628822479038
 31
0.0
  0
LINE
  5
580
  8
0
  6
CONTINUOUS
 62
     7
 10
88.03574255182436
 20
186.8628822479038
 30
0.0
 11
87.9944193093851
 21
186.8876806345717
 31
0.0
  0
LINE
  5
581
  8
0
  6
CONTINUOUS
 62
     7
 10
87.9944193093851
 20
186.8876806345717
 30
0.0
 11
87.95188014970573
 21
186.9105096602479
 31
0.0
  0
LINE
  5
582
  8
0
  6
CONTINUOUS
 62
     7
 10
87.95188014970573
 20
186.9105096602479
 30
0.0
 11
87.90827555595709
 21
186.9312975222338
 31
0.0
  0
LINE
  5
583
  8
0
  6
CONTINUOUS
 62
     7
 10
87.90827555595709
 20
186.9312975222338
 30
0.0
 11
87.86375601131002
 21
186.9499724178311
 31
0.0
  0
LINE
  5
584
  8
0
  6
CONTINUOUS
 62
     7
 10
87.86375601131002
 20
186.9499724178311
 30
0.0
 11
87.8184719989353
 21
186.9664625443411
 31
0.0
  0
LINE
  5
585
  8
0
  6
CONTINUOUS
 62
     7
 10
87.8184719989353
 20
186.9664625443411
 30
0.0
 11
87.77257400200374
 21
186.9806960990654
 31
0.0
  0
LINE
  5
586
  8
0
  6
CONTINUOUS
 62
     7
 10
87.77257400200374
 20
186.9806960990654
 30
0.0
 11
87.72603293580485
 21
186.9926618347918
 31
0.0
  0
LINE
  5
587
  8
0
  6
CONTINUOUS
 62
     7
 10
87.72603293580485
 20
186.9926618347918
 30
0.0
 11
87.67883043067314
 21
187.0023842713198
 31
0.0
  0
LINE
  5
588
  8
0
  6
CONTINUOUS
 62
     7
 10
87.67883043067314
 20
187.0023842713198
 30
0.0
 11
87.6311323153961
 21
187.0098454625019
 31
0.0
  0
LINE
  5
589
  8
0
  6
CONTINUOUS
 62
     7
 10
87.6311323153961
 20
187.0098454625019
 30
0.0
 11
87.58310441876122
 21
187.0150274621911
 31
0.0
  0
LINE
  5
58A
  8
0
  6
CONTINUOUS
 62
     7
 10
87.58310441876122
 20
187.0150274621911
 30
0.0
 11
87.53491256955606
 21
187.0179123242402
 31
0.0
  0
LINE
  5
58B
  8
0
  6
CONTINUOUS
 62
     7
 10
87.53491256955606
 20
187.0179123242402
 30
0.0
 11
87.48672259656809
 21
187.0184821025018
 31
0.0
  0
LINE
  5
58C
  8
0
  6
CONTINUOUS
 62
     7
 10
87.48672259656809
 20
187.0184821025018
 30
0.0
 11
87.43870032858484
 21
187.016718850829
 31
0.0
  0
LINE
  5
58D
  8
0
  6
CONTINUOUS
 62
     7
 10
87.43870032858484
 20
187.016718850829
 30
0.0
 11
87.3908284170537
 21
187.0126030416619
 31
0.0
  0
LINE
  5
58E
  8
0
  6
CONTINUOUS
 62
     7
 10
87.3908284170537
 20
187.0126030416619
 30
0.0
 11
87.3430750023528
 21
187.0061516850389
 31
0.0
  0
LINE
  5
58F
  8
0
  6
CONTINUOUS
 62
     7
 10
87.3430750023528
 20
187.0061516850389
 30
0.0
 11
87.29560247776405
 21
186.9974027651021
 31
0.0
  0
LINE
  5
590
  8
0
  6
CONTINUOUS
 62
     7
 10
87.29560247776405
 20
186.9974027651021
 30
0.0
 11
87.24857323656938
 21
186.9863942659936
 31
0.0
  0
LINE
  5
591
  8
0
  6
CONTINUOUS
 62
     7
 10
87.24857323656938
 20
186.9863942659936
 30
0.0
 11
87.2021496720507
 21
186.9731641718556
 31
0.0
  0
LINE
  5
592
  8
0
  6
CONTINUOUS
 62
     7
 10
87.2021496720507
 20
186.9731641718556
 30
0.0
 11
87.1564941774899
 21
186.9577504668302
 31
0.0
  0
LINE
  5
593
  8
0
  6
CONTINUOUS
 62
     7
 10
87.1564941774899
 20
186.9577504668302
 30
0.0
 11
87.11176914616894
 21
186.9401911350595
 31
0.0
  0
LINE
  5
594
  8
0
  6
CONTINUOUS
 62
     7
 10
87.11176914616894
 20
186.9401911350595
 30
0.0
 11
87.0679648865787
 21
186.9204621568993
 31
0.0
  0
LINE
  5
595
  8
0
  6
CONTINUOUS
 62
     7
 10
87.0679648865787
 20
186.9204621568993
 30
0.0
 11
87.02504546311543
 21
186.8985689916642
 31
0.0
  0
LINE
  5
596
  8
0
  6
CONTINUOUS
 62
     7
 10
87.02504546311543
 20
186.8985689916642
 30
0.0
 11
86.98315147016424
 21
186.8746012412803
 31
0.0
  0
LINE
  5
597
  8
0
  6
CONTINUOUS
 62
     7
 10
86.98315147016424
 20
186.8746012412803
 30
0.0
 11
86.9424235021102
 21
186.848648507674
 31
0.0
  0
LINE
  5
598
  8
0
  6
CONTINUOUS
 62
     7
 10
86.9424235021102
 20
186.848648507674
 30
0.0
 11
86.90300215333843
 21
186.8208003927713
 31
0.0
  0
LINE
  5
599
  8
0
  6
CONTINUOUS
 62
     7
 10
86.90300215333843
 20
186.8208003927713
 30
0.0
 11
86.86502801823399
 21
186.7911464984985
 31
0.0
  0
LINE
  5
59A
  8
0
  6
CONTINUOUS
 62
     7
 10
86.86502801823399
 20
186.7911464984985
 30
0.0
 11
86.82864169118197
 21
186.7597764267819
 31
0.0
  0
LINE
  5
59B
  8
0
  6
CONTINUOUS
 62
     7
 10
86.82864169118197
 20
186.7597764267819
 30
0.0
 11
86.79383850985319
 21
186.7266609148751
 31
0.0
  0
LINE
  5
59C
  8
0
  6
CONTINUOUS
 62
     7
 10
86.79383850985319
 20
186.7266609148751
 30
0.0
 11
86.76058649306175
 21
186.691796330223
 31
0.0
  0
LINE
  5
59D
  8
0
  6
CONTINUOUS
 62
     7
 10
86.76058649306175
 20
186.691796330223
 30
0.0
 11
86.7289885977941
 21
186.6553137463195
 31
0.0
  0
LINE
  5
59E
  8
0
  6
CONTINUOUS
 62
     7
 10
86.7289885977941
 20
186.6553137463195
 30
0.0
 11
86.69914778103664
 21
186.6173442366583
 31
0.0
  0
LINE
  5
59F
  8
0
  6
CONTINUOUS
 62
     7
 10
86.69914778103664
 20
186.6173442366583
 30
0.0
 11
86.67116699977582
 21
186.5780188747335
 31
0.0
  0
LINE
  5
5A0
  8
0
  6
CONTINUOUS
 62
     7
 10
86.67116699977582
 20
186.5780188747335
 30
0.0
 11
86.64514921099806
 21
186.5374687340386
 31
0.0
  0
LINE
  5
5A1
  8
0
  6
CONTINUOUS
 62
     7
 10
86.64514921099806
 20
186.5374687340386
 30
0.0
 11
86.62119737168977
 21
186.4958248880676
 31
0.0
  0
LINE
  5
5A2
  8
0
  6
CONTINUOUS
 62
     7
 10
86.62119737168977
 20
186.4958248880676
 30
0.0
 11
86.59931433705758
 21
186.4530532226546
 31
0.0
  0
LINE
  5
5A3
  8
0
  6
CONTINUOUS
 62
     7
 10
86.59931433705758
 20
186.4530532226546
 30
0.0
 11
86.57947398448623
 21
186.4091444515489
 31
0.0
  0
LINE
  5
5A4
  8
0
  6
CONTINUOUS
 62
     7
 10
86.57947398448623
 20
186.4091444515489
 30
0.0
 11
86.56173007005101
 21
186.3642563293451
 31
0.0
  0
LINE
  5
5A5
  8
0
  6
CONTINUOUS
 62
     7
 10
86.56173007005101
 20
186.3642563293451
 30
0.0
 11
86.54613634982724
 21
186.3185466106381
 31
0.0
  0
LINE
  5
5A6
  8
0
  6
CONTINUOUS
 62
     7
 10
86.54613634982724
 20
186.3185466106381
 30
0.0
 11
86.53274657989017
 21
186.2721730500226
 31
0.0
  0
LINE
  5
5A7
  8
0
  6
CONTINUOUS
 62
     7
 10
86.53274657989017
 20
186.2721730500226
 30
0.0
 11
86.52161451631515
 21
186.2252934020932
 31
0.0
  0
LINE
  5
5A8
  8
0
  6
CONTINUOUS
 62
     7
 10
86.52161451631515
 20
186.2252934020932
 30
0.0
 11
86.51279391517747
 21
186.1780654214448
 31
0.0
  0
LINE
  5
5A9
  8
0
  6
CONTINUOUS
 62
     7
 10
86.51279391517747
 20
186.1780654214448
 30
0.0
 11
86.50720805642173
 21
186.1384383633959
 31
0.0
  0
LINE
  5
5AA
  8
0
  6
CONTINUOUS
 62
     7
 10
86.50720805642173
 20
186.1384383633959
 30
0.0
 11
86.50320868246938
 21
186.0985876353109
 31
0.0
  0
LINE
  5
5AB
  8
0
  6
CONTINUOUS
 62
     7
 10
86.50320868246938
 20
186.0985876353109
 30
0.0
 11
86.50080344607672
 21
186.0586090092674
 31
0.0
  0
LINE
  5
5AC
  8
0
  6
CONTINUOUS
 62
     7
 10
86.50080344607672
 20
186.0586090092674
 30
0.0
 11
86.49999999999999
 21
186.0185982573426
 31
0.0
  0
LINE
  5
5AD
  8
0
  6
CONTINUOUS
 62
     7
 10
86.49999999999999
 20
239.9814017426573
 30
0.0
 11
86.50117841057592
 21
239.9333618212491
 31
0.0
  0
LINE
  5
5AE
  8
0
  6
CONTINUOUS
 62
     7
 10
86.50117841057592
 20
239.9333618212491
 30
0.0
 11
86.50469501907918
 21
239.8852972416733
 31
0.0
  0
LINE
  5
5AF
  8
0
  6
CONTINUOUS
 62
     7
 10
86.50469501907918
 20
239.8852972416733
 30
0.0
 11
86.5105218906729
 21
239.8373723829345
 31
0.0
  0
LINE
  5
5B0
  8
0
  6
CONTINUOUS
 62
     7
 10
86.5105218906729
 20
239.8373723829345
 30
0.0
 11
86.51863109052027
 21
239.7897516240373
 31
0.0
  0
LINE
  5
5B1
  8
0
  6
CONTINUOUS
 62
     7
 10
86.51863109052027
 20
239.7897516240373
 30
0.0
 11
86.52899468378448
 21
239.7425993439863
 31
0.0
  0
LINE
  5
5B2
  8
0
  6
CONTINUOUS
 62
     7
 10
86.52899468378448
 20
239.7425993439863
 30
0.0
 11
86.54158473562865
 21
239.6960799217862
 31
0.0
  0
LINE
  5
5B3
  8
0
  6
CONTINUOUS
 62
     7
 10
86.54158473562865
 20
239.6960799217862
 30
0.0
 11
86.55637331121598
 21
239.6503577364414
 31
0.0
  0
LINE
  5
5B4
  8
0
  6
CONTINUOUS
 62
     7
 10
86.55637331121598
 20
239.6503577364414
 30
0.0
 11
86.5733863522755
 21
239.6054154834261
 31
0.0
  0
LINE
  5
5B5
  8
0
  6
CONTINUOUS
 62
     7
 10
86.5733863522755
 20
239.6054154834261
 30
0.0
 11
86.59261438745706
 21
239.5612240258405
 31
0.0
  0
LINE
  5
5B6
  8
0
  6
CONTINUOUS
 62
     7
 10
86.59261438745706
 20
239.5612240258405
 30
0.0
 11
86.6139766123925
 21
239.5179292811439
 31
0.0
  0
LINE
  5
5B7
  8
0
  6
CONTINUOUS
 62
     7
 10
86.6139766123925
 20
239.5179292811439
 30
0.0
 11
86.63739222271369
 21
239.4756771667952
 31
0.0
  0
LINE
  5
5B8
  8
0
  6
CONTINUOUS
 62
     7
 10
86.63739222271369
 20
239.4756771667952
 30
0.0
 11
86.66278041405245
 21
239.4346136002536
 31
0.0
  0
LINE
  5
5B9
  8
0
  6
CONTINUOUS
 62
     7
 10
86.66278041405245
 20
239.4346136002536
 30
0.0
 11
86.69006038204068
 21
239.3948844989779
 31
0.0
  0
LINE
  5
5BA
  8
0
  6
CONTINUOUS
 62
     7
 10
86.69006038204068
 20
239.3948844989779
 30
0.0
 11
86.71915132231022
 21
239.3566357804274
 31
0.0
  0
LINE
  5
5BB
  8
0
  6
CONTINUOUS
 62
     7
 10
86.71915132231022
 20
239.3566357804274
 30
0.0
 11
86.75007918961005
 21
239.3198645032121
 31
0.0
  0
LINE
  5
5BC
  8
0
  6
CONTINUOUS
 62
     7
 10
86.75007918961005
 20
239.3198645032121
 30
0.0
 11
86.7828484196396
 21
239.2845348246657
 31
0.0
  0
LINE
  5
5BD
  8
0
  6
CONTINUOUS
 62
     7
 10
86.7828484196396
 20
239.2845348246657
 30
0.0
 11
86.81733445637846
 21
239.2507576509238
 31
0.0
  0
LINE
  5
5BE
  8
0
  6
CONTINUOUS
 62
     7
 10
86.81733445637846
 20
239.2507576509238
 30
0.0
 11
86.85341274380606
 21
239.2186438881216
 31
0.0
  0
LINE
  5
5BF
  8
0
  6
CONTINUOUS
 62
     7
 10
86.85341274380606
 20
239.2186438881216
 30
0.0
 11
86.89095872590198
 21
239.1883044423947
 31
0.0
  0
LINE
  5
5C0
  8
0
  6
CONTINUOUS
 62
     7
 10
86.89095872590198
 20
239.1883044423947
 30
0.0
 11
86.9298478466457
 21
239.1598502198785
 31
0.0
  0
LINE
  5
5C1
  8
0
  6
CONTINUOUS
 62
     7
 10
86.9298478466457
 20
239.1598502198785
 30
0.0
 11
86.96995555001675
 21
239.1333921267085
 31
0.0
  0
LINE
  5
5C2
  8
0
  6
CONTINUOUS
 62
     7
 10
86.96995555001675
 20
239.1333921267085
 30
0.0
 11
87.01130705491886
 21
239.108936068455
 31
0.0
  0
LINE
  5
5C3
  8
0
  6
CONTINUOUS
 62
     7
 10
87.01130705491886
 20
239.108936068455
 30
0.0
 11
87.05391858796979
 21
239.0864495202309
 31
0.0
  0
LINE
  5
5C4
  8
0
  6
CONTINUOUS
 62
     7
 10
87.05391858796979
 20
239.0864495202309
 30
0.0
 11
87.09763594037791
 21
239.0659958455518
 31
0.0
  0
LINE
  5
5C5
  8
0
  6
CONTINUOUS
 62
     7
 10
87.09763594037791
 20
239.0659958455518
 30
0.0
 11
87.1423049033515
 21
239.0476384079335
 31
0.0
  0
LINE
  5
5C6
  8
0
  6
CONTINUOUS
 62
     7
 10
87.1423049033515
 20
239.0476384079335
 30
0.0
 11
87.18777126809893
 21
239.0314405708915
 31
0.0
  0
LINE
  5
5C7
  8
0
  6
CONTINUOUS
 62
     7
 10
87.18777126809893
 20
239.0314405708915
 30
0.0
 11
87.23388082582849
 21
239.0174656979415
 31
0.0
  0
LINE
  5
5C8
  8
0
  6
CONTINUOUS
 62
     7
 10
87.23388082582849
 20
239.0174656979415
 30
0.0
 11
87.2804793677485
 21
239.0057771525992
 31
0.0
  0
LINE
  5
5C9
  8
0
  6
CONTINUOUS
 62
     7
 10
87.2804793677485
 20
239.0057771525992
 30
0.0
 11
87.32759350394574
 21
238.9963879711697
 31
0.0
  0
LINE
  5
5CA
  8
0
  6
CONTINUOUS
 62
     7
 10
87.32759350394574
 20
238.9963879711697
 30
0.0
 11
87.37524461800916
 21
238.9892740966796
 31
0.0
  0
LINE
  5
5CB
  8
0
  6
CONTINUOUS
 62
     7
 10
87.37524461800916
 20
238.9892740966796
 30
0.0
 11
87.4232662632841
 21
238.98444424194
 31
0.0
  0
LINE
  5
5CC
  8
0
  6
CONTINUOUS
 62
     7
 10
87.4232662632841
 20
238.98444424194
 30
0.0
 11
87.4714919931159
 21
238.9819071197621
 31
0.0
  0
LINE
  5
5CD
  8
0
  6
CONTINUOUS
 62
     7
 10
87.4714919931159
 20
238.9819071197621
 30
0.0
 11
87.51975536084994
 21
238.981671442957
 31
0.0
  0
LINE
  5
5CE
  8
0
  6
CONTINUOUS
 62
     7
 10
87.51975536084994
 20
238.981671442957
 30
0.0
 11
87.56788991983156
 21
238.9837459243359
 31
0.0
  0
LINE
  5
5CF
  8
0
  6
CONTINUOUS
 62
     7
 10
87.56788991983156
 20
238.9837459243359
 30
0.0
 11
87.61572922340608
 21
238.9881392767101
 31
0.0
  0
LINE
  5
5D0
  8
0
  6
CONTINUOUS
 62
     7
 10
87.61572922340608
 20
238.9881392767101
 30
0.0
 11
87.66329952000908
 21
238.9948734760942
 31
0.0
  0
LINE
  5
5D1
  8
0
  6
CONTINUOUS
 62
     7
 10
87.66329952000908
 20
238.9948734760942
 30
0.0
 11
87.71062344264736
 21
239.0039325107857
 31
0.0
  0
LINE
  5
5D2
  8
0
  6
CONTINUOUS
 62
     7
 10
87.71062344264736
 20
239.0039325107857
 30
0.0
 11
87.75754105757439
 21
239.0152695040921
 31
0.0
  0
LINE
  5
5D3
  8
0
  6
CONTINUOUS
 62
     7
 10
87.75754105757439
 20
239.0152695040921
 30
0.0
 11
87.80389243104361
 21
239.0288375793211
 31
0.0
  0
LINE
  5
5D4
  8
0
  6
CONTINUOUS
 62
     7
 10
87.80389243104361
 20
239.0288375793211
 30
0.0
 11
87.84951762930851
 21
239.0445898597804
 31
0.0
  0
LINE
  5
5D5
  8
0
  6
CONTINUOUS
 62
     7
 10
87.84951762930851
 20
239.0445898597804
 30
0.0
 11
87.89425671862253
 21
239.0624794687776
 31
0.0
  0
LINE
  5
5D6
  8
0
  6
CONTINUOUS
 62
     7
 10
87.89425671862253
 20
239.0624794687776
 30
0.0
 11
87.93794976523914
 21
239.0824595296203
 31
0.0
  0
LINE
  5
5D7
  8
0
  6
CONTINUOUS
 62
     7
 10
87.93794976523914
 20
239.0824595296203
 30
0.0
 11
87.97356571855342
 21
239.100708075324
 31
0.0
  0
LINE
  5
5D8
  8
0
  6
CONTINUOUS
 62
     7
 10
87.97356571855342
 20
239.100708075324
 30
0.0
 11
88.00845111524924
 21
239.1203825415537
 31
0.0
  0
LINE
  5
5D9
  8
0
  6
CONTINUOUS
 62
     7
 10
88.00845111524924
 20
239.1203825415537
 30
0.0
 11
88.04252324409342
 21
239.1414340436759
 31
0.0
  0
LINE
  5
5DA
  8
0
  6
CONTINUOUS
 62
     7
 10
88.04252324409342
 20
239.1414340436759
 30
0.0
 11
88.07569939385277
 21
239.1638136970572
 31
0.0
  0
LINE
  5
5DB
  8
0
  6
CONTINUOUS
 62
     7
 10
124.9243006061472
 20
239.1638136970572
 30
0.0
 11
124.9642574481756
 21
239.1371177520961
 31
0.0
  0
LINE
  5
5DC
  8
0
  6
CONTINUOUS
 62
     7
 10
124.9642574481756
 20
239.1371177520961
 30
0.0
 11
125.0055806906149
 21
239.1123193654282
 31
0.0
  0
LINE
  5
5DD
  8
0
  6
CONTINUOUS
 62
     7
 10
125.0055806906149
 20
239.1123193654282
 30
0.0
 11
125.0481198502943
 21
239.089490339752
 31
0.0
  0
LINE
  5
5DE
  8
0
  6
CONTINUOUS
 62
     7
 10
125.0481198502943
 20
239.089490339752
 30
0.0
 11
125.0917244440429
 21
239.068702477766
 31
0.0
  0
LINE
  5
5DF
  8
0
  6
CONTINUOUS
 62
     7
 10
125.0917244440429
 20
239.068702477766
 30
0.0
 11
125.13624398869
 21
239.0500275821688
 31
0.0
  0
LINE
  5
5E0
  8
0
  6
CONTINUOUS
 62
     7
 10
125.13624398869
 20
239.0500275821688
 30
0.0
 11
125.1815280010647
 21
239.0335374556588
 31
0.0
  0
LINE
  5
5E1
  8
0
  6
CONTINUOUS
 62
     7
 10
125.1815280010647
 20
239.0335374556588
 30
0.0
 11
125.2274259979962
 21
239.0193039009345
 31
0.0
  0
LINE
  5
5E2
  8
0
  6
CONTINUOUS
 62
     7
 10
125.2274259979962
 20
239.0193039009345
 30
0.0
 11
125.2739670641951
 21
239.007338165208
 31
0.0
  0
LINE
  5
5E3
  8
0
  6
CONTINUOUS
 62
     7
 10
125.2739670641951
 20
239.007338165208
 30
0.0
 11
125.3211695693268
 21
238.9976157286801
 31
0.0
  0
LINE
  5
5E4
  8
0
  6
CONTINUOUS
 62
     7
 10
125.3211695693268
 20
238.9976157286801
 30
0.0
 11
125.3688676846039
 21
238.9901545374979
 31
0.0
  0
LINE
  5
5E5
  8
0
  6
CONTINUOUS
 62
     7
 10
125.3688676846039
 20
238.9901545374979
 30
0.0
 11
125.4168955812387
 21
238.9849725378087
 31
0.0
  0
LINE
  5
5E6
  8
0
  6
CONTINUOUS
 62
     7
 10
125.4168955812387
 20
238.9849725378087
 30
0.0
 11
125.4650874304439
 21
238.9820876757597
 31
0.0
  0
LINE
  5
5E7
  8
0
  6
CONTINUOUS
 62
     7
 10
125.4650874304439
 20
238.9820876757597
 30
0.0
 11
125.5132774034319
 21
238.981517897498
 31
0.0
  0
LINE
  5
5E8
  8
0
  6
CONTINUOUS
 62
     7
 10
125.5132774034319
 20
238.981517897498
 30
0.0
 11
125.5612996714151
 21
238.9832811491709
 31
0.0
  0
LINE
  5
5E9
  8
0
  6
CONTINUOUS
 62
     7
 10
125.5612996714151
 20
238.9832811491709
 30
0.0
 11
125.6091715829463
 21
238.9873969583379
 31
0.0
  0
LINE
  5
5EA
  8
0
  6
CONTINUOUS
 62
     7
 10
125.6091715829463
 20
238.9873969583379
 30
0.0
 11
125.6569249976472
 21
238.993848314961
 31
0.0
  0
LINE
  5
5EB
  8
0
  6
CONTINUOUS
 62
     7
 10
125.6569249976472
 20
238.993848314961
 30
0.0
 11
125.7043975222359
 21
239.0025972348978
 31
0.0
  0
LINE
  5
5EC
  8
0
  6
CONTINUOUS
 62
     7
 10
125.7043975222359
 20
239.0025972348978
 30
0.0
 11
125.7514267634306
 21
239.0136057340063
 31
0.0
  0
LINE
  5
5ED
  8
0
  6
CONTINUOUS
 62
     7
 10
125.7514267634306
 20
239.0136057340063
 30
0.0
 11
125.7978503279493
 21
239.0268358281443
 31
0.0
  0
LINE
  5
5EE
  8
0
  6
CONTINUOUS
 62
     7
 10
125.7978503279493
 20
239.0268358281443
 30
0.0
 11
125.8435058225101
 21
239.0422495331697
 31
0.0
  0
LINE
  5
5EF
  8
0
  6
CONTINUOUS
 62
     7
 10
125.8435058225101
 20
239.0422495331697
 30
0.0
 11
125.888230853831
 21
239.0598088649404
 31
0.0
  0
LINE
  5
5F0
  8
0
  6
CONTINUOUS
 62
     7
 10
125.888230853831
 20
239.0598088649404
 30
0.0
 11
125.9320351134213
 21
239.0795378431006
 31
0.0
  0
LINE
  5
5F1
  8
0
  6
CONTINUOUS
 62
     7
 10
125.9320351134213
 20
239.0795378431006
 30
0.0
 11
125.9749545368846
 21
239.1014310083357
 31
0.0
  0
LINE
  5
5F2
  8
0
  6
CONTINUOUS
 62
     7
 10
125.9749545368846
 20
239.1014310083357
 30
0.0
 11
126.0168485298357
 21
239.1253987587195
 31
0.0
  0
LINE
  5
5F3
  8
0
  6
CONTINUOUS
 62
     7
 10
126.0168485298357
 20
239.1253987587195
 30
0.0
 11
126.0575764978898
 21
239.1513514923259
 31
0.0
  0
LINE
  5
5F4
  8
0
  6
CONTINUOUS
 62
     7
 10
126.0575764978898
 20
239.1513514923259
 30
0.0
 11
126.0969978466616
 21
239.1791996072286
 31
0.0
  0
LINE
  5
5F5
  8
0
  6
CONTINUOUS
 62
     7
 10
126.0969978466616
 20
239.1791996072286
 30
0.0
 11
126.134971981766
 21
239.2088535015013
 31
0.0
  0
LINE
  5
5F6
  8
0
  6
CONTINUOUS
 62
     7
 10
126.134971981766
 20
239.2088535015013
 30
0.0
 11
126.171358308818
 21
239.240223573218
 31
0.0
  0
LINE
  5
5F7
  8
0
  6
CONTINUOUS
 62
     7
 10
126.171358308818
 20
239.240223573218
 30
0.0
 11
126.2061614901468
 21
239.2733390851249
 31
0.0
  0
LINE
  5
5F8
  8
0
  6
CONTINUOUS
 62
     7
 10
126.2061614901468
 20
239.2733390851249
 30
0.0
 11
126.2394135069382
 21
239.3082036697769
 31
0.0
  0
LINE
  5
5F9
  8
0
  6
CONTINUOUS
 62
     7
 10
126.2394135069382
 20
239.3082036697769
 30
0.0
 11
126.2710114022059
 21
239.3446862536804
 31
0.0
  0
LINE
  5
5FA
  8
0
  6
CONTINUOUS
 62
     7
 10
126.2710114022059
 20
239.3446862536804
 30
0.0
 11
126.3008522189633
 21
239.3826557633415
 31
0.0
  0
LINE
  5
5FB
  8
0
  6
CONTINUOUS
 62
     7
 10
126.3008522189633
 20
239.3826557633415
 30
0.0
 11
126.3288330002242
 21
239.4219811252664
 31
0.0
  0
LINE
  5
5FC
  8
0
  6
CONTINUOUS
 62
     7
 10
126.3288330002242
 20
239.4219811252664
 30
0.0
 11
126.3548507890019
 21
239.4625312659613
 31
0.0
  0
LINE
  5
5FD
  8
0
  6
CONTINUOUS
 62
     7
 10
126.3548507890019
 20
239.4625312659613
 30
0.0
 11
126.3788026283102
 21
239.5041751119323
 31
0.0
  0
LINE
  5
5FE
  8
0
  6
CONTINUOUS
 62
     7
 10
126.3788026283102
 20
239.5041751119323
 30
0.0
 11
126.4006856629424
 21
239.5469467773453
 31
0.0
  0
LINE
  5
5FF
  8
0
  6
CONTINUOUS
 62
     7
 10
126.4006856629424
 20
239.5469467773453
 30
0.0
 11
126.4205260155138
 21
239.590855548451
 31
0.0
  0
LINE
  5
600
  8
0
  6
CONTINUOUS
 62
     7
 10
126.4205260155138
 20
239.590855548451
 30
0.0
 11
126.438269929949
 21
239.6357436706548
 31
0.0
  0
LINE
  5
601
  8
0
  6
CONTINUOUS
 62
     7
 10
126.438269929949
 20
239.6357436706548
 30
0.0
 11
126.4538636501727
 21
239.6814533893618
 31
0.0
  0
LINE
  5
602
  8
0
  6
CONTINUOUS
 62
     7
 10
126.4538636501727
 20
239.6814533893618
 30
0.0
 11
126.4672534201098
 21
239.7278269499773
 31
0.0
  0
LINE
  5
603
  8
0
  6
CONTINUOUS
 62
     7
 10
126.4672534201098
 20
239.7278269499773
 30
0.0
 11
126.4783854836848
 21
239.7747065979067
 31
0.0
  0
LINE
  5
604
  8
0
  6
CONTINUOUS
 62
     7
 10
126.4783854836848
 20
239.7747065979067
 30
0.0
 11
126.4872060848225
 21
239.8219345785551
 31
0.0
  0
LINE
  5
605
  8
0
  6
CONTINUOUS
 62
     7
 10
126.4872060848225
 20
239.8219345785551
 30
0.0
 11
126.4927919435783
 21
239.861561636604
 31
0.0
  0
LINE
  5
606
  8
0
  6
CONTINUOUS
 62
     7
 10
126.4927919435783
 20
239.861561636604
 30
0.0
 11
126.4967913175306
 21
239.9014123646889
 31
0.0
  0
LINE
  5
607
  8
0
  6
CONTINUOUS
 62
     7
 10
126.4967913175306
 20
239.9014123646889
 30
0.0
 11
126.4991965539233
 21
239.9413909907325
 31
0.0
  0
LINE
  5
608
  8
0
  6
CONTINUOUS
 62
     7
 10
126.4991965539233
 20
239.9413909907325
 30
0.0
 11
126.5
 21
239.9814017426573
 31
0.0
  0
LINE
  5
609
  8
0
  6
CONTINUOUS
 62
   253
 10
126.5
 20
239.9814017426573
 30
0.0
 11
126.534907471163
 21
239.9140421155521
 31
0.0
  0
LINE
  5
60A
  8
0
  6
CONTINUOUS
 62
     7
 10
134.8983242061068
 20
192.5418675758306
 30
0.0
 11
135.4293690169771
 21
193.2999591807639
 31
0.0
  0
LINE
  5
60B
  8
0
  6
CONTINUOUS
 62
     7
 10
126.534907471163
 20
241.6984752665003
 30
0.0
 11
126.534907471163
 21
243.8035338873034
 31
0.0
  0
LINE
  5
60C
  8
0
  6
CONTINUOUS
 62
     7
 10
126.5
 20
239.9814017426573
 30
0.0
 11
126.5
 21
241.1957187011607
 31
0.0
  0
ARC
  5
60D
  8
0
  6
CONTINUOUS
 62
   253
 10
107.4999619230642
 20
212.9999999999999
 30
0.0
 40
34.0
 50
55.98063157957765
 51
56.02544667460214
  0
LINE
  5
60E
  8
0
  6
CONTINUOUS
 62
   253
 10
126.534907471163
 20
243.8035338873034
 30
0.0
 11
126.522048058164
 21
241.1808487996518
 31
0.0
  0
LINE
  5
60F
  8
0
  6
CONTINUOUS
 62
     7
 10
77.57063098302285
 20
193.299959180764
 30
0.0
 11
78.10167579389321
 21
192.5418675758306
 31
0.0
  0
LINE
  5
610
  8
0
  6
CONTINUOUS
 62
     7
 10
134.8252763540308
 20
233.5591517205301
 30
0.0
 11
134.8252763540309
 21
249.185711782382
 31
0.0
  0
ARC
  5
611
  8
0
  6
CONTINUOUS
 62
     7
 10
106.5
 20
212.9999999999999
 30
0.0
 40
35.00000000000001
 50
35.76895110812745
 51
35.9730274768566
  0
LINE
  5
612
  8
0
  6
CONTINUOUS
 62
     7
 10
135.4293690169771
 20
232.7000408192359
 30
0.0
 11
134.8983242061068
 21
233.4581324241693
 31
0.0
  0
LINE
  5
613
  8
0
  6
CONTINUOUS
 62
     7
 10
132.0
 20
175.8150471829406
 30
0.0
 11
133.8284716469621
 21
175.8150471829406
 31
0.0
  0
LINE
  5
614
  8
0
  6
CONTINUOUS
 62
     7
 10
130.6436842532728
 20
175.4650925288369
 30
0.0
 11
132.0
 21
175.4650925288369
 31
0.0
  0
LINE
  5
615
  8
0
  6
CONTINUOUS
 62
     7
 10
131.9727800729867
 20
175.5421617568326
 30
0.0
 11
132.0
 21
175.8150471829406
 31
0.0
  0
LINE
  5
616
  8
0
  6
CONTINUOUS
 62
     7
 10
134.8252763540309
 20
176.8142882176179
 30
0.0
 11
134.8252763540308
 21
192.4408482794697
 31
0.0
  0
ARC
  5
617
  8
0
  6
CONTINUOUS
 62
     7
 10
106.5
 20
212.9999999999999
 30
0.0
 40
35.00000000000001
 50
324.0269725231435
 51
324.2310488918724
  0
ARC
  5
618
  8
0
  6
CONTINUOUS
 62
     7
 10
106.5
 20
212.9999999999999
 30
0.0
 40
37.55
 50
208.6436665829432
 51
209.5166479644274
  0
ARC
  5
619
  8
0
  6
CONTINUOUS
 62
     7
 10
106.5
 20
212.9999999999999
 30
0.0
 40
37.55
 50
179.6185339360506
 51
180.3814660639494
  0
ARC
  5
61A
  8
0
  6
CONTINUOUS
 62
     7
 10
106.5
 20
212.9999999999999
 30
0.0
 40
37.55
 50
150.4833520355725
 51
151.3563334170568
  0
LINE
  5
61B
  8
0
  6
CONTINUOUS
 62
     7
 10
73.823517631177
 20
231.4999999999999
 30
0.0
 11
73.3073803383945
 21
231.4999999999999
 31
0.0
  0
ARC
  5
61C
  8
0
  6
CONTINUOUS
 62
     7
 10
106.5
 20
212.9999999999999
 30
0.0
 40
34.99999999999999
 50
145.7462997391829
 51
214.2537002608171
  0
LINE
  5
61D
  8
0
  6
CONTINUOUS
 62
     7
 10
73.54544796238311
 20
194.9999999999999
 30
0.0
 11
73.03359893863697
 21
194.9999999999999
 31
0.0
  0
LINE
  5
61E
  8
0
  6
CONTINUOUS
 62
     7
 10
73.03359893863697
 20
230.9999999999999
 30
0.0
 11
73.54544796238311
 21
230.9999999999999
 31
0.0
  0
LINE
  5
61F
  8
0
  6
CONTINUOUS
 62
     7
 10
68.95083223292423
 20
212.7499999999999
 30
0.0
 11
68.50082237731979
 21
212.7499999999999
 31
0.0
  0
LINE
  5
620
  8
0
  6
CONTINUOUS
 62
     7
 10
68.50082237731979
 20
213.2499999999999
 30
0.0
 11
68.95083223292423
 21
213.2499999999999
 31
0.0
  0
LINE
  5
621
  8
0
  6
CONTINUOUS
 62
     7
 10
73.3073803383945
 20
194.4999999999999
 30
0.0
 11
73.823517631177
 21
194.4999999999999
 31
0.0
  0
LINE
  5
622
  8
0
  6
CONTINUOUS
 62
     7
 10
132.0
 20
250.534907471163
 30
0.0
 11
130.6436842532728
 21
250.534907471163
 31
0.0
  0
LINE
  5
623
  8
0
  6
CONTINUOUS
 62
     7
 10
125.8242133471535
 20
245.7196390339761
 30
0.0
 11
125.9319893854198
 21
245.6422016361874
 31
0.0
  0
LINE
  5
624
  8
0
  6
CONTINUOUS
 62
     7
 10
125.9319893854198
 20
245.6422016361874
 30
0.0
 11
126.0272567722865
 21
245.5486118829767
 31
0.0
  0
LINE
  5
625
  8
0
  6
CONTINUOUS
 62
     7
 10
126.0272567722865
 20
245.5486118829767
 30
0.0
 11
126.1370235010721
 21
245.4060004763615
 31
0.0
  0
LINE
  5
626
  8
0
  6
CONTINUOUS
 62
     7
 10
126.1370235010721
 20
245.4060004763615
 30
0.0
 11
126.2300109464256
 21
245.2481688926481
 31
0.0
  0
LINE
  5
627
  8
0
  6
CONTINUOUS
 62
     7
 10
126.2300109464256
 20
245.2481688926481
 30
0.0
 11
126.3069664624672
 21
245.0814986222
 31
0.0
  0
ARC
  5
628
  8
0
  6
CONTINUOUS
 62
     7
 10
123.1377186665941
 20
243.8569131698736
 30
0.0
 40
3.397608147167065
 50
359.0997980625563
 51
21.12634486277636
  0
ARC
  5
629
  8
0
  6
CONTINUOUS
 62
     7
 10
106.5
 20
212.9999999999999
 30
0.0
 40
38.00000000000001
 50
59.43390826250277
 51
89.62305136290115
  0
LINE
  5
62A
  8
0
  6
CONTINUOUS
 62
     7
 10
106.75
 20
250.9991776226802
 30
0.0
 11
106.75
 21
259.9999999999999
 31
0.0
  0
LINE
  5
62B
  8
0
  6
CONTINUOUS
 62
     7
 10
35.04174243050441
 20
213.2499999999999
 30
0.0
 11
35.04174243050441
 21
212.7499999999999
 31
0.0
  0
LINE
  5
62C
  8
0
  6
CONTINUOUS
 62
     7
 10
35.04174243050441
 20
212.7499999999999
 30
0.0
 11
35.49999999999999
 21
212.7499999999999
 31
0.0
  0
LINE
  5
62D
  8
0
  6
CONTINUOUS
 62
     7
 10
34.99999999999999
 20
167.4999999999999
 30
0.0
 11
34.99999999999999
 21
258.4999999999999
 31
0.0
  0
LINE
  5
62E
  8
0
  6
CONTINUOUS
 62
     7
 10
35.49999999999999
 20
213.2499999999999
 30
0.0
 11
35.04174243050441
 21
213.2499999999999
 31
0.0
  0
LINE
  5
62F
  8
0
  6
CONTINUOUS
 62
     7
 10
46.99999999999999
 20
255.9999999999999
 30
0.0
 11
46.99999999999999
 21
253.4912731322092
 31
0.0
  0
LINE
  5
630
  8
0
  6
CONTINUOUS
 62
     7
 10
46.99999999999999
 20
255.9999999999999
 30
0.0
 11
46.98078528040323
 21
256.2926354830241
 31
0.0
  0
LINE
  5
631
  8
0
  6
CONTINUOUS
 62
     7
 10
46.98078528040323
 20
256.2926354830241
 30
0.0
 11
46.92387953251128
 21
256.5740251485475
 31
0.0
  0
LINE
  5
632
  8
0
  6
CONTINUOUS
 62
     7
 10
46.92387953251128
 20
256.5740251485475
 30
0.0
 11
46.83146961230254
 21
256.8333553495294
 31
0.0
  0
LINE
  5
633
  8
0
  6
CONTINUOUS
 62
     7
 10
46.83146961230254
 20
256.8333553495294
 30
0.0
 11
46.70710678118654
 21
257.0606601717798
 31
0.0
  0
LINE
  5
634
  8
0
  6
CONTINUOUS
 62
     7
 10
46.70710678118654
 20
257.0606601717798
 30
0.0
 11
46.55557023301959
 21
257.2472044184537
 31
0.0
  0
LINE
  5
635
  8
0
  6
CONTINUOUS
 62
     7
 10
46.55557023301959
 20
257.2472044184537
 30
0.0
 11
46.38268343236508
 21
257.3858192987669
 31
0.0
  0
LINE
  5
636
  8
0
  6
CONTINUOUS
 62
     7
 10
46.38268343236508
 20
257.3858192987669
 30
0.0
 11
46.19509032201612
 21
257.4711779206048
 31
0.0
  0
LINE
  5
637
  8
0
  6
CONTINUOUS
 62
     7
 10
46.19509032201612
 20
257.4711779206048
 30
0.0
 11
45.99999999999999
 21
257.4999999999999
 31
0.0
  0
ARC
  5
638
  8
0
  6
CONTINUOUS
 62
     7
 10
176.0
 20
167.4999999999999
 30
0.0
 40
2.000000000000002
 50
270.0
 51
0.0
  0
LINE
  5
639
  8
0
  6
CONTINUOUS
 62
     7
 10
81.0
 20
260.4999999999999
 30
0.0
 11
132.0
 21
260.4999999999999
 31
0.0
  0
LINE
  5
63A
  8
0
  6
CONTINUOUS
 62
     7
 10
106.75
 20
259.9999999999999
 30
0.0
 11
106.75
 21
260.4582575694955
 31
0.0
  0
LINE
  5
63B
  8
0
  6
CONTINUOUS
 62
     7
 10
106.75
 20
260.4582575694955
 30
0.0
 11
106.25
 21
260.4582575694955
 31
0.0
  0
LINE
  5
63C
  8
0
  6
CONTINUOUS
 62
     7
 10
106.25
 20
260.4582575694955
 30
0.0
 11
106.25
 21
259.9999999999999
 31
0.0
  0
LINE
  5
63D
  8
0
  6
CONTINUOUS
 62
     7
 10
177.9582575694955
 20
212.7499999999999
 30
0.0
 11
177.9582575694956
 21
213.2499999999999
 31
0.0
  0
LINE
  5
63E
  8
0
  6
CONTINUOUS
 62
     7
 10
178.0
 20
258.4999999999999
 30
0.0
 11
178.0
 21
167.4999999999999
 31
0.0
  0
LINE
  5
63F
  8
0
  6
CONTINUOUS
 62
     7
 10
177.5
 20
212.7499999999999
 30
0.0
 11
177.9582575694956
 21
212.7499999999999
 31
0.0
  0
LINE
  5
640
  8
0
  6
CONTINUOUS
 62
     7
 10
177.9582575694956
 20
213.2499999999999
 30
0.0
 11
177.5
 21
213.2499999999999
 31
0.0
  0
LINE
  5
641
  8
0
  6
CONTINUOUS
 62
     7
 10
171.5120388964152
 20
250.9999999999999
 30
0.0
 11
171.5120388964152
 21
250.7499999999999
 31
0.0
  0
LINE
  5
642
  8
0
  6
CONTINUOUS
 62
     7
 10
126.5
 20
186.0185982573426
 30
0.0
 11
126.4988215894241
 21
186.0666381787508
 31
0.0
  0
LINE
  5
643
  8
0
  6
CONTINUOUS
 62
     7
 10
126.4988215894241
 20
186.0666381787508
 30
0.0
 11
126.4953049809208
 21
186.1147027583266
 31
0.0
  0
LINE
  5
644
  8
0
  6
CONTINUOUS
 62
     7
 10
126.4953049809208
 20
186.1147027583266
 30
0.0
 11
126.4894781093271
 21
186.1626276170654
 31
0.0
  0
LINE
  5
645
  8
0
  6
CONTINUOUS
 62
     7
 10
126.4894781093271
 20
186.1626276170654
 30
0.0
 11
126.4813689094797
 21
186.2102483759625
 31
0.0
  0
LINE
  5
646
  8
0
  6
CONTINUOUS
 62
     7
 10
126.4813689094797
 20
186.2102483759625
 30
0.0
 11
126.4710053162155
 21
186.2574006560135
 31
0.0
  0
LINE
  5
647
  8
0
  6
CONTINUOUS
 62
     7
 10
126.4710053162155
 20
186.2574006560135
 30
0.0
 11
126.4584152643713
 21
186.3039200782137
 31
0.0
  0
LINE
  5
648
  8
0
  6
CONTINUOUS
 62
     7
 10
126.4584152643713
 20
186.3039200782137
 30
0.0
 11
126.443626688784
 21
186.3496422635584
 31
0.0
  0
LINE
  5
649
  8
0
  6
CONTINUOUS
 62
     7
 10
126.443626688784
 20
186.3496422635584
 30
0.0
 11
126.4266136477245
 21
186.3945845165738
 31
0.0
  0
LINE
  5
64A
  8
0
  6
CONTINUOUS
 62
     7
 10
126.4266136477245
 20
186.3945845165738
 30
0.0
 11
126.4073856125429
 21
186.4387759741593
 31
0.0
  0
LINE
  5
64B
  8
0
  6
CONTINUOUS
 62
     7
 10
126.4073856125429
 20
186.4387759741593
 30
0.0
 11
126.3860233876075
 21
186.482070718856
 31
0.0
  0
LINE
  5
64C
  8
0
  6
CONTINUOUS
 62
     7
 10
126.3860233876075
 20
186.482070718856
 30
0.0
 11
126.3626077772863
 21
186.5243228332046
 31
0.0
  0
LINE
  5
64D
  8
0
  6
CONTINUOUS
 62
     7
 10
126.3626077772863
 20
186.5243228332046
 30
0.0
 11
126.3372195859475
 21
186.5653863997463
 31
0.0
  0
LINE
  5
64E
  8
0
  6
CONTINUOUS
 62
     7
 10
126.3372195859475
 20
186.5653863997463
 30
0.0
 11
126.3099396179593
 21
186.6051155010219
 31
0.0
  0
LINE
  5
64F
  8
0
  6
CONTINUOUS
 62
     7
 10
126.3099396179593
 20
186.6051155010219
 30
0.0
 11
126.2808486776898
 21
186.6433642195724
 31
0.0
  0
LINE
  5
650
  8
0
  6
CONTINUOUS
 62
     7
 10
126.2808486776898
 20
186.6433642195724
 30
0.0
 11
126.24992081039
 21
186.6801354967878
 31
0.0
  0
LINE
  5
651
  8
0
  6
CONTINUOUS
 62
     7
 10
126.24992081039
 20
186.6801354967878
 30
0.0
 11
126.2171515803604
 21
186.7154651753341
 31
0.0
  0
LINE
  5
652
  8
0
  6
CONTINUOUS
 62
     7
 10
126.2171515803604
 20
186.7154651753341
 30
0.0
 11
126.1826655436215
 21
186.7492423490761
 31
0.0
  0
LINE
  5
653
  8
0
  6
CONTINUOUS
 62
     7
 10
126.1826655436215
 20
186.7492423490761
 30
0.0
 11
126.1465872561939
 21
186.7813561118783
 31
0.0
  0
LINE
  5
654
  8
0
  6
CONTINUOUS
 62
     7
 10
126.1465872561939
 20
186.7813561118783
 30
0.0
 11
126.109041274098
 21
186.8116955576052
 31
0.0
  0
LINE
  5
655
  8
0
  6
CONTINUOUS
 62
     7
 10
126.109041274098
 20
186.8116955576052
 30
0.0
 11
126.0701521533543
 21
186.8401497801213
 31
0.0
  0
LINE
  5
656
  8
0
  6
CONTINUOUS
 62
     7
 10
126.0701521533543
 20
186.8401497801213
 30
0.0
 11
126.0300444499833
 21
186.8666078732913
 31
0.0
  0
LINE
  5
657
  8
0
  6
CONTINUOUS
 62
     7
 10
126.0300444499833
 20
186.8666078732913
 30
0.0
 11
125.9886929450811
 21
186.8910639315448
 31
0.0
  0
LINE
  5
658
  8
0
  6
CONTINUOUS
 62
     7
 10
125.9886929450811
 20
186.8910639315448
 30
0.0
 11
125.9460814120302
 21
186.913550479769
 31
0.0
  0
LINE
  5
659
  8
0
  6
CONTINUOUS
 62
     7
 10
125.9460814120302
 20
186.913550479769
 30
0.0
 11
125.9023640596221
 21
186.934004154448
 31
0.0
  0
LINE
  5
65A
  8
0
  6
CONTINUOUS
 62
     7
 10
125.9023640596221
 20
186.934004154448
 30
0.0
 11
125.8576950966485
 21
186.9523615920664
 31
0.0
  0
LINE
  5
65B
  8
0
  6
CONTINUOUS
 62
     7
 10
125.8576950966485
 20
186.9523615920664
 30
0.0
 11
125.8122287319011
 21
186.9685594291084
 31
0.0
  0
LINE
  5
65C
  8
0
  6
CONTINUOUS
 62
     7
 10
125.8122287319011
 20
186.9685594291084
 30
0.0
 11
125.7661191741715
 21
186.9825343020584
 31
0.0
  0
LINE
  5
65D
  8
0
  6
CONTINUOUS
 62
     7
 10
125.7661191741715
 20
186.9825343020584
 30
0.0
 11
125.7195206322515
 21
186.9942228474007
 31
0.0
  0
LINE
  5
65E
  8
0
  6
CONTINUOUS
 62
     7
 10
125.7195206322515
 20
186.9942228474007
 30
0.0
 11
125.6724064960543
 21
187.0036120288301
 31
0.0
  0
LINE
  5
65F
  8
0
  6
CONTINUOUS
 62
     7
 10
125.6724064960543
 20
187.0036120288301
 30
0.0
 11
125.6247553819908
 21
187.0107259033203
 31
0.0
  0
LINE
  5
660
  8
0
  6
CONTINUOUS
 62
     7
 10
125.6247553819908
 20
187.0107259033203
 30
0.0
 11
125.5767337367159
 21
187.0155557580599
 31
0.0
  0
LINE
  5
661
  8
0
  6
CONTINUOUS
 62
     7
 10
125.5767337367159
 20
187.0155557580599
 30
0.0
 11
125.5285080068841
 21
187.0180928802378
 31
0.0
  0
LINE
  5
662
  8
0
  6
CONTINUOUS
 62
     7
 10
125.5285080068841
 20
187.0180928802378
 30
0.0
 11
125.4802446391501
 21
187.0183285570429
 31
0.0
  0
LINE
  5
663
  8
0
  6
CONTINUOUS
 62
     7
 10
125.4802446391501
 20
187.0183285570429
 30
0.0
 11
125.4321100801685
 21
187.0162540756639
 31
0.0
  0
LINE
  5
664
  8
0
  6
CONTINUOUS
 62
     7
 10
125.4321100801685
 20
187.0162540756639
 30
0.0
 11
125.3842707765939
 21
187.0118607232897
 31
0.0
  0
LINE
  5
665
  8
0
  6
CONTINUOUS
 62
     7
 10
125.3842707765939
 20
187.0118607232897
 30
0.0
 11
125.3367004799909
 21
187.0051265239057
 31
0.0
  0
LINE
  5
666
  8
0
  6
CONTINUOUS
 62
     7
 10
125.3367004799909
 20
187.0051265239057
 30
0.0
 11
125.2893765573526
 21
186.9960674892142
 31
0.0
  0
LINE
  5
667
  8
0
  6
CONTINUOUS
 62
     7
 10
125.2893765573526
 20
186.9960674892142
 30
0.0
 11
125.2424589424256
 21
186.9847304959078
 31
0.0
  0
LINE
  5
668
  8
0
  6
CONTINUOUS
 62
     7
 10
125.2424589424256
 20
186.9847304959078
 30
0.0
 11
125.1961075689564
 21
186.9711624206788
 31
0.0
  0
LINE
  5
669
  8
0
  6
CONTINUOUS
 62
     7
 10
125.1961075689564
 20
186.9711624206788
 30
0.0
 11
125.1504823706915
 21
186.9554101402195
 31
0.0
  0
LINE
  5
66A
  8
0
  6
CONTINUOUS
 62
     7
 10
125.1504823706915
 20
186.9554101402195
 30
0.0
 11
125.1057432813775
 21
186.9375205312223
 31
0.0
  0
LINE
  5
66B
  8
0
  6
CONTINUOUS
 62
     7
 10
125.1057432813775
 20
186.9375205312223
 30
0.0
 11
125.0620502347609
 21
186.9175404703796
 31
0.0
  0
LINE
  5
66C
  8
0
  6
CONTINUOUS
 62
     7
 10
125.0620502347609
 20
186.9175404703796
 30
0.0
 11
125.0264342814466
 21
186.8992919246759
 31
0.0
  0
LINE
  5
66D
  8
0
  6
CONTINUOUS
 62
     7
 10
125.0264342814466
 20
186.8992919246759
 30
0.0
 11
124.9915488847508
 21
186.8796174584462
 31
0.0
  0
LINE
  5
66E
  8
0
  6
CONTINUOUS
 62
     7
 10
124.9915488847508
 20
186.8796174584462
 30
0.0
 11
124.9574767559066
 21
186.858565956324
 31
0.0
  0
LINE
  5
66F
  8
0
  6
CONTINUOUS
 62
     7
 10
124.9574767559066
 20
186.858565956324
 30
0.0
 11
124.9243006061472
 21
186.8361863029426
 31
0.0
  0
LINE
  5
670
  8
0
  6
CONTINUOUS
 62
   253
 10
125.8242133471535
 20
180.2803609660238
 30
0.0
 11
125.8310464286007
 21
183.8227718250124
 31
0.0
  0
LINE
  5
671
  8
0
  6
CONTINUOUS
 62
     7
 10
125.8310464286007
 20
183.8227718250124
 30
0.0
 11
126.0771486377192
 21
183.9873260243621
 31
0.0
  0
ARC
  5
672
  8
0
  6
CONTINUOUS
 62
     7
 10
125.5107792224341
 20
184.8254644114925
 30
0.0
 40
1.01155833769086
 50
304.0487389386959
 51
329.2347710459524
  0
LINE
  5
673
  8
0
  6
CONTINUOUS
 62
     7
 10
126.3799814426312
 20
184.3080305790498
 30
0.0
 11
126.429896689747
 21
184.403225318477
 31
0.0
  0
LINE
  5
674
  8
0
  6
CONTINUOUS
 62
     7
 10
126.429896689747
 20
184.403225318477
 30
0.0
 11
126.4691774949594
 21
184.5021911275369
 31
0.0
  0
LINE
  5
675
  8
0
  6
CONTINUOUS
 62
     7
 10
126.4691774949594
 20
184.5021911275369
 30
0.0
 11
126.4975820659447
 21
184.6034943060346
 31
0.0
  0
LINE
  5
676
  8
0
  6
CONTINUOUS
 62
     7
 10
126.4975820659447
 20
184.6034943060346
 30
0.0
 11
126.515314398171
 21
184.7079531932192
 31
0.0
  0
LINE
  5
677
  8
0
  6
CONTINUOUS
 62
     7
 10
126.515314398171
 20
184.7079531932192
 30
0.0
 11
126.5220014415869
 21
184.813323410272
 31
0.0
  0
LINE
  5
678
  8
0
  6
CONTINUOUS
 62
     7
 10
126.5220014415869
 20
184.813323410272
 30
0.0
 11
126.522048058164
 21
184.819151200348
 31
0.0
  0
ARC
  5
679
  8
0
  6
CONTINUOUS
 62
     7
 10
123.7100983622472
 20
182.0608377513181
 30
0.0
 40
2.828063216093997
 50
326.4990132746743
 51
2.748847534704681
  0
LINE
  5
67A
  8
0
  6
CONTINUOUS
 62
     7
 10
126.0683533002851
 20
180.499884452387
 30
0.0
 11
125.9767228684188
 21
180.3985962641185
 31
0.0
  0
LINE
  5
67B
  8
0
  6
CONTINUOUS
 62
     7
 10
125.9767228684188
 20
180.3985962641185
 30
0.0
 11
125.8885420317119
 21
180.3231960703843
 31
0.0
  0
LINE
  5
67C
  8
0
  6
CONTINUOUS
 62
     7
 10
125.8885420317119
 20
180.3231960703843
 30
0.0
 11
125.8242133471535
 21
180.2803609660238
 31
0.0
  0
LINE
  5
67D
  8
0
  6
CONTINUOUS
 62
     7
 10
132.0
 20
250.1849528170593
 30
0.0
 11
131.9727800729867
 21
250.4578382431673
 31
0.0
  0
LINE
  5
67E
  8
0
  6
CONTINUOUS
 62
     7
 10
133.8284716469621
 20
250.1849528170593
 30
0.0
 11
132.0
 21
250.1849528170593
 31
0.0
  0
LINE
  5
67F
  8
0
  6
CONTINUOUS
 62
     7
 10
38.00000000000001
 20
251.4999999999999
 30
0.0
 11
42.99999999999999
 21
251.4999999999999
 31
0.0
  0
ARC
  5
680
  8
0
  6
CONTINUOUS
 62
     7
 10
38.49999999999999
 20
247.9999999999999
 30
0.0
 40
0.5000000000000004
 50
180.0
 51
270.0
  0
ARC
  5
681
  8
0
  6
CONTINUOUS
 62
     7
 10
42.49999999999999
 20
247.9999999999999
 30
0.0
 40
0.5000000000000004
 50
270.0
 51
0.0
  0
ARC
  5
682
  8
0
  6
CONTINUOUS
 62
     7
 10
106.5
 20
212.9999999999999
 30
0.0
 40
38.0
 50
270.3769486370988
 51
300.5660917374972
  0
LINE
  5
683
  8
0
  6
CONTINUOUS
 62
     7
 10
106.75
 20
165.9999999999999
 30
0.0
 11
106.75
 21
175.0008223773197
 31
0.0
  0
LINE
  5
684
  8
0
  6
CONTINUOUS
 62
     7
 10
46.99999999999999
 20
171.4999999999999
 30
0.0
 11
65.0
 21
171.4999999999999
 31
0.0
  0
LINE
  5
685
  8
0
  6
CONTINUOUS
 62
     7
 10
45.99999999999999
 20
168.4999999999999
 30
0.0
 11
46.19509032201612
 21
168.5288220793951
 31
0.0
  0
LINE
  5
686
  8
0
  6
CONTINUOUS
 62
     7
 10
46.19509032201612
 20
168.5288220793951
 30
0.0
 11
46.38268343236508
 21
168.614180701233
 31
0.0
  0
LINE
  5
687
  8
0
  6
CONTINUOUS
 62
     7
 10
46.38268343236508
 20
168.614180701233
 30
0.0
 11
46.55557023301959
 21
168.7527955815461
 31
0.0
  0
LINE
  5
688
  8
0
  6
CONTINUOUS
 62
     7
 10
46.55557023301959
 20
168.7527955815461
 30
0.0
 11
46.70710678118654
 21
168.9393398282201
 31
0.0
  0
LINE
  5
689
  8
0
  6
CONTINUOUS
 62
     7
 10
46.70710678118654
 20
168.9393398282201
 30
0.0
 11
46.83146961230254
 21
169.1666446504705
 31
0.0
  0
LINE
  5
68A
  8
0
  6
CONTINUOUS
 62
     7
 10
46.83146961230254
 20
169.1666446504705
 30
0.0
 11
46.92387953251128
 21
169.4259748514523
 31
0.0
  0
LINE
  5
68B
  8
0
  6
CONTINUOUS
 62
     7
 10
46.92387953251128
 20
169.4259748514523
 30
0.0
 11
46.98078528040323
 21
169.7073645169757
 31
0.0
  0
LINE
  5
68C
  8
0
  6
CONTINUOUS
 62
     7
 10
46.98078528040323
 20
169.7073645169757
 30
0.0
 11
46.99999999999999
 21
169.9999999999999
 31
0.0
  0
LINE
  5
68D
  8
0
  6
CONTINUOUS
 62
     7
 10
87.17578665284653
 20
180.2803609660238
 30
0.0
 11
87.06801061458016
 21
180.3577983638125
 31
0.0
  0
LINE
  5
68E
  8
0
  6
CONTINUOUS
 62
     7
 10
87.06801061458016
 20
180.3577983638125
 30
0.0
 11
86.9727432277135
 21
180.4513881170232
 31
0.0
  0
LINE
  5
68F
  8
0
  6
CONTINUOUS
 62
     7
 10
86.9727432277135
 20
180.4513881170232
 30
0.0
 11
86.86297649892788
 21
180.5939995236384
 31
0.0
  0
LINE
  5
690
  8
0
  6
CONTINUOUS
 62
     7
 10
86.86297649892788
 20
180.5939995236384
 30
0.0
 11
86.76998905357439
 21
180.7518311073518
 31
0.0
  0
LINE
  5
691
  8
0
  6
CONTINUOUS
 62
     7
 10
86.76998905357439
 20
180.7518311073518
 30
0.0
 11
86.69303353753273
 21
180.9185013777999
 31
0.0
  0
ARC
  5
692
  8
0
  6
CONTINUOUS
 62
     7
 10
89.86228133340632
 20
182.1430868301263
 30
0.0
 40
3.397608147167522
 50
179.0997980625574
 51
201.1263448627749
  0
ARC
  5
693
  8
0
  6
CONTINUOUS
 62
     7
 10
106.5
 20
212.9999999999999
 30
0.0
 40
38.00000000000001
 50
239.4339082625028
 51
269.6230513629012
  0
LINE
  5
694
  8
0
  6
CONTINUOUS
 62
     7
 10
106.25
 20
175.0008223773197
 30
0.0
 11
106.25
 21
165.9999999999999
 31
0.0
  0
ARC
  5
695
  8
0
  6
CONTINUOUS
 62
     7
 10
106.5
 20
212.9999999999999
 30
0.0
 40
38.0
 50
90.37694863709888
 51
120.5660917374972
  0
LINE
  5
696
  8
0
  6
CONTINUOUS
 62
     7
 10
106.25
 20
259.9999999999999
 30
0.0
 11
106.25
 21
250.9991776226802
 31
0.0
  0
ARC
  5
697
  8
0
  6
CONTINUOUS
 62
     7
 10
36.99999999999999
 20
258.4999999999999
 30
0.0
 40
2.000000000000002
 50
90.0
 51
180.0
  0
ARC
  5
698
  8
0
  6
CONTINUOUS
 62
     7
 10
43.49999999999999
 20
259.9999999999999
 30
0.0
 40
0.5000000000000004
 50
90.0
 51
180.0
  0
ARC
  5
699
  8
0
  6
CONTINUOUS
 62
     7
 10
106.5
 20
212.9999999999999
 30
0.0
 40
37.55000000000001
 50
269.6185339360506
 51
270.3814660639494
  0
LINE
  5
69A
  8
0
  6
CONTINUOUS
 62
   253
 10
87.16895357139923
 20
183.8227718250125
 30
0.0
 11
87.17578665284653
 21
180.2803609660238
 31
0.0
  0
ARC
  5
69B
  8
0
  6
CONTINUOUS
 62
     7
 10
106.5
 20
212.9999999999999
 30
0.0
 40
34.99999999999999
 50
236.4739808661221
 51
303.5260191338778
  0
LINE
  5
69C
  8
0
  6
CONTINUOUS
 62
     7
 10
106.75
 20
175.4508322329242
 30
0.0
 11
106.75
 21
175.0008223773197
 31
0.0
  0
LINE
  5
69D
  8
0
  6
CONTINUOUS
 62
     7
 10
106.25
 20
175.0008223773197
 30
0.0
 11
106.25
 21
175.4508322329242
 31
0.0
  0
ARC
  5
69E
  8
0
  6
CONTINUOUS
 62
     7
 10
106.5
 20
212.9999999999999
 30
0.0
 40
37.55000000000001
 50
89.61853393605061
 51
90.38146606394939
  0
LINE
  5
69F
  8
0
  6
CONTINUOUS
 62
   253
 10
125.8310464286008
 20
242.1772281749874
 30
0.0
 11
125.8242133471535
 21
245.7196390339761
 31
0.0
  0
ARC
  5
6A0
  8
0
  6
CONTINUOUS
 62
     7
 10
106.5
 20
212.9999999999999
 30
0.0
 40
34.99999999999999
 50
56.47398086612213
 51
123.5260191338778
  0
LINE
  5
6A1
  8
0
  6
CONTINUOUS
 62
     7
 10
106.75
 20
250.9991776226802
 30
0.0
 11
106.75
 21
250.5491677670757
 31
0.0
  0
LINE
  5
6A2
  8
0
  6
CONTINUOUS
 62
     7
 10
106.25
 20
250.5491677670757
 30
0.0
 11
106.25
 21
250.9991776226802
 31
0.0
  0
ARC
  5
6A3
  8
0
  6
CONTINUOUS
 62
     7
 10
106.5
 20
194.7499999999999
 30
0.0
 40
4.300000000000026
 50
90.0
 51
93.3330294939422
  0
LINE
  5
6A4
  8
0
  6
CONTINUOUS
 62
   253
 10
106.5
 20
199.05
 30
0.0
 11
106.5
 21
196.4999999999999
 31
0.0
  0
ARC
  5
6A5
  8
0
  6
CONTINUOUS
 62
     7
 10
106.5
 20
194.7499999999999
 30
0.0
 40
1.750000000000029
 50
90.0
 51
270.0
  0
LINE
  5
6A6
  8
0
  6
CONTINUOUS
 62
   253
 10
106.5
 20
192.9999999999999
 30
0.0
 11
106.5
 21
190.4499999999999
 31
0.0
  0
ARC
  5
6A7
  8
0
  6
CONTINUOUS
 62
     7
 10
106.5
 20
194.7499999999999
 30
0.0
 40
4.299999999999979
 50
266.6669705060576
 51
269.9999999999999
  0
ARC
  5
6A8
  8
0
  6
CONTINUOUS
 62
     7
 10
106.5
 20
194.7499999999999
 30
0.0
 40
4.300000000000008
 50
176.6669705060579
 51
183.3330294939425
  0
LINE
  5
6A9
  8
0
  6
CONTINUOUS
 62
     7
 10
106.25
 20
199.0427264063762
 30
0.0
 11
106.25
 21
199.4934164902525
 31
0.0
  0
LINE
  5
6AA
  8
0
  6
CONTINUOUS
 62
     7
 10
102.2072735936237
 20
194.9999999999999
 30
0.0
 11
101.7565835097474
 21
194.9999999999999
 31
0.0
  0
LINE
  5
6AB
  8
0
  6
CONTINUOUS
 62
     7
 10
101.7565835097474
 20
194.4999999999999
 30
0.0
 11
102.2072735936237
 21
194.4999999999999
 31
0.0
  0
LINE
  5
6AC
  8
0
  6
CONTINUOUS
 62
     7
 10
106.25
 20
190.0065835097474
 30
0.0
 11
106.25
 21
190.4572735936237
 31
0.0
  0
ARC
  5
6AD
  8
0
  6
CONTINUOUS
 62
     7
 10
106.5
 20
194.7499999999999
 30
0.0
 40
4.300000000000008
 50
356.6669705060574
 51
3.333029493942092
  0
ARC
  5
6AE
  8
0
  6
CONTINUOUS
 62
     7
 10
106.5
 20
194.7499999999999
 30
0.0
 40
4.299999999999998
 50
270.0
 51
273.3330294939424
  0
ARC
  5
6AF
  8
0
  6
CONTINUOUS
 62
     7
 10
106.5
 20
194.7499999999999
 30
0.0
 40
1.749999999999974
 50
270.0
 51
90.0
  0
ARC
  5
6B0
  8
0
  6
CONTINUOUS
 62
     7
 10
106.5
 20
194.7499999999999
 30
0.0
 40
4.300000000000008
 50
86.66697050605768
 51
89.99999999999987
  0
LINE
  5
6B1
  8
0
  6
CONTINUOUS
 62
     7
 10
106.75
 20
199.4934164902525
 30
0.0
 11
106.75
 21
199.0427264063762
 31
0.0
  0
LINE
  5
6B2
  8
0
  6
CONTINUOUS
 62
     7
 10
110.7927264063763
 20
194.4999999999999
 30
0.0
 11
111.2434164902526
 21
194.4999999999999
 31
0.0
  0
LINE
  5
6B3
  8
0
  6
CONTINUOUS
 62
     7
 10
111.2434164902526
 20
194.9999999999999
 30
0.0
 11
110.7927264063763
 21
194.9999999999999
 31
0.0
  0
LINE
  5
6B4
  8
0
  6
CONTINUOUS
 62
     7
 10
106.75
 20
190.4572735936237
 30
0.0
 11
106.75
 21
190.0065835097474
 31
0.0
  0
LINE
  5
6B5
  8
0
  6
CONTINUOUS
 62
     7
 10
70.0
 20
176.4999999999999
 30
0.0
 11
70.0
 21
180.4999999999999
 31
0.0
  0
LINE
  5
6B6
  8
0
  6
CONTINUOUS
 62
     7
 10
46.99999999999999
 20
241.5087268677907
 30
0.0
 11
46.99999999999999
 21
238.9999999999999
 31
0.0
  0
LINE
  5
6B7
  8
0
  6
CONTINUOUS
 62
     7
 10
45.99999999999999
 20
237.4999999999999
 30
0.0
 11
46.19509032201612
 21
237.5288220793951
 31
0.0
  0
LINE
  5
6B8
  8
0
  6
CONTINUOUS
 62
     7
 10
46.19509032201612
 20
237.5288220793951
 30
0.0
 11
46.38268343236508
 21
237.614180701233
 31
0.0
  0
LINE
  5
6B9
  8
0
  6
CONTINUOUS
 62
     7
 10
46.38268343236508
 20
237.614180701233
 30
0.0
 11
46.55557023301959
 21
237.7527955815461
 31
0.0
  0
LINE
  5
6BA
  8
0
  6
CONTINUOUS
 62
     7
 10
46.55557023301959
 20
237.7527955815461
 30
0.0
 11
46.70710678118654
 21
237.9393398282201
 31
0.0
  0
LINE
  5
6BB
  8
0
  6
CONTINUOUS
 62
     7
 10
46.70710678118654
 20
237.9393398282201
 30
0.0
 11
46.83146961230254
 21
238.1666446504705
 31
0.0
  0
LINE
  5
6BC
  8
0
  6
CONTINUOUS
 62
     7
 10
46.83146961230254
 20
238.1666446504705
 30
0.0
 11
46.92387953251128
 21
238.4259748514523
 31
0.0
  0
LINE
  5
6BD
  8
0
  6
CONTINUOUS
 62
     7
 10
46.92387953251128
 20
238.4259748514523
 30
0.0
 11
46.98078528040323
 21
238.7073645169758
 31
0.0
  0
LINE
  5
6BE
  8
0
  6
CONTINUOUS
 62
     7
 10
46.98078528040323
 20
238.7073645169758
 30
0.0
 11
46.99999999999999
 21
238.9999999999999
 31
0.0
  0
LINE
  5
6BF
  8
0
  6
CONTINUOUS
 62
     7
 10
45.99999999999999
 20
173.5087649461765
 30
0.0
 11
46.99996192306416
 21
172.5088030231123
 31
0.0
  0
LINE
  5
6C0
  8
0
  6
CONTINUOUS
 62
     7
 10
46.99999999999999
 20
172.5087268677907
 30
0.0
 11
46.99999999999999
 21
169.9999999999999
 31
0.0
  0
LINE
  5
6C1
  8
0
  6
CONTINUOUS
 62
   253
 10
64.99134928463099
 20
172.5088030231123
 30
0.0
 11
46.99996192306416
 21
172.5088030231123
 31
0.0
  0
LINE
  5
6C2
  8
0
  6
CONTINUOUS
 62
   253
 10
64.99134928463099
 20
172.5088030231123
 30
0.0
 11
65.77168369447725
 21
172.5856707919182
 31
0.0
  0
LINE
  5
6C3
  8
0
  6
CONTINUOUS
 62
   253
 10
65.77168369447725
 20
172.5856707919182
 30
0.0
 11
66.52202440980915
 21
172.8132906879324
 31
0.0
  0
LINE
  5
6C4
  8
0
  6
CONTINUOUS
 62
   253
 10
66.52202440980915
 20
172.8132906879324
 30
0.0
 11
67.21353904454374
 21
173.1829162515961
 31
0.0
  0
LINE
  5
6C5
  8
0
  6
CONTINUOUS
 62
   253
 10
67.21353904454374
 20
173.1829162515961
 30
0.0
 11
67.8196556474018
 21
173.6803443525981
 31
0.0
  0
LINE
  5
6C6
  8
0
  6
CONTINUOUS
 62
   253
 10
67.8196556474018
 20
173.6803443525981
 30
0.0
 11
68.31708374840379
 21
174.2864609554562
 31
0.0
  0
LINE
  5
6C7
  8
0
  6
CONTINUOUS
 62
   253
 10
68.31708374840379
 20
174.2864609554562
 30
0.0
 11
68.6867093120675
 21
174.9779755901908
 31
0.0
  0
LINE
  5
6C8
  8
0
  6
CONTINUOUS
 62
   253
 10
68.6867093120675
 20
174.9779755901908
 30
0.0
 11
68.91432920808177
 21
175.7283163055227
 31
0.0
  0
LINE
  5
6C9
  8
0
  6
CONTINUOUS
 62
   253
 10
68.91432920808177
 20
175.7283163055227
 30
0.0
 11
68.99119697688766
 21
176.508650715369
 31
0.0
  0
LINE
  5
6CA
  8
0
  6
CONTINUOUS
 62
   253
 10
68.99119697688768
 20
180.4913492846309
 30
0.0
 11
68.99119697688766
 21
176.508650715369
 31
0.0
  0
LINE
  5
6CB
  8
0
  6
CONTINUOUS
 62
   253
 10
68.99119697688768
 20
180.4913492846309
 30
0.0
 11
68.91432920808178
 21
181.2716836944772
 31
0.0
  0
LINE
  5
6CC
  8
0
  6
CONTINUOUS
 62
   253
 10
68.91432920808178
 20
181.2716836944772
 30
0.0
 11
68.68670931206753
 21
182.0220244098091
 31
0.0
  0
LINE
  5
6CD
  8
0
  6
CONTINUOUS
 62
   253
 10
68.68670931206753
 20
182.0220244098091
 30
0.0
 11
68.31708374840382
 21
182.7135390445437
 31
0.0
  0
LINE
  5
6CE
  8
0
  6
CONTINUOUS
 62
   253
 10
68.31708374840382
 20
182.7135390445437
 30
0.0
 11
67.81965564740183
 21
183.3196556474017
 31
0.0
  0
LINE
  5
6CF
  8
0
  6
CONTINUOUS
 62
   253
 10
67.81965564740183
 20
183.3196556474017
 30
0.0
 11
67.21353904454375
 21
183.8170837484037
 31
0.0
  0
LINE
  5
6D0
  8
0
  6
CONTINUOUS
 62
   253
 10
67.21353904454375
 20
183.8170837484037
 30
0.0
 11
66.52202440980915
 21
184.1867093120674
 31
0.0
  0
LINE
  5
6D1
  8
0
  6
CONTINUOUS
 62
   253
 10
66.52202440980915
 20
184.1867093120674
 30
0.0
 11
65.77168369447726
 21
184.4143292080817
 31
0.0
  0
LINE
  5
6D2
  8
0
  6
CONTINUOUS
 62
   253
 10
65.77168369447726
 20
184.4143292080817
 30
0.0
 11
64.99134928463099
 21
184.4911969768876
 31
0.0
  0
LINE
  5
6D3
  8
0
  6
CONTINUOUS
 62
     7
 10
46.99999999999999
 20
186.9999999999999
 30
0.0
 11
46.99999999999999
 21
184.4912731322092
 31
0.0
  0
LINE
  5
6D4
  8
0
  6
CONTINUOUS
 62
     7
 10
45.99999999999999
 20
183.4912350538234
 30
0.0
 11
46.99996192306416
 21
184.4911969768876
 31
0.0
  0
LINE
  5
6D5
  8
0
  6
CONTINUOUS
 62
     7
 10
38.49999999999999
 20
247.4999999999999
 30
0.0
 11
42.49999999999999
 21
247.4999999999999
 31
0.0
  0
ARC
  5
6D6
  8
0
  6
CONTINUOUS
 62
     7
 10
65.0
 20
180.4999999999999
 30
0.0
 40
5.000000000000004
 50
0.0
 51
90.0
  0
LINE
  5
6D7
  8
0
  6
CONTINUOUS
 62
     7
 10
86.47795194183595
 20
184.819151200348
 30
0.0
 11
86.4779985584131
 21
184.8133234102724
 31
0.0
  0
LINE
  5
6D8
  8
0
  6
CONTINUOUS
 62
     7
 10
86.4779985584131
 20
184.8133234102724
 30
0.0
 11
86.48038727290333
 21
184.7542761671795
 31
0.0
  0
LINE
  5
6D9
  8
0
  6
CONTINUOUS
 62
     7
 10
86.48038727290333
 20
184.7542761671795
 30
0.0
 11
86.48626003038541
 21
184.6952774676748
 31
0.0
  0
LINE
  5
6DA
  8
0
  6
CONTINUOUS
 62
     7
 10
86.48626003038541
 20
184.6952774676748
 30
0.0
 11
86.49560454773824
 21
184.6365610428808
 31
0.0
  0
LINE
  5
6DB
  8
0
  6
CONTINUOUS
 62
     7
 10
86.49560454773824
 20
184.6365610428808
 30
0.0
 11
86.50840854184078
 21
184.5783606239198
 31
0.0
  0
LINE
  5
6DC
  8
0
  6
CONTINUOUS
 62
     7
 10
86.50840854184078
 20
184.5783606239198
 30
0.0
 11
86.52465972957188
 21
184.5209099419142
 31
0.0
  0
LINE
  5
6DD
  8
0
  6
CONTINUOUS
 62
     7
 10
86.52465972957188
 20
184.5209099419142
 30
0.0
 11
86.5423735610447
 21
184.4696273037464
 31
0.0
  0
LINE
  5
6DE
  8
0
  6
CONTINUOUS
 62
     7
 10
86.5423735610447
 20
184.4696273037464
 30
0.0
 11
86.56298493870298
 21
184.4190011419902
 31
0.0
  0
LINE
  5
6DF
  8
0
  6
CONTINUOUS
 62
     7
 10
86.56298493870298
 20
184.4190011419902
 30
0.0
 11
86.58645169385836
 21
184.3692334559099
 31
0.0
  0
LINE
  5
6E0
  8
0
  6
CONTINUOUS
 62
     7
 10
86.58645169385836
 20
184.3692334559099
 30
0.0
 11
86.61273165782247
 21
184.32052624477
 31
0.0
  0
LINE
  5
6E1
  8
0
  6
CONTINUOUS
 62
     7
 10
86.61273165782247
 20
184.32052624477
 30
0.0
 11
86.64178266190689
 21
184.2730815078349
 31
0.0
  0
LINE
  5
6E2
  8
0
  6
CONTINUOUS
 62
     7
 10
86.64178266190689
 20
184.2730815078349
 30
0.0
 11
86.67356253742325
 21
184.2271012443689
 31
0.0
  0
LINE
  5
6E3
  8
0
  6
CONTINUOUS
 62
     7
 10
86.67356253742325
 20
184.2271012443689
 30
0.0
 11
86.70317557829874
 21
184.1887233786499
 31
0.0
  0
LINE
  5
6E4
  8
0
  6
CONTINUOUS
 62
     7
 10
86.70317557829874
 20
184.1887233786499
 30
0.0
 11
86.73493355678106
 21
184.1514585577932
 31
0.0
  0
LINE
  5
6E5
  8
0
  6
CONTINUOUS
 62
     7
 10
86.73493355678106
 20
184.1514585577932
 30
0.0
 11
86.7687494399841
 21
184.1154638074538
 31
0.0
  0
LINE
  5
6E6
  8
0
  6
CONTINUOUS
 62
     7
 10
86.7687494399841
 20
184.1154638074538
 30
0.0
 11
86.80453619502174
 21
184.0808961532861
 31
0.0
  0
LINE
  5
6E7
  8
0
  6
CONTINUOUS
 62
     7
 10
86.80453619502174
 20
184.0808961532861
 30
0.0
 11
86.8422067890078
 21
184.0479126209451
 31
0.0
  0
LINE
  5
6E8
  8
0
  6
CONTINUOUS
 62
     7
 10
86.8422067890078
 20
184.0479126209451
 30
0.0
 11
86.8816741890562
 21
184.0166702360856
 31
0.0
  0
LINE
  5
6E9
  8
0
  6
CONTINUOUS
 62
     7
 10
86.8816741890562
 20
184.0166702360856
 30
0.0
 11
86.92285136228081
 21
183.9873260243621
 31
0.0
  0
LINE
  5
6EA
  8
0
  6
CONTINUOUS
 62
     7
 10
86.92285136228081
 20
183.9873260243621
 30
0.0
 11
87.16895357139923
 21
183.8227718250125
 31
0.0
  0
LINE
  5
6EB
  8
0
  6
CONTINUOUS
 62
     7
 10
126.522048058164
 20
241.1808487996518
 30
0.0
 11
126.5220014415869
 21
241.1866765897283
 31
0.0
  0
LINE
  5
6EC
  8
0
  6
CONTINUOUS
 62
     7
 10
126.5220014415869
 20
241.1866765897283
 30
0.0
 11
126.5196127270967
 21
241.2457238328243
 31
0.0
  0
LINE
  5
6ED
  8
0
  6
CONTINUOUS
 62
     7
 10
126.5196127270967
 20
241.2457238328243
 30
0.0
 11
126.5137399696146
 21
241.3047225323291
 31
0.0
  0
LINE
  5
6EE
  8
0
  6
CONTINUOUS
 62
     7
 10
126.5137399696146
 20
241.3047225323291
 30
0.0
 11
126.5043954522617
 21
241.3634389571217
 31
0.0
  0
LINE
  5
6EF
  8
0
  6
CONTINUOUS
 62
     7
 10
126.5043954522617
 20
241.3634389571217
 30
0.0
 11
126.4915914581592
 21
241.4216393760809
 31
0.0
  0
LINE
  5
6F0
  8
0
  6
CONTINUOUS
 62
     7
 10
126.4915914581592
 20
241.4216393760809
 30
0.0
 11
126.4753402704282
 21
241.4790900580854
 31
0.0
  0
LINE
  5
6F1
  8
0
  6
CONTINUOUS
 62
     7
 10
126.4753402704282
 20
241.4790900580854
 30
0.0
 11
126.4576264389554
 21
241.5303726962532
 31
0.0
  0
LINE
  5
6F2
  8
0
  6
CONTINUOUS
 62
     7
 10
126.4576264389554
 20
241.5303726962532
 30
0.0
 11
126.4370150612971
 21
241.5809988580095
 31
0.0
  0
LINE
  5
6F3
  8
0
  6
CONTINUOUS
 62
     7
 10
126.4370150612971
 20
241.5809988580095
 30
0.0
 11
126.4135483061417
 21
241.6307665440898
 31
0.0
  0
LINE
  5
6F4
  8
0
  6
CONTINUOUS
 62
     7
 10
126.4135483061417
 20
241.6307665440898
 30
0.0
 11
126.3872683421776
 21
241.6794737552297
 31
0.0
  0
LINE
  5
6F5
  8
0
  6
CONTINUOUS
 62
     7
 10
126.3872683421776
 20
241.6794737552297
 30
0.0
 11
126.3582173380932
 21
241.7269184921649
 31
0.0
  0
LINE
  5
6F6
  8
0
  6
CONTINUOUS
 62
     7
 10
126.3582173380932
 20
241.7269184921649
 30
0.0
 11
126.3264374625768
 21
241.7728987556308
 31
0.0
  0
LINE
  5
6F7
  8
0
  6
CONTINUOUS
 62
     7
 10
126.3264374625768
 20
241.7728987556308
 30
0.0
 11
126.2968244217013
 21
241.8112766213499
 31
0.0
  0
LINE
  5
6F8
  8
0
  6
CONTINUOUS
 62
     7
 10
126.2968244217013
 20
241.8112766213499
 30
0.0
 11
126.265066443219
 21
241.8485414422065
 31
0.0
  0
LINE
  5
6F9
  8
0
  6
CONTINUOUS
 62
     7
 10
126.265066443219
 20
241.8485414422065
 30
0.0
 11
126.2312505600159
 21
241.8845361925461
 31
0.0
  0
LINE
  5
6FA
  8
0
  6
CONTINUOUS
 62
     7
 10
126.2312505600159
 20
241.8845361925461
 30
0.0
 11
126.1954638049783
 21
241.9191038467137
 31
0.0
  0
LINE
  5
6FB
  8
0
  6
CONTINUOUS
 62
     7
 10
126.1954638049783
 20
241.9191038467137
 30
0.0
 11
126.1577932109922
 21
241.9520873790547
 31
0.0
  0
LINE
  5
6FC
  8
0
  6
CONTINUOUS
 62
     7
 10
126.1577932109922
 20
241.9520873790547
 30
0.0
 11
126.1183258109438
 21
241.9833297639143
 31
0.0
  0
LINE
  5
6FD
  8
0
  6
CONTINUOUS
 62
     7
 10
126.1183258109438
 20
241.9833297639143
 30
0.0
 11
126.0771486377192
 21
242.0126739756377
 31
0.0
  0
LINE
  5
6FE
  8
0
  6
CONTINUOUS
 62
     7
 10
126.0771486377192
 20
242.0126739756377
 30
0.0
 11
125.8310464286008
 21
242.1772281749874
 31
0.0
  0
ARC
  5
6FF
  8
0
  6
CONTINUOUS
 62
     7
 10
65.0
 20
249.4999999999999
 30
0.0
 40
5.000000000000004
 50
0.0
 51
90.0
  0
ARC
  5
700
  8
0
  6
CONTINUOUS
 62
     7
 10
106.5
 20
231.2499999999999
 30
0.0
 40
4.300000000000008
 50
176.6669705060577
 51
183.3330294939422
  0
ARC
  5
701
  8
0
  6
CONTINUOUS
 62
     7
 10
106.5
 20
231.2499999999999
 30
0.0
 40
4.299999999999998
 50
90.0
 51
93.3330294939422
  0
ARC
  5
702
  8
0
  6
CONTINUOUS
 62
     7
 10
106.5
 20
231.2499999999999
 30
0.0
 40
1.750000000000002
 50
90.0
 51
270.0
  0
ARC
  5
703
  8
0
  6
CONTINUOUS
 62
     7
 10
106.5
 20
231.2499999999999
 30
0.0
 40
4.300000000000008
 50
266.6669705060576
 51
270.0000000000001
  0
LINE
  5
704
  8
0
  6
CONTINUOUS
 62
     7
 10
102.2072735936237
 20
231.4999999999999
 30
0.0
 11
101.7565835097474
 21
231.4999999999999
 31
0.0
  0
LINE
  5
705
  8
0
  6
CONTINUOUS
 62
     7
 10
106.25
 20
226.5065835097474
 30
0.0
 11
106.25
 21
226.9572735936237
 31
0.0
  0
LINE
  5
706
  8
0
  6
CONTINUOUS
 62
     7
 10
101.7565835097474
 20
230.9999999999999
 30
0.0
 11
102.2072735936238
 21
230.9999999999999
 31
0.0
  0
LINE
  5
707
  8
0
  6
CONTINUOUS
 62
     7
 10
106.25
 20
235.5427264063762
 30
0.0
 11
106.25
 21
235.9934164902525
 31
0.0
  0
LINE
  5
708
  8
0
  6
CONTINUOUS
 62
     7
 10
38.00000000000001
 20
251.4999999999999
 30
0.0
 11
37.99999999999999
 21
247.9999999999999
 31
0.0
  0
LINE
  5
709
  8
0
  6
CONTINUOUS
 62
   253
 10
46.99996192306416
 20
184.4911969768876
 30
0.0
 11
64.99134928463099
 21
184.4911969768876
 31
0.0
  0
LINE
  5
70A
  8
0
  6
CONTINUOUS
 62
     7
 10
65.0
 20
254.4999999999999
 30
0.0
 11
46.99999999999999
 21
254.4999999999999
 31
0.0
  0
ARC
  5
70B
  8
0
  6
CONTINUOUS
 62
     7
 10
65.0
 20
176.4999999999999
 30
0.0
 40
5.000000000000004
 50
270.0
 51
0.0
  0
LINE
  5
70C
  8
0
  6
CONTINUOUS
 62
     7
 10
70.0
 20
245.4999999999999
 30
0.0
 11
70.0
 21
249.4999999999999
 31
0.0
  0
LINE
  5
70D
  8
0
  6
CONTINUOUS
 62
     7
 10
46.99999999999999
 20
240.4999999999999
 30
0.0
 11
65.0
 21
240.4999999999999
 31
0.0
  0
LINE
  5
70E
  8
0
  6
CONTINUOUS
 62
     7
 10
106.25
 20
165.5417424305045
 30
0.0
 11
106.75
 21
165.5417424305043
 31
0.0
  0
LINE
  5
70F
  8
0
  6
CONTINUOUS
 62
     7
 10
132.0
 20
165.4999999999999
 30
0.0
 11
80.99999999999999
 21
165.4999999999999
 31
0.0
  0
LINE
  5
710
  8
0
  6
CONTINUOUS
 62
     7
 10
106.75
 20
165.5417424305043
 30
0.0
 11
106.75
 21
165.9999999999999
 31
0.0
  0
LINE
  5
711
  8
0
  6
CONTINUOUS
 62
     7
 10
106.25
 20
165.9999999999999
 30
0.0
 11
106.25
 21
165.5417424305044
 31
0.0
  0
LINE
  5
712
  8
0
  6
CONTINUOUS
 62
     7
 10
42.99999999999999
 20
255.4999999999999
 30
0.0
 11
37.99999999999999
 21
255.4999999999999
 31
0.0
  0
ARC
  5
713
  8
0
  6
CONTINUOUS
 62
     7
 10
37.49999999999999
 20
259.9999999999999
 30
0.0
 40
0.5000000000000004
 50
0.0
 51
90.0
  0
ARC
  5
714
  8
0
  6
CONTINUOUS
 62
     7
 10
65.0
 20
245.4999999999999
 30
0.0
 40
5.000000000000004
 50
270.0
 51
0.0
  0
LINE
  5
715
  8
0
  6
CONTINUOUS
 62
     7
 10
42.99999999999999
 20
255.4999999999999
 30
0.0
 11
42.99999999999999
 21
259.9999999999999
 31
0.0
  0
LINE
  5
716
  8
0
  6
CONTINUOUS
 62
     7
 10
80.99999999999999
 20
165.4999999999999
 30
0.0
 11
36.99999999999999
 21
165.4999999999999
 31
0.0
  0
LINE
  5
717
  8
0
  6
CONTINUOUS
 62
     7
 10
36.99999999999999
 20
260.4999999999999
 30
0.0
 11
37.49999999999999
 21
260.4999999999999
 31
0.0
  0
LINE
  5
718
  8
0
  6
CONTINUOUS
 62
     7
 10
37.99999999999999
 20
259.9999999999999
 30
0.0
 11
37.99999999999999
 21
255.4999999999999
 31
0.0
  0
ARC
  5
719
  8
0
  6
CONTINUOUS
 62
     7
 10
36.99999999999999
 20
167.4999999999999
 30
0.0
 40
2.000000000000002
 50
180.0
 51
270.0
  0
ARC
  5
71A
  8
0
  6
CONTINUOUS
 62
     7
 10
83.5
 20
212.9999999999999
 30
0.0
 40
0.9999999999999941
 50
345.5224878140701
 51
14.47751218593021
  0
ARC
  5
71B
  8
0
  6
CONTINUOUS
 62
     7
 10
129.5
 20
212.9999999999999
 30
0.0
 40
1.000000000000008
 50
165.5224878140701
 51
194.4775121859294
  0
LINE
  5
71C
  8
0
  6
CONTINUOUS
 62
     7
 10
81.0
 20
175.8150471829406
 30
0.0
 11
81.0
 21
250.1849528170593
 31
0.0
  0
LINE
  5
71D
  8
0
  6
CONTINUOUS
 62
     7
 10
132.0
 20
250.1849528170593
 30
0.0
 11
132.0
 21
175.8150471829406
 31
0.0
  0
LINE
  5
71E
  8
0
  6
CONTINUOUS
 62
   253
 10
65.0001523077433
 20
172.4999999999999
 30
0.0
 11
64.99134928463099
 21
172.5088030231123
 31
0.0
  0
LINE
  5
71F
  8
0
  6
CONTINUOUS
 62
     7
 10
65.00015230774332
 20
241.4999999999999
 30
0.0
 11
65.78050010975177
 21
241.5768543766437
 31
0.0
  0
LINE
  5
720
  8
0
  6
CONTINUOUS
 62
     7
 10
65.78050010975177
 20
241.5768543766437
 30
0.0
 11
66.53085077631883
 21
241.8044643214228
 31
0.0
  0
LINE
  5
721
  8
0
  6
CONTINUOUS
 62
     7
 10
66.53085077631883
 20
241.8044643214228
 30
0.0
 11
67.22237153897818
 21
242.1740837571617
 31
0.0
  0
LINE
  5
722
  8
0
  6
CONTINUOUS
 62
     7
 10
67.22237153897818
 20
242.1740837571617
 30
0.0
 11
67.82849021098062
 21
242.6715097890193
 31
0.0
  0
LINE
  5
723
  8
0
  6
CONTINUOUS
 62
     7
 10
67.82849021098062
 20
242.6715097890193
 30
0.0
 11
68.32591624283822
 21
243.2776284610218
 31
0.0
  0
LINE
  5
724
  8
0
  6
CONTINUOUS
 62
     7
 10
68.32591624283822
 20
243.2776284610218
 30
0.0
 11
68.6955356785772
 21
243.9691492236811
 31
0.0
  0
LINE
  5
725
  8
0
  6
CONTINUOUS
 62
     7
 10
68.6955356785772
 20
243.9691492236811
 30
0.0
 11
68.92314562335628
 21
244.7194998902482
 31
0.0
  0
LINE
  5
726
  8
0
  6
CONTINUOUS
 62
     7
 10
68.92314562335628
 20
244.7194998902482
 30
0.0
 11
69.0
 21
245.4998476922566
 31
0.0
  0
LINE
  5
727
  8
0
  6
CONTINUOUS
 62
     7
 10
69.0
 20
249.5001523077433
 30
0.0
 11
68.92314562335625
 21
250.2805001097517
 31
0.0
  0
LINE
  5
728
  8
0
  6
CONTINUOUS
 62
     7
 10
68.92314562335625
 20
250.2805001097517
 30
0.0
 11
68.69553567857717
 21
251.0308507763187
 31
0.0
  0
LINE
  5
729
  8
0
  6
CONTINUOUS
 62
     7
 10
68.69553567857717
 20
251.0308507763187
 30
0.0
 11
68.3259162428382
 21
251.7223715389781
 31
0.0
  0
LINE
  5
72A
  8
0
  6
CONTINUOUS
 62
     7
 10
68.3259162428382
 20
251.7223715389781
 30
0.0
 11
67.8284902109806
 21
252.3284902109805
 31
0.0
  0
LINE
  5
72B
  8
0
  6
CONTINUOUS
 62
     7
 10
67.8284902109806
 20
252.3284902109805
 30
0.0
 11
67.22237153897818
 21
252.8259162428382
 31
0.0
  0
LINE
  5
72C
  8
0
  6
CONTINUOUS
 62
     7
 10
67.22237153897818
 20
252.8259162428382
 30
0.0
 11
66.53085077631881
 21
253.1955356785771
 31
0.0
  0
LINE
  5
72D
  8
0
  6
CONTINUOUS
 62
     7
 10
66.53085077631881
 20
253.1955356785771
 30
0.0
 11
65.78050010975176
 21
253.4231456233562
 31
0.0
  0
LINE
  5
72E
  8
0
  6
CONTINUOUS
 62
     7
 10
65.78050010975176
 20
253.4231456233562
 30
0.0
 11
65.00015230774333
 21
253.4999999999999
 31
0.0
  0
LINE
  5
72F
  8
0
  6
CONTINUOUS
 62
     7
 10
69.0
 20
245.4998476922566
 30
0.0
 11
69.0
 21
249.5001523077432
 31
0.0
  0
LINE
  5
730
  8
0
  6
CONTINUOUS
 62
     7
 10
65.00015230774332
 20
241.4999999999999
 30
0.0
 11
47.99999999999999
 21
241.4999999999999
 31
0.0
  0
LINE
  5
731
  8
0
  6
CONTINUOUS
 62
     7
 10
46.99999999999999
 20
241.4912731322092
 30
0.0
 11
47.99999999999999
 21
241.4999999999999
 31
0.0
  0
LINE
  5
732
  8
0
  6
CONTINUOUS
 62
     7
 10
126.0587843310735
 20
183.974942627265
 30
0.0
 11
126.0922051351081
 21
183.9984706116261
 31
0.0
  0
LINE
  5
733
  8
0
  6
CONTINUOUS
 62
     7
 10
126.0922051351081
 20
183.9984706116261
 30
0.0
 11
126.12466322024
 21
184.0233661470783
 31
0.0
  0
LINE
  5
734
  8
0
  6
CONTINUOUS
 62
     7
 10
126.12466322024
 20
184.0233661470783
 30
0.0
 11
126.1560765463706
 21
184.0495676339681
 31
0.0
  0
LINE
  5
735
  8
0
  6
CONTINUOUS
 62
     7
 10
126.1560765463706
 20
184.0495676339681
 30
0.0
 11
126.1865931029381
 21
184.0772225191785
 31
0.0
  0
LINE
  5
736
  8
0
  6
CONTINUOUS
 62
     7
 10
126.1865931029381
 20
184.0772225191785
 30
0.0
 11
126.21594573682
 21
184.1061098136298
 31
0.0
  0
LINE
  5
737
  8
0
  6
CONTINUOUS
 62
     7
 10
126.21594573682
 20
184.1061098136298
 30
0.0
 11
126.2439774132635
 21
184.1360674670722
 31
0.0
  0
LINE
  5
738
  8
0
  6
CONTINUOUS
 62
     7
 10
126.2439774132635
 20
184.1360674670722
 30
0.0
 11
126.2707793805696
 21
184.167175831557
 31
0.0
  0
LINE
  5
739
  8
0
  6
CONTINUOUS
 62
     7
 10
126.2707793805696
 20
184.167175831557
 30
0.0
 11
126.2962856664861
 21
184.1993550971301
 31
0.0
  0
LINE
  5
73A
  8
0
  6
CONTINUOUS
 62
     7
 10
126.2962856664861
 20
184.1993550971301
 30
0.0
 11
126.3204302987607
 21
184.2325254538372
 31
0.0
  0
LINE
  5
73B
  8
0
  6
CONTINUOUS
 62
     7
 10
126.3204302987607
 20
184.2325254538372
 30
0.0
 11
126.3438117543558
 21
184.2676407128317
 31
0.0
  0
LINE
  5
73C
  8
0
  6
CONTINUOUS
 62
     7
 10
126.3438117543558
 20
184.2676407128317
 30
0.0
 11
126.3657109443165
 21
184.3037429972182
 31
0.0
  0
LINE
  5
73D
  8
0
  6
CONTINUOUS
 62
     7
 10
126.3657109443165
 20
184.3037429972182
 30
0.0
 11
126.3860715091498
 21
184.3407348448962
 31
0.0
  0
LINE
  5
73E
  8
0
  6
CONTINUOUS
 62
     7
 10
126.3860715091498
 20
184.3407348448962
 30
0.0
 11
126.4048370893628
 21
184.3785187937654
 31
0.0
  0
LINE
  5
73F
  8
0
  6
CONTINUOUS
 62
     7
 10
126.4048370893628
 20
184.3785187937654
 30
0.0
 11
126.4217388892587
 21
184.4164752461493
 31
0.0
  0
LINE
  5
740
  8
0
  6
CONTINUOUS
 62
     7
 10
126.4217388892587
 20
184.4164752461493
 30
0.0
 11
126.4370627013826
 21
184.4551344189676
 31
0.0
  0
LINE
  5
741
  8
0
  6
CONTINUOUS
 62
     7
 10
126.4370627013826
 20
184.4551344189676
 30
0.0
 11
126.450770961533
 21
184.4943955243203
 31
0.0
  0
LINE
  5
742
  8
0
  6
CONTINUOUS
 62
     7
 10
126.450770961533
 20
184.4943955243203
 30
0.0
 11
126.4628261055086
 21
184.534157774307
 31
0.0
  0
LINE
  5
743
  8
0
  6
CONTINUOUS
 62
     7
 10
126.4628261055086
 20
184.534157774307
 30
0.0
 11
126.4734890297135
 21
184.5755630163356
 31
0.0
  0
LINE
  5
744
  8
0
  6
CONTINUOUS
 62
     7
 10
126.4734890297135
 20
184.5755630163356
 30
0.0
 11
126.4823804718028
 21
184.6174245166575
 31
0.0
  0
LINE
  5
745
  8
0
  6
CONTINUOUS
 62
     7
 10
126.4823804718028
 20
184.6174245166575
 30
0.0
 11
126.4894785174394
 21
184.6596271304751
 31
0.0
  0
LINE
  5
746
  8
0
  6
CONTINUOUS
 62
     7
 10
126.4894785174394
 20
184.6596271304751
 30
0.0
 11
126.4947612522863
 21
184.7020557129914
 31
0.0
  0
LINE
  5
747
  8
0
  6
CONTINUOUS
 62
     7
 10
126.4947612522863
 20
184.7020557129914
 30
0.0
 11
126.4986860112423
 21
184.7530343600168
 31
0.0
  0
LINE
  5
748
  8
0
  6
CONTINUOUS
 62
     7
 10
126.4986860112423
 20
184.7530343600168
 30
0.0
 11
126.5
 21
184.8042812988391
 31
0.0
  0
LINE
  5
749
  8
0
  6
CONTINUOUS
 62
     7
 10
86.94121566892649
 20
242.0250573727349
 30
0.0
 11
86.90725056153889
 21
242.0011248757517
 31
0.0
  0
LINE
  5
74A
  8
0
  6
CONTINUOUS
 62
     7
 10
86.90725056153889
 20
242.0011248757517
 30
0.0
 11
86.87428034840711
 21
241.9757803397151
 31
0.0
  0
LINE
  5
74B
  8
0
  6
CONTINUOUS
 62
     7
 10
86.87428034840711
 20
241.9757803397151
 30
0.0
 11
86.842388923145
 21
241.9490910639066
 31
0.0
  0
LINE
  5
74C
  8
0
  6
CONTINUOUS
 62
     7
 10
86.842388923145
 20
241.9490910639066
 30
0.0
 11
86.81166017936646
 21
241.921124347608
 31
0.0
  0
LINE
  5
74D
  8
0
  6
CONTINUOUS
 62
     7
 10
86.81166017936646
 20
241.921124347608
 30
0.0
 11
86.781285004707
 21
241.8910334712311
 31
0.0
  0
LINE
  5
74E
  8
0
  6
CONTINUOUS
 62
     7
 10
86.781285004707
 20
241.8910334712311
 30
0.0
 11
86.75219712741763
 21
241.8596430587841
 31
0.0
  0
LINE
  5
74F
  8
0
  6
CONTINUOUS
 62
     7
 10
86.75219712741763
 20
241.8596430587841
 30
0.0
 11
86.72447435827817
 21
241.8270407486178
 31
0.0
  0
LINE
  5
750
  8
0
  6
CONTINUOUS
 62
     7
 10
86.72447435827817
 20
241.8270407486178
 30
0.0
 11
86.6981945080684
 21
241.7933141790826
 31
0.0
  0
LINE
  5
751
  8
0
  6
CONTINUOUS
 62
     7
 10
86.6981945080684
 20
241.7933141790826
 30
0.0
 11
86.67406576207485
 21
241.7594881939576
 31
0.0
  0
LINE
  5
752
  8
0
  6
CONTINUOUS
 62
     7
 10
86.67406576207485
 20
241.7594881939576
 30
0.0
 11
86.6513432494965
 21
241.724659057349
 31
0.0
  0
LINE
  5
753
  8
0
  6
CONTINUOUS
 62
     7
 10
86.6513432494965
 20
241.724659057349
 30
0.0
 11
86.63008386726075
 21
241.6889180452521
 31
0.0
  0
LINE
  5
754
  8
0
  6
CONTINUOUS
 62
     7
 10
86.63008386726075
 20
241.6889180452521
 30
0.0
 11
86.61034451229497
 21
241.6523564336622
 31
0.0
  0
LINE
  5
755
  8
0
  6
CONTINUOUS
 62
     7
 10
86.61034451229497
 20
241.6523564336622
 30
0.0
 11
86.59164192874691
 21
241.6139073356535
 31
0.0
  0
LINE
  5
756
  8
0
  6
CONTINUOUS
 62
     7
 10
86.59164192874691
 20
241.6139073356535
 30
0.0
 11
86.57458430065387
 21
241.5746580310714
 31
0.0
  0
LINE
  5
757
  8
0
  6
CONTINUOUS
 62
     7
 10
86.57458430065387
 20
241.5746580310714
 30
0.0
 11
86.55921605233401
 21
241.5347169813882
 31
0.0
  0
LINE
  5
758
  8
0
  6
CONTINUOUS
 62
     7
 10
86.55921605233401
 20
241.5347169813882
 30
0.0
 11
86.54558160810546
 21
241.4941926480764
 31
0.0
  0
LINE
  5
759
  8
0
  6
CONTINUOUS
 62
     7
 10
86.54558160810546
 20
241.4941926480764
 30
0.0
 11
86.53187975818314
 21
241.4461935049917
 31
0.0
  0
LINE
  5
75A
  8
0
  6
CONTINUOUS
 62
     7
 10
86.53187975818314
 20
241.4461935049917
 30
0.0
 11
86.52058078116804
 21
241.3975406151125
 31
0.0
  0
LINE
  5
75B
  8
0
  6
CONTINUOUS
 62
     7
 10
86.52058078116804
 20
241.3975406151125
 30
0.0
 11
86.51172687818797
 21
241.3484156040614
 31
0.0
  0
LINE
  5
75C
  8
0
  6
CONTINUOUS
 62
     7
 10
86.51172687818797
 20
241.3484156040614
 30
0.0
 11
86.50522216160252
 21
241.29774939013
 31
0.0
  0
LINE
  5
75D
  8
0
  6
CONTINUOUS
 62
     7
 10
86.50522216160252
 20
241.29774939013
 30
0.0
 11
86.50130809433593
 21
241.246784005727
 31
0.0
  0
LINE
  5
75E
  8
0
  6
CONTINUOUS
 62
     7
 10
86.50130809433593
 20
241.246784005727
 30
0.0
 11
86.49999999999999
 21
241.1957187011607
 31
0.0
  0
LINE
  5
75F
  8
0
  6
CONTINUOUS
 62
     7
 10
86.49999999999999
 20
184.8042812988391
 30
0.0
 11
86.50089797112109
 21
184.7619122824959
 31
0.0
  0
LINE
  5
760
  8
0
  6
CONTINUOUS
 62
     7
 10
86.50089797112109
 20
184.7619122824959
 30
0.0
 11
86.50359390028694
 21
184.7195813470431
 31
0.0
  0
LINE
  5
761
  8
0
  6
CONTINUOUS
 62
     7
 10
86.50359390028694
 20
184.7195813470431
 30
0.0
 11
86.50808171685068
 21
184.6774027310427
 31
0.0
  0
LINE
  5
762
  8
0
  6
CONTINUOUS
 62
     7
 10
86.50808171685068
 20
184.6774027310427
 30
0.0
 11
86.51440720675105
 21
184.6351477103497
 31
0.0
  0
LINE
  5
763
  8
0
  6
CONTINUOUS
 62
     7
 10
86.51440720675105
 20
184.6351477103497
 30
0.0
 11
86.5225310327036
 21
184.593201291386
 31
0.0
  0
LINE
  5
764
  8
0
  6
CONTINUOUS
 62
     7
 10
86.5225310327036
 20
184.593201291386
 30
0.0
 11
86.53214581294729
 21
184.552781370749
 31
0.0
  0
LINE
  5
765
  8
0
  6
CONTINUOUS
 62
     7
 10
86.53214581294729
 20
184.552781370749
 30
0.0
 11
86.54344099315367
 21
184.5127611233843
 31
0.0
  0
LINE
  5
766
  8
0
  6
CONTINUOUS
 62
     7
 10
86.54344099315367
 20
184.5127611233843
 30
0.0
 11
86.55638521008134
 21
184.4732434233411
 31
0.0
  0
LINE
  5
767
  8
0
  6
CONTINUOUS
 62
     7
 10
86.55638521008134
 20
184.4732434233411
 30
0.0
 11
86.57094710048894
 21
184.4343311446686
 31
0.0
  0
LINE
  5
768
  8
0
  6
CONTINUOUS
 62
     7
 10
86.57094710048894
 20
184.4343311446686
 30
0.0
 11
86.58761252267728
 21
184.3949587385704
 31
0.0
  0
LINE
  5
769
  8
0
  6
CONTINUOUS
 62
     7
 10
86.58761252267728
 20
184.3949587385704
 30
0.0
 11
86.60596235828429
 21
184.3562992476406
 31
0.0
  0
LINE
  5
76A
  8
0
  6
CONTINUOUS
 62
     7
 10
86.60596235828429
 20
184.3562992476406
 30
0.0
 11
86.62594410201734
 21
184.3184574361445
 31
0.0
  0
LINE
  5
76B
  8
0
  6
CONTINUOUS
 62
     7
 10
86.62594410201734
 20
184.3184574361445
 30
0.0
 11
86.64750524858383
 21
184.2815380683471
 31
0.0
  0
LINE
  5
76C
  8
0
  6
CONTINUOUS
 62
     7
 10
86.64750524858383
 20
184.2815380683471
 30
0.0
 11
86.66995734498032
 21
184.2465786675029
 31
0.0
  0
LINE
  5
76D
  8
0
  6
CONTINUOUS
 62
     7
 10
86.66995734498032
 20
184.2465786675029
 30
0.0
 11
86.69386279010746
 21
184.2125526009302
 31
0.0
  0
LINE
  5
76E
  8
0
  6
CONTINUOUS
 62
     7
 10
86.69386279010746
 20
184.2125526009302
 30
0.0
 11
86.7191579443555
 21
184.1795465600816
 31
0.0
  0
LINE
  5
76F
  8
0
  6
CONTINUOUS
 62
     7
 10
86.7191579443555
 20
184.1795465600816
 30
0.0
 11
86.74577916811461
 21
184.1476472364097
 31
0.0
  0
LINE
  5
770
  8
0
  6
CONTINUOUS
 62
     7
 10
86.74577916811461
 20
184.1476472364097
 30
0.0
 11
86.77453758573236
 21
184.1160100062752
 31
0.0
  0
LINE
  5
771
  8
0
  6
CONTINUOUS
 62
     7
 10
86.77453758573236
 20
184.1160100062752
 30
0.0
 11
86.80464947514447
 21
184.0856030173411
 31
0.0
  0
LINE
  5
772
  8
0
  6
CONTINUOUS
 62
     7
 10
86.80464947514447
 20
184.0856030173411
 30
0.0
 11
86.83603062210476
 21
184.0565077513113
 31
0.0
  0
LINE
  5
773
  8
0
  6
CONTINUOUS
 62
     7
 10
86.83603062210476
 20
184.0565077513113
 30
0.0
 11
86.86859681236703
 21
184.0288056898895
 31
0.0
  0
LINE
  5
774
  8
0
  6
CONTINUOUS
 62
     7
 10
86.86859681236703
 20
184.0288056898895
 30
0.0
 11
86.9042600977985
 21
184.0010806642664
 31
0.0
  0
LINE
  5
775
  8
0
  6
CONTINUOUS
 62
     7
 10
86.9042600977985
 20
184.0010806642664
 30
0.0
 11
86.94121566892649
 21
183.974942627265
 31
0.0
  0
LINE
  5
776
  8
0
  6
CONTINUOUS
 62
     7
 10
126.5
 20
241.1957187011607
 30
0.0
 11
126.4991335503337
 21
241.2372571042623
 31
0.0
  0
LINE
  5
777
  8
0
  6
CONTINUOUS
 62
     7
 10
126.4991335503337
 20
241.2372571042623
 30
0.0
 11
126.4965401632683
 21
241.2787595312651
 31
0.0
  0
LINE
  5
778
  8
0
  6
CONTINUOUS
 62
     7
 10
126.4965401632683
 20
241.2787595312651
 30
0.0
 11
126.4922287817044
 21
241.3201188006731
 31
0.0
  0
LINE
  5
779
  8
0
  6
CONTINUOUS
 62
     7
 10
126.4922287817044
 20
241.3201188006731
 30
0.0
 11
126.4862083485423
 21
241.3612277309905
 31
0.0
  0
LINE
  5
77A
  8
0
  6
CONTINUOUS
 62
     7
 10
126.4862083485423
 20
241.3612277309905
 30
0.0
 11
126.4782288459243
 21
241.403230473443
 31
0.0
  0
LINE
  5
77B
  8
0
  6
CONTINUOUS
 62
     7
 10
126.4782288459243
 20
241.403230473443
 30
0.0
 11
126.4684523608103
 21
241.4448918869157
 31
0.0
  0
LINE
  5
77C
  8
0
  6
CONTINUOUS
 62
     7
 10
126.4684523608103
 20
241.4448918869157
 30
0.0
 11
126.4569081061429
 21
241.4860984798833
 31
0.0
  0
LINE
  5
77D
  8
0
  6
CONTINUOUS
 62
     7
 10
126.4569081061429
 20
241.4860984798833
 30
0.0
 11
126.443625294865
 21
241.5267367608202
 31
0.0
  0
LINE
  5
77E
  8
0
  6
CONTINUOUS
 62
     7
 10
126.443625294865
 20
241.5267367608202
 30
0.0
 11
126.4290581037363
 21
241.5656467216347
 31
0.0
  0
LINE
  5
77F
  8
0
  6
CONTINUOUS
 62
     7
 10
126.4290581037363
 20
241.5656467216347
 30
0.0
 11
126.4128733256886
 21
241.6039511361563
 31
0.0
  0
LINE
  5
780
  8
0
  6
CONTINUOUS
 62
     7
 10
126.4128733256886
 20
241.6039511361563
 30
0.0
 11
126.3951148715307
 21
241.6415518354274
 31
0.0
  0
LINE
  5
781
  8
0
  6
CONTINUOUS
 62
     7
 10
126.3951148715307
 20
241.6415518354274
 30
0.0
 11
126.3758266520713
 21
241.6783506504904
 31
0.0
  0
LINE
  5
782
  8
0
  6
CONTINUOUS
 62
     7
 10
126.3758266520713
 20
241.6783506504904
 30
0.0
 11
126.3543940974179
 21
241.7153443696301
 31
0.0
  0
LINE
  5
783
  8
0
  6
CONTINUOUS
 62
     7
 10
126.3543940974179
 20
241.7153443696301
 30
0.0
 11
126.3313789277015
 21
241.751421251879
 31
0.0
  0
LINE
  5
784
  8
0
  6
CONTINUOUS
 62
     7
 10
126.3313789277015
 20
241.751421251879
 30
0.0
 11
126.3068462643376
 21
241.7864838809726
 31
0.0
  0
LINE
  5
785
  8
0
  6
CONTINUOUS
 62
     7
 10
126.3068462643376
 20
241.7864838809726
 30
0.0
 11
126.2808612287421
 21
241.8204348406462
 31
0.0
  0
LINE
  5
786
  8
0
  6
CONTINUOUS
 62
     7
 10
126.2808612287421
 20
241.8204348406462
 30
0.0
 11
126.2487093011945
 21
241.8586260368632
 31
0.0
  0
LINE
  5
787
  8
0
  6
CONTINUOUS
 62
     7
 10
126.2487093011945
 20
241.8586260368632
 30
0.0
 11
126.2146720528377
 21
241.8951895854352
 31
0.0
  0
LINE
  5
788
  8
0
  6
CONTINUOUS
 62
     7
 10
126.2146720528377
 20
241.8951895854352
 30
0.0
 11
126.1788765736939
 21
241.9299889767973
 31
0.0
  0
LINE
  5
789
  8
0
  6
CONTINUOUS
 62
     7
 10
126.1788765736939
 20
241.9299889767973
 30
0.0
 11
126.1404896964073
 21
241.9637013391092
 31
0.0
  0
LINE
  5
78A
  8
0
  6
CONTINUOUS
 62
     7
 10
126.1404896964073
 20
241.9637013391092
 30
0.0
 11
126.1004067091639
 21
241.9954321574091
 31
0.0
  0
LINE
  5
78B
  8
0
  6
CONTINUOUS
 62
     7
 10
126.1004067091639
 20
241.9954321574091
 30
0.0
 11
126.0587843310735
 21
242.0250573727349
 31
0.0
  0
LINE
  5
78C
  8
0
  6
CONTINUOUS
 62
     7
 10
42.99999999999999
 20
256.4999999999999
 30
0.0
 11
38.00000000000001
 21
256.4999999999999
 31
0.0
  0
LINE
  5
78D
  8
0
  6
CONTINUOUS
 62
     7
 10
38.00000000000001
 20
257.4999999999999
 30
0.0
 11
43.00000000000001
 21
257.4999999999999
 31
0.0
  0
LINE
  5
78E
  8
0
  6
CONTINUOUS
 62
     7
 10
37.49999999999999
 20
260.4999999999999
 30
0.0
 11
43.49999999999999
 21
260.4999999999999
 31
0.0
  0
LINE
  5
78F
  8
0
  6
CONTINUOUS
 62
     7
 10
172.0
 20
223.4999999999999
 30
0.0
 11
172.0
 21
230.9999999999999
 31
0.0
  0
LINE
  5
790
  8
0
  6
CONTINUOUS
 62
     7
 10
172.0
 20
240.9999999999999
 30
0.0
 11
172.0
 21
248.4999999999999
 31
0.0
  0
LINE
  5
791
  8
0
  6
CONTINUOUS
 62
     7
 10
162.5
 20
248.4999999999999
 30
0.0
 11
162.5
 21
240.9999999999999
 31
0.0
  0
LINE
  5
792
  8
0
  6
CONTINUOUS
 62
     7
 10
162.5
 20
230.9999999999999
 30
0.0
 11
162.5
 21
223.4999999999999
 31
0.0
  0
LINE
  5
793
  8
0
  6
CONTINUOUS
 62
     7
 10
144.5
 20
172.7499999999999
 30
0.0
 11
152.0
 21
172.7499999999999
 31
0.0
  0
LINE
  5
794
  8
0
  6
CONTINUOUS
 62
     7
 10
162.0
 20
172.7499999999999
 30
0.0
 11
169.5
 21
172.7499999999999
 31
0.0
  0
LINE
  5
795
  8
0
  6
CONTINUOUS
 62
     7
 10
169.5
 20
182.2499999999999
 30
0.0
 11
162.0
 21
182.2499999999999
 31
0.0
  0
LINE
  5
796
  8
0
  6
CONTINUOUS
 62
     7
 10
152.0
 20
182.2499999999999
 30
0.0
 11
144.5
 21
182.2499999999999
 31
0.0
  0
ARC
  5
797
  8
0
  6
CONTINUOUS
 62
     7
 10
170.25
 20
251.0999999999999
 30
0.0
 40
0.4999999999999888
 50
186.4727884090576
 51
353.5272115909424
  0
ARC
  5
798
  8
0
  6
CONTINUOUS
 62
     7
 10
164.25
 20
220.8999999999999
 30
0.0
 40
0.4999999999999888
 50
6.472788409058219
 51
173.5272115909418
  0
ARC
  5
799
  8
0
  6
CONTINUOUS
 62
     7
 10
170.25
 20
220.8999999999999
 30
0.0
 40
0.4999999999999888
 50
6.47278840905805
 51
173.527211590942
  0
ARC
  5
79A
  8
0
  6
CONTINUOUS
 62
     7
 10
172.1
 20
180.4999999999999
 30
0.0
 40
0.5000000000000163
 50
96.47278840905766
 51
263.5272115909424
  0
ARC
  5
79B
  8
0
  6
CONTINUOUS
 62
     7
 10
172.1
 20
174.4999999999999
 30
0.0
 40
0.4999999999999888
 50
96.47278840905766
 51
263.5272115909424
  0
ARC
  5
79C
  8
0
  6
CONTINUOUS
 62
     7
 10
141.9
 20
180.4999999999999
 30
0.0
 40
0.4999999999999888
 50
276.4727884090584
 51
0.0
  0
ARC
  5
79D
  8
0
  6
CONTINUOUS
 62
     7
 10
141.9
 20
180.4999999999999
 30
0.0
 40
0.5000000000000004
 50
0.0
 51
83.5272115909416
  0
ARC
  5
79E
  8
0
  6
CONTINUOUS
 62
     7
 10
164.25
 20
251.0999999999999
 30
0.0
 40
0.4999999999999888
 50
186.4727884090576
 51
353.5272115909424
  0
ARC
  5
79F
  8
0
  6
CONTINUOUS
 62
     7
 10
141.9
 20
174.4999999999999
 30
0.0
 40
0.4999999999999888
 50
276.4727884090584
 51
0.0
  0
ARC
  5
7A0
  8
0
  6
CONTINUOUS
 62
     7
 10
141.9
 20
174.4999999999999
 30
0.0
 40
0.5000000000000004
 50
0.0
 51
83.52721159094241
  0
ARC
  5
7A1
  8
0
  6
CONTINUOUS
 62
     7
 10
160.75
 20
136.2749999999999
 30
0.0
 40
0.5000000000000004
 50
270.0
 51
0.0
  0
ARC
  5
7A2
  8
0
  6
CONTINUOUS
 62
     7
 10
153.25
 20
136.2749999999999
 30
0.0
 40
0.5000000000000004
 50
180.0
 51
270.0
  0
LINE
  5
7A3
  8
0
  6
CONTINUOUS
 62
     7
 10
152.75
 20
136.2749999999999
 30
0.0
 11
152.75
 21
137.7749999999999
 31
0.0
  0
LINE
  5
7A4
  8
0
  6
CONTINUOUS
 62
     7
 10
161.25
 20
137.7749999999999
 30
0.0
 11
161.25
 21
136.2749999999999
 31
0.0
  0
LINE
  5
7A5
  8
0
  6
CONTINUOUS
 62
     7
 10
153.75
 20
138.7749999999999
 30
0.0
 11
160.25
 21
138.7749999999999
 31
0.0
  0
ARC
  5
7A6
  8
0
  6
CONTINUOUS
 62
     7
 10
153.75
 20
137.7749999999999
 30
0.0
 40
1.000000000000001
 50
90.0
 51
180.0
  0
ARC
  5
7A7
  8
0
  6
CONTINUOUS
 62
     7
 10
160.25
 20
137.7749999999999
 30
0.0
 40
1.000000000000001
 50
0.0
 51
90.0
  0
LINE
  5
7A8
  8
0
  6
CONTINUOUS
 62
     7
 10
160.75
 20
135.7749999999999
 30
0.0
 11
153.25
 21
135.7749999999999
 31
0.0
  0
LINE
  5
7A9
  8
0
  6
CONTINUOUS
 62
     7
 10
165.6440413639342
 20
140.4173834544262
 30
0.0
 11
169.1213906763541
 21
139.0264437294583
 31
0.0
  0
LINE
  5
7AA
  8
0
  6
CONTINUOUS
 62
     7
 10
144.8786093236459
 20
139.0264437294583
 30
0.0
 11
148.3559586360657
 21
140.4173834544262
 31
0.0
  0
ARC
  5
7AB
  8
0
  6
CONTINUOUS
 62
     7
 10
168.75
 20
138.097967038573
 30
0.0
 40
1.000000000000009
 50
25.19471901002538
 51
68.19859051364858
  0
ARC
  5
7AC
  8
0
  6
CONTINUOUS
 62
     7
 10
145.25
 20
138.097967038573
 30
0.0
 40
0.9999999999999866
 50
111.8014094863514
 51
154.8052809899757
  0
LINE
  5
7AD
  8
0
  6
CONTINUOUS
 62
     7
 10
150.2129120178363
 20
140.7749999999999
 30
0.0
 11
163.7870879821637
 21
140.7749999999999
 31
0.0
  0
ARC
  5
7AE
  8
0
  6
CONTINUOUS
 62
     7
 10
150.2129120178363
 20
135.7749999999999
 30
0.0
 40
5.000000000000008
 50
90.00000000000006
 51
111.8014094863518
  0
ARC
  5
7AF
  8
0
  6
CONTINUOUS
 62
     7
 10
163.7870879821637
 20
135.7749999999999
 30
0.0
 40
5.000000000000004
 50
68.1985905136483
 51
90.0
  0
LINE
  5
7B0
  8
0
  6
CONTINUOUS
 62
     7
 10
143.25
 20
142.7749999999999
 30
0.0
 11
144.25
 21
142.7749999999999
 31
0.0
  0
LINE
  5
7B1
  8
0
  6
CONTINUOUS
 62
     7
 10
143.25
 20
141.9629164213588
 30
0.0
 11
143.25
 21
142.7749999999999
 31
0.0
  0
LINE
  5
7B2
  8
0
  6
CONTINUOUS
 62
     7
 10
144.25
 20
142.7749999999999
 30
0.0
 11
144.25
 21
139.475
 31
0.0
  0
LINE
  5
7B3
  8
0
  6
CONTINUOUS
 62
     7
 10
169.75
 20
142.7749999999999
 30
0.0
 11
170.75
 21
142.7749999999999
 31
0.0
  0
LINE
  5
7B4
  8
0
  6
CONTINUOUS
 62
     7
 10
170.75
 20
142.7749999999999
 30
0.0
 11
170.75
 21
141.975
 31
0.0
  0
LINE
  5
7B5
  8
0
  6
CONTINUOUS
 62
     7
 10
169.75
 20
139.4750000000001
 30
0.0
 11
169.75
 21
142.7749999999999
 31
0.0
  0
LINE
  5
7B6
  8
0
  6
CONTINUOUS
 62
     7
 10
144.5
 20
143.0249999999999
 30
0.0
 11
144.5
 21
138.7594048663392
 31
0.0
  0
LINE
  5
7B7
  8
0
  6
CONTINUOUS
 62
     7
 10
169.5
 20
143.0249999999999
 30
0.0
 11
169.5
 21
138.7594048663392
 31
0.0
  0
LINE
  5
7B8
  8
0
  6
CONTINUOUS
 62
     7
 10
132.4540446486007
 20
129.4749999999999
 30
0.0
 11
133.0
 21
127.975
 31
0.0
  0
LINE
  5
7B9
  8
0
  6
CONTINUOUS
 62
     7
 10
133.0
 20
127.975
 30
0.0
 11
131.0
 21
127.975
 31
0.0
  0
LINE
  5
7BA
  8
0
  6
CONTINUOUS
 62
     7
 10
131.0
 20
127.975
 30
0.0
 11
131.5459553513993
 21
129.4749999999999
 31
0.0
  0
LINE
  5
7BB
  8
0
  6
CONTINUOUS
 62
     7
 10
81.45404464860067
 20
129.4749999999999
 30
0.0
 11
81.99999999999997
 21
127.975
 31
0.0
  0
LINE
  5
7BC
  8
0
  6
CONTINUOUS
 62
     7
 10
79.99999999999997
 20
127.975
 30
0.0
 11
81.99999999999997
 21
127.975
 31
0.0
  0
LINE
  5
7BD
  8
0
  6
CONTINUOUS
 62
     7
 10
79.99999999999997
 20
127.975
 30
0.0
 11
80.54595535139927
 21
129.4749999999999
 31
0.0
  0
LINE
  5
7BE
  8
0
  6
CONTINUOUS
 62
     7
 10
80.99999999999997
 20
131.9749999999999
 30
0.0
 11
106.25
 21
131.9749999999999
 31
0.0
  0
LINE
  5
7BF
  8
0
  6
CONTINUOUS
 62
     7
 10
106.25
 20
131.9749999999999
 30
0.0
 11
106.25
 21
131.675
 31
0.0
  0
LINE
  5
7C0
  8
0
  6
CONTINUOUS
 62
     7
 10
106.25
 20
131.675
 30
0.0
 11
106.75
 21
131.675
 31
0.0
  0
LINE
  5
7C1
  8
0
  6
CONTINUOUS
 62
     7
 10
106.75
 20
131.675
 30
0.0
 11
106.75
 21
131.9749999999999
 31
0.0
  0
LINE
  5
7C2
  8
0
  6
CONTINUOUS
 62
     7
 10
106.75
 20
131.9749999999999
 30
0.0
 11
132.0
 21
131.9749999999999
 31
0.0
  0
LINE
  5
7C3
  8
0
  6
CONTINUOUS
 62
   253
 10
132.0
 20
131.9749999999999
 30
0.0
 11
132.0
 21
131.4749999999999
 31
0.0
  0
LINE
  5
7C4
  8
0
  6
CONTINUOUS
 62
   253
 10
132.0
 20
131.4749999999999
 30
0.0
 11
80.99999999999997
 21
131.4749999999999
 31
0.0
  0
LINE
  5
7C5
  8
0
  6
CONTINUOUS
 62
   253
 10
80.99999999999997
 20
131.9749999999999
 30
0.0
 11
80.99999999999997
 21
131.4749999999999
 31
0.0
  0
LINE
  5
7C6
  8
0
  6
CONTINUOUS
 62
     7
 10
176.0
 20
131.9749999999999
 30
0.0
 11
177.5
 21
131.9749999999999
 31
0.0
  0
ARC
  5
7C7
  8
0
  6
CONTINUOUS
 62
     7
 10
177.5
 20
131.4749999999999
 30
0.0
 40
0.5000000000000004
 50
0.0
 51
90.0
  0
LINE
  5
7C8
  8
0
  6
CONTINUOUS
 62
   253
 10
178.0
 20
131.4749999999999
 30
0.0
 11
176.0
 21
131.4749999999999
 31
0.0
  0
LINE
  5
7C9
  8
0
  6
CONTINUOUS
 62
   253
 10
176.0
 20
131.9749999999999
 30
0.0
 11
176.0
 21
131.4749999999999
 31
0.0
  0
LINE
  5
7CA
  8
0
  6
CONTINUOUS
 62
     7
 10
132.0
 20
131.9749999999999
 30
0.0
 11
176.0
 21
131.9749999999999
 31
0.0
  0
LINE
  5
7CB
  8
0
  6
CONTINUOUS
 62
   253
 10
176.0
 20
131.4749999999999
 30
0.0
 11
132.0
 21
131.4749999999999
 31
0.0
  0
LINE
  5
7CC
  8
0
  6
CONTINUOUS
 62
     7
 10
34.99999999999997
 20
127.975
 30
0.0
 11
34.99999999999997
 21
131.4749999999999
 31
0.0
  0
LINE
  5
7CD
  8
0
  6
CONTINUOUS
 62
   253
 10
36.99999999999998
 20
131.4749999999999
 30
0.0
 11
34.99999999999997
 21
131.4749999999999
 31
0.0
  0
LINE
  5
7CE
  8
0
  6
CONTINUOUS
 62
   253
 10
36.99999999999998
 20
131.4749999999999
 30
0.0
 11
36.99999999999998
 21
127.975
 31
0.0
  0
LINE
  5
7CF
  8
0
  6
CONTINUOUS
 62
     7
 10
36.99999999999998
 20
127.975
 30
0.0
 11
34.99999999999997
 21
127.975
 31
0.0
  0
LINE
  5
7D0
  8
0
  6
CONTINUOUS
 62
     7
 10
131.5459553513993
 20
129.4749999999999
 30
0.0
 11
132.4540446486007
 21
129.4749999999999
 31
0.0
  0
LINE
  5
7D1
  8
0
  6
CONTINUOUS
 62
   253
 10
80.99999999999997
 20
131.4749999999999
 30
0.0
 11
36.99999999999998
 21
131.4749999999999
 31
0.0
  0
LINE
  5
7D2
  8
0
  6
CONTINUOUS
 62
   253
 10
176.0
 20
127.975
 30
0.0
 11
176.0
 21
131.4749999999999
 31
0.0
  0
LINE
  5
7D3
  8
0
  6
CONTINUOUS
 62
     7
 10
176.0
 20
127.975
 30
0.0
 11
133.0
 21
127.975
 31
0.0
  0
LINE
  5
7D4
  8
0
  6
CONTINUOUS
 62
     7
 10
79.99999999999997
 20
127.975
 30
0.0
 11
36.99999999999998
 21
127.975
 31
0.0
  0
LINE
  5
7D5
  8
0
  6
CONTINUOUS
 62
     7
 10
131.0
 20
127.975
 30
0.0
 11
81.99999999999997
 21
127.975
 31
0.0
  0
LINE
  5
7D6
  8
0
  6
CONTINUOUS
 62
     7
 10
80.54595535139927
 20
129.4749999999999
 30
0.0
 11
81.45404464860067
 21
129.4749999999999
 31
0.0
  0
LINE
  5
7D7
  8
0
  6
CONTINUOUS
 62
     7
 10
178.0
 20
131.4749999999999
 30
0.0
 11
178.0
 21
127.975
 31
0.0
  0
LINE
  5
7D8
  8
0
  6
CONTINUOUS
 62
     7
 10
178.0
 20
127.975
 30
0.0
 11
176.0
 21
127.975
 31
0.0
  0
LINE
  5
7D9
  8
0
  6
CONTINUOUS
 62
     7
 10
36.99999999999998
 20
131.9749999999999
 30
0.0
 11
80.99999999999997
 21
131.9749999999999
 31
0.0
  0
LINE
  5
7DA
  8
0
  6
CONTINUOUS
 62
   253
 10
36.99999999999998
 20
131.9749999999999
 30
0.0
 11
36.99999999999998
 21
131.4749999999999
 31
0.0
  0
LINE
  5
7DB
  8
0
  6
CONTINUOUS
 62
     7
 10
35.49999999999998
 20
131.9749999999999
 30
0.0
 11
36.99999999999998
 21
131.9749999999999
 31
0.0
  0
ARC
  5
7DC
  8
0
  6
CONTINUOUS
 62
     7
 10
35.49999999999998
 20
131.4749999999999
 30
0.0
 40
0.5000000000000004
 50
90.0
 51
180.0
  0
LINE
  5
7DD
  8
0
  6
CONTINUOUS
 62
     7
 10
174.1607767729723
 20
141.1711161351381
 30
0.0
 11
176.0
 21
131.9749999999999
 31
0.0
  0
LINE
  5
7DE
  8
0
  6
CONTINUOUS
 62
     7
 10
169.0
 20
131.9749999999999
 30
0.0
 11
169.9099503719021
 21
141.074503719021
 31
0.0
  0
LINE
  5
7DF
  8
0
  6
CONTINUOUS
 62
     7
 10
139.8392232270276
 20
141.1711161351381
 30
0.0
 11
138.0
 21
131.9749999999999
 31
0.0
  0
LINE
  5
7E0
  8
0
  6
CONTINUOUS
 62
     7
 10
145.0
 20
131.9749999999999
 30
0.0
 11
144.0900496280979
 21
141.074503719021
 31
0.0
  0
LINE
  5
7E1
  8
0
  6
CONTINUOUS
 62
     7
 10
170.9049875621121
 20
141.975
 30
0.0
 11
173.1801960972814
 21
141.975
 31
0.0
  0
ARC
  5
7E2
  8
0
  6
CONTINUOUS
 62
     7
 10
170.9049875621121
 20
140.975
 30
0.0
 40
1.000000000000001
 50
90.0
 51
174.2894068625003
  0
LINE
  5
7E3
  8
0
  6
CONTINUOUS
 62
     7
 10
143.0950124378879
 20
141.975
 30
0.0
 11
140.8198039027185
 21
141.975
 31
0.0
  0
ARC
  5
7E4
  8
0
  6
CONTINUOUS
 62
     7
 10
143.0950124378879
 20
140.975
 30
0.0
 40
1.000000000000001
 50
5.7105931374997
 51
90.0
  0
ARC
  5
7E5
  8
0
  6
CONTINUOUS
 62
     7
 10
173.1801960972814
 20
140.9749999999999
 30
0.0
 40
1.000000000000012
 50
11.30993247402078
 51
90.0
  0
ARC
  5
7E6
  8
0
  6
CONTINUOUS
 62
     7
 10
140.8198039027185
 20
140.9749999999999
 30
0.0
 40
0.9999999999999846
 50
90.0
 51
168.6900675259792
  0
LINE
  5
7E7
  8
0
  6
CONTINUOUS
 62
     7
 10
175.7385937093073
 20
133.2820314534636
 30
0.0
 11
175.6713820345616
 21
140.9837265354983
 31
0.0
  0
ARC
  5
7E8
  8
0
  6
CONTINUOUS
 62
     7
 10
174.6714201114974
 20
140.975
 30
0.0
 40
1.000000000000003
 50
0.4999999999999817
 51
90.0
  0
LINE
  5
7E9
  8
0
  6
CONTINUOUS
 62
     7
 10
174.6714201114974
 20
141.975
 30
0.0
 11
173.1801960972814
 21
141.975
 31
0.0
  0
LINE
  5
7EA
  8
0
  6
CONTINUOUS
 62
     7
 10
169.5
 20
143.0249999999999
 30
0.0
 11
144.5
 21
143.0249999999999
 31
0.0
  0
LINE
  5
7EB
  8
0
  6
CENTER
 62
     1
 10
81.0
 20
162.4999999999999
 30
0.0
 11
81.00000000000001
 21
263.4999999999999
 31
0.0
  0
LINE
  5
7ED
  8
0
  6
CENTER
 62
     1
 10
106.5
 20
162.4999999999999
 30
0.0
 11
106.5
 21
263.4999999999999
 31
0.0
  0
LINE
  5
7EE
  8
0
  6
CENTER
 62
     1
 10
31.99999999999999
 20
212.9999999999999
 30
0.0
 11
181.0
 21
212.9999999999999
 31
0.0
  0
LINE
  5
7EF
  8
0
  6
CENTER
 62
     1
 10
132.0
 20
162.4999999999999
 30
0.0
 11
132.0
 21
263.4999999999999
 31
0.0
  0
LINE
  5
7F0
  8
0
  6
CENTER
 62
     1
 10
145.75
 20
194.7499999999999
 30
0.0
 11
159.25
 21
194.7499999999999
 31
0.0
  0
LINE
  5
7F1
  8
0
  6
CENTER
 62
     1
 10
60.5
 20
206.2499999999999
 30
0.0
 11
60.5
 21
219.7499999999999
 31
0.0
  0
LINE
  5
7F2
  8
0
  6
CENTER
 62
     1
 10
132.0
 20
125.7986730192915
 30
0.0
 11
132.0
 21
131.3949396780054
 31
0.0
  0
LINE
  5
7F3
  8
0
  6
CENTER
 62
     1
 10
99.74999999999999
 20
212.9999999999999
 30
0.0
 11
113.25
 21
212.9999999999999
 31
0.0
  0
LINE
  5
7F4
  8
0
  6
CENTER
 62
     1
 10
60.5
 20
224.4999999999999
 30
0.0
 11
60.5
 21
238.0
 31
0.0
  0
LINE
  5
7F5
  8
0
  6
CENTER
 62
     1
 10
152.5
 20
187.9999999999999
 30
0.0
 11
152.5
 21
201.4999999999999
 31
0.0
  0
LINE
  5
7F6
  8
0
  6
CENTER
 62
     1
 10
152.5
 20
224.4999999999999
 30
0.0
 11
152.5
 21
238.0
 31
0.0
  0
LINE
  5
7F7
  8
0
  6
CENTER
 62
     1
 10
80.99999999999997
 20
125.7986730192915
 30
0.0
 11
80.99999999999997
 21
131.3949396780054
 31
0.0
  0
LINE
  5
7F8
  8
0
  6
CENTER
 62
     1
 10
99.74999999999999
 20
194.7499999999999
 30
0.0
 11
113.25
 21
194.7499999999999
 31
0.0
  0
LINE
  5
7F9
  8
0
  6
CENTER
 62
     1
 10
60.5
 20
187.9999999999999
 30
0.0
 11
60.5
 21
201.4999999999999
 31
0.0
  0
LINE
  5
7FA
  8
0
  6
CENTER
 62
     1
 10
145.75
 20
212.9999999999999
 30
0.0
 11
159.25
 21
212.9999999999999
 31
0.0
  0
LINE
  5
7FB
  8
0
  6
CENTER
 62
     1
 10
152.5
 20
206.2499999999999
 30
0.0
 11
152.5
 21
219.7499999999999
 31
0.0
  0
LINE
  5
7FC
  8
0
  6
CENTER
 62
     1
 10
53.75000000000001
 20
212.9999999999999
 30
0.0
 11
67.24999999999999
 21
212.9999999999999
 31
0.0
  0
LINE
  5
7FD
  8
0
  6
CENTER
 62
     1
 10
106.5
 20
224.4999999999999
 30
0.0
 11
106.5
 21
237.9999999999999
 31
0.0
  0
LINE
  5
7FE
  8
0
  6
CENTER
 62
     1
 10
53.74999999999998
 20
231.2499999999999
 30
0.0
 11
67.25000000000001
 21
231.2499999999999
 31
0.0
  0
LINE
  5
7FF
  8
0
  6
CENTER
 62
     1
 10
106.5
 20
206.2499999999999
 30
0.0
 11
106.5
 21
219.7499999999999
 31
0.0
  0
LINE
  5
800
  8
0
  6
CENTER
 62
     1
 10
145.75
 20
231.2499999999999
 30
0.0
 11
159.2500000000001
 21
231.2499999999999
 31
0.0
  0
LINE
  5
801
  8
0
  6
CENTER
 62
     1
 10
106.5
 20
124.975
 30
0.0
 11
106.5
 21
146.0249999999999
 31
0.0
  0
LINE
  5
802
  8
0
  6
CENTER
 62
     1
 10
53.74999999999998
 20
194.7499999999999
 30
0.0
 11
67.25000000000001
 21
194.7499999999999
 31
0.0
  0
LINE
  5
803
  8
0
  6
CENTER
 62
     1
 10
106.5
 20
187.9999999999999
 30
0.0
 11
106.5
 21
201.4999999999999
 31
0.0
  0
LINE
  5
804
  8
0
  6
CENTER
 62
     1
 10
99.74999999999999
 20
231.2499999999999
 30
0.0
 11
113.25
 21
231.2499999999999
 31
0.0
  0
ENDSEC
  0
EOF
