  0
SECTION
  2
HEADER
  9
$ACADVER
  1
AC1006
  9
$DWGCODEPAGE
  3
ansi_932
  9
$INSBASE
 10
0.0
 20
0.0
 30
0.0
  9
$EXTMIN
 10
126.0
 20
54.51897586594978
  9
$EXTMAX
 10
346.5
 20
170.5
  9
$LIMMIN
 10
0.0
 20
0.0
  9
$LIMMAX
 10
12.0
 20
9.0
  9
$ORTHOMODE
 70
     0
  9
$REGENMODE
 70
     1
  9
$FILLMODE
 70
     1
  9
$QTEXTMODE
 70
     0
  9
$MIRRTEXT
 70
     1
  9
$DRAGMODE
 70
     2
  9
$LTSCALE
 40
1.0
  9
$OSMODE
 70
    37
  9
$ATTMODE
 70
     1
  9
$TEXTSIZE
 40
0.2
  9
$TRACEWID
 40
0.05
  9
$TEXTSTYLE
  7
STANDARD
  9
$CLAYER
  8
0
  9
$CELTYPE
  6
BYLAYER
  9
$CECOLOR
 62
   256
  9
$DIMSCALE
 40
1.0
  9
$DIMASZ
 40
3.0
  9
$DIMEXO
 40
0.0625
  9
$DIMDLI
 40
0.38
  9
$DIMRND
 40
0.0
  9
$DIMDLE
 40
0.0
  9
$DIMEXE
 40
1.5
  9
$DIMTP
 40
0.0
  9
$DIMTM
 40
0.0
  9
$DIMTXT
 40
3.0
  9
$DIMCEN
 40
0.09
  9
$DIMTSZ
 40
0.0
  9
$DIMTOL
 70
     0
  9
$DIMLIM
 70
     0
  9
$DIMTIH
 70
     1
  9
$DIMTOH
 70
     1
  9
$DIMSE1
 70
     0
  9
$DIMSE2
 70
     0
  9
$DIMTAD
 70
     1
  9
$DIMZIN
 70
     0
  9
$DIMBLK
  1

  9
$DIMASO
 70
     1
  9
$DIMSHO
 70
     1
  9
$DIMPOST
  1

  9
$DIMAPOST
  1

  9
$DIMALT
 70
     0
  9
$DIMALTD
 70
     2
  9
$DIMALTF
 40
25.4
  9
$DIMLFAC
 40
1.0
  9
$DIMTOFL
 70
     0
  9
$DIMTVP
 40
0.0
  9
$DIMTIX
 70
     0
  9
$DIMSOXD
 70
     0
  9
$DIMSAH
 70
     0
  9
$DIMBLK1
  1

  9
$DIMBLK2
  1

  9
$LUNITS
 70
     2
  9
$LUPREC
 70
     4
  9
$SKETCHINC
 40
0.1
  9
$FILLETRAD
 40
0.5
  9
$AUNITS
 70
     0
  9
$AUPREC
 70
     0
  9
$MENU
  1
.
  9
$ELEVATION
 40
0.0
  9
$THICKNESS
 40
0.0
  9
$LIMCHECK
 70
     0
  9
$CHAMFERA
 40
0.0
  9
$CHAMFERB
 40
0.0
  9
$SKPOLY
 70
     0
  9
$TDCREATE
 40
2460454.467251053
  9
$TDUPDATE
 40
2460454.46725125
  9
$TDINDWG
 40
0.0000000116
  9
$TDUSRTIMER
 40
0.0000000116
  9
$USRTIMER
 70
     1
  9
$ANGBASE
 50
0.0
  9
$ANGDIR
 70
     0
  9
$PDMODE
 70
     0
  9
$PDSIZE
 40
0.0
  9
$PLINEWID
 40
0.0
  9
$COORDS
 70
     1
  9
$SPLFRAME
 70
     0
  9
$SPLINETYPE
 70
     6
  9
$SPLINESEGS
 70
     8
  9
$ATTDIA
 70
     0
  9
$ATTREQ
 70
     1
  9
$HANDLING
 70
     1
  9
$HANDSEED
  5
144
  9
$SURFTAB1
 70
     6
  9
$SURFTAB2
 70
     6
  9
$SURFTYPE
 70
     6
  9
$SURFU
 70
     6
  9
$SURFV
 70
     6
  9
$UCSNAME
  2

  9
$UCSORG
 10
0.0
 20
0.0
 30
0.0
  9
$UCSXDIR
 10
1.0
 20
0.0
 30
0.0
  9
$UCSYDIR
 10
0.0
 20
1.0
 30
0.0
  9
$USERI1
 70
     0
  9
$USERI2
 70
     0
  9
$USERI3
 70
     0
  9
$USERI4
 70
     0
  9
$USERI5
 70
     0
  9
$USERR1
 40
0.0
  9
$USERR2
 40
0.0
  9
$USERR3
 40
0.0
  9
$USERR4
 40
0.0
  9
$USERR5
 40
0.0
  9
$WORLDVIEW
 70
     1
  0
ENDSEC
  0
SECTION
  2
TABLES
  0
TABLE
  2
VPORT
 70
     1
  0
VPORT
  2
*ACTIVE
 70
     0
 10
0.0
 20
0.0
 11
1.0
 21
1.0
 12
236.25
 22
112.5094879329749
 13
0.0
 23
0.0
 14
0.5
 24
0.5
 15
0.5
 25
0.5
 16
0.0
 26
0.0
 36
1.0
 17
0.0
 27
0.0
 37
0.0
 40
115.9810241340502
 41
1.6
 42
50.0
 43
0.0
 44
0.0
 50
0.0
 51
0.0
 71
     0
 72
   100
 73
     1
 74
     3
 75
     0
 76
     0
 77
     0
 78
     0
  0
ENDTAB
  0
TABLE
  2
LTYPE
 70
     2
  0
LTYPE
  2
CONTINUOUS
 70
     0
  3
Solid line
 72
    65
 73
     0
 40
0.0
  0
LTYPE
  2
CENTER
 70
     0
  3

 72
    65
 73
     0
 40
0.0
  0
ENDTAB
  0
TABLE
  2
LAYER
 70
     2
  0
LAYER
  2
0
 70
     0
 62
     7
  6
CONTINUOUS
  0
LAYER
  2
1
 70
     0
 62
     7
  6
CONTINUOUS
  0
ENDTAB
  0
TABLE
  2
STYLE
 70
     2
  0
STYLE
  2
STANDARD
 70
     0
 40
0.0
 41
1.0
 50
0.0
 71
     0
 42
0.2
  3
txt
  4

  0
STYLE
  2
ＭＳ_ゴシック
 70
     0
 40
0.0
 41
1.0
 50
0.0
 71
     0
 42
0.2
  3
ＭＳ ゴシック.shx
  4

  0
ENDTAB
  0
TABLE
  2
VIEW
 70
     0
  0
ENDTAB
  0
TABLE
  2
UCS
 70
     0
  0
ENDTAB
  0
ENDSEC
  0
SECTION
  2
BLOCKS
  0
ENDSEC
  0
SECTION
  2
ENTITIES
  0
ARC
  5
70
  8
1
  6
CONTINUOUS
 62
     7
 10
337.2500000000001
 20
151.0
 30
0.0
 40
4.750000000000004
 50
90.0
 51
142.851299148229
  0
ARC
  5
71
  8
1
  6
CONTINUOUS
 62
     7
 10
337.2500000000001
 20
151.0
 30
0.0
 40
4.749999999999991
 50
39.14870085177095
 51
89.99999999999999
  0
LINE
  5
72
  8
1
  6
CONTINUOUS
 62
     7
 10
344.5
 20
170.5
 30
0.0
 11
343.5
 21
170.5
 31
0.0
  0
LINE
  5
73
  8
1
  6
CONTINUOUS
 62
     7
 10
341.0
 20
147.0
 30
0.0
 11
343.5
 21
144.5
 31
0.0
  0
LINE
  5
74
  8
1
  6
CONTINUOUS
 62
     7
 10
341.0
 20
168.0
 30
0.0
 11
341.0
 21
147.0
 31
0.0
  0
LINE
  5
75
  8
1
  6
CONTINUOUS
 62
     7
 10
343.5
 20
170.5
 30
0.0
 11
341.0
 21
168.0
 31
0.0
  0
LINE
  5
76
  8
1
  6
CONTINUOUS
 62
     7
 10
344.5
 20
144.5
 30
0.0
 11
343.5
 21
144.5
 31
0.0
  0
LINE
  5
77
  8
1
  6
CONTINUOUS
 62
     7
 10
344.5
 20
170.5
 30
0.0
 11
344.5
 21
144.5
 31
0.0
  0
LINE
  5
78
  8
1
  6
CONTINUOUS
 62
     7
 10
343.5
 20
144.5
 30
0.0
 11
337.2500000000001
 21
144.5
 31
0.0
  0
LINE
  5
79
  8
1
  6
CONTINUOUS
 62
     7
 10
331.4825475935627
 20
153.8338722502944
 30
0.0
 11
341.0
 21
154.0
 31
0.0
  0
ARC
  5
7A
  8
1
  6
CONTINUOUS
 62
     7
 10
337.2500000000001
 20
151.25
 30
0.0
 40
6.750000000000001
 50
180.0
 51
270.0
  0
ARC
  5
7B
  8
1
  6
CONTINUOUS
 62
     7
 10
331.5
 20
152.834024555138
 30
0.0
 40
1.000000000000001
 50
91.00000000000006
 51
180.0
  0
LINE
  5
7C
  8
1
  6
CONTINUOUS
 62
     7
 10
330.5
 20
151.25
 30
0.0
 11
330.5
 21
152.834024555138
 31
0.0
  0
LINE
  5
7D
  8
1
  6
CONTINUOUS
 62
     7
 10
220.9
 20
155.75
 30
0.0
 11
220.9
 21
153.8516319481102
 31
0.0
  0
LINE
  5
7E
  8
1
  6
CONTINUOUS
 62
     7
 10
189.1
 20
155.75
 30
0.0
 11
189.1
 21
153.8516319481102
 31
0.0
  0
LINE
  5
7F
  8
1
  6
CONTINUOUS
 62
     7
 10
219.0000000000004
 20
153.8338722502944
 30
0.0
 11
218.8049096779842
 21
153.8146604571926
 31
0.0
  0
LINE
  5
80
  8
1
  6
CONTINUOUS
 62
     7
 10
218.8049096779842
 20
153.8146604571926
 30
0.0
 11
218.6173165676352
 21
153.7577633763217
 31
0.0
  0
LINE
  5
81
  8
1
  6
CONTINUOUS
 62
     7
 10
218.6173165676352
 20
153.7577633763217
 30
0.0
 11
218.4444297669806
 21
153.6653675305915
 31
0.0
  0
LINE
  5
82
  8
1
  6
CONTINUOUS
 62
     7
 10
218.4444297669806
 20
153.6653675305915
 30
0.0
 11
218.2928932188136
 21
153.541023640537
 31
0.0
  0
LINE
  5
83
  8
1
  6
CONTINUOUS
 62
     7
 10
218.2928932188136
 20
153.541023640537
 30
0.0
 11
218.1685303876976
 21
153.3895101721203
 31
0.0
  0
LINE
  5
84
  8
1
  6
CONTINUOUS
 62
     7
 10
218.1685303876976
 20
153.3895101721203
 30
0.0
 11
218.0761204674888
 21
153.2166497029629
 31
0.0
  0
LINE
  5
85
  8
1
  6
CONTINUOUS
 62
     7
 10
218.0761204674888
 20
153.2166497029629
 30
0.0
 11
218.0192147195968
 21
153.0290851639532
 31
0.0
  0
LINE
  5
86
  8
1
  6
CONTINUOUS
 62
     7
 10
218.0192147195968
 20
153.0290851639532
 30
0.0
 11
218.0
 21
152.834024555138
 31
0.0
  0
LINE
  5
87
  8
1
  6
CONTINUOUS
 62
     7
 10
218.0
 20
151.25
 30
0.0
 11
218.0
 21
152.834024555138
 31
0.0
  0
LINE
  5
88
  8
1
  6
CONTINUOUS
 62
     7
 10
187.665975444862
 20
153.8338722502944
 30
0.0
 11
187.4709521631983
 21
153.8146084816282
 31
0.0
  0
LINE
  5
89
  8
1
  6
CONTINUOUS
 62
     7
 10
187.4709521631983
 20
153.8146084816282
 30
0.0
 11
187.2834206199936
 21
153.7576759882252
 31
0.0
  0
LINE
  5
8A
  8
1
  6
CONTINUOUS
 62
     7
 10
187.2834206199936
 20
153.7576759882252
 30
0.0
 11
187.1105847616817
 21
153.6652618082007
 31
0.0
  0
LINE
  5
8B
  8
1
  6
CONTINUOUS
 62
     7
 10
187.1105847616817
 20
153.6652618082007
 30
0.0
 11
186.9590840060581
 21
153.5409159939419
 31
0.0
  0
LINE
  5
8C
  8
1
  6
CONTINUOUS
 62
     7
 10
186.9590840060581
 20
153.5409159939419
 30
0.0
 11
186.8347381917994
 21
153.3894152383183
 31
0.0
  0
LINE
  5
8D
  8
1
  6
CONTINUOUS
 62
     7
 10
186.8347381917994
 20
153.3894152383183
 30
0.0
 11
186.7423240117748
 21
153.2165793800064
 31
0.0
  0
LINE
  5
8E
  8
1
  6
CONTINUOUS
 62
     7
 10
186.7423240117748
 20
153.2165793800064
 30
0.0
 11
186.6853915183718
 21
153.0290478368017
 31
0.0
  0
LINE
  5
8F
  8
1
  6
CONTINUOUS
 62
     7
 10
186.6853915183718
 20
153.0290478368017
 30
0.0
 11
186.6661277497056
 21
152.834024555138
 31
0.0
  0
LINE
  5
90
  8
1
  6
CONTINUOUS
 62
     7
 10
186.6661277497056
 20
151.25
 30
0.0
 11
186.6661277497056
 21
152.834024555138
 31
0.0
  0
LINE
  5
91
  8
1
  6
CONTINUOUS
 62
     7
 10
223.3338722502944
 20
152.834024555138
 30
0.0
 11
223.3146084816282
 21
153.0290478368017
 31
0.0
  0
LINE
  5
92
  8
1
  6
CONTINUOUS
 62
     7
 10
223.3146084816282
 20
153.0290478368017
 30
0.0
 11
223.2576759882252
 21
153.2165793800064
 31
0.0
  0
LINE
  5
93
  8
1
  6
CONTINUOUS
 62
     7
 10
223.2576759882252
 20
153.2165793800064
 30
0.0
 11
223.1652618082007
 21
153.3894152383183
 31
0.0
  0
LINE
  5
94
  8
1
  6
CONTINUOUS
 62
     7
 10
223.1652618082007
 20
153.3894152383183
 30
0.0
 11
223.0409159939419
 21
153.5409159939419
 31
0.0
  0
LINE
  5
95
  8
1
  6
CONTINUOUS
 62
     7
 10
223.0409159939419
 20
153.5409159939419
 30
0.0
 11
222.8894152383183
 21
153.6652618082007
 31
0.0
  0
LINE
  5
96
  8
1
  6
CONTINUOUS
 62
     7
 10
222.8894152383183
 20
153.6652618082007
 30
0.0
 11
222.7165793800065
 21
153.7576759882252
 31
0.0
  0
LINE
  5
97
  8
1
  6
CONTINUOUS
 62
     7
 10
222.7165793800065
 20
153.7576759882252
 30
0.0
 11
222.5290478368017
 21
153.8146084816282
 31
0.0
  0
LINE
  5
98
  8
1
  6
CONTINUOUS
 62
     7
 10
222.5290478368017
 20
153.8146084816282
 30
0.0
 11
222.334024555138
 21
153.8338722502944
 31
0.0
  0
LINE
  5
99
  8
1
  6
CONTINUOUS
 62
     7
 10
218.0
 20
145.5
 30
0.0
 11
218.0
 21
151.25
 31
0.0
  0
ARC
  5
9A
  8
1
  6
CONTINUOUS
 62
     7
 10
219.0
 20
145.5
 30
0.0
 40
1.000000000000001
 50
180.0
 51
270.0
  0
LINE
  5
9B
  8
1
  6
CONTINUOUS
 62
     7
 10
219.0
 20
153.8338722502944
 30
0.0
 11
222.3340245551381
 21
153.8338722502944
 31
0.0
  0
LINE
  5
9C
  8
1
  6
CONTINUOUS
 62
     7
 10
192.0
 20
151.25
 30
0.0
 11
192.0
 21
145.5
 31
0.0
  0
ARC
  5
9D
  8
1
  6
CONTINUOUS
 62
     7
 10
191.0
 20
145.5
 30
0.0
 40
1.000000000000001
 50
270.0
 51
0.0
  0
LINE
  5
9E
  8
1
  6
CONTINUOUS
 62
     7
 10
187.665975444862
 20
153.8338722502944
 30
0.0
 11
191.0
 21
153.8338722502944
 31
0.0
  0
LINE
  5
9F
  8
1
  6
CONTINUOUS
 62
     7
 10
223.3338722502944
 20
151.25
 30
0.0
 11
223.4342388736317
 21
145.5
 31
0.0
  0
LINE
  5
A0
  8
1
  6
CONTINUOUS
 62
     7
 10
222.4343911784753
 20
144.5
 30
0.0
 11
222.6294517872904
 21
144.5192147195968
 31
0.0
  0
LINE
  5
A1
  8
1
  6
CONTINUOUS
 62
     7
 10
222.6294517872904
 20
144.5192147195968
 30
0.0
 11
222.8170163263001
 21
144.5761204674887
 31
0.0
  0
LINE
  5
A2
  8
1
  6
CONTINUOUS
 62
     7
 10
222.8170163263001
 20
144.5761204674887
 30
0.0
 11
222.9898767954574
 21
144.6685303876974
 31
0.0
  0
LINE
  5
A3
  8
1
  6
CONTINUOUS
 62
     7
 10
222.9898767954574
 20
144.6685303876974
 30
0.0
 11
223.1413902638741
 21
144.7928932188134
 31
0.0
  0
LINE
  5
A4
  8
1
  6
CONTINUOUS
 62
     7
 10
223.1413902638741
 20
144.7928932188134
 30
0.0
 11
223.2657341539286
 21
144.9444297669804
 31
0.0
  0
LINE
  5
A5
  8
1
  6
CONTINUOUS
 62
     7
 10
223.2657341539286
 20
144.9444297669804
 30
0.0
 11
223.3581299996589
 21
145.1173165676349
 31
0.0
  0
LINE
  5
A6
  8
1
  6
CONTINUOUS
 62
     7
 10
223.3581299996589
 20
145.1173165676349
 30
0.0
 11
223.4150270805298
 21
145.3049096779839
 31
0.0
  0
LINE
  5
A7
  8
1
  6
CONTINUOUS
 62
     7
 10
223.4150270805298
 20
145.3049096779839
 30
0.0
 11
223.4342388736317
 21
145.5
 31
0.0
  0
LINE
  5
A8
  8
1
  6
CONTINUOUS
 62
     7
 10
191.0
 20
144.5
 30
0.0
 11
187.5656088215247
 21
144.5
 31
0.0
  0
LINE
  5
A9
  8
1
  6
CONTINUOUS
 62
     7
 10
223.3338722502944
 20
152.834024555138
 30
0.0
 11
223.3338722502944
 21
151.25
 31
0.0
  0
LINE
  5
AA
  8
1
  6
CONTINUOUS
 62
     7
 10
186.5657611263684
 20
145.5
 30
0.0
 11
186.6661277497056
 21
151.25
 31
0.0
  0
LINE
  5
AB
  8
1
  6
CONTINUOUS
 62
     7
 10
186.5657611263683
 20
145.5
 30
0.0
 11
186.5849729194703
 21
145.3049096779839
 31
0.0
  0
LINE
  5
AC
  8
1
  6
CONTINUOUS
 62
     7
 10
186.5849729194703
 20
145.3049096779839
 30
0.0
 11
186.6418700003412
 21
145.1173165676349
 31
0.0
  0
LINE
  5
AD
  8
1
  6
CONTINUOUS
 62
     7
 10
186.6418700003412
 20
145.1173165676349
 30
0.0
 11
186.7342658460715
 21
144.9444297669804
 31
0.0
  0
LINE
  5
AE
  8
1
  6
CONTINUOUS
 62
     7
 10
186.7342658460715
 20
144.9444297669804
 30
0.0
 11
186.8586097361259
 21
144.7928932188134
 31
0.0
  0
LINE
  5
AF
  8
1
  6
CONTINUOUS
 62
     7
 10
186.8586097361259
 20
144.7928932188134
 30
0.0
 11
187.0101232045426
 21
144.6685303876974
 31
0.0
  0
LINE
  5
B0
  8
1
  6
CONTINUOUS
 62
     7
 10
187.0101232045426
 20
144.6685303876974
 30
0.0
 11
187.1829836737
 21
144.5761204674887
 31
0.0
  0
LINE
  5
B1
  8
1
  6
CONTINUOUS
 62
     7
 10
187.1829836737
 20
144.5761204674887
 30
0.0
 11
187.3705482127096
 21
144.5192147195968
 31
0.0
  0
LINE
  5
B2
  8
1
  6
CONTINUOUS
 62
     7
 10
187.3705482127096
 20
144.5192147195968
 30
0.0
 11
187.5656088215247
 21
144.5
 31
0.0
  0
LINE
  5
B3
  8
1
  6
CONTINUOUS
 62
     7
 10
192.0
 20
152.834024555138
 30
0.0
 11
192.0
 21
151.25
 31
0.0
  0
LINE
  5
B4
  8
1
  6
CONTINUOUS
 62
     7
 10
192.0
 20
152.834024555138
 30
0.0
 11
191.9807852804032
 21
153.0290851639532
 31
0.0
  0
LINE
  5
B5
  8
1
  6
CONTINUOUS
 62
     7
 10
191.9807852804032
 20
153.0290851639532
 30
0.0
 11
191.9238795325113
 21
153.2166497029628
 31
0.0
  0
LINE
  5
B6
  8
1
  6
CONTINUOUS
 62
     7
 10
191.9238795325113
 20
153.2166497029628
 30
0.0
 11
191.8314696123026
 21
153.3895101721202
 31
0.0
  0
LINE
  5
B7
  8
1
  6
CONTINUOUS
 62
     7
 10
191.8314696123026
 20
153.3895101721202
 30
0.0
 11
191.7071067811866
 21
153.5410236405368
 31
0.0
  0
LINE
  5
B8
  8
1
  6
CONTINUOUS
 62
     7
 10
191.7071067811866
 20
153.5410236405368
 30
0.0
 11
191.5555702330196
 21
153.6653675305913
 31
0.0
  0
LINE
  5
B9
  8
1
  6
CONTINUOUS
 62
     7
 10
191.5555702330196
 20
153.6653675305913
 30
0.0
 11
191.3826834323651
 21
153.7577633763216
 31
0.0
  0
LINE
  5
BA
  8
1
  6
CONTINUOUS
 62
     7
 10
191.3826834323651
 20
153.7577633763216
 30
0.0
 11
191.1950903220161
 21
153.8146604571925
 31
0.0
  0
LINE
  5
BB
  8
1
  6
CONTINUOUS
 62
     7
 10
191.1950903220161
 20
153.8146604571925
 30
0.0
 11
191.0
 21
153.8338722502944
 31
0.0
  0
LINE
  5
BC
  8
1
  6
CONTINUOUS
 62
     7
 10
222.4343911784753
 20
144.5
 30
0.0
 11
219.0
 21
144.5
 31
0.0
  0
LINE
  5
BD
  8
1
  6
CONTINUOUS
 62
     7
 10
189.0
 20
153.8516319481102
 30
0.0
 11
191.0
 21
153.8516319481102
 31
0.0
  0
LINE
  5
BE
  8
1
  6
CONTINUOUS
 62
     7
 10
191.0
 20
153.8338722502944
 30
0.0
 11
191.0
 21
153.8516319481101
 31
0.0
  0
LINE
  5
BF
  8
1
  6
CONTINUOUS
 62
     7
 10
218.0
 20
152.834024555138
 30
0.0
 11
218.0
 21
152.8514796200663
 31
0.0
  0
LINE
  5
C0
  8
1
  6
CONTINUOUS
 62
     7
 10
192.0
 20
152.8514796200662
 30
0.0
 11
192.0
 21
152.834024555138
 31
0.0
  0
LINE
  5
C1
  8
1
  6
CONTINUOUS
 62
     7
 10
192.0
 20
152.8514796200662
 30
0.0
 11
191.9807852804032
 21
153.0465996598095
 31
0.0
  0
LINE
  5
C2
  8
1
  6
CONTINUOUS
 62
     7
 10
191.9807852804032
 20
153.0465996598095
 30
0.0
 11
191.9238795325113
 21
153.23422134585
 31
0.0
  0
LINE
  5
C3
  8
1
  6
CONTINUOUS
 62
     7
 10
191.9238795325113
 20
153.23422134585
 30
0.0
 11
191.8314696123026
 21
153.4071344820127
 31
0.0
  0
LINE
  5
C4
  8
1
  6
CONTINUOUS
 62
     7
 10
191.8314696123026
 20
153.4071344820127
 30
0.0
 11
191.7071067811866
 21
153.5586941134456
 31
0.0
  0
LINE
  5
C5
  8
1
  6
CONTINUOUS
 62
     7
 10
191.7071067811866
 20
153.5586941134456
 30
0.0
 11
191.5555702330196
 21
153.6830758885084
 31
0.0
  0
LINE
  5
C6
  8
1
  6
CONTINUOUS
 62
     7
 10
191.5555702330196
 20
153.6830758885084
 30
0.0
 11
191.3826834323651
 21
153.7754998853395
 31
0.0
  0
LINE
  5
C7
  8
1
  6
CONTINUOUS
 62
     7
 10
191.3826834323651
 20
153.7754998853395
 30
0.0
 11
191.1950903220161
 21
153.8324143015727
 31
0.0
  0
LINE
  5
C8
  8
1
  6
CONTINUOUS
 62
     7
 10
191.1950903220161
 20
153.8324143015727
 30
0.0
 11
191.0
 21
153.8516319481101
 31
0.0
  0
LINE
  5
C9
  8
1
  6
CONTINUOUS
 62
     7
 10
222.5434853342767
 20
144.5
 30
0.0
 11
222.4343911784753
 21
144.5
 31
0.0
  0
LINE
  5
CA
  8
1
  6
CONTINUOUS
 62
     7
 10
187.5656088215247
 20
144.5
 30
0.0
 11
187.4565146657233
 21
144.5
 31
0.0
  0
ARC
  5
CB
  8
1
  6
CONTINUOUS
 62
     7
 10
261.0
 20
150.5
 30
0.0
 40
1.500000000000001
 50
270.0
 51
0.0000000000000568
  0
ARC
  5
CC
  8
1
  6
CONTINUOUS
 62
     7
 10
261.0
 20
164.5
 30
0.0
 40
1.500000000000001
 50
359.9999999999998
 51
90.0
  0
LINE
  5
CD
  8
1
  6
CONTINUOUS
 62
     7
 10
259.5
 20
164.5
 30
0.0
 11
259.5
 21
150.5
 31
0.0
  0
LINE
  5
CE
  8
1
  6
CONTINUOUS
 62
     7
 10
240.5
 20
150.5
 30
0.0
 11
240.5
 21
164.5
 31
0.0
  0
LINE
  5
CF
  8
1
  6
CONTINUOUS
 62
     7
 10
262.5
 20
150.5
 30
0.0
 11
262.5
 21
164.5
 31
0.0
  0
ARC
  5
D0
  8
1
  6
CONTINUOUS
 62
     7
 10
161.5
 20
154.5
 30
0.0
 40
4.499999999999997
 50
180.0
 51
0.0
  0
LINE
  5
D1
  8
1
  6
CONTINUOUS
 62
     7
 10
166.0
 20
166.5
 30
0.0
 11
166.0
 21
154.5
 31
0.0
  0
ARC
  5
D2
  8
1
  6
CONTINUOUS
 62
     7
 10
149.0
 20
164.5
 30
0.0
 40
1.5
 50
90.0
 51
180.0
  0
ARC
  5
D3
  8
1
  6
CONTINUOUS
 62
     7
 10
261.0
 20
150.5
 30
0.0
 40
1.500000000000001
 50
179.9999999999999
 51
270.0
  0
ARC
  5
D4
  8
1
  6
CONTINUOUS
 62
     7
 10
261.0
 20
164.5
 30
0.0
 40
1.500000000000001
 50
90.0
 51
180.0
  0
ARC
  5
D5
  8
1
  6
CONTINUOUS
 62
     7
 10
171.0
 20
150.5
 30
0.0
 40
1.500000000000001
 50
180.0
 51
270.0
  0
LINE
  5
D6
  8
1
  6
CONTINUOUS
 62
     7
 10
126.0
 20
147.0
 30
0.0
 11
126.0
 21
168.0
 31
0.0
  0
LINE
  5
D7
  8
1
  6
CONTINUOUS
 62
     7
 10
284.0
 20
168.0
 30
0.0
 11
284.0
 21
147.0
 31
0.0
  0
LINE
  5
D8
  8
1
  6
CONTINUOUS
 62
     7
 10
284.0
 20
147.0
 30
0.0
 11
284.0
 21
144.5
 31
0.0
  0
LINE
  5
D9
  8
1
  6
CONTINUOUS
 62
     7
 10
284.0
 20
144.5
 30
0.0
 11
262.5
 21
144.5
 31
0.0
  0
LINE
  5
DA
  8
1
  6
CONTINUOUS
 62
     7
 10
262.5
 20
144.5
 30
0.0
 11
261.0
 21
146.0
 31
0.0
  0
LINE
  5
DB
  8
1
  6
CONTINUOUS
 62
     7
 10
261.0
 20
146.0
 30
0.0
 11
259.5
 21
144.5
 31
0.0
  0
LINE
  5
DC
  8
1
  6
CONTINUOUS
 62
     7
 10
259.5
 20
144.5
 30
0.0
 11
240.5
 21
144.5
 31
0.0
  0
LINE
  5
DD
  8
1
  6
CONTINUOUS
 62
     7
 10
240.5
 20
144.5
 30
0.0
 11
239.0
 21
146.0
 31
0.0
  0
LINE
  5
DE
  8
1
  6
CONTINUOUS
 62
     7
 10
239.0
 20
146.0
 30
0.0
 11
237.5
 21
144.5
 31
0.0
  0
LINE
  5
DF
  8
1
  6
CONTINUOUS
 62
     7
 10
237.5
 20
144.5
 30
0.0
 11
222.5434853342767
 21
144.5
 31
0.0
  0
LINE
  5
E0
  8
1
  6
CONTINUOUS
 62
     7
 10
172.5
 20
144.5
 30
0.0
 11
171.0
 21
146.0
 31
0.0
  0
LINE
  5
E1
  8
1
  6
CONTINUOUS
 62
     7
 10
171.0
 20
146.0
 30
0.0
 11
169.5
 21
144.5
 31
0.0
  0
LINE
  5
E2
  8
1
  6
CONTINUOUS
 62
     7
 10
169.5
 20
144.5
 30
0.0
 11
150.5
 21
144.5
 31
0.0
  0
LINE
  5
E3
  8
1
  6
CONTINUOUS
 62
     7
 10
150.5
 20
144.5
 30
0.0
 11
149.0
 21
146.0
 31
0.0
  0
LINE
  5
E4
  8
1
  6
CONTINUOUS
 62
     7
 10
149.0
 20
146.0
 30
0.0
 11
147.5
 21
144.5
 31
0.0
  0
LINE
  5
E5
  8
1
  6
CONTINUOUS
 62
     7
 10
147.5
 20
144.5
 30
0.0
 11
126.0
 21
144.5
 31
0.0
  0
LINE
  5
E6
  8
1
  6
CONTINUOUS
 62
     7
 10
126.0
 20
144.5
 30
0.0
 11
126.0
 21
147.0
 31
0.0
  0
LINE
  5
E7
  8
1
  6
CONTINUOUS
 62
     7
 10
187.4565146657234
 20
144.5
 30
0.0
 11
172.5
 21
144.5
 31
0.0
  0
LINE
  5
E8
  8
1
  6
CONTINUOUS
 62
     7
 10
126.0
 20
170.5
 30
0.0
 11
147.5
 21
170.5
 31
0.0
  0
LINE
  5
E9
  8
1
  6
CONTINUOUS
 62
     7
 10
147.5
 20
170.5
 30
0.0
 11
149.0
 21
169.0
 31
0.0
  0
LINE
  5
EA
  8
1
  6
CONTINUOUS
 62
     7
 10
149.0
 20
169.0
 30
0.0
 11
150.5
 21
170.5
 31
0.0
  0
LINE
  5
EB
  8
1
  6
CONTINUOUS
 62
     7
 10
150.5
 20
170.5
 30
0.0
 11
169.5
 21
170.5
 31
0.0
  0
LINE
  5
EC
  8
1
  6
CONTINUOUS
 62
     7
 10
169.5
 20
170.5
 30
0.0
 11
171.0
 21
169.0
 31
0.0
  0
LINE
  5
ED
  8
1
  6
CONTINUOUS
 62
     7
 10
171.0
 20
169.0
 30
0.0
 11
172.5
 21
170.5
 31
0.0
  0
LINE
  5
EE
  8
1
  6
CONTINUOUS
 62
     7
 10
172.5
 20
170.5
 30
0.0
 11
203.5
 21
170.5
 31
0.0
  0
LINE
  5
EF
  8
1
  6
CONTINUOUS
 62
     7
 10
203.5
 20
170.5
 30
0.0
 11
205.0
 21
169.0
 31
0.0
  0
LINE
  5
F0
  8
1
  6
CONTINUOUS
 62
     7
 10
205.0
 20
169.0
 30
0.0
 11
206.5
 21
170.5
 31
0.0
  0
LINE
  5
F1
  8
1
  6
CONTINUOUS
 62
     7
 10
206.5
 20
170.5
 30
0.0
 11
237.5
 21
170.5
 31
0.0
  0
LINE
  5
F2
  8
1
  6
CONTINUOUS
 62
     7
 10
237.5
 20
170.5
 30
0.0
 11
239.0
 21
169.0
 31
0.0
  0
LINE
  5
F3
  8
1
  6
CONTINUOUS
 62
     7
 10
239.0
 20
169.0
 30
0.0
 11
240.5
 21
170.5
 31
0.0
  0
LINE
  5
F4
  8
1
  6
CONTINUOUS
 62
     7
 10
240.5
 20
170.5
 30
0.0
 11
259.5
 21
170.5
 31
0.0
  0
LINE
  5
F5
  8
1
  6
CONTINUOUS
 62
     7
 10
259.5
 20
170.5
 30
0.0
 11
261.0
 21
169.0
 31
0.0
  0
LINE
  5
F6
  8
1
  6
CONTINUOUS
 62
     7
 10
261.0
 20
169.0
 30
0.0
 11
262.5
 21
170.5
 31
0.0
  0
LINE
  5
F7
  8
1
  6
CONTINUOUS
 62
     7
 10
262.5
 20
170.5
 30
0.0
 11
283.9999999999999
 21
170.5
 31
0.0
  0
LINE
  5
F8
  8
1
  6
CONTINUOUS
 62
     7
 10
283.9999999999999
 20
170.5
 30
0.0
 11
284.0
 21
168.0
 31
0.0
  0
LINE
  5
F9
  8
1
  6
CONTINUOUS
 62
     7
 10
126.0
 20
168.0
 30
0.0
 11
126.0
 21
170.5
 31
0.0
  0
ARC
  5
FA
  8
1
  6
CONTINUOUS
 62
     7
 10
149.0
 20
150.5
 30
0.0
 40
1.500000000000001
 50
180.0
 51
270.0
  0
ARC
  5
FB
  8
1
  6
CONTINUOUS
 62
     7
 10
149.0
 20
164.5
 30
0.0
 40
1.500000000000001
 50
359.9999999999998
 51
90.0
  0
ARC
  5
FC
  8
1
  6
CONTINUOUS
 62
     7
 10
239.0
 20
150.5
 30
0.0
 40
1.500000000000001
 50
270.0
 51
0.0000000000000568
  0
LINE
  5
FD
  8
1
  6
CONTINUOUS
 62
     7
 10
253.0
 20
166.5
 30
0.0
 11
253.0
 21
154.5
 31
0.0
  0
ARC
  5
FE
  8
1
  6
CONTINUOUS
 62
     7
 10
239.0
 20
150.5
 30
0.0
 40
1.500000000000001
 50
179.9999999999999
 51
270.0
  0
ARC
  5
FF
  8
1
  6
CONTINUOUS
 62
     7
 10
239.0
 20
164.5
 30
0.0
 40
1.500000000000001
 50
359.9999999999998
 51
90.0
  0
ARC
  5
100
  8
1
  6
CONTINUOUS
 62
     7
 10
239.0
 20
164.5
 30
0.0
 40
1.500000000000001
 50
90.0
 51
180.0
  0
ARC
  5
101
  8
1
  6
CONTINUOUS
 62
     7
 10
171.0
 20
150.5
 30
0.0
 40
1.5
 50
270.0
 51
0.0000000000001137
  0
LINE
  5
102
  8
1
  6
CONTINUOUS
 62
     7
 10
244.0
 20
154.5
 30
0.0
 11
244.0
 21
166.5
 31
0.0
  0
ARC
  5
103
  8
1
  6
CONTINUOUS
 62
     7
 10
171.0
 20
164.5
 30
0.0
 40
1.500000000000001
 50
359.9999999999998
 51
90.0
  0
LINE
  5
104
  8
1
  6
CONTINUOUS
 62
     7
 10
169.5
 20
164.5
 30
0.0
 11
169.5
 21
150.5
 31
0.0
  0
ARC
  5
105
  8
1
  6
CONTINUOUS
 62
     7
 10
171.0
 20
164.5
 30
0.0
 40
1.5
 50
90.0
 51
180.0
  0
LINE
  5
106
  8
1
  6
CONTINUOUS
 62
     7
 10
167.0
 20
154.5
 30
0.0
 11
167.0
 21
166.5
 31
0.0
  0
ARC
  5
107
  8
1
  6
CONTINUOUS
 62
     7
 10
161.5
 20
154.5
 30
0.0
 40
5.499999999999998
 50
180.0
 51
0.0
  0
LINE
  5
108
  8
1
  6
CONTINUOUS
 62
     7
 10
156.0
 20
166.5
 30
0.0
 11
156.0
 21
154.5
 31
0.0
  0
ARC
  5
109
  8
1
  6
CONTINUOUS
 62
     7
 10
248.5
 20
154.5
 30
0.0
 40
4.499999999999997
 50
180.0
 51
0.0
  0
CIRCLE
  5
10A
  8
1
  6
CONTINUOUS
 62
     7
 10
248.5
 20
157.5
 30
0.0
 40
2.000000000000002
  0
LINE
  5
10B
  8
1
  6
CONTINUOUS
 62
     7
 10
254.0
 20
154.5
 30
0.0
 11
254.0
 21
166.5
 31
0.0
  0
ARC
  5
10C
  8
1
  6
CONTINUOUS
 62
     7
 10
248.5
 20
154.5
 30
0.0
 40
5.499999999999998
 50
180.0
 51
0.0
  0
LINE
  5
10D
  8
1
  6
CONTINUOUS
 62
     7
 10
243.0
 20
166.5
 30
0.0
 11
243.0
 21
154.5
 31
0.0
  0
LINE
  5
10E
  8
1
  6
CONTINUOUS
 62
     7
 10
150.5
 20
150.5
 30
0.0
 11
150.5
 21
164.5
 31
0.0
  0
CIRCLE
  5
10F
  8
1
  6
CONTINUOUS
 62
     7
 10
183.5
 20
157.5
 30
0.0
 40
2.000000000000002
  0
CIRCLE
  5
110
  8
1
  6
CONTINUOUS
 62
     7
 10
138.5
 20
157.5
 30
0.0
 40
2.000000000000002
  0
LINE
  5
111
  8
1
  6
CONTINUOUS
 62
     7
 10
147.5
 20
164.5
 30
0.0
 11
147.5
 21
150.5
 31
0.0
  0
LINE
  5
112
  8
1
  6
CONTINUOUS
 62
     7
 10
157.0
 20
154.5
 30
0.0
 11
157.0
 21
166.5
 31
0.0
  0
CIRCLE
  5
113
  8
1
  6
CONTINUOUS
 62
     7
 10
161.5
 20
157.5
 30
0.0
 40
2.000000000000002
  0
ARC
  5
114
  8
1
  6
CONTINUOUS
 62
     7
 10
149.0
 20
150.5
 30
0.0
 40
1.5
 50
270.0
 51
0.0000000000001137
  0
LINE
  5
115
  8
1
  6
CONTINUOUS
 62
     7
 10
237.5
 20
164.5
 30
0.0
 11
237.5
 21
150.5
 31
0.0
  0
CIRCLE
  5
116
  8
1
  6
CONTINUOUS
 62
     7
 10
226.5
 20
157.5
 30
0.0
 40
2.000000000000002
  0
CIRCLE
  5
117
  8
1
  6
CONTINUOUS
 62
     7
 10
271.5
 20
157.5
 30
0.0
 40
2.000000000000002
  0
LINE
  5
118
  8
1
  6
CONTINUOUS
 62
     7
 10
172.5
 20
150.5
 30
0.0
 11
172.5
 21
164.5
 31
0.0
  0
ARC
  5
119
  8
1
  6
CONTINUOUS
 62
     7
 10
205.0
 20
157.5
 30
0.0
 40
2.0
 50
180.0
 51
241.0449756281402
  0
ARC
  5
11A
  8
1
  6
CONTINUOUS
 62
     7
 10
205.0
 20
157.5
 30
0.0
 40
2.0
 50
298.9550243718598
 51
180.0
  0
LINE
  5
11B
  8
1
  6
CONTINUOUS
 62
     7
 10
206.5
 20
144.5
 30
0.0
 11
205.0
 21
146.0
 31
0.0
  0
LINE
  5
11C
  8
1
  6
CONTINUOUS
 62
     7
 10
205.0
 20
146.0
 30
0.0
 11
203.5
 21
144.5
 31
0.0
  0
LINE
  5
11D
  8
1
  6
CONTINUOUS
 62
     7
 10
203.5
 20
144.5
 30
0.0
 11
191.0
 21
144.5
 31
0.0
  0
LINE
  5
11E
  8
1
  6
CONTINUOUS
 62
     7
 10
219.0
 20
144.5
 30
0.0
 11
206.5
 21
144.5
 31
0.0
  0
LINE
  5
11F
  8
1
  6
CONTINUOUS
 62
     7
 10
220.9
 20
155.75
 30
0.0
 11
189.1
 21
155.75
 31
0.0
  0
LINE
  5
120
  8
1
  6
CONTINUOUS
 62
     7
 10
126.0
 20
89.00000000000003
 30
0.0
 11
186.5
 21
89.00000000000003
 31
0.0
  0
LINE
  5
121
  8
1
  6
CONTINUOUS
 62
     7
 10
223.5
 20
89.00000000000003
 30
0.0
 11
284.0
 21
89.00000000000003
 31
0.0
  0
LINE
  5
122
  8
1
  6
CONTINUOUS
 62
     7
 10
284.0
 20
89.00000000000003
 30
0.0
 11
284.0
 21
86.50000000000001
 31
0.0
  0
LINE
  5
123
  8
1
  6
CONTINUOUS
 62
     7
 10
284.0
 20
85.50000000000001
 30
0.0
 11
284.0
 21
86.50000000000001
 31
0.0
  0
LINE
  5
124
  8
1
  6
CONTINUOUS
 62
     7
 10
219.0
 20
99.50000000000003
 30
0.0
 11
222.334024555138
 21
99.50000000000003
 31
0.0
  0
ARC
  5
125
  8
1
  6
CONTINUOUS
 62
     7
 10
222.334024555138
 20
98.50000000000003
 30
0.0
 40
1.000000000000001
 50
1.0
 51
90.00000000000021
  0
ARC
  5
126
  8
1
  6
CONTINUOUS
 62
     7
 10
191.0
 20
98.50000000000003
 30
0.0
 40
1.000000000000001
 50
0.0
 51
90.0
  0
LINE
  5
127
  8
1
  6
CONTINUOUS
 62
     7
 10
259.5
 20
85.50000000000001
 30
0.0
 11
240.5
 21
85.50000000000001
 31
0.0
  0
LINE
  5
128
  8
1
  6
CONTINUOUS
 62
     7
 10
187.665975444862
 20
99.50000000000003
 30
0.0
 11
191.0
 21
99.50000000000003
 31
0.0
  0
ARC
  5
129
  8
1
  6
CONTINUOUS
 62
     7
 10
187.665975444862
 20
98.50000000000003
 30
0.0
 40
1.000000000000012
 50
90.0
 51
179.0
  0
ARC
  5
12A
  8
1
  6
CONTINUOUS
 62
     7
 10
219.0
 20
98.50000000000003
 30
0.0
 40
1.000000000000001
 50
90.0
 51
179.9999999999995
  0
LINE
  5
12B
  8
1
  6
CONTINUOUS
 62
     7
 10
218.0
 20
97.50000000000003
 30
0.0
 11
192.0
 21
97.50000000000003
 31
0.0
  0
LINE
  5
12C
  8
1
  6
CENTER
 62
     1
 10
126.0
 20
157.5
 30
0.0
 11
284.0
 21
157.5
 31
0.0
  0
LINE
  5
12E
  8
1
  6
CONTINUOUS
 62
     7
 10
254.0
 20
166.5
 30
0.0
 11
253.0
 21
166.5
 31
0.0
  0
LINE
  5
12F
  8
1
  6
CONTINUOUS
 62
     7
 10
192.0
 20
98.50000000000003
 30
0.0
 11
192.0
 21
89.00000000000003
 31
0.0
  0
LINE
  5
130
  8
1
  6
CONTINUOUS
 62
     7
 10
218.0
 20
89.00000000000003
 30
0.0
 11
218.0
 21
98.50000000000003
 31
0.0
  0
LINE
  5
131
  8
1
  6
CONTINUOUS
 62
     7
 10
192.0
 20
89.00000000000003
 30
0.0
 11
218.0
 21
89.00000000000003
 31
0.0
  0
LINE
  5
132
  8
1
  6
CONTINUOUS
 62
     7
 10
167.0
 20
166.5
 30
0.0
 11
166.0
 21
166.5
 31
0.0
  0
LINE
  5
133
  8
1
  6
CONTINUOUS
 62
     7
 10
244.0
 20
166.5
 30
0.0
 11
243.0
 21
166.5
 31
0.0
  0
LINE
  5
134
  8
1
  6
CONTINUOUS
 62
     7
 10
223.3338722502944
 20
98.5174524064373
 30
0.0
 11
223.5
 21
89.00000000000003
 31
0.0
  0
LINE
  5
135
  8
1
  6
CONTINUOUS
 62
     7
 10
284.0
 20
85.50000000000001
 30
0.0
 11
126.0
 21
85.50000000000001
 31
0.0
  0
LINE
  5
136
  8
1
  6
CENTER
 62
     1
 10
205.0
 20
85.50000000000001
 30
0.0
 11
205.0
 21
99.50000000000003
 31
0.0
  0
LINE
  5
137
  8
1
  6
CONTINUOUS
 62
     7
 10
157.0
 20
166.5
 30
0.0
 11
156.0
 21
166.5
 31
0.0
  0
LINE
  5
138
  8
1
  6
CONTINUOUS
 62
     7
 10
126.0
 20
85.50000000000001
 30
0.0
 11
126.0
 21
89.00000000000003
 31
0.0
  0
LINE
  5
139
  8
1
  6
CONTINUOUS
 62
     7
 10
186.5
 20
89.00000000000003
 30
0.0
 11
186.6661277497056
 21
98.51745240643731
 31
0.0
  0
LINE
  5
13A
  8
1
  6
CENTER
 62
     1
 10
205.0
 20
144.5
 30
0.0
 11
205.0
 21
170.5
 31
0.0
  0
TEXT
  5
13B
  8
1
  6
CONTINUOUS
 62
     7
 10
302.7340877829186
 20
53.3788608228086
 30
0.0
 40
10.0
  1
KG-SB2
  0
LINE
  5
13C
  8
1
  6
CENTER
 62
     1
 10
346.5
 20
157.5
 30
0.0
 11
341.5
 21
157.5
 31
0.0
  0
ENDSEC
  0
EOF
