  0
SECTION
  2
HEADER
  9
$ACADVER
  1
AC1006
  9
$DWGCODEPAGE
  3
ansi_932
  9
$INSBASE
 10
0.0
 20
0.0
 30
0.0
  9
$EXTMIN
 10
-347.1502342115244
 20
127.0324600649783
  9
$EXTMAX
 10
-80.61881727702477
 20
253.537954580977
  9
$LIMMIN
 10
0.0
 20
0.0
  9
$LIMMAX
 10
12.0
 20
9.0
  9
$ORTHOMODE
 70
     0
  9
$REGENMODE
 70
     1
  9
$FILLMODE
 70
     1
  9
$QTEXTMODE
 70
     0
  9
$MIRRTEXT
 70
     1
  9
$DRAGMODE
 70
     2
  9
$LTSCALE
 40
1.0
  9
$OSMODE
 70
    37
  9
$ATTMODE
 70
     1
  9
$TEXTSIZE
 40
0.2
  9
$TRACEWID
 40
0.05
  9
$TEXTSTYLE
  7
STANDARD
  9
$CLAYER
  8
0
  9
$CELTYPE
  6
BYLAYER
  9
$CECOLOR
 62
   256
  9
$DIMSCALE
 40
1.0
  9
$DIMASZ
 40
3.0
  9
$DIMEXO
 40
0.0625
  9
$DIMDLI
 40
0.38
  9
$DIMRND
 40
0.0
  9
$DIMDLE
 40
0.0
  9
$DIMEXE
 40
1.5
  9
$DIMTP
 40
0.0
  9
$DIMTM
 40
0.0
  9
$DIMTXT
 40
3.0
  9
$DIMCEN
 40
0.09
  9
$DIMTSZ
 40
0.0
  9
$DIMTOL
 70
     0
  9
$DIMLIM
 70
     0
  9
$DIMTIH
 70
     1
  9
$DIMTOH
 70
     1
  9
$DIMSE1
 70
     0
  9
$DIMSE2
 70
     0
  9
$DIMTAD
 70
     1
  9
$DIMZIN
 70
     0
  9
$DIMBLK
  1

  9
$DIMASO
 70
     1
  9
$DIMSHO
 70
     1
  9
$DIMPOST
  1

  9
$DIMAPOST
  1

  9
$DIMALT
 70
     0
  9
$DIMALTD
 70
     2
  9
$DIMALTF
 40
25.4
  9
$DIMLFAC
 40
1.0
  9
$DIMTOFL
 70
     0
  9
$DIMTVP
 40
0.0
  9
$DIMTIX
 70
     0
  9
$DIMSOXD
 70
     0
  9
$DIMSAH
 70
     0
  9
$DIMBLK1
  1

  9
$DIMBLK2
  1

  9
$LUNITS
 70
     2
  9
$LUPREC
 70
     4
  9
$SKETCHINC
 40
0.1
  9
$FILLETRAD
 40
0.5
  9
$AUNITS
 70
     0
  9
$AUPREC
 70
     0
  9
$MENU
  1
.
  9
$ELEVATION
 40
0.0
  9
$THICKNESS
 40
0.0
  9
$LIMCHECK
 70
     0
  9
$CHAMFERA
 40
0.0
  9
$CHAMFERB
 40
0.0
  9
$SKPOLY
 70
     0
  9
$TDCREATE
 40
2459769.449331944
  9
$TDUPDATE
 40
2459769.449332222
  9
$TDINDWG
 40
0.0000000116
  9
$TDUSRTIMER
 40
0.0000000116
  9
$USRTIMER
 70
     1
  9
$ANGBASE
 50
0.0
  9
$ANGDIR
 70
     0
  9
$PDMODE
 70
     0
  9
$PDSIZE
 40
0.0
  9
$PLINEWID
 40
0.0
  9
$COORDS
 70
     1
  9
$SPLFRAME
 70
     0
  9
$SPLINETYPE
 70
     6
  9
$SPLINESEGS
 70
     8
  9
$ATTDIA
 70
     0
  9
$ATTREQ
 70
     1
  9
$HANDLING
 70
     1
  9
$HANDSEED
  5
834
  9
$SURFTAB1
 70
     6
  9
$SURFTAB2
 70
     6
  9
$SURFTYPE
 70
     6
  9
$SURFU
 70
     6
  9
$SURFV
 70
     6
  9
$UCSNAME
  2

  9
$UCSORG
 10
0.0
 20
0.0
 30
0.0
  9
$UCSXDIR
 10
1.0
 20
0.0
 30
0.0
  9
$UCSYDIR
 10
0.0
 20
1.0
 30
0.0
  9
$USERI1
 70
     0
  9
$USERI2
 70
     0
  9
$USERI3
 70
     0
  9
$USERI4
 70
     0
  9
$USERI5
 70
     0
  9
$USERR1
 40
0.0
  9
$USERR2
 40
0.0
  9
$USERR3
 40
0.0
  9
$USERR4
 40
0.0
  9
$USERR5
 40
0.0
  9
$WORLDVIEW
 70
     1
  0
ENDSEC
  0
SECTION
  2
TABLES
  0
TABLE
  2
VPORT
 70
     1
  0
VPORT
  2
*ACTIVE
 70
     0
 10
0.0
 20
0.0
 11
1.0
 21
1.0
 12
-213.8845257442746
 22
190.2852073229777
 13
0.0
 23
0.0
 14
0.5
 24
0.5
 15
0.5
 25
0.5
 16
0.0
 26
0.0
 36
1.0
 17
0.0
 27
0.0
 37
0.0
 40
126.5054945159988
 41
1.6
 42
50.0
 43
0.0
 44
0.0
 50
0.0
 51
0.0
 71
     0
 72
   100
 73
     1
 74
     3
 75
     0
 76
     0
 77
     0
 78
     0
  0
ENDTAB
  0
TABLE
  2
LTYPE
 70
     2
  0
LTYPE
  2
CONTINUOUS
 70
     0
  3
Solid line
 72
    65
 73
     0
 40
0.0
  0
LTYPE
  2
PHANTOM
 70
     0
  3

 72
    65
 73
     0
 40
0.0
  0
ENDTAB
  0
TABLE
  2
LAYER
 70
     1
  0
LAYER
  2
0
 70
     0
 62
     7
  6
CONTINUOUS
  0
ENDTAB
  0
TABLE
  2
STYLE
 70
     2
  0
STYLE
  2
STANDARD
 70
     0
 40
0.0
 41
1.0
 50
0.0
 71
     0
 42
0.2
  3
txt
  4

  0
STYLE
  2
ＭＳ_ゴシック
 70
     0
 40
0.0
 41
1.0
 50
0.0
 71
     0
 42
0.2
  3
ＭＳ ゴシック.shx
  4

  0
ENDTAB
  0
TABLE
  2
VIEW
 70
     0
  0
ENDTAB
  0
TABLE
  2
UCS
 70
     0
  0
ENDTAB
  0
ENDSEC
  0
SECTION
  2
BLOCKS
  0
BLOCK
  8
0
  2
D_FRAME_VIEW_1330
 70
     0
 10
0.0
 20
0.0
 30
0.0
  0
LINE
  5
7A
  8
0
  6
CONTINUOUS
 62
     7
 10
-255.0614433262626
 20
231.3462945960186
 30
0.0
 11
-254.8375378175346
 21
231.6419659219102
 31
0.0
  0
LINE
  5
7B
  8
0
  6
CONTINUOUS
 62
     7
 10
-254.8375470484906
 20
231.6419596672647
 30
0.0
 11
-253.7899163871973
 21
230.7727682020997
 31
0.0
  0
ARC
  5
7C
  8
0
  6
CONTINUOUS
 62
     7
 10
-256.9979965001745
 20
230.7786072132238
 30
0.0
 40
3.210498574464784
 50
270.5081667225261
 51
359.8489339992627
  0
LINE
  5
7D
  8
0
  6
CONTINUOUS
 62
     7
 10
-256.971695646372
 20
227.5706110217514
 30
0.0
 11
-258.0216636429993
 21
228.4597298141216
 31
0.0
  0
LINE
  5
7E
  8
0
  6
CONTINUOUS
 62
     7
 10
-258.0217193787952
 20
228.4596525449969
 30
0.0
 11
-257.5323255624186
 21
228.8154205682429
 31
0.0
  0
LINE
  5
7F
  8
0
  6
CONTINUOUS
 62
     7
 10
-255.484946628311
 20
228.1627880427189
 30
0.0
 11
-256.4009989670275
 21
228.8350481995506
 31
0.0
  0
ARC
  5
80
  8
0
  6
CONTINUOUS
 62
     7
 10
-256.9394758871039
 20
230.9041851822693
 30
0.0
 40
3.10337133476147
 50
297.949507247014
 51
326.2816960379313
  0
LINE
  5
81
  8
0
  6
CONTINUOUS
 62
     7
 10
-255.2330350852448
 20
229.8115515858817
 30
0.0
 11
-254.3581635264046
 21
229.1814721655656
 31
0.0
  0
LINE
  5
82
  8
0
  6
CONTINUOUS
 62
     7
 10
-243.5739182513221
 20
228.8350484885169
 30
0.0
 11
-244.4899709826865
 21
228.1627880425194
 31
0.0
  0
LINE
  5
83
  8
0
  6
CONTINUOUS
 62
     7
 10
-242.4425913292949
 20
228.8154200369637
 30
0.0
 11
-241.9531980999496
 21
228.4596524494492
 31
0.0
  0
LINE
  5
84
  8
0
  6
CONTINUOUS
 62
     7
 10
-241.9532539656347
 20
228.4597298986454
 30
0.0
 11
-243.003221964647
 21
227.5706110214979
 31
0.0
  0
ARC
  5
85
  8
0
  6
CONTINUOUS
 62
     7
 10
-242.9774965586593
 20
230.7780353404348
 30
0.0
 40
3.209921671408273
 50
180.140885426744
 51
269.5020138473052
  0
LINE
  5
86
  8
0
  6
CONTINUOUS
 62
     7
 10
-246.1850012237055
 20
230.7727682019617
 30
0.0
 11
-245.1373705623804
 21
231.6419596670887
 31
0.0
  0
LINE
  5
87
  8
0
  6
CONTINUOUS
 62
     7
 10
-245.1373797933364
 20
231.6419659217341
 30
0.0
 11
-244.9134736020169
 21
231.3462936984461
 31
0.0
  0
LINE
  5
88
  8
0
  6
CONTINUOUS
 62
     7
 10
-245.616754084556
 20
229.1814721654069
 30
0.0
 11
-244.7418825253391
 21
229.8115515859471
 31
0.0
  0
ARC
  5
89
  8
0
  6
CONTINUOUS
 62
     7
 10
-243.0362200560687
 20
230.9033242560097
 30
0.0
 40
3.102246040225342
 50
213.7130580231405
 51
242.0557386875994
  0
LINE
  5
8A
  8
0
  6
CONTINUOUS
 62
     7
 10
-242.4425749907385
 20
228.8153968620798
 30
0.0
 11
-244.9134904659788
 21
231.3463049650628
 31
0.0
  0
LINE
  5
8B
  8
0
  6
CONTINUOUS
 62
     7
 10
-245.1114318637555
 20
232.5770734509768
 30
0.0
 11
-245.1373705623804
 21
231.6419596670887
 31
0.0
  0
LINE
  5
8C
  8
0
  6
CONTINUOUS
 62
     9
 10
-241.9294513484752
 20
229.3178359941092
 30
0.0
 11
-245.1114318637555
 21
232.5770734509768
 31
0.0
  0
LINE
  5
8D
  8
0
  6
CONTINUOUS
 62
     7
 10
-241.9294513484752
 20
229.3178359941092
 30
0.0
 11
-241.9372148525012
 21
229.037954580977
 31
0.0
  0
LINE
  5
8E
  8
0
  6
CONTINUOUS
 62
     7
 10
-241.9372148525012
 20
229.037954580977
 30
0.0
 11
-241.9532539656347
 21
228.4597298986454
 31
0.0
  0
LINE
  5
8F
  8
0
  6
CONTINUOUS
 62
     7
 10
-257.5323413790263
 20
228.8153981336983
 30
0.0
 11
-255.06142590582
 21
231.3463062344141
 31
0.0
  0
LINE
  5
90
  8
0
  6
CONTINUOUS
 62
     7
 10
-258.0454662624811
 20
229.3178359944017
 30
0.0
 11
-258.0377027584569
 21
229.037954580977
 31
0.0
  0
LINE
  5
91
  8
0
  6
CONTINUOUS
 62
     7
 10
-258.0377027584569
 20
229.037954580977
 30
0.0
 11
-258.0216636429993
 21
228.4597298141216
 31
0.0
  0
LINE
  5
92
  8
0
  6
CONTINUOUS
 62
     9
 10
-254.8634857470825
 20
232.5770734511538
 30
0.0
 11
-258.0454662624811
 21
229.3178359944017
 31
0.0
  0
LINE
  5
93
  8
0
  6
CONTINUOUS
 62
     7
 10
-254.8634857470825
 20
232.5770734511538
 30
0.0
 11
-254.8375470484906
 21
231.6419596672647
 31
0.0
  0
LINE
  5
94
  8
0
  6
CONTINUOUS
 62
     7
 10
-256.4008013776237
 20
228.8348457053852
 30
0.0
 11
-256.4217733805368
 21
228.856326898344
 31
0.0
  0
LINE
  5
95
  8
0
  6
CONTINUOUS
 62
     7
 10
-255.3611132087373
 20
229.9427393839281
 30
0.0
 11
-255.2318353890553
 21
229.8103227615678
 31
0.0
  0
LINE
  5
96
  8
0
  6
CONTINUOUS
 62
     7
 10
-256.4217733805368
 20
228.856326898344
 30
0.0
 11
-255.3611132087373
 21
229.9427393839281
 31
0.0
  0
LINE
  5
97
  8
0
  6
CONTINUOUS
 62
     7
 10
-243.5531442304353
 20
228.8563268981104
 30
0.0
 11
-243.5740705767783
 21
228.8348924702426
 31
0.0
  0
LINE
  5
98
  8
0
  6
CONTINUOUS
 62
     7
 10
-244.6138044021954
 20
229.942739383733
 30
0.0
 11
-243.5531442304353
 21
228.8563268981104
 31
0.0
  0
LINE
  5
99
  8
0
  6
CONTINUOUS
 62
     7
 10
-244.7430896255905
 20
229.8103151779107
 30
0.0
 11
-244.6138044021954
 21
229.942739383733
 31
0.0
  0
LINE
  5
9A
  8
0
  6
CONTINUOUS
 62
     7
 10
-253.7875092568081
 20
230.9471433888053
 30
0.0
 11
-253.7875092568113
 21
230.7701109901554
 31
0.0
  0
LINE
  5
9B
  8
0
  6
CONTINUOUS
 62
     7
 10
-254.6474670377654
 20
232.8921149077526
 30
0.0
 11
-254.4537331659992
 21
232.6936772716664
 31
0.0
  0
LINE
  5
9C
  8
0
  6
CONTINUOUS
 62
     7
 10
-246.1874083540884
 20
230.9471433886673
 30
0.0
 11
-245.633792609068
 21
231.5142006550731
 31
0.0
  0
LINE
  5
9D
  8
0
  6
CONTINUOUS
 62
     7
 10
-245.6337926090492
 20
232.5783350357594
 30
0.0
 11
-245.3274505730631
 21
232.8921149075819
 31
0.0
  0
LINE
  5
9E
  8
0
  6
CONTINUOUS
 62
     7
 10
-246.1874083540884
 20
230.9471433886673
 30
0.0
 11
-246.1874083540916
 21
230.7701109900175
 31
0.0
  0
LINE
  5
9F
  8
0
  6
CONTINUOUS
 62
     7
 10
-239.6163938082445
 20
234.541025372169
 30
0.0
 11
-239.1476818436214
 21
233.9404018849168
 31
0.0
  0
LINE
  5
A0
  8
0
  6
CONTINUOUS
 62
     7
 10
-260.8275253587699
 20
233.9400192770265
 30
0.0
 11
-260.3581369169902
 21
234.5415060171929
 31
0.0
  0
POLYLINE
  5
A1
  8
0
  6
CONTINUOUS
 62
     7
 66
     1
 10
0.0
 20
0.0
 30
0.0
  0
VERTEX
  5
500
  8
0
  6
CONTINUOUS
 62
     7
 10
-257.8874588054045
 20
233.3787829070322
 30
0.0
  0
VERTEX
  5
501
  8
0
  6
CONTINUOUS
 62
     7
 10
-257.8970661652011
 20
233.4786964171735
 30
0.0
  0
VERTEX
  5
502
  8
0
  6
CONTINUOUS
 62
     7
 10
-257.9255190391453
 20
233.5747703071524
 30
0.0
  0
VERTEX
  5
503
  8
0
  6
CONTINUOUS
 62
     7
 10
-257.9717239992481
 20
233.6633125112562
 30
0.0
  0
VERTEX
  5
504
  8
0
  6
CONTINUOUS
 62
     7
 10
-258.0339054148047
 20
233.740920402236
 30
0.0
  0
VERTEX
  5
505
  8
0
  6
CONTINUOUS
 62
     7
 10
-258.109673688887
 20
233.8046115523645
 30
0.0
  0
VERTEX
  5
506
  8
0
  6
CONTINUOUS
 62
     7
 10
-258.1961170892134
 20
233.8519383464607
 30
0.0
  0
VERTEX
  5
507
  8
0
  6
CONTINUOUS
 62
     7
 10
-258.2899136443874
 20
233.8810820423686
 30
0.0
  0
VERTEX
  5
508
  8
0
  6
CONTINUOUS
 62
     7
 10
-258.3874588053952
 20
233.8909226641985
 30
0.0
  0
SEQEND
  5
804
  8
0
  6
CONTINUOUS
 62
     7
  0
LINE
  5
A2
  8
0
  6
CONTINUOUS
 62
     7
 10
-259.8874588053952
 20
233.8909226642257
 30
0.0
 11
-258.3874588053952
 21
233.8909226641985
 31
0.0
  0
POLYLINE
  5
A3
  8
0
  6
CONTINUOUS
 62
     7
 66
     1
 10
0.0
 20
0.0
 30
0.0
  0
VERTEX
  5
509
  8
0
  6
CONTINUOUS
 62
     7
 10
-259.8874588053952
 20
233.8909226642257
 30
0.0
  0
VERTEX
  5
50A
  8
0
  6
CONTINUOUS
 62
     7
 10
-259.9850039664034
 20
233.8810820423994
 30
0.0
  0
VERTEX
  5
50B
  8
0
  6
CONTINUOUS
 62
     7
 10
-260.0788005215784
 20
233.8519383464948
 30
0.0
  0
VERTEX
  5
50C
  8
0
  6
CONTINUOUS
 62
     7
 10
-260.1652439219066
 20
233.8046115524018
 30
0.0
  0
VERTEX
  5
50D
  8
0
  6
CONTINUOUS
 62
     7
 10
-260.2410121959911
 20
233.740920402276
 30
0.0
  0
VERTEX
  5
50E
  8
0
  6
CONTINUOUS
 62
     7
 10
-260.3031936115505
 20
233.6633125112985
 30
0.0
  0
VERTEX
  5
50F
  8
0
  6
CONTINUOUS
 62
     7
 10
-260.3493985716565
 20
233.5747703071964
 30
0.0
  0
VERTEX
  5
510
  8
0
  6
CONTINUOUS
 62
     7
 10
-260.3778514456042
 20
233.4786964172185
 30
0.0
  0
VERTEX
  5
511
  8
0
  6
CONTINUOUS
 62
     7
 10
-260.3874588054044
 20
233.3787829070776
 30
0.0
  0
SEQEND
  5
805
  8
0
  6
CONTINUOUS
 62
     7
  0
POLYLINE
  5
A4
  8
0
  6
CONTINUOUS
 62
     7
 66
     1
 10
0.0
 20
0.0
 30
0.0
  0
VERTEX
  5
512
  8
0
  6
CONTINUOUS
 62
     7
 10
-239.5874588054046
 20
233.3787829067001
 30
0.0
  0
VERTEX
  5
513
  8
0
  6
CONTINUOUS
 62
     7
 10
-239.5970661652011
 20
233.4786964168413
 30
0.0
  0
VERTEX
  5
514
  8
0
  6
CONTINUOUS
 62
     7
 10
-239.6255190391454
 20
233.5747703068203
 30
0.0
  0
VERTEX
  5
515
  8
0
  6
CONTINUOUS
 62
     7
 10
-239.6717239992481
 20
233.663312510924
 30
0.0
  0
VERTEX
  5
516
  8
0
  6
CONTINUOUS
 62
     7
 10
-239.7339054148047
 20
233.7409204019038
 30
0.0
  0
VERTEX
  5
517
  8
0
  6
CONTINUOUS
 62
     7
 10
-239.809673688887
 20
233.8046115520323
 30
0.0
  0
VERTEX
  5
518
  8
0
  6
CONTINUOUS
 62
     7
 10
-239.8961170892134
 20
233.8519383461285
 30
0.0
  0
VERTEX
  5
519
  8
0
  6
CONTINUOUS
 62
     7
 10
-239.9899136443873
 20
233.8810820420364
 30
0.0
  0
VERTEX
  5
51A
  8
0
  6
CONTINUOUS
 62
     7
 10
-240.0874588053952
 20
233.8909226638663
 30
0.0
  0
SEQEND
  5
806
  8
0
  6
CONTINUOUS
 62
     7
  0
LINE
  5
A5
  8
0
  6
CONTINUOUS
 62
     7
 10
-241.5874588053952
 20
233.8909226638936
 30
0.0
 11
-240.0874588053952
 21
233.8909226638664
 31
0.0
  0
POLYLINE
  5
A6
  8
0
  6
CONTINUOUS
 62
     7
 66
     1
 10
0.0
 20
0.0
 30
0.0
  0
VERTEX
  5
51B
  8
0
  6
CONTINUOUS
 62
     7
 10
-241.5874588053952
 20
233.8909226638935
 30
0.0
  0
VERTEX
  5
51C
  8
0
  6
CONTINUOUS
 62
     7
 10
-241.6850039664034
 20
233.8810820420672
 30
0.0
  0
VERTEX
  5
51D
  8
0
  6
CONTINUOUS
 62
     7
 10
-241.7788005215784
 20
233.8519383461627
 30
0.0
  0
VERTEX
  5
51E
  8
0
  6
CONTINUOUS
 62
     7
 10
-241.8652439219065
 20
233.8046115520696
 30
0.0
  0
VERTEX
  5
51F
  8
0
  6
CONTINUOUS
 62
     7
 10
-241.9410121959911
 20
233.7409204019439
 30
0.0
  0
VERTEX
  5
520
  8
0
  6
CONTINUOUS
 62
     7
 10
-242.0031936115505
 20
233.6633125109663
 30
0.0
  0
VERTEX
  5
521
  8
0
  6
CONTINUOUS
 62
     7
 10
-242.0493985716565
 20
233.5747703068643
 30
0.0
  0
VERTEX
  5
522
  8
0
  6
CONTINUOUS
 62
     7
 10
-242.0778514456042
 20
233.4786964168863
 30
0.0
  0
VERTEX
  5
523
  8
0
  6
CONTINUOUS
 62
     7
 10
-242.0874588054044
 20
233.3787829067454
 30
0.0
  0
SEQEND
  5
807
  8
0
  6
CONTINUOUS
 62
     7
  0
POLYLINE
  5
A7
  8
0
  6
CONTINUOUS
 62
     7
 66
     1
 10
0.0
 20
0.0
 30
0.0
  0
VERTEX
  5
524
  8
0
  6
CONTINUOUS
 62
     7
 10
-245.2855558442704
 20
232.8537749899571
 30
0.0
  0
VERTEX
  5
525
  8
0
  6
CONTINUOUS
 62
     7
 10
-245.3613241183527
 20
232.9174661400856
 30
0.0
  0
VERTEX
  5
526
  8
0
  6
CONTINUOUS
 62
     7
 10
-245.4477675186791
 20
232.9647929341818
 30
0.0
  0
VERTEX
  5
527
  8
0
  6
CONTINUOUS
 62
     7
 10
-245.541564073853
 20
232.9939366300897
 30
0.0
  0
VERTEX
  5
528
  8
0
  6
CONTINUOUS
 62
     7
 10
-245.6391092348609
 20
233.0037772519196
 30
0.0
  0
VERTEX
  5
529
  8
0
  6
CONTINUOUS
 62
     7
 10
-245.7366543958691
 20
232.9939366300933
 30
0.0
  0
VERTEX
  5
52A
  8
0
  6
CONTINUOUS
 62
     7
 10
-245.8304509510441
 20
232.9647929341887
 30
0.0
  0
VERTEX
  5
52B
  8
0
  6
CONTINUOUS
 62
     7
 10
-245.9168943513722
 20
232.9174661400957
 30
0.0
  0
VERTEX
  5
52C
  8
0
  6
CONTINUOUS
 62
     7
 10
-245.9926626254568
 20
232.8537749899699
 30
0.0
  0
SEQEND
  5
808
  8
0
  6
CONTINUOUS
 62
     7
  0
LINE
  5
A8
  8
0
  6
CONTINUOUS
 62
     7
 10
-246.0747926748308
 20
232.7696508628896
 30
0.0
 11
-245.9926626254568
 21
232.8537749899699
 31
0.0
  0
POLYLINE
  5
A9
  8
0
  6
CONTINUOUS
 62
     7
 66
     1
 10
0.0
 20
0.0
 30
0.0
  0
VERTEX
  5
52D
  8
0
  6
CONTINUOUS
 62
     7
 10
-241.6311383259653
 20
229.0379545809771
 30
0.0
  0
VERTEX
  5
52E
  8
0
  6
CONTINUOUS
 62
     7
 10
-241.6798130253529
 20
229.1420838439769
 30
0.0
  0
VERTEX
  5
52F
  8
0
  6
CONTINUOUS
 62
     7
 10
-241.7500219384033
 20
229.2324000378819
 30
0.0
  0
SEQEND
  5
809
  8
0
  6
CONTINUOUS
 62
     7
  0
LINE
  5
AA
  8
0
  6
CONTINUOUS
 62
     7
 10
-241.901243555644
 20
229.3872932425487
 30
0.0
 11
-241.7500219384033
 21
229.232400037882
 31
0.0
  0
LINE
  5
AB
  8
0
  6
CONTINUOUS
 62
     7
 10
-245.2855558442703
 20
232.8537749899571
 30
0.0
 11
-245.1087791489769
 21
232.6727062423534
 31
0.0
  0
LINE
  5
AC
  8
0
  6
CONTINUOUS
 62
     7
 10
-253.9822549853712
 20
232.8537749901149
 30
0.0
 11
-253.7464344023262
 21
232.6122287978395
 31
0.0
  0
POLYLINE
  5
AD
  8
0
  6
CONTINUOUS
 62
     7
 66
     1
 10
0.0
 20
0.0
 30
0.0
  0
VERTEX
  5
530
  8
0
  6
CONTINUOUS
 62
     7
 10
-253.9822549853712
 20
232.8537749901149
 30
0.0
  0
VERTEX
  5
531
  8
0
  6
CONTINUOUS
 62
     7
 10
-254.0580232594535
 20
232.9174661402434
 30
0.0
  0
VERTEX
  5
532
  8
0
  6
CONTINUOUS
 62
     7
 10
-254.1444666597799
 20
232.9647929343396
 30
0.0
  0
VERTEX
  5
533
  8
0
  6
CONTINUOUS
 62
     7
 10
-254.2382632149539
 20
232.9939366302476
 30
0.0
  0
VERTEX
  5
534
  8
0
  6
CONTINUOUS
 62
     7
 10
-254.3358083759617
 20
233.0037772520774
 30
0.0
  0
VERTEX
  5
535
  8
0
  6
CONTINUOUS
 62
     7
 10
-254.4333535369699
 20
232.9939366302511
 30
0.0
  0
VERTEX
  5
536
  8
0
  6
CONTINUOUS
 62
     7
 10
-254.527150092145
 20
232.9647929343465
 30
0.0
  0
VERTEX
  5
537
  8
0
  6
CONTINUOUS
 62
     7
 10
-254.6135934924731
 20
232.9174661402535
 30
0.0
  0
VERTEX
  5
538
  8
0
  6
CONTINUOUS
 62
     7
 10
-254.6893617665577
 20
232.8537749901278
 30
0.0
  0
SEQEND
  5
80A
  8
0
  6
CONTINUOUS
 62
     7
  0
LINE
  5
AE
  8
0
  6
CONTINUOUS
 62
     7
 10
-254.8661384618577
 20
232.6727062425305
 30
0.0
 11
-254.6893617665578
 21
232.8537749901278
 31
0.0
  0
LINE
  5
AF
  8
0
  6
CONTINUOUS
 62
     7
 10
-258.2248956725562
 20
229.232400038181
 30
0.0
 11
-258.0736740553115
 21
229.3872932428406
 31
0.0
  0
LINE
  5
B0
  8
0
  6
CONTINUOUS
 62
     7
 10
-245.6337926090488
 20
232.5783350357594
 30
0.0
 11
-245.6874588054287
 21
232.0296830820452
 31
0.0
  0
LINE
  5
B1
  8
0
  6
CONTINUOUS
 62
     7
 10
-254.2874588054296
 20
232.029683082204
 30
0.0
 11
-254.3117928636835
 21
232.4001435706127
 31
0.0
  0
POLYLINE
  5
B2
  8
0
  6
CONTINUOUS
 62
     7
 66
     1
 10
0.0
 20
0.0
 30
0.0
  0
VERTEX
  5
539
  8
0
  6
CONTINUOUS
 62
     7
 10
-254.3117928636831
 20
232.4001435706127
 30
0.0
  0
VERTEX
  5
53A
  8
0
  6
CONTINUOUS
 62
     7
 10
-254.3378358915835
 20
232.5078113265883
 30
0.0
  0
VERTEX
  5
53B
  8
0
  6
CONTINUOUS
 62
     7
 10
-254.3859009041086
 20
232.6072101638985
 30
0.0
  0
VERTEX
  5
53C
  8
0
  6
CONTINUOUS
 62
     7
 10
-254.4537331659992
 20
232.6936772716664
 30
0.0
  0
SEQEND
  5
80B
  8
0
  6
CONTINUOUS
 62
     7
  0
LINE
  5
B3
  8
0
  6
CONTINUOUS
 62
     7
 10
-260.3874588054176
 20
232.6449484872773
 30
0.0
 11
-260.3874588054112
 21
232.9982574059185
 31
0.0
  0
LINE
  5
B4
  8
0
  6
CONTINUOUS
 62
     7
 10
-257.8874588054112
 20
232.9982574058731
 30
0.0
 11
-257.8874588054176
 21
232.6449484872319
 31
0.0
  0
LINE
  5
B5
  8
0
  6
CONTINUOUS
 62
     7
 10
-242.0874588054176
 20
232.6449484869451
 30
0.0
 11
-242.0874588054112
 21
232.9982574055864
 31
0.0
  0
LINE
  5
B6
  8
0
  6
CONTINUOUS
 62
     7
 10
-239.5874588054112
 20
232.998257405541
 30
0.0
 11
-239.5874588054176
 21
232.6449484868998
 31
0.0
  0
POLYLINE
  5
B7
  8
0
  6
CONTINUOUS
 62
     7
 66
     1
 10
0.0
 20
0.0
 30
0.0
  0
VERTEX
  5
53D
  8
0
  6
CONTINUOUS
 62
     7
 10
-260.3874588054215
 20
232.4232538246344
 30
0.0
  0
VERTEX
  5
53E
  8
0
  6
CONTINUOUS
 62
     7
 10
-260.377851445625
 20
232.3233403144932
 30
0.0
  0
VERTEX
  5
53F
  8
0
  6
CONTINUOUS
 62
     7
 10
-260.3493985716808
 20
232.2272664245142
 30
0.0
  0
VERTEX
  5
540
  8
0
  6
CONTINUOUS
 62
     7
 10
-260.303193611578
 20
232.1387242204104
 30
0.0
  0
VERTEX
  5
541
  8
0
  6
CONTINUOUS
 62
     7
 10
-260.2410121960214
 20
232.0611163294307
 30
0.0
  0
VERTEX
  5
542
  8
0
  6
CONTINUOUS
 62
     7
 10
-260.1652439219391
 20
231.9974251793022
 30
0.0
  0
VERTEX
  5
543
  8
0
  6
CONTINUOUS
 62
     7
 10
-260.0788005216127
 20
231.950098385206
 30
0.0
  0
VERTEX
  5
544
  8
0
  6
CONTINUOUS
 62
     7
 10
-259.9850039664387
 20
231.920954689298
 30
0.0
  0
VERTEX
  5
545
  8
0
  6
CONTINUOUS
 62
     7
 10
-259.8874588054309
 20
231.9111140674682
 30
0.0
  0
SEQEND
  5
80C
  8
0
  6
CONTINUOUS
 62
     7
  0
LINE
  5
B8
  8
0
  6
CONTINUOUS
 62
     7
 10
-260.3874588054176
 20
232.6449484872773
 30
0.0
 11
-260.3874588054215
 21
232.4232538246344
 31
0.0
  0
LINE
  5
B9
  8
0
  6
CONTINUOUS
 62
     7
 10
-257.8874588054216
 20
232.423253824589
 30
0.0
 11
-257.8874588054176
 21
232.6449484872319
 31
0.0
  0
POLYLINE
  5
BA
  8
0
  6
CONTINUOUS
 62
     7
 66
     1
 10
0.0
 20
0.0
 30
0.0
  0
VERTEX
  5
546
  8
0
  6
CONTINUOUS
 62
     7
 10
-258.3874588054309
 20
231.911114067441
 30
0.0
  0
VERTEX
  5
547
  8
0
  6
CONTINUOUS
 62
     7
 10
-258.2899136444227
 20
231.9209546892673
 30
0.0
  0
VERTEX
  5
548
  8
0
  6
CONTINUOUS
 62
     7
 10
-258.1961170892477
 20
231.9500983851719
 30
0.0
  0
VERTEX
  5
549
  8
0
  6
CONTINUOUS
 62
     7
 10
-258.1096736889196
 20
231.9974251792649
 30
0.0
  0
VERTEX
  5
54A
  8
0
  6
CONTINUOUS
 62
     7
 10
-258.033905414835
 20
232.0611163293906
 30
0.0
  0
VERTEX
  5
54B
  8
0
  6
CONTINUOUS
 62
     7
 10
-257.9717239992756
 20
232.1387242203682
 30
0.0
  0
VERTEX
  5
54C
  8
0
  6
CONTINUOUS
 62
     7
 10
-257.9255190391696
 20
232.2272664244702
 30
0.0
  0
VERTEX
  5
54D
  8
0
  6
CONTINUOUS
 62
     7
 10
-257.8970661652219
 20
232.3233403144482
 30
0.0
  0
VERTEX
  5
54E
  8
0
  6
CONTINUOUS
 62
     7
 10
-257.8874588054217
 20
232.423253824589
 30
0.0
  0
SEQEND
  5
80D
  8
0
  6
CONTINUOUS
 62
     7
  0
LINE
  5
BB
  8
0
  6
CONTINUOUS
 62
     7
 10
-259.8874588054309
 20
231.9111140674681
 30
0.0
 11
-258.3874588054309
 21
231.9111140674409
 31
0.0
  0
POLYLINE
  5
BC
  8
0
  6
CONTINUOUS
 62
     7
 66
     1
 10
0.0
 20
0.0
 30
0.0
  0
VERTEX
  5
54F
  8
0
  6
CONTINUOUS
 62
     7
 10
-242.0874588054215
 20
232.4232538243023
 30
0.0
  0
VERTEX
  5
550
  8
0
  6
CONTINUOUS
 62
     7
 10
-242.077851445625
 20
232.323340314161
 30
0.0
  0
VERTEX
  5
551
  8
0
  6
CONTINUOUS
 62
     7
 10
-242.0493985716807
 20
232.227266424182
 30
0.0
  0
VERTEX
  5
552
  8
0
  6
CONTINUOUS
 62
     7
 10
-242.003193611578
 20
232.1387242200783
 30
0.0
  0
VERTEX
  5
553
  8
0
  6
CONTINUOUS
 62
     7
 10
-241.9410121960214
 20
232.0611163290986
 30
0.0
  0
VERTEX
  5
554
  8
0
  6
CONTINUOUS
 62
     7
 10
-241.8652439219391
 20
231.99742517897
 30
0.0
  0
VERTEX
  5
555
  8
0
  6
CONTINUOUS
 62
     7
 10
-241.7788005216127
 20
231.9500983848739
 30
0.0
  0
VERTEX
  5
556
  8
0
  6
CONTINUOUS
 62
     7
 10
-241.6850039664388
 20
231.9209546889659
 30
0.0
  0
VERTEX
  5
557
  8
0
  6
CONTINUOUS
 62
     7
 10
-241.5874588054309
 20
231.911114067136
 30
0.0
  0
SEQEND
  5
80E
  8
0
  6
CONTINUOUS
 62
     7
  0
LINE
  5
BD
  8
0
  6
CONTINUOUS
 62
     7
 10
-242.0874588054216
 20
232.4232538243023
 30
0.0
 11
-242.0874588054176
 21
232.6449484869451
 31
0.0
  0
LINE
  5
BE
  8
0
  6
CONTINUOUS
 62
     7
 10
-239.5874588054176
 20
232.6449484868998
 30
0.0
 11
-239.5874588054216
 21
232.4232538242569
 31
0.0
  0
POLYLINE
  5
BF
  8
0
  6
CONTINUOUS
 62
     7
 66
     1
 10
0.0
 20
0.0
 30
0.0
  0
VERTEX
  5
558
  8
0
  6
CONTINUOUS
 62
     7
 10
-240.0874588054309
 20
231.9111140671088
 30
0.0
  0
VERTEX
  5
559
  8
0
  6
CONTINUOUS
 62
     7
 10
-239.9899136444227
 20
231.9209546889352
 30
0.0
  0
VERTEX
  5
55A
  8
0
  6
CONTINUOUS
 62
     7
 10
-239.8961170892477
 20
231.9500983848397
 30
0.0
  0
VERTEX
  5
55B
  8
0
  6
CONTINUOUS
 62
     7
 10
-239.8096736889196
 20
231.9974251789327
 30
0.0
  0
VERTEX
  5
55C
  8
0
  6
CONTINUOUS
 62
     7
 10
-239.733905414835
 20
232.0611163290585
 30
0.0
  0
VERTEX
  5
55D
  8
0
  6
CONTINUOUS
 62
     7
 10
-239.6717239992756
 20
232.138724220036
 30
0.0
  0
VERTEX
  5
55E
  8
0
  6
CONTINUOUS
 62
     7
 10
-239.6255190391696
 20
232.227266424138
 30
0.0
  0
VERTEX
  5
55F
  8
0
  6
CONTINUOUS
 62
     7
 10
-239.5970661652219
 20
232.323340314116
 30
0.0
  0
VERTEX
  5
560
  8
0
  6
CONTINUOUS
 62
     7
 10
-239.5874588054217
 20
232.4232538242569
 30
0.0
  0
SEQEND
  5
80F
  8
0
  6
CONTINUOUS
 62
     7
  0
LINE
  5
C0
  8
0
  6
CONTINUOUS
 62
     7
 10
-240.0874588054309
 20
231.9111140671088
 30
0.0
 11
-241.5874588054309
 21
231.911114067136
 31
0.0
  0
LINE
  5
C1
  8
0
  6
CONTINUOUS
 62
     7
 10
-260.3874588054112
 20
232.9982574059185
 30
0.0
 11
-260.3874588054045
 21
233.3787829070776
 31
0.0
  0
LINE
  5
C2
  8
0
  6
CONTINUOUS
 62
     7
 10
-257.8874588054045
 20
233.3787829070322
 30
0.0
 11
-257.8874588054112
 21
232.9982574058731
 31
0.0
  0
LINE
  5
C3
  8
0
  6
CONTINUOUS
 62
     7
 10
-242.0874588054112
 20
232.9982574055864
 30
0.0
 11
-242.0874588054045
 21
233.3787829067455
 31
0.0
  0
LINE
  5
C4
  8
0
  6
CONTINUOUS
 62
     7
 10
-239.5874588054045
 20
233.3787829067001
 30
0.0
 11
-239.5874588054112
 21
232.998257405541
 31
0.0
  0
POLYLINE
  5
C5
  8
0
  6
CONTINUOUS
 62
     7
 66
     1
 10
0.0
 20
0.0
 30
0.0
  0
VERTEX
  5
561
  8
0
  6
CONTINUOUS
 62
     7
 10
-258.2248956725561
 20
229.232400038181
 30
0.0
  0
VERTEX
  5
562
  8
0
  6
CONTINUOUS
 62
     7
 10
-258.295104585693
 20
229.1420838441424
 30
0.0
  0
VERTEX
  5
563
  8
0
  6
CONTINUOUS
 62
     7
 10
-258.3437792851038
 20
229.0379545809771
 30
0.0
  0
SEQEND
  5
810
  8
0
  6
CONTINUOUS
 62
     7
  0
LINE
  5
C6
  8
0
  6
CONTINUOUS
 62
     7
 10
-258.3220682447401
 20
229.0919572056262
 30
0.0
 11
-258.2927111598131
 21
229.037954580977
 31
0.0
  0
LINE
  5
C7
  8
0
  6
CONTINUOUS
 62
     7
 10
-241.6822064509659
 20
229.037954580977
 30
0.0
 11
-241.6528493662248
 21
229.0919572053241
 31
0.0
  0
LINE
  5
C8
  8
0
  6
CONTINUOUS
 62
     7
 10
-233.1094238003998
 20
201.435866852855
 30
0.0
 11
-233.1431322061477
 21
201.4705070616251
 31
0.0
  0
LINE
  5
C9
  8
0
  6
CONTINUOUS
 62
     7
 10
-256.4009989680808
 20
170.0564051259454
 30
0.0
 11
-255.4849466293363
 21
171.172821450336
 31
0.0
  0
LINE
  5
CA
  8
0
  6
CONTINUOUS
 62
     7
 10
-258.0217193798456
 20
170.6586966846716
 30
0.0
 11
-257.532325563486
 21
170.074204823487
 31
0.0
  0
LINE
  5
CB
  8
0
  6
CONTINUOUS
 62
     7
 10
-256.9716956473852
 20
171.8197033320109
 30
0.0
 11
-258.0216636440497
 21
170.6586629989279
 31
0.0
  0
ARC
  5
CC
  8
0
  6
CONTINUOUS
 62
     7
 10
-256.9489950063799
 20
168.6062010143667
 30
0.0
 40
3.21549925885031
 50
26.7603875074527
 51
90.36577202708075
  0
LINE
  5
CD
  8
0
  6
CONTINUOUS
 62
     7
 10
-254.8375470496538
 20
167.6319539993677
 30
0.0
 11
-253.7899163883233
 21
168.8083577973476
 31
0.0
  0
LINE
  5
CE
  8
0
  6
CONTINUOUS
 62
     7
 10
-255.0614433274177
 20
167.7804539319528
 30
0.0
 11
-254.8375378186979
 21
167.6319425668286
 31
0.0
  0
LINE
  5
CF
  8
0
  6
CONTINUOUS
 62
     7
 10
-254.3581635274755
 20
170.2495800972179
 30
0.0
 11
-255.2330350863514
 21
169.1713922982291
 31
0.0
  0
ARC
  5
D0
  8
0
  6
CONTINUOUS
 62
     7
 10
-256.7783638436643
 20
168.4450319837182
 30
0.0
 40
3.018901035876382
 50
36.70892311078933
 51
64.63141636357287
  0
LINE
  5
D1
  8
0
  6
CONTINUOUS
 62
     7
 10
-245.1373797944997
 20
167.6319425666526
 30
0.0
 11
-244.9134736031721
 21
167.780454388102
 31
0.0
  0
LINE
  5
D2
  8
0
  6
CONTINUOUS
 62
     7
 10
-246.0185603062645
 20
168.6150142432589
 30
0.0
 11
-245.1373705635437
 21
167.6319539991916
 31
0.0
  0
ARC
  5
D3
  8
0
  6
CONTINUOUS
 62
     7
 10
-242.9990345666708
 20
168.5167958381075
 30
0.0
 40
3.304845033061037
 50
90.1102743817795
 51
129.6396392026841
  0
LINE
  5
D4
  8
0
  6
CONTINUOUS
 62
     7
 10
-241.9532539666851
 20
170.6586630788579
 30
0.0
 11
-243.0032219656601
 21
171.8197033317574
 31
0.0
  0
LINE
  5
D5
  8
0
  6
CONTINUOUS
 62
     7
 10
-242.4425913303624
 20
170.0742056749608
 30
0.0
 11
-241.953198101
 21
170.6586968431043
 31
0.0
  0
LINE
  5
D6
  8
0
  6
CONTINUOUS
 62
     7
 10
-244.4899709837222
 20
171.1728214501238
 30
0.0
 11
-243.5739182559096
 21
170.0564046565545
 31
0.0
  0
ARC
  5
D7
  8
0
  6
CONTINUOUS
 62
     7
 10
-243.1911818407689
 20
168.4384757362854
 30
0.0
 40
3.027127304993936
 50
115.4072894746931
 51
143.2523710466249
  0
LINE
  5
D8
  8
0
  6
CONTINUOUS
 62
     7
 10
-244.7418825267058
 20
169.1713922970067
 30
0.0
 11
-245.6167540856269
 21
170.2495800970593
 31
0.0
  0
LINE
  5
D9
  8
0
  6
CONTINUOUS
 62
     7
 10
-257.5323413800937
 20
170.074213928952
 30
0.0
 11
-255.0614259069752
 21
167.7804322089137
 31
0.0
  0
LINE
  5
DA
  8
0
  6
CONTINUOUS
 62
     7
 10
-255.3611132098438
 20
169.0524957751462
 30
0.0
 11
-256.4217733816056
 21
170.0371198708014
 31
0.0
  0
LINE
  5
DB
  8
0
  6
CONTINUOUS
 62
     7
 10
-255.2318353901752
 20
169.1725059911031
 30
0.0
 11
-255.3611132098438
 21
169.052495775146
 31
0.0
  0
LINE
  5
DC
  8
0
  6
CONTINUOUS
 62
     7
 10
-244.6138044033019
 20
169.052495774951
 30
0.0
 11
-244.7430896266575
 21
169.1725128638519
 31
0.0
  0
LINE
  5
DD
  8
0
  6
CONTINUOUS
 62
     7
 10
-243.5531442315042
 20
170.0371198705679
 30
0.0
 11
-244.6138044033019
 21
169.052495774951
 31
0.0
  0
LINE
  5
DE
  8
0
  6
CONTINUOUS
 62
     7
 10
-242.442574991806
 20
170.0742150809077
 30
0.0
 11
-244.913490467134
 21
167.7804333589856
 31
0.0
  0
LINE
  5
DF
  8
0
  6
CONTINUOUS
 62
     7
 10
-243.5740705777266
 20
170.0565460593446
 30
0.0
 11
-243.5531442315042
 21
170.0371198705679
 31
0.0
  0
LINE
  5
E0
  8
0
  6
CONTINUOUS
 62
     7
 10
-258.0481189782998
 20
172.0041348214334
 30
0.0
 11
-258.0481189783076
 21
171.5607454961474
 31
0.0
  0
LINE
  5
E1
  8
0
  6
CONTINUOUS
 62
     7
 10
-258.0454662635323
 20
171.4702923744602
 30
0.0
 11
-258.0216636440497
 21
170.6586629989279
 31
0.0
  0
LINE
  5
E2
  8
0
  6
CONTINUOUS
 62
     7
 10
-242.4518120948204
 20
171.4273769980763
 30
0.0
 11
-243.0054278398212
 21
171.9413054143347
 31
0.0
  0
LINE
  5
E3
  8
0
  6
CONTINUOUS
 62
     7
 10
-242.4518120948096
 20
172.037954580977
 30
0.0
 11
-242.4518120948204
 21
171.4273769980763
 31
0.0
  0
LINE
  5
E4
  8
0
  6
CONTINUOUS
 62
     7
 10
-241.9267986347401
 20
172.0041348211408
 30
0.0
 11
-241.926798634748
 21
171.5607454958548
 31
0.0
  0
LINE
  5
E5
  8
0
  6
CONTINUOUS
 62
     7
 10
-241.9294513495264
 20
171.4702923741677
 30
0.0
 11
-241.9532539666851
 21
170.6586630788579
 31
0.0
  0
POLYLINE
  5
E6
  8
0
  6
CONTINUOUS
 62
     7
 66
     1
 10
0.0
 20
0.0
 30
0.0
  0
VERTEX
  5
564
  8
0
  6
CONTINUOUS
 62
     7
 10
-259.8874588065763
 20
168.8952629299647
 30
0.0
  0
VERTEX
  5
565
  8
0
  6
CONTINUOUS
 62
     7
 10
-259.91199264374
 20
168.8947038334345
 30
0.0
  0
VERTEX
  5
566
  8
0
  6
CONTINUOUS
 62
     7
 10
-259.9364673767411
 20
168.8930278907552
 30
0.0
  0
VERTEX
  5
567
  8
0
  6
CONTINUOUS
 62
     7
 10
-259.9608240438041
 20
168.8902391394198
 30
0.0
  0
VERTEX
  5
568
  8
0
  6
CONTINUOUS
 62
     7
 10
-259.9850039675845
 20
168.8863442977744
 30
0.0
  0
VERTEX
  5
569
  8
0
  6
CONTINUOUS
 62
     7
 10
-260.0089488965281
 20
168.8813527488336
 30
0.0
  0
VERTEX
  5
56A
  8
0
  6
CONTINUOUS
 62
     7
 10
-260.0326011452039
 20
168.8752765176762
 30
0.0
  0
VERTEX
  5
56B
  8
0
  6
CONTINUOUS
 62
     7
 10
-260.0559037332729
 20
168.8681302424751
 30
0.0
  0
VERTEX
  5
56C
  8
0
  6
CONTINUOUS
 62
     7
 10
-260.0788005227594
 20
168.8599311392333
 30
0.0
  0
VERTEX
  5
56D
  8
0
  6
CONTINUOUS
 62
     7
 10
-260.1012363532922
 20
168.8506989603085
 30
0.0
  0
VERTEX
  5
56E
  8
0
  6
CONTINUOUS
 62
     7
 10
-260.1231571749902
 20
168.8404559468286
 30
0.0
  0
VERTEX
  5
56F
  8
0
  6
CONTINUOUS
 62
     7
 10
-260.144510178674
 20
168.8292267751101
 30
0.0
  0
VERTEX
  5
570
  8
0
  6
CONTINUOUS
 62
     7
 10
-260.1652439230874
 20
168.8170384972114
 30
0.0
  0
VERTEX
  5
571
  8
0
  6
CONTINUOUS
 62
     7
 10
-260.1853084588241
 20
168.8039204757613
 30
0.0
  0
VERTEX
  5
572
  8
0
  6
CONTINUOUS
 62
     7
 10
-260.2046554486599
 20
168.7899043132226
 30
0.0
  0
VERTEX
  5
573
  8
0
  6
CONTINUOUS
 62
     7
 10
-260.2232382840019
 20
168.7750237757585
 30
0.0
  0
VERTEX
  5
574
  8
0
  6
CONTINUOUS
 62
     7
 10
-260.2410121971719
 20
168.7593147118872
 30
0.0
  0
VERTEX
  5
575
  8
0
  6
CONTINUOUS
 62
     7
 10
-260.2579343692564
 20
168.7428149661195
 30
0.0
  0
VERTEX
  5
576
  8
0
  6
CONTINUOUS
 62
     7
 10
-260.2739640332607
 20
168.725564287788
 30
0.0
  0
VERTEX
  5
577
  8
0
  6
CONTINUOUS
 62
     7
 10
-260.2890625723199
 20
168.7076042352879
 30
0.0
  0
VERTEX
  5
578
  8
0
  6
CONTINUOUS
 62
     7
 10
-260.3031936127312
 20
168.6889780759589
 30
0.0
  0
VERTEX
  5
579
  8
0
  6
CONTINUOUS
 62
     7
 10
-260.3163231115803
 20
168.6697306818501
 30
0.0
  0
VERTEX
  5
57A
  8
0
  6
CONTINUOUS
 62
     7
 10
-260.3284194387548
 20
168.6499084216199
 30
0.0
  0
VERTEX
  5
57B
  8
0
  6
CONTINUOUS
 62
     7
 10
-260.3394534531427
 20
168.6295590488293
 30
0.0
  0
VERTEX
  5
57C
  8
0
  6
CONTINUOUS
 62
     7
 10
-260.349398572837
 20
168.6087315868999
 30
0.0
  0
VERTEX
  5
57D
  8
0
  6
CONTINUOUS
 62
     7
 10
-260.3582308391732
 20
168.5874762110116
 30
0.0
  0
VERTEX
  5
57E
  8
0
  6
CONTINUOUS
 62
     7
 10
-260.3659289744482
 20
168.5658441272268
 30
0.0
  0
VERTEX
  5
57F
  8
0
  6
CONTINUOUS
 62
     7
 10
-260.3724744331798
 20
168.5438874491301
 30
0.0
  0
VERTEX
  5
580
  8
0
  6
CONTINUOUS
 62
     7
 10
-260.3778514467845
 20
168.521659072282
 30
0.0
  0
VERTEX
  5
581
  8
0
  6
CONTINUOUS
 62
     7
 10
-260.3820470615657
 20
168.4992125467895
 30
0.0
  0
VERTEX
  5
582
  8
0
  6
CONTINUOUS
 62
     7
 10
-260.3850511699198
 20
168.4766019482985
 30
0.0
  0
VERTEX
  5
583
  8
0
  6
CONTINUOUS
 62
     7
 10
-260.3868565346867
 20
168.4538817477214
 30
0.0
  0
VERTEX
  5
584
  8
0
  6
CONTINUOUS
 62
     7
 10
-260.3874588065846
 20
168.4311066800112
 30
0.0
  0
SEQEND
  5
811
  8
0
  6
CONTINUOUS
 62
     7
  0
POLYLINE
  5
E7
  8
0
  6
CONTINUOUS
 62
     7
 66
     1
 10
0.0
 20
0.0
 30
0.0
  0
VERTEX
  5
585
  8
0
  6
CONTINUOUS
 62
     7
 10
-257.8874588065849
 20
168.4311066799658
 30
0.0
  0
VERTEX
  5
586
  8
0
  6
CONTINUOUS
 62
     7
 10
-257.8880610784819
 20
168.453881747676
 30
0.0
  0
VERTEX
  5
587
  8
0
  6
CONTINUOUS
 62
     7
 10
-257.889866443248
 20
168.4766019482533
 30
0.0
  0
VERTEX
  5
588
  8
0
  6
CONTINUOUS
 62
     7
 10
-257.8928705516013
 20
168.4992125467444
 30
0.0
  0
VERTEX
  5
589
  8
0
  6
CONTINUOUS
 62
     7
 10
-257.8970661663816
 20
168.521659072237
 30
0.0
  0
VERTEX
  5
58A
  8
0
  6
CONTINUOUS
 62
     7
 10
-257.9024431799855
 20
168.5438874490852
 30
0.0
  0
VERTEX
  5
58B
  8
0
  6
CONTINUOUS
 62
     7
 10
-257.9089886387164
 20
168.5658441271823
 30
0.0
  0
VERTEX
  5
58C
  8
0
  6
CONTINUOUS
 62
     7
 10
-257.9166867739905
 20
168.5874762109673
 30
0.0
  0
VERTEX
  5
58D
  8
0
  6
CONTINUOUS
 62
     7
 10
-257.925519040326
 20
168.6087315868559
 30
0.0
  0
VERTEX
  5
58E
  8
0
  6
CONTINUOUS
 62
     7
 10
-257.9354641600195
 20
168.6295590487857
 30
0.0
  0
VERTEX
  5
58F
  8
0
  6
CONTINUOUS
 62
     7
 10
-257.9464981744067
 20
168.6499084215767
 30
0.0
  0
VERTEX
  5
590
  8
0
  6
CONTINUOUS
 62
     7
 10
-257.9585945015804
 20
168.6697306818073
 30
0.0
  0
VERTEX
  5
591
  8
0
  6
CONTINUOUS
 62
     7
 10
-257.9717240004289
 20
168.6889780759166
 30
0.0
  0
VERTEX
  5
592
  8
0
  6
CONTINUOUS
 62
     7
 10
-257.9858550408395
 20
168.7076042352462
 30
0.0
  0
VERTEX
  5
593
  8
0
  6
CONTINUOUS
 62
     7
 10
-258.0009535798982
 20
168.7255642877467
 30
0.0
  0
VERTEX
  5
594
  8
0
  6
CONTINUOUS
 62
     7
 10
-258.0169832439017
 20
168.7428149660788
 30
0.0
  0
VERTEX
  5
595
  8
0
  6
CONTINUOUS
 62
     7
 10
-258.0339054159857
 20
168.7593147118472
 30
0.0
  0
VERTEX
  5
596
  8
0
  6
CONTINUOUS
 62
     7
 10
-258.0516793291551
 20
168.7750237757191
 30
0.0
  0
VERTEX
  5
597
  8
0
  6
CONTINUOUS
 62
     7
 10
-258.0702621644965
 20
168.7899043131839
 30
0.0
  0
VERTEX
  5
598
  8
0
  6
CONTINUOUS
 62
     7
 10
-258.0896091543319
 20
168.8039204757233
 30
0.0
  0
VERTEX
  5
599
  8
0
  6
CONTINUOUS
 62
     7
 10
-258.1096736900681
 20
168.8170384971741
 30
0.0
  0
VERTEX
  5
59A
  8
0
  6
CONTINUOUS
 62
     7
 10
-258.130407434481
 20
168.8292267750736
 30
0.0
  0
VERTEX
  5
59B
  8
0
  6
CONTINUOUS
 62
     7
 10
-258.1517604381643
 20
168.8404559467929
 30
0.0
  0
VERTEX
  5
59C
  8
0
  6
CONTINUOUS
 62
     7
 10
-258.1736812598621
 20
168.8506989602735
 30
0.0
  0
VERTEX
  5
59D
  8
0
  6
CONTINUOUS
 62
     7
 10
-258.1961170903945
 20
168.8599311391991
 30
0.0
  0
VERTEX
  5
59E
  8
0
  6
CONTINUOUS
 62
     7
 10
-258.2190138798808
 20
168.8681302424417
 30
0.0
  0
VERTEX
  5
59F
  8
0
  6
CONTINUOUS
 62
     7
 10
-258.2423164679495
 20
168.8752765176437
 30
0.0
  0
VERTEX
  5
5A0
  8
0
  6
CONTINUOUS
 62
     7
 10
-258.265968716625
 20
168.881352748802
 30
0.0
  0
VERTEX
  5
5A1
  8
0
  6
CONTINUOUS
 62
     7
 10
-258.2899136455684
 20
168.8863442977436
 30
0.0
  0
VERTEX
  5
5A2
  8
0
  6
CONTINUOUS
 62
     7
 10
-258.3140935693488
 20
168.8902391393899
 30
0.0
  0
VERTEX
  5
5A3
  8
0
  6
CONTINUOUS
 62
     7
 10
-258.3384502364116
 20
168.8930278907262
 30
0.0
  0
VERTEX
  5
5A4
  8
0
  6
CONTINUOUS
 62
     7
 10
-258.3629249694126
 20
168.8947038334063
 30
0.0
  0
VERTEX
  5
5A5
  8
0
  6
CONTINUOUS
 62
     7
 10
-258.3874588065763
 20
168.8952629299375
 30
0.0
  0
SEQEND
  5
812
  8
0
  6
CONTINUOUS
 62
     7
  0
LINE
  5
E8
  8
0
  6
CONTINUOUS
 62
     7
 10
-258.3874588065763
 20
168.8952629299375
 30
0.0
 11
-259.8874588065763
 21
168.8952629299647
 31
0.0
  0
POLYLINE
  5
E9
  8
0
  6
CONTINUOUS
 62
     7
 66
     1
 10
0.0
 20
0.0
 30
0.0
  0
VERTEX
  5
5A6
  8
0
  6
CONTINUOUS
 62
     7
 10
-241.5874588065763
 20
168.8952629296326
 30
0.0
  0
VERTEX
  5
5A7
  8
0
  6
CONTINUOUS
 62
     7
 10
-241.61199264374
 20
168.8947038331023
 30
0.0
  0
VERTEX
  5
5A8
  8
0
  6
CONTINUOUS
 62
     7
 10
-241.6364673767411
 20
168.8930278904231
 30
0.0
  0
VERTEX
  5
5A9
  8
0
  6
CONTINUOUS
 62
     7
 10
-241.6608240438041
 20
168.8902391390877
 30
0.0
  0
VERTEX
  5
5AA
  8
0
  6
CONTINUOUS
 62
     7
 10
-241.6850039675845
 20
168.8863442974423
 30
0.0
  0
VERTEX
  5
5AB
  8
0
  6
CONTINUOUS
 62
     7
 10
-241.7089488965282
 20
168.8813527485015
 30
0.0
  0
VERTEX
  5
5AC
  8
0
  6
CONTINUOUS
 62
     7
 10
-241.7326011452038
 20
168.875276517344
 30
0.0
  0
VERTEX
  5
5AD
  8
0
  6
CONTINUOUS
 62
     7
 10
-241.7559037332728
 20
168.8681302421429
 30
0.0
  0
VERTEX
  5
5AE
  8
0
  6
CONTINUOUS
 62
     7
 10
-241.7788005227594
 20
168.8599311389011
 30
0.0
  0
VERTEX
  5
5AF
  8
0
  6
CONTINUOUS
 62
     7
 10
-241.8012363532922
 20
168.8506989599764
 30
0.0
  0
VERTEX
  5
5B0
  8
0
  6
CONTINUOUS
 62
     7
 10
-241.8231571749902
 20
168.8404559464965
 30
0.0
  0
VERTEX
  5
5B1
  8
0
  6
CONTINUOUS
 62
     7
 10
-241.844510178674
 20
168.829226774778
 30
0.0
  0
VERTEX
  5
5B2
  8
0
  6
CONTINUOUS
 62
     7
 10
-241.8652439230874
 20
168.8170384968793
 30
0.0
  0
VERTEX
  5
5B3
  8
0
  6
CONTINUOUS
 62
     7
 10
-241.8853084588241
 20
168.8039204754292
 30
0.0
  0
VERTEX
  5
5B4
  8
0
  6
CONTINUOUS
 62
     7
 10
-241.9046554486599
 20
168.7899043128905
 30
0.0
  0
VERTEX
  5
5B5
  8
0
  6
CONTINUOUS
 62
     7
 10
-241.9232382840019
 20
168.7750237754264
 30
0.0
  0
VERTEX
  5
5B6
  8
0
  6
CONTINUOUS
 62
     7
 10
-241.9410121971719
 20
168.7593147115551
 30
0.0
  0
VERTEX
  5
5B7
  8
0
  6
CONTINUOUS
 62
     7
 10
-241.9579343692564
 20
168.7428149657873
 30
0.0
  0
VERTEX
  5
5B8
  8
0
  6
CONTINUOUS
 62
     7
 10
-241.9739640332606
 20
168.7255642874559
 30
0.0
  0
VERTEX
  5
5B9
  8
0
  6
CONTINUOUS
 62
     7
 10
-241.9890625723199
 20
168.7076042349558
 30
0.0
  0
VERTEX
  5
5BA
  8
0
  6
CONTINUOUS
 62
     7
 10
-242.0031936127312
 20
168.6889780756268
 30
0.0
  0
VERTEX
  5
5BB
  8
0
  6
CONTINUOUS
 62
     7
 10
-242.0163231115804
 20
168.669730681518
 30
0.0
  0
VERTEX
  5
5BC
  8
0
  6
CONTINUOUS
 62
     7
 10
-242.0284194387548
 20
168.6499084212877
 30
0.0
  0
VERTEX
  5
5BD
  8
0
  6
CONTINUOUS
 62
     7
 10
-242.0394534531427
 20
168.6295590484972
 30
0.0
  0
VERTEX
  5
5BE
  8
0
  6
CONTINUOUS
 62
     7
 10
-242.049398572837
 20
168.6087315865678
 30
0.0
  0
VERTEX
  5
5BF
  8
0
  6
CONTINUOUS
 62
     7
 10
-242.0582308391733
 20
168.5874762106795
 30
0.0
  0
VERTEX
  5
5C0
  8
0
  6
CONTINUOUS
 62
     7
 10
-242.0659289744482
 20
168.5658441268947
 30
0.0
  0
VERTEX
  5
5C1
  8
0
  6
CONTINUOUS
 62
     7
 10
-242.0724744331798
 20
168.5438874487979
 30
0.0
  0
VERTEX
  5
5C2
  8
0
  6
CONTINUOUS
 62
     7
 10
-242.0778514467846
 20
168.5216590719499
 30
0.0
  0
VERTEX
  5
5C3
  8
0
  6
CONTINUOUS
 62
     7
 10
-242.0820470615657
 20
168.4992125464574
 30
0.0
  0
VERTEX
  5
5C4
  8
0
  6
CONTINUOUS
 62
     7
 10
-242.0850511699198
 20
168.4766019479664
 30
0.0
  0
VERTEX
  5
5C5
  8
0
  6
CONTINUOUS
 62
     7
 10
-242.0868565346867
 20
168.4538817473892
 30
0.0
  0
VERTEX
  5
5C6
  8
0
  6
CONTINUOUS
 62
     7
 10
-242.0874588065846
 20
168.4311066796791
 30
0.0
  0
SEQEND
  5
813
  8
0
  6
CONTINUOUS
 62
     7
  0
POLYLINE
  5
EA
  8
0
  6
CONTINUOUS
 62
     7
 66
     1
 10
0.0
 20
0.0
 30
0.0
  0
VERTEX
  5
5C7
  8
0
  6
CONTINUOUS
 62
     7
 10
-239.5874588065849
 20
168.4311066796337
 30
0.0
  0
VERTEX
  5
5C8
  8
0
  6
CONTINUOUS
 62
     7
 10
-239.5880610784819
 20
168.4538817473439
 30
0.0
  0
VERTEX
  5
5C9
  8
0
  6
CONTINUOUS
 62
     7
 10
-239.589866443248
 20
168.4766019479212
 30
0.0
  0
VERTEX
  5
5CA
  8
0
  6
CONTINUOUS
 62
     7
 10
-239.5928705516013
 20
168.4992125464122
 30
0.0
  0
VERTEX
  5
5CB
  8
0
  6
CONTINUOUS
 62
     7
 10
-239.5970661663816
 20
168.5216590719048
 30
0.0
  0
VERTEX
  5
5CC
  8
0
  6
CONTINUOUS
 62
     7
 10
-239.6024431799856
 20
168.5438874487531
 30
0.0
  0
VERTEX
  5
5CD
  8
0
  6
CONTINUOUS
 62
     7
 10
-239.6089886387163
 20
168.5658441268501
 30
0.0
  0
VERTEX
  5
5CE
  8
0
  6
CONTINUOUS
 62
     7
 10
-239.6166867739906
 20
168.5874762106352
 30
0.0
  0
VERTEX
  5
5CF
  8
0
  6
CONTINUOUS
 62
     7
 10
-239.625519040326
 20
168.6087315865238
 30
0.0
  0
VERTEX
  5
5D0
  8
0
  6
CONTINUOUS
 62
     7
 10
-239.6354641600196
 20
168.6295590484536
 30
0.0
  0
VERTEX
  5
5D1
  8
0
  6
CONTINUOUS
 62
     7
 10
-239.6464981744068
 20
168.6499084212446
 30
0.0
  0
VERTEX
  5
5D2
  8
0
  6
CONTINUOUS
 62
     7
 10
-239.6585945015804
 20
168.6697306814752
 30
0.0
  0
VERTEX
  5
5D3
  8
0
  6
CONTINUOUS
 62
     7
 10
-239.6717240004289
 20
168.6889780755845
 30
0.0
  0
VERTEX
  5
5D4
  8
0
  6
CONTINUOUS
 62
     7
 10
-239.6858550408395
 20
168.707604234914
 30
0.0
  0
VERTEX
  5
5D5
  8
0
  6
CONTINUOUS
 62
     7
 10
-239.7009535798981
 20
168.7255642874146
 30
0.0
  0
VERTEX
  5
5D6
  8
0
  6
CONTINUOUS
 62
     7
 10
-239.7169832439017
 20
168.7428149657467
 30
0.0
  0
VERTEX
  5
5D7
  8
0
  6
CONTINUOUS
 62
     7
 10
-239.7339054159856
 20
168.759314711515
 30
0.0
  0
VERTEX
  5
5D8
  8
0
  6
CONTINUOUS
 62
     7
 10
-239.7516793291551
 20
168.775023775387
 30
0.0
  0
VERTEX
  5
5D9
  8
0
  6
CONTINUOUS
 62
     7
 10
-239.7702621644965
 20
168.7899043128517
 30
0.0
  0
VERTEX
  5
5DA
  8
0
  6
CONTINUOUS
 62
     7
 10
-239.7896091543318
 20
168.8039204753912
 30
0.0
  0
VERTEX
  5
5DB
  8
0
  6
CONTINUOUS
 62
     7
 10
-239.809673690068
 20
168.8170384968419
 30
0.0
  0
VERTEX
  5
5DC
  8
0
  6
CONTINUOUS
 62
     7
 10
-239.830407434481
 20
168.8292267747415
 30
0.0
  0
VERTEX
  5
5DD
  8
0
  6
CONTINUOUS
 62
     7
 10
-239.8517604381644
 20
168.8404559464607
 30
0.0
  0
VERTEX
  5
5DE
  8
0
  6
CONTINUOUS
 62
     7
 10
-239.8736812598621
 20
168.8506989599414
 30
0.0
  0
VERTEX
  5
5DF
  8
0
  6
CONTINUOUS
 62
     7
 10
-239.8961170903945
 20
168.859931138867
 30
0.0
  0
VERTEX
  5
5E0
  8
0
  6
CONTINUOUS
 62
     7
 10
-239.9190138798807
 20
168.8681302421096
 30
0.0
  0
VERTEX
  5
5E1
  8
0
  6
CONTINUOUS
 62
     7
 10
-239.9423164679495
 20
168.8752765173116
 30
0.0
  0
VERTEX
  5
5E2
  8
0
  6
CONTINUOUS
 62
     7
 10
-239.965968716625
 20
168.8813527484699
 30
0.0
  0
VERTEX
  5
5E3
  8
0
  6
CONTINUOUS
 62
     7
 10
-239.9899136455684
 20
168.8863442974115
 30
0.0
  0
VERTEX
  5
5E4
  8
0
  6
CONTINUOUS
 62
     7
 10
-240.0140935693487
 20
168.8902391390578
 30
0.0
  0
VERTEX
  5
5E5
  8
0
  6
CONTINUOUS
 62
     7
 10
-240.0384502364116
 20
168.8930278903941
 30
0.0
  0
VERTEX
  5
5E6
  8
0
  6
CONTINUOUS
 62
     7
 10
-240.0629249694126
 20
168.8947038330742
 30
0.0
  0
VERTEX
  5
5E7
  8
0
  6
CONTINUOUS
 62
     7
 10
-240.0874588065763
 20
168.8952629296054
 30
0.0
  0
SEQEND
  5
814
  8
0
  6
CONTINUOUS
 62
     7
  0
LINE
  5
EB
  8
0
  6
CONTINUOUS
 62
     7
 10
-240.0874588065763
 20
168.8952629296054
 30
0.0
 11
-241.5874588065763
 21
168.8952629296326
 31
0.0
  0
LINE
  5
EC
  8
0
  6
CONTINUOUS
 62
     7
 10
-259.6328427236358
 20
166.5364924579003
 30
0.0
 11
-260.3996192061396
 21
167.3618461704117
 31
0.0
  0
LINE
  5
ED
  8
0
  6
CONTINUOUS
 62
     7
 10
-239.3960791078755
 20
167.5671494662771
 30
0.0
 11
-240.3425228172957
 21
166.5360346394641
 31
0.0
  0
POLYLINE
  5
EE
  8
0
  6
CONTINUOUS
 62
     7
 66
     1
 10
0.0
 20
0.0
 30
0.0
  0
VERTEX
  5
5E8
  8
0
  6
CONTINUOUS
 62
     7
 10
-254.5087734469636
 20
170.8495519186217
 30
0.0
  0
VERTEX
  5
5E9
  8
0
  6
CONTINUOUS
 62
     7
 10
-255.0104712163104
 20
171.3066196851716
 30
0.0
  0
VERTEX
  5
5EA
  8
0
  6
CONTINUOUS
 62
     7
 10
-255.607566953718
 20
171.6509720213749
 30
0.0
  0
VERTEX
  5
5EB
  8
0
  6
CONTINUOUS
 62
     7
 10
-256.2712482779823
 20
171.8659924783813
 30
0.0
  0
VERTEX
  5
5EC
  8
0
  6
CONTINUOUS
 62
     7
 10
-256.9694897732199
 20
171.9413054145882
 30
0.0
  0
SEQEND
  5
815
  8
0
  6
CONTINUOUS
 62
     7
  0
POLYLINE
  5
EF
  8
0
  6
CONTINUOUS
 62
     7
 66
     1
 10
0.0
 20
0.0
 30
0.0
  0
VERTEX
  5
5ED
  8
0
  6
CONTINUOUS
 62
     7
 10
-243.0054278398212
 20
171.9413054143347
 30
0.0
  0
VERTEX
  5
5EE
  8
0
  6
CONTINUOUS
 62
     7
 10
-243.7012460087468
 20
171.8665081606226
 30
0.0
  0
VERTEX
  5
5EF
  8
0
  6
CONTINUOUS
 62
     7
 10
-244.3628626881707
 20
171.6529592382021
 30
0.0
  0
SEQEND
  5
816
  8
0
  6
CONTINUOUS
 62
     7
  0
LINE
  5
F0
  8
0
  6
CONTINUOUS
 62
     9
 10
-257.3491379021571
 20
171.5888733109353
 30
0.0
 11
-257.3491379021492
 21
172.037954580977
 31
0.0
  0
LINE
  5
F1
  8
0
  6
CONTINUOUS
 62
     7
 10
-260.3874588065847
 20
168.4311066800112
 30
0.0
 11
-260.3874588065926
 21
167.9877173547252
 31
0.0
  0
LINE
  5
F2
  8
0
  6
CONTINUOUS
 62
     7
 10
-257.8874588065926
 20
167.9877173546799
 30
0.0
 11
-257.8874588065962
 21
167.7867937555822
 31
0.0
  0
LINE
  5
F3
  8
0
  6
CONTINUOUS
 62
     7
 10
-260.3874588065963
 20
167.7867937556275
 30
0.0
 11
-260.3874588065926
 21
167.9877173547252
 31
0.0
  0
LINE
  5
F4
  8
0
  6
CONTINUOUS
 62
     7
 10
-257.8874588065926
 20
167.9877173546799
 30
0.0
 11
-257.8874588065847
 21
168.4311066799658
 31
0.0
  0
LINE
  5
F5
  8
0
  6
CONTINUOUS
 62
     7
 10
-239.5874588065962
 20
167.78679375525
 30
0.0
 11
-239.5874588065926
 21
167.9877173543477
 31
0.0
  0
LINE
  5
F6
  8
0
  6
CONTINUOUS
 62
     7
 10
-242.0874588065926
 20
167.9877173543931
 30
0.0
 11
-242.0874588065962
 21
167.7867937552954
 31
0.0
  0
LINE
  5
F7
  8
0
  6
CONTINUOUS
 62
     7
 10
-242.0874588065847
 20
168.4311066796791
 30
0.0
 11
-242.0874588065926
 21
167.9877173543931
 31
0.0
  0
LINE
  5
F8
  8
0
  6
CONTINUOUS
 62
     7
 10
-239.5874588065926
 20
167.9877173543477
 30
0.0
 11
-239.5874588065847
 21
168.4311066796337
 31
0.0
  0
POLYLINE
  5
F9
  8
0
  6
CONTINUOUS
 62
     7
 66
     1
 10
0.0
 20
0.0
 30
0.0
  0
VERTEX
  5
5F0
  8
0
  6
CONTINUOUS
 62
     7
 10
-257.8874588066001
 20
167.5864249288441
 30
0.0
  0
VERTEX
  5
5F1
  8
0
  6
CONTINUOUS
 62
     7
 10
-257.8880610784978
 20
167.5690888818873
 30
0.0
  0
VERTEX
  5
5F2
  8
0
  6
CONTINUOUS
 62
     7
 10
-257.8898664432646
 20
167.551794598986
 30
0.0
  0
VERTEX
  5
5F3
  8
0
  6
CONTINUOUS
 62
     7
 10
-257.8928705516186
 20
167.5345837435827
 30
0.0
  0
VERTEX
  5
5F4
  8
0
  6
CONTINUOUS
 62
     7
 10
-257.8970661663997
 20
167.5174977781354
 30
0.0
  0
VERTEX
  5
5F5
  8
0
  6
CONTINUOUS
 62
     7
 10
-257.9024431800044
 20
167.5005778642316
 30
0.0
  0
VERTEX
  5
5F6
  8
0
  6
CONTINUOUS
 62
     7
 10
-257.9089886387358
 20
167.4838647634257
 30
0.0
  0
VERTEX
  5
5F7
  8
0
  6
CONTINUOUS
 62
     7
 10
-257.9166867740108
 20
167.4673987390415
 30
0.0
  0
VERTEX
  5
5F8
  8
0
  6
CONTINUOUS
 62
     7
 10
-257.9255190403469
 20
167.451219459174
 30
0.0
  0
VERTEX
  5
5F9
  8
0
  6
CONTINUOUS
 62
     7
 10
-257.9354641600411
 20
167.4353659011256
 30
0.0
  0
VERTEX
  5
5FA
  8
0
  6
CONTINUOUS
 62
     7
 10
-257.9464981744289
 20
167.4198762575062
 30
0.0
  0
VERTEX
  5
5FB
  8
0
  6
CONTINUOUS
 62
     7
 10
-257.9585945016032
 20
167.4047878442241
 30
0.0
  0
VERTEX
  5
5FC
  8
0
  6
CONTINUOUS
 62
     7
 10
-257.9717240004524
 20
167.3901370105883
 30
0.0
  0
VERTEX
  5
5FD
  8
0
  6
CONTINUOUS
 62
     7
 10
-257.9858550408636
 20
167.3759590517404
 30
0.0
  0
VERTEX
  5
5FE
  8
0
  6
CONTINUOUS
 62
     7
 10
-258.0009535799228
 20
167.3622881236251
 30
0.0
  0
VERTEX
  5
5FF
  8
0
  6
CONTINUOUS
 62
     7
 10
-258.0169832439269
 20
167.3491571607057
 30
0.0
  0
VERTEX
  5
600
  8
0
  6
CONTINUOUS
 62
     7
 10
-258.0339054160114
 20
167.336597796622
 30
0.0
  0
VERTEX
  5
601
  8
0
  6
CONTINUOUS
 62
     7
 10
-258.0516793291813
 20
167.324640287982
 30
0.0
  0
VERTEX
  5
602
  8
0
  6
CONTINUOUS
 62
     7
 10
-258.0702621645232
 20
167.3133134414715
 30
0.0
  0
VERTEX
  5
603
  8
0
  6
CONTINUOUS
 62
     7
 10
-258.089609154359
 20
167.3026445444559
 30
0.0
  0
VERTEX
  5
604
  8
0
  6
CONTINUOUS
 62
     7
 10
-258.1096736900956
 20
167.2926592992426
 30
0.0
  0
VERTEX
  5
605
  8
0
  6
CONTINUOUS
 62
     7
 10
-258.130407434509
 20
167.2833817611618
 30
0.0
  0
VERTEX
  5
606
  8
0
  6
CONTINUOUS
 62
     7
 10
-258.1517604381927
 20
167.2748342806154
 30
0.0
  0
VERTEX
  5
607
  8
0
  6
CONTINUOUS
 62
     7
 10
-258.1736812598907
 20
167.2670374492327
 30
0.0
  0
VERTEX
  5
608
  8
0
  6
CONTINUOUS
 62
     7
 10
-258.1961170904235
 20
167.2600100502635
 30
0.0
  0
VERTEX
  5
609
  8
0
  6
CONTINUOUS
 62
     7
 10
-258.21901387991
 20
167.2537690133273
 30
0.0
  0
VERTEX
  5
60A
  8
0
  6
CONTINUOUS
 62
     7
 10
-258.2423164679789
 20
167.2483293736289
 30
0.0
  0
VERTEX
  5
60B
  8
0
  6
CONTINUOUS
 62
     7
 10
-258.2659687166546
 20
167.2437042357367
 30
0.0
  0
VERTEX
  5
60C
  8
0
  6
CONTINUOUS
 62
     7
 10
-258.2899136455983
 20
167.239904742013
 30
0.0
  0
VERTEX
  5
60D
  8
0
  6
CONTINUOUS
 62
     7
 10
-258.3140935693787
 20
167.236940045771
 30
0.0
  0
VERTEX
  5
60E
  8
0
  6
CONTINUOUS
 62
     7
 10
-258.3384502364416
 20
167.2348172892236
 30
0.0
  0
VERTEX
  5
60F
  8
0
  6
CONTINUOUS
 62
     7
 10
-258.3629249694427
 20
167.2335415862772
 30
0.0
  0
VERTEX
  5
610
  8
0
  6
CONTINUOUS
 62
     7
 10
-258.3874588066064
 20
167.2331160102121
 30
0.0
  0
SEQEND
  5
817
  8
0
  6
CONTINUOUS
 62
     7
  0
LINE
  5
FA
  8
0
  6
CONTINUOUS
 62
     7
 10
-259.8874588066064
 20
167.2331160102393
 30
0.0
 11
-258.3874588066064
 21
167.2331160102121
 31
0.0
  0
POLYLINE
  5
FB
  8
0
  6
CONTINUOUS
 62
     7
 66
     1
 10
0.0
 20
0.0
 30
0.0
  0
VERTEX
  5
611
  8
0
  6
CONTINUOUS
 62
     7
 10
-259.8874588066064
 20
167.2331160102393
 30
0.0
  0
VERTEX
  5
612
  8
0
  6
CONTINUOUS
 62
     7
 10
-259.9119926437701
 20
167.2335415863053
 30
0.0
  0
VERTEX
  5
613
  8
0
  6
CONTINUOUS
 62
     7
 10
-259.9364673767711
 20
167.2348172892526
 30
0.0
  0
VERTEX
  5
614
  8
0
  6
CONTINUOUS
 62
     7
 10
-259.960824043834
 20
167.2369400458009
 30
0.0
  0
VERTEX
  5
615
  8
0
  6
CONTINUOUS
 62
     7
 10
-259.9850039676143
 20
167.2399047420438
 30
0.0
  0
VERTEX
  5
616
  8
0
  6
CONTINUOUS
 62
     7
 10
-260.0089488965578
 20
167.2437042357684
 30
0.0
  0
VERTEX
  5
617
  8
0
  6
CONTINUOUS
 62
     7
 10
-260.0326011452333
 20
167.2483293736614
 30
0.0
  0
VERTEX
  5
618
  8
0
  6
CONTINUOUS
 62
     7
 10
-260.055903733302
 20
167.2537690133607
 30
0.0
  0
VERTEX
  5
619
  8
0
  6
CONTINUOUS
 62
     7
 10
-260.0788005227884
 20
167.2600100502977
 30
0.0
  0
VERTEX
  5
61A
  8
0
  6
CONTINUOUS
 62
     7
 10
-260.1012363533208
 20
167.2670374492677
 30
0.0
  0
VERTEX
  5
61B
  8
0
  6
CONTINUOUS
 62
     7
 10
-260.1231571750185
 20
167.2748342806512
 30
0.0
  0
VERTEX
  5
61C
  8
0
  6
CONTINUOUS
 62
     7
 10
-260.144510178702
 20
167.2833817611983
 30
0.0
  0
VERTEX
  5
61D
  8
0
  6
CONTINUOUS
 62
     7
 10
-260.165243923115
 20
167.2926592992799
 30
0.0
  0
VERTEX
  5
61E
  8
0
  6
CONTINUOUS
 62
     7
 10
-260.1853084588512
 20
167.302644544494
 30
0.0
  0
VERTEX
  5
61F
  8
0
  6
CONTINUOUS
 62
     7
 10
-260.2046554486867
 20
167.3133134415103
 30
0.0
  0
VERTEX
  5
620
  8
0
  6
CONTINUOUS
 62
     7
 10
-260.2232382840281
 20
167.3246402880214
 30
0.0
  0
VERTEX
  5
621
  8
0
  6
CONTINUOUS
 62
     7
 10
-260.2410121971976
 20
167.336597796662
 30
0.0
  0
VERTEX
  5
622
  8
0
  6
CONTINUOUS
 62
     7
 10
-260.2579343692816
 20
167.3491571607464
 30
0.0
  0
VERTEX
  5
623
  8
0
  6
CONTINUOUS
 62
     7
 10
-260.2739640332853
 20
167.3622881236664
 30
0.0
  0
VERTEX
  5
624
  8
0
  6
CONTINUOUS
 62
     7
 10
-260.2890625723439
 20
167.3759590517822
 30
0.0
  0
VERTEX
  5
625
  8
0
  6
CONTINUOUS
 62
     7
 10
-260.3031936127547
 20
167.3901370106306
 30
0.0
  0
VERTEX
  5
626
  8
0
  6
CONTINUOUS
 62
     7
 10
-260.3163231116033
 20
167.4047878442669
 30
0.0
  0
VERTEX
  5
627
  8
0
  6
CONTINUOUS
 62
     7
 10
-260.328419438777
 20
167.4198762575495
 30
0.0
  0
VERTEX
  5
628
  8
0
  6
CONTINUOUS
 62
     7
 10
-260.3394534531642
 20
167.4353659011693
 30
0.0
  0
VERTEX
  5
629
  8
0
  6
CONTINUOUS
 62
     7
 10
-260.3493985728579
 20
167.451219459218
 30
0.0
  0
VERTEX
  5
62A
  8
0
  6
CONTINUOUS
 62
     7
 10
-260.3582308391935
 20
167.4673987390858
 30
0.0
  0
VERTEX
  5
62B
  8
0
  6
CONTINUOUS
 62
     7
 10
-260.3659289744677
 20
167.4838647634703
 30
0.0
  0
VERTEX
  5
62C
  8
0
  6
CONTINUOUS
 62
     7
 10
-260.3724744331986
 20
167.5005778642764
 30
0.0
  0
VERTEX
  5
62D
  8
0
  6
CONTINUOUS
 62
     7
 10
-260.3778514468027
 20
167.5174977781805
 30
0.0
  0
VERTEX
  5
62E
  8
0
  6
CONTINUOUS
 62
     7
 10
-260.3820470615831
 20
167.5345837436279
 30
0.0
  0
VERTEX
  5
62F
  8
0
  6
CONTINUOUS
 62
     7
 10
-260.3850511699365
 20
167.5517945990313
 30
0.0
  0
VERTEX
  5
630
  8
0
  6
CONTINUOUS
 62
     7
 10
-260.3868565347026
 20
167.5690888819326
 30
0.0
  0
VERTEX
  5
631
  8
0
  6
CONTINUOUS
 62
     7
 10
-260.3874588065997
 20
167.5864249288895
 30
0.0
  0
SEQEND
  5
818
  8
0
  6
CONTINUOUS
 62
     7
  0
LINE
  5
FC
  8
0
  6
CONTINUOUS
 62
     7
 10
-257.8874588065999
 20
167.5864249288441
 30
0.0
 11
-257.8874588065962
 21
167.7867937555822
 31
0.0
  0
LINE
  5
FD
  8
0
  6
CONTINUOUS
 62
     7
 10
-260.3874588065963
 20
167.7867937556275
 30
0.0
 11
-260.3874588065999
 21
167.5864249288895
 31
0.0
  0
POLYLINE
  5
FE
  8
0
  6
CONTINUOUS
 62
     7
 66
     1
 10
0.0
 20
0.0
 30
0.0
  0
VERTEX
  5
632
  8
0
  6
CONTINUOUS
 62
     7
 10
-239.5874588066001
 20
167.586424928512
 30
0.0
  0
VERTEX
  5
633
  8
0
  6
CONTINUOUS
 62
     7
 10
-239.5880610784978
 20
167.5690888815552
 30
0.0
  0
VERTEX
  5
634
  8
0
  6
CONTINUOUS
 62
     7
 10
-239.5898664432646
 20
167.5517945986539
 30
0.0
  0
VERTEX
  5
635
  8
0
  6
CONTINUOUS
 62
     7
 10
-239.5928705516187
 20
167.5345837432506
 30
0.0
  0
VERTEX
  5
636
  8
0
  6
CONTINUOUS
 62
     7
 10
-239.5970661663997
 20
167.5174977778033
 30
0.0
  0
VERTEX
  5
637
  8
0
  6
CONTINUOUS
 62
     7
 10
-239.6024431800044
 20
167.5005778638994
 30
0.0
  0
VERTEX
  5
638
  8
0
  6
CONTINUOUS
 62
     7
 10
-239.6089886387359
 20
167.4838647630935
 30
0.0
  0
VERTEX
  5
639
  8
0
  6
CONTINUOUS
 62
     7
 10
-239.6166867740108
 20
167.4673987387094
 30
0.0
  0
VERTEX
  5
63A
  8
0
  6
CONTINUOUS
 62
     7
 10
-239.6255190403469
 20
167.4512194588419
 30
0.0
  0
VERTEX
  5
63B
  8
0
  6
CONTINUOUS
 62
     7
 10
-239.6354641600411
 20
167.4353659007935
 30
0.0
  0
VERTEX
  5
63C
  8
0
  6
CONTINUOUS
 62
     7
 10
-239.646498174429
 20
167.4198762571741
 30
0.0
  0
VERTEX
  5
63D
  8
0
  6
CONTINUOUS
 62
     7
 10
-239.6585945016033
 20
167.4047878438919
 30
0.0
  0
VERTEX
  5
63E
  8
0
  6
CONTINUOUS
 62
     7
 10
-239.6717240004524
 20
167.3901370102562
 30
0.0
  0
VERTEX
  5
63F
  8
0
  6
CONTINUOUS
 62
     7
 10
-239.6858550408636
 20
167.3759590514083
 30
0.0
  0
VERTEX
  5
640
  8
0
  6
CONTINUOUS
 62
     7
 10
-239.7009535799228
 20
167.362288123293
 30
0.0
  0
VERTEX
  5
641
  8
0
  6
CONTINUOUS
 62
     7
 10
-239.7169832439269
 20
167.3491571603736
 30
0.0
  0
VERTEX
  5
642
  8
0
  6
CONTINUOUS
 62
     7
 10
-239.7339054160114
 20
167.3365977962898
 30
0.0
  0
VERTEX
  5
643
  8
0
  6
CONTINUOUS
 62
     7
 10
-239.7516793291813
 20
167.3246402876499
 30
0.0
  0
VERTEX
  5
644
  8
0
  6
CONTINUOUS
 62
     7
 10
-239.7702621645232
 20
167.3133134411394
 30
0.0
  0
VERTEX
  5
645
  8
0
  6
CONTINUOUS
 62
     7
 10
-239.789609154359
 20
167.3026445441238
 30
0.0
  0
VERTEX
  5
646
  8
0
  6
CONTINUOUS
 62
     7
 10
-239.8096736900956
 20
167.2926592989105
 30
0.0
  0
VERTEX
  5
647
  8
0
  6
CONTINUOUS
 62
     7
 10
-239.8304074345089
 20
167.2833817608297
 30
0.0
  0
VERTEX
  5
648
  8
0
  6
CONTINUOUS
 62
     7
 10
-239.8517604381927
 20
167.2748342802832
 30
0.0
  0
VERTEX
  5
649
  8
0
  6
CONTINUOUS
 62
     7
 10
-239.8736812598907
 20
167.2670374489006
 30
0.0
  0
VERTEX
  5
64A
  8
0
  6
CONTINUOUS
 62
     7
 10
-239.8961170904234
 20
167.2600100499313
 30
0.0
  0
VERTEX
  5
64B
  8
0
  6
CONTINUOUS
 62
     7
 10
-239.91901387991
 20
167.2537690129952
 30
0.0
  0
VERTEX
  5
64C
  8
0
  6
CONTINUOUS
 62
     7
 10
-239.9423164679789
 20
167.2483293732968
 30
0.0
  0
VERTEX
  5
64D
  8
0
  6
CONTINUOUS
 62
     7
 10
-239.9659687166546
 20
167.2437042354046
 30
0.0
  0
VERTEX
  5
64E
  8
0
  6
CONTINUOUS
 62
     7
 10
-239.9899136455982
 20
167.2399047416809
 30
0.0
  0
VERTEX
  5
64F
  8
0
  6
CONTINUOUS
 62
     7
 10
-240.0140935693787
 20
167.2369400454389
 30
0.0
  0
VERTEX
  5
650
  8
0
  6
CONTINUOUS
 62
     7
 10
-240.0384502364416
 20
167.2348172888914
 30
0.0
  0
VERTEX
  5
651
  8
0
  6
CONTINUOUS
 62
     7
 10
-240.0629249694427
 20
167.2335415859451
 30
0.0
  0
VERTEX
  5
652
  8
0
  6
CONTINUOUS
 62
     7
 10
-240.0874588066064
 20
167.23311600988
 30
0.0
  0
SEQEND
  5
819
  8
0
  6
CONTINUOUS
 62
     7
  0
LINE
  5
FF
  8
0
  6
CONTINUOUS
 62
     7
 10
-241.5874588066064
 20
167.2331160099071
 30
0.0
 11
-240.0874588066064
 21
167.23311600988
 31
0.0
  0
POLYLINE
  5
100
  8
0
  6
CONTINUOUS
 62
     7
 66
     1
 10
0.0
 20
0.0
 30
0.0
  0
VERTEX
  5
653
  8
0
  6
CONTINUOUS
 62
     7
 10
-241.5874588066064
 20
167.2331160099071
 30
0.0
  0
VERTEX
  5
654
  8
0
  6
CONTINUOUS
 62
     7
 10
-241.6119926437701
 20
167.2335415859732
 30
0.0
  0
VERTEX
  5
655
  8
0
  6
CONTINUOUS
 62
     7
 10
-241.6364673767711
 20
167.2348172889205
 30
0.0
  0
VERTEX
  5
656
  8
0
  6
CONTINUOUS
 62
     7
 10
-241.660824043834
 20
167.2369400454687
 30
0.0
  0
VERTEX
  5
657
  8
0
  6
CONTINUOUS
 62
     7
 10
-241.6850039676143
 20
167.2399047417117
 30
0.0
  0
VERTEX
  5
658
  8
0
  6
CONTINUOUS
 62
     7
 10
-241.7089488965578
 20
167.2437042354362
 30
0.0
  0
VERTEX
  5
659
  8
0
  6
CONTINUOUS
 62
     7
 10
-241.7326011452333
 20
167.2483293733293
 30
0.0
  0
VERTEX
  5
65A
  8
0
  6
CONTINUOUS
 62
     7
 10
-241.7559037333021
 20
167.2537690130286
 30
0.0
  0
VERTEX
  5
65B
  8
0
  6
CONTINUOUS
 62
     7
 10
-241.7788005227884
 20
167.2600100499655
 30
0.0
  0
VERTEX
  5
65C
  8
0
  6
CONTINUOUS
 62
     7
 10
-241.8012363533208
 20
167.2670374489356
 30
0.0
  0
VERTEX
  5
65D
  8
0
  6
CONTINUOUS
 62
     7
 10
-241.8231571750186
 20
167.274834280319
 30
0.0
  0
VERTEX
  5
65E
  8
0
  6
CONTINUOUS
 62
     7
 10
-241.844510178702
 20
167.2833817608662
 30
0.0
  0
VERTEX
  5
65F
  8
0
  6
CONTINUOUS
 62
     7
 10
-241.865243923115
 20
167.2926592989478
 30
0.0
  0
VERTEX
  5
660
  8
0
  6
CONTINUOUS
 62
     7
 10
-241.8853084588513
 20
167.3026445441619
 30
0.0
  0
VERTEX
  5
661
  8
0
  6
CONTINUOUS
 62
     7
 10
-241.9046554486866
 20
167.3133134411782
 30
0.0
  0
VERTEX
  5
662
  8
0
  6
CONTINUOUS
 62
     7
 10
-241.9232382840281
 20
167.3246402876893
 30
0.0
  0
VERTEX
  5
663
  8
0
  6
CONTINUOUS
 62
     7
 10
-241.9410121971977
 20
167.3365977963299
 30
0.0
  0
VERTEX
  5
664
  8
0
  6
CONTINUOUS
 62
     7
 10
-241.9579343692816
 20
167.3491571604143
 30
0.0
  0
VERTEX
  5
665
  8
0
  6
CONTINUOUS
 62
     7
 10
-241.9739640332853
 20
167.3622881233343
 30
0.0
  0
VERTEX
  5
666
  8
0
  6
CONTINUOUS
 62
     7
 10
-241.989062572344
 20
167.3759590514501
 30
0.0
  0
VERTEX
  5
667
  8
0
  6
CONTINUOUS
 62
     7
 10
-242.0031936127546
 20
167.3901370102985
 30
0.0
  0
VERTEX
  5
668
  8
0
  6
CONTINUOUS
 62
     7
 10
-242.0163231116032
 20
167.4047878439347
 30
0.0
  0
VERTEX
  5
669
  8
0
  6
CONTINUOUS
 62
     7
 10
-242.028419438777
 20
167.4198762572173
 30
0.0
  0
VERTEX
  5
66A
  8
0
  6
CONTINUOUS
 62
     7
 10
-242.0394534531642
 20
167.4353659008371
 30
0.0
  0
VERTEX
  5
66B
  8
0
  6
CONTINUOUS
 62
     7
 10
-242.0493985728579
 20
167.4512194588859
 30
0.0
  0
VERTEX
  5
66C
  8
0
  6
CONTINUOUS
 62
     7
 10
-242.0582308391935
 20
167.4673987387536
 30
0.0
  0
VERTEX
  5
66D
  8
0
  6
CONTINUOUS
 62
     7
 10
-242.0659289744677
 20
167.4838647631381
 30
0.0
  0
VERTEX
  5
66E
  8
0
  6
CONTINUOUS
 62
     7
 10
-242.0724744331986
 20
167.5005778639442
 30
0.0
  0
VERTEX
  5
66F
  8
0
  6
CONTINUOUS
 62
     7
 10
-242.0778514468026
 20
167.5174977778483
 30
0.0
  0
VERTEX
  5
670
  8
0
  6
CONTINUOUS
 62
     7
 10
-242.0820470615831
 20
167.5345837432957
 30
0.0
  0
VERTEX
  5
671
  8
0
  6
CONTINUOUS
 62
     7
 10
-242.0850511699365
 20
167.5517945986992
 30
0.0
  0
VERTEX
  5
672
  8
0
  6
CONTINUOUS
 62
     7
 10
-242.0868565347027
 20
167.5690888816005
 30
0.0
  0
VERTEX
  5
673
  8
0
  6
CONTINUOUS
 62
     7
 10
-242.0874588065998
 20
167.5864249285574
 30
0.0
  0
SEQEND
  5
81A
  8
0
  6
CONTINUOUS
 62
     7
  0
LINE
  5
101
  8
0
  6
CONTINUOUS
 62
     7
 10
-239.5874588065999
 20
167.586424928512
 30
0.0
 11
-239.5874588065962
 21
167.78679375525
 31
0.0
  0
LINE
  5
102
  8
0
  6
CONTINUOUS
 62
     7
 10
-242.0874588065962
 20
167.7867937552954
 30
0.0
 11
-242.0874588065999
 21
167.5864249285574
 31
0.0
  0
LINE
  5
103
  8
0
  6
PHANTOM
 62
     4
 10
-277.2376517292866
 20
160.5467004857858
 30
0.0
 11
-277.2376517292866
 21
152.6965862549783
 31
0.0
  0
LINE
  5
104
  8
0
  6
PHANTOM
 62
     4
 10
-282.2376517292866
 20
163.0466052934462
 30
0.0
 11
-279.737556536947
 21
163.0466052934462
 31
0.0
  0
ARC
  5
105
  8
0
  6
PHANTOM
 62
     4
 10
-279.8963024417558
 20
248.537954580977
 30
0.0
 40
5.000000000000004
 50
90.0
 51
180.0000000000001
  0
LINE
  5
106
  8
0
  6
PHANTOM
 62
     4
 10
-279.8963024417558
 20
253.537954580977
 30
0.0
 11
-270.8876136523508
 21
253.537954580977
 31
0.0
  0
LINE
  5
107
  8
0
  6
PHANTOM
 62
     4
 10
-270.8876136523508
 20
147.537954580977
 30
0.0
 11
-279.8963024417558
 21
147.537954580977
 31
0.0
  0
ARC
  5
108
  8
0
  6
PHANTOM
 62
     4
 10
-279.8963024417558
 20
152.537954580977
 30
0.0
 40
5.000000000000004
 50
180.0
 51
270.0
  0
LINE
  5
109
  8
0
  6
PHANTOM
 62
     4
 10
-284.8963024417558
 20
200.537954580977
 30
0.0
 11
-284.8963024417558
 21
248.537954580977
 31
0.0
  0
LINE
  5
10A
  8
0
  6
PHANTOM
 62
     4
 10
-284.8963024417558
 20
152.537954580977
 30
0.0
 11
-284.8963024417558
 21
200.537954580977
 31
0.0
  0
LINE
  5
10B
  8
0
  6
PHANTOM
 62
     4
 10
-217.9006468364583
 20
170.537954580977
 30
0.0
 11
-218.4006277979904
 21
170.5336292247424
 31
0.0
  0
LINE
  5
10C
  8
0
  6
PHANTOM
 62
     4
 10
-217.5463024417558
 20
170.537954580977
 30
0.0
 11
-217.9006468364583
 21
170.537954580977
 31
0.0
  0
LINE
  5
10D
  8
0
  6
PHANTOM
 62
     4
 10
-217.9006468364583
 20
180.537954580977
 30
0.0
 11
-217.5463024417558
 21
180.537954580977
 31
0.0
  0
LINE
  5
10E
  8
0
  6
PHANTOM
 62
     4
 10
-218.4006277979904
 20
180.5422799372116
 30
0.0
 11
-217.9006468364583
 21
180.537954580977
 31
0.0
  0
POLYLINE
  5
10F
  8
0
  6
PHANTOM
 62
     4
 66
     1
 10
0.0
 20
0.0
 30
0.0
  0
VERTEX
  5
674
  8
0
  6
PHANTOM
 62
     4
 10
-227.4050483465645
 20
152.1966052934462
 30
0.0
  0
VERTEX
  5
675
  8
0
  6
PHANTOM
 62
     4
 10
-227.8927523306576
 20
152.1485579158817
 30
0.0
  0
VERTEX
  5
676
  8
0
  6
PHANTOM
 62
     4
 10
-228.3617115460269
 20
152.0062917491596
 30
0.0
  0
VERTEX
  5
677
  8
0
  6
PHANTOM
 62
     4
 10
-228.7939058947642
 20
151.775273473898
 30
0.0
  0
VERTEX
  5
678
  8
0
  6
PHANTOM
 62
     4
 10
-229.1727279956213
 20
151.4643801348426
 30
0.0
  0
VERTEX
  5
679
  8
0
  6
PHANTOM
 62
     4
 10
-229.4836213346767
 20
151.0855580339854
 30
0.0
  0
VERTEX
  5
67A
  8
0
  6
PHANTOM
 62
     4
 10
-229.7146396099383
 20
150.6533636852481
 30
0.0
  0
VERTEX
  5
67B
  8
0
  6
PHANTOM
 62
     4
 10
-229.8569057766604
 20
150.1844044698789
 30
0.0
  0
VERTEX
  5
67C
  8
0
  6
PHANTOM
 62
     4
 10
-229.904953154225
 20
149.6967004857858
 30
0.0
  0
SEQEND
  5
81B
  8
0
  6
PHANTOM
 62
     4
  0
LINE
  5
110
  8
0
  6
PHANTOM
 62
     4
 10
-223.054934115757
 20
248.8793038685078
 30
0.0
 11
-227.4050483465645
 21
248.8793038685078
 31
0.0
  0
ARC
  5
111
  8
0
  6
PHANTOM
 62
     4
 10
-247.0678456217905
 20
243.2879965762253
 30
0.0
 40
2.499958005034737
 50
19.47336823677991
 51
89.99913791026717
  0
ARC
  5
112
  8
0
  6
PHANTOM
 62
     4
 10
-249.8963024417558
 20
242.287954580977
 30
0.0
 40
5.499999999999993
 50
294.6199773286569
 51
19.47250614704643
  0
LINE
  5
113
  8
0
  6
PHANTOM
 62
     4
 10
-247.6050145942779
 20
237.287954580977
 30
0.0
 11
-252.1875902892336
 21
237.287954580977
 31
0.0
  0
ARC
  5
114
  8
0
  6
PHANTOM
 62
     4
 10
-249.8963024417558
 20
242.287954580977
 30
0.0
 40
5.499999999999995
 50
160.5274938529535
 51
245.3800226713431
  0
ARC
  5
115
  8
0
  6
PHANTOM
 62
     4
 10
-252.7247592617428
 20
243.2879965762561
 30
0.0
 40
2.499958005003871
 50
90.00086208923416
 51
160.5266317637203
  0
LINE
  5
116
  8
0
  6
PHANTOM
 62
     4
 10
-252.7247968768499
 20
245.787954580977
 30
0.0
 11
-247.0678080066617
 21
245.787954580977
 31
0.0
  0
LINE
  5
117
  8
0
  6
PHANTOM
 62
     4
 10
-217.554953154225
 20
238.0293038685078
 30
0.0
 11
-220.0550483465645
 21
238.0293038685078
 31
0.0
  0
POLYLINE
  5
118
  8
0
  6
PHANTOM
 62
     4
 66
     1
 10
0.0
 20
0.0
 30
0.0
  0
VERTEX
  5
67D
  8
0
  6
PHANTOM
 62
     4
 10
-222.5549531542249
 20
240.5292086761683
 30
0.0
  0
VERTEX
  5
67E
  8
0
  6
PHANTOM
 62
     4
 10
-222.5069057766604
 20
240.0415046920752
 30
0.0
  0
VERTEX
  5
67F
  8
0
  6
PHANTOM
 62
     4
 10
-222.3646396099383
 20
239.5725454767059
 30
0.0
  0
VERTEX
  5
680
  8
0
  6
PHANTOM
 62
     4
 10
-222.1336213346767
 20
239.1403511279686
 30
0.0
  0
VERTEX
  5
681
  8
0
  6
PHANTOM
 62
     4
 10
-221.8227279956213
 20
238.7615290271114
 30
0.0
  0
VERTEX
  5
682
  8
0
  6
PHANTOM
 62
     4
 10
-221.4439058947642
 20
238.4506356880561
 30
0.0
  0
VERTEX
  5
683
  8
0
  6
PHANTOM
 62
     4
 10
-221.0117115460269
 20
238.2196174127945
 30
0.0
  0
VERTEX
  5
684
  8
0
  6
PHANTOM
 62
     4
 10
-220.5427523306576
 20
238.0773512460724
 30
0.0
  0
VERTEX
  5
685
  8
0
  6
PHANTOM
 62
     4
 10
-220.0550483465645
 20
238.0293038685079
 30
0.0
  0
SEQEND
  5
81C
  8
0
  6
PHANTOM
 62
     4
  0
LINE
  5
119
  8
0
  6
PHANTOM
 62
     4
 10
-220.0550483465645
 20
163.0466052934462
 30
0.0
 11
-217.554953154225
 21
163.0466052934462
 31
0.0
  0
POLYLINE
  5
11A
  8
0
  6
PHANTOM
 62
     4
 66
     1
 10
0.0
 20
0.0
 30
0.0
  0
VERTEX
  5
686
  8
0
  6
PHANTOM
 62
     4
 10
-220.0550483465645
 20
163.0466052934462
 30
0.0
  0
VERTEX
  5
687
  8
0
  6
PHANTOM
 62
     4
 10
-220.5427523306576
 20
162.9985579158817
 30
0.0
  0
VERTEX
  5
688
  8
0
  6
PHANTOM
 62
     4
 10
-221.0117115460268
 20
162.8562917491596
 30
0.0
  0
VERTEX
  5
689
  8
0
  6
PHANTOM
 62
     4
 10
-221.4439058947642
 20
162.625273473898
 30
0.0
  0
VERTEX
  5
68A
  8
0
  6
PHANTOM
 62
     4
 10
-221.8227279956213
 20
162.3143801348427
 30
0.0
  0
VERTEX
  5
68B
  8
0
  6
PHANTOM
 62
     4
 10
-222.1336213346767
 20
161.9355580339855
 30
0.0
  0
VERTEX
  5
68C
  8
0
  6
PHANTOM
 62
     4
 10
-222.3646396099383
 20
161.5033636852482
 30
0.0
  0
VERTEX
  5
68D
  8
0
  6
PHANTOM
 62
     4
 10
-222.5069057766604
 20
161.0344044698789
 30
0.0
  0
VERTEX
  5
68E
  8
0
  6
PHANTOM
 62
     4
 10
-222.5549531542249
 20
160.5467004857858
 30
0.0
  0
SEQEND
  5
81D
  8
0
  6
PHANTOM
 62
     4
  0
LINE
  5
11B
  8
0
  6
PHANTOM
 62
     4
 10
-222.554953154225
 20
152.6965862549783
 30
0.0
 11
-222.554953154225
 21
160.5467004857858
 31
0.0
  0
CIRCLE
  5
11C
  8
0
  6
PHANTOM
 62
     4
 10
-249.8963024417558
 20
242.287954580977
 30
0.0
 40
2.099999999999991
  0
CIRCLE
  5
11D
  8
0
  6
PHANTOM
 62
     4
 10
-249.8963024417558
 20
158.787954580977
 30
0.0
 40
2.099999999999991
  0
LINE
  5
11E
  8
0
  6
PHANTOM
 62
     4
 10
-229.904953154225
 20
147.537954580977
 30
0.0
 11
-229.904953154225
 21
149.6967004857858
 31
0.0
  0
LINE
  5
11F
  8
0
  6
PHANTOM
 62
     4
 10
-228.9049912311608
 20
147.537954580977
 30
0.0
 11
-229.904953154225
 21
147.537954580977
 31
0.0
  0
POLYLINE
  5
120
  8
0
  6
PHANTOM
 62
     4
 66
     1
 10
0.0
 20
0.0
 30
0.0
  0
VERTEX
  5
68F
  8
0
  6
PHANTOM
 62
     4
 10
-279.737556536947
 20
238.0293038685079
 30
0.0
  0
VERTEX
  5
690
  8
0
  6
PHANTOM
 62
     4
 10
-279.2498525528539
 20
238.0773512460724
 30
0.0
  0
VERTEX
  5
691
  8
0
  6
PHANTOM
 62
     4
 10
-278.7808933374847
 20
238.2196174127945
 30
0.0
  0
VERTEX
  5
692
  8
0
  6
PHANTOM
 62
     4
 10
-278.3486989887473
 20
238.4506356880561
 30
0.0
  0
VERTEX
  5
693
  8
0
  6
PHANTOM
 62
     4
 10
-277.9698768878902
 20
238.7615290271114
 30
0.0
  0
VERTEX
  5
694
  8
0
  6
PHANTOM
 62
     4
 10
-277.6589835488348
 20
239.1403511279686
 30
0.0
  0
VERTEX
  5
695
  8
0
  6
PHANTOM
 62
     4
 10
-277.4279652735732
 20
239.5725454767059
 30
0.0
  0
VERTEX
  5
696
  8
0
  6
PHANTOM
 62
     4
 10
-277.2856991068511
 20
240.0415046920752
 30
0.0
  0
VERTEX
  5
697
  8
0
  6
PHANTOM
 62
     4
 10
-277.2376517292866
 20
240.5292086761683
 30
0.0
  0
SEQEND
  5
81E
  8
0
  6
PHANTOM
 62
     4
  0
LINE
  5
121
  8
0
  6
CONTINUOUS
 62
     9
 10
-255.081711035703
 20
244.1214042568115
 30
0.0
 11
-255.0950154584272
 21
244.1620023475453
 31
0.0
  0
ARC
  5
122
  8
0
  6
PHANTOM
 62
     4
 10
-249.8963024417558
 20
158.787954580977
 30
0.0
 40
5.499999999999995
 50
114.6199773286569
 51
199.4725061470465
  0
LINE
  5
123
  8
0
  6
CONTINUOUS
 62
     9
 10
-255.0950154584272
 20
156.9139068144088
 30
0.0
 11
-255.081711035703
 21
156.9545049051425
 31
0.0
  0
LINE
  5
124
  8
0
  6
PHANTOM
 62
     4
 10
-247.6050145942779
 20
163.787954580977
 30
0.0
 11
-252.1875902892336
 21
163.787954580977
 31
0.0
  0
ARC
  5
125
  8
0
  6
PHANTOM
 62
     4
 10
-249.8963024417558
 20
158.787954580977
 30
0.0
 40
5.500000000000002
 50
340.5274938529535
 51
65.38002267134306
  0
LINE
  5
126
  8
0
  6
PHANTOM
 62
     4
 10
-217.9006468364583
 20
220.537954580977
 30
0.0
 11
-218.4006277979904
 21
220.5336292247424
 31
0.0
  0
LINE
  5
127
  8
0
  6
PHANTOM
 62
     4
 10
-217.5463024417558
 20
220.537954580977
 30
0.0
 11
-217.9006468364583
 21
220.537954580977
 31
0.0
  0
POLYLINE
  5
128
  8
0
  6
PHANTOM
 62
     4
 66
     1
 10
0.0
 20
0.0
 30
0.0
  0
VERTEX
  5
698
  8
0
  6
PHANTOM
 62
     4
 10
-272.387556536947
 20
248.8793038685078
 30
0.0
  0
VERTEX
  5
699
  8
0
  6
PHANTOM
 62
     4
 10
-271.8998525528539
 20
248.9273512460723
 30
0.0
  0
VERTEX
  5
69A
  8
0
  6
PHANTOM
 62
     4
 10
-271.4308933374846
 20
249.0696174127944
 30
0.0
  0
VERTEX
  5
69B
  8
0
  6
PHANTOM
 62
     4
 10
-270.9986989887473
 20
249.300635688056
 30
0.0
  0
VERTEX
  5
69C
  8
0
  6
PHANTOM
 62
     4
 10
-270.6198768878901
 20
249.6115290271114
 30
0.0
  0
VERTEX
  5
69D
  8
0
  6
PHANTOM
 62
     4
 10
-270.3089835488348
 20
249.9903511279686
 30
0.0
  0
VERTEX
  5
69E
  8
0
  6
PHANTOM
 62
     4
 10
-270.0779652735732
 20
250.4225454767059
 30
0.0
  0
VERTEX
  5
69F
  8
0
  6
PHANTOM
 62
     4
 10
-269.9356991068511
 20
250.8915046920751
 30
0.0
  0
VERTEX
  5
6A0
  8
0
  6
PHANTOM
 62
     4
 10
-269.8876517292866
 20
251.3792086761682
 30
0.0
  0
SEQEND
  5
81F
  8
0
  6
PHANTOM
 62
     4
  0
LINE
  5
129
  8
0
  6
PHANTOM
 62
     4
 10
-272.387556536947
 20
248.8793038685078
 30
0.0
 11
-276.7376707677545
 21
248.8793038685078
 31
0.0
  0
POLYLINE
  5
12A
  8
0
  6
PHANTOM
 62
     4
 66
     1
 10
0.0
 20
0.0
 30
0.0
  0
VERTEX
  5
6A1
  8
0
  6
PHANTOM
 62
     4
 10
-276.7376707677545
 20
248.8793038685078
 30
0.0
  0
VERTEX
  5
6A2
  8
0
  6
PHANTOM
 62
     4
 10
-276.762207949276
 20
248.8787052766378
 30
0.0
  0
VERTEX
  5
6A3
  8
0
  6
PHANTOM
 62
     4
 10
-276.7866857491377
 20
248.8769034703504
 30
0.0
  0
VERTEX
  5
6A4
  8
0
  6
PHANTOM
 62
     4
 10
-276.8110452038921
 20
248.8739027899339
 30
0.0
  0
VERTEX
  5
6A5
  8
0
  6
PHANTOM
 62
     4
 10
-276.8352276351677
 20
248.8697104635895
 30
0.0
  0
VERTEX
  5
6A6
  8
0
  6
PHANTOM
 62
     4
 10
-276.859174791017
 20
248.8643365900196
 30
0.0
  0
VERTEX
  5
6A7
  8
0
  6
PHANTOM
 62
     4
 10
-276.8828289862364
 20
248.8577941141013
 30
0.0
  0
VERTEX
  5
6A8
  8
0
  6
PHANTOM
 62
     4
 10
-276.9061332413218
 20
248.8500987957042
 30
0.0
  0
VERTEX
  5
6A9
  8
0
  6
PHANTOM
 62
     4
 10
-276.9290314197238
 20
248.8412691717273
 30
0.0
  0
VERTEX
  5
6AA
  8
0
  6
PHANTOM
 62
     4
 10
-276.9514683630725
 20
248.8313265114462
 30
0.0
  0
VERTEX
  5
6AB
  8
0
  6
PHANTOM
 62
     4
 10
-276.9733900240458
 20
248.8202947652783
 30
0.0
  0
VERTEX
  5
6AC
  8
0
  6
PHANTOM
 62
     4
 10
-276.9947435965619
 20
248.8082005070902
 30
0.0
  0
VERTEX
  5
6AD
  8
0
  6
PHANTOM
 62
     4
 10
-277.015477642981
 20
248.7950728701847
 30
0.0
  0
VERTEX
  5
6AE
  8
0
  6
PHANTOM
 62
     4
 10
-277.0355422180111
 20
248.7809434771234
 30
0.0
  0
VERTEX
  5
6AF
  8
0
  6
PHANTOM
 62
     4
 10
-277.0548889890194
 20
248.7658463635519
 30
0.0
  0
VERTEX
  5
6B0
  8
0
  6
PHANTOM
 62
     4
 10
-277.0734713524581
 20
248.7498178962135
 30
0.0
  0
VERTEX
  5
6B1
  8
0
  6
PHANTOM
 62
     4
 10
-277.0912445461257
 20
248.7328966853469
 30
0.0
  0
VERTEX
  5
6B2
  8
0
  6
PHANTOM
 62
     4
 10
-277.1081657569923
 20
248.7151234916794
 30
0.0
  0
VERTEX
  5
6B3
  8
0
  6
PHANTOM
 62
     4
 10
-277.1241942243306
 20
248.6965411282407
 30
0.0
  0
VERTEX
  5
6B4
  8
0
  6
PHANTOM
 62
     4
 10
-277.1392913379021
 20
248.6771943572324
 30
0.0
  0
VERTEX
  5
6B5
  8
0
  6
PHANTOM
 62
     4
 10
-277.1534207309634
 20
248.6571297822022
 30
0.0
  0
VERTEX
  5
6B6
  8
0
  6
PHANTOM
 62
     4
 10
-277.1665483678689
 20
248.6363957357832
 30
0.0
  0
VERTEX
  5
6B7
  8
0
  6
PHANTOM
 62
     4
 10
-277.178642626057
 20
248.6150421632671
 30
0.0
  0
VERTEX
  5
6B8
  8
0
  6
PHANTOM
 62
     4
 10
-277.1896743722249
 20
248.5931205022937
 30
0.0
  0
VERTEX
  5
6B9
  8
0
  6
PHANTOM
 62
     4
 10
-277.1996170325061
 20
248.570683558945
 30
0.0
  0
VERTEX
  5
6BA
  8
0
  6
PHANTOM
 62
     4
 10
-277.208446656483
 20
248.547785380543
 30
0.0
  0
VERTEX
  5
6BB
  8
0
  6
PHANTOM
 62
     4
 10
-277.21614197488
 20
248.5244811254577
 30
0.0
  0
VERTEX
  5
6BC
  8
0
  6
PHANTOM
 62
     4
 10
-277.2226844507983
 20
248.5008269302383
 30
0.0
  0
VERTEX
  5
6BD
  8
0
  6
PHANTOM
 62
     4
 10
-277.2280583243683
 20
248.476879774389
 30
0.0
  0
VERTEX
  5
6BE
  8
0
  6
PHANTOM
 62
     4
 10
-277.2322506507127
 20
248.4526973431133
 30
0.0
  0
VERTEX
  5
6BF
  8
0
  6
PHANTOM
 62
     4
 10
-277.2352513311291
 20
248.4283378883589
 30
0.0
  0
VERTEX
  5
6C0
  8
0
  6
PHANTOM
 62
     4
 10
-277.2370531374166
 20
248.4038600884973
 30
0.0
  0
VERTEX
  5
6C1
  8
0
  6
PHANTOM
 62
     4
 10
-277.2376517292866
 20
248.3793229069757
 30
0.0
  0
SEQEND
  5
820
  8
0
  6
PHANTOM
 62
     4
  0
LINE
  5
12B
  8
0
  6
PHANTOM
 62
     4
 10
-279.737556536947
 20
238.0293038685078
 30
0.0
 11
-282.2376517292866
 21
238.0293038685078
 31
0.0
  0
LINE
  5
12C
  8
0
  6
PHANTOM
 62
     4
 10
-277.2376517292866
 20
248.3793229069757
 30
0.0
 11
-277.2376517292866
 21
240.5292086761683
 31
0.0
  0
LINE
  5
12D
  8
0
  6
PHANTOM
 62
     4
 10
-229.904953154225
 20
251.3792086761682
 30
0.0
 11
-229.904953154225
 21
253.537954580977
 31
0.0
  0
LINE
  5
12E
  8
0
  6
PHANTOM
 62
     4
 10
-229.904953154225
 20
253.537954580977
 30
0.0
 11
-228.9049912311608
 21
253.537954580977
 31
0.0
  0
POLYLINE
  5
12F
  8
0
  6
PHANTOM
 62
     4
 66
     1
 10
0.0
 20
0.0
 30
0.0
  0
VERTEX
  5
6C2
  8
0
  6
PHANTOM
 62
     4
 10
-229.904953154225
 20
251.3792086761682
 30
0.0
  0
VERTEX
  5
6C3
  8
0
  6
PHANTOM
 62
     4
 10
-229.8569057766605
 20
250.8915046920752
 30
0.0
  0
VERTEX
  5
6C4
  8
0
  6
PHANTOM
 62
     4
 10
-229.7146396099384
 20
250.4225454767059
 30
0.0
  0
VERTEX
  5
6C5
  8
0
  6
PHANTOM
 62
     4
 10
-229.4836213346767
 20
249.9903511279686
 30
0.0
  0
VERTEX
  5
6C6
  8
0
  6
PHANTOM
 62
     4
 10
-229.1727279956214
 20
249.6115290271114
 30
0.0
  0
VERTEX
  5
6C7
  8
0
  6
PHANTOM
 62
     4
 10
-228.7939058947642
 20
249.300635688056
 30
0.0
  0
VERTEX
  5
6C8
  8
0
  6
PHANTOM
 62
     4
 10
-228.3617115460269
 20
249.0696174127944
 30
0.0
  0
VERTEX
  5
6C9
  8
0
  6
PHANTOM
 62
     4
 10
-227.8927523306577
 20
248.9273512460723
 30
0.0
  0
VERTEX
  5
6CA
  8
0
  6
PHANTOM
 62
     4
 10
-227.4050483465645
 20
248.8793038685078
 30
0.0
  0
SEQEND
  5
821
  8
0
  6
PHANTOM
 62
     4
  0
LINE
  5
130
  8
0
  6
PHANTOM
 62
     4
 10
-222.554953154225
 20
240.5292086761683
 30
0.0
 11
-222.554953154225
 21
248.3793229069757
 31
0.0
  0
LINE
  5
131
  8
0
  6
PHANTOM
 62
     4
 10
-217.5463024417558
 20
180.537954580977
 30
0.0
 11
-217.5463024417558
 21
195.537954580977
 31
0.0
  0
LINE
  5
132
  8
0
  6
PHANTOM
 62
     4
 10
-217.5463024417558
 20
205.537954580977
 30
0.0
 11
-217.5463024417558
 21
220.537954580977
 31
0.0
  0
LINE
  5
133
  8
0
  6
PHANTOM
 62
     4
 10
-217.9006468364583
 20
230.537954580977
 30
0.0
 11
-217.5463024417558
 21
230.537954580977
 31
0.0
  0
LINE
  5
134
  8
0
  6
PHANTOM
 62
     4
 10
-218.4006277979904
 20
230.5422799372116
 30
0.0
 11
-217.9006468364583
 21
230.537954580977
 31
0.0
  0
LINE
  5
135
  8
0
  6
PHANTOM
 62
     4
 10
-217.9006468364583
 20
195.537954580977
 30
0.0
 11
-218.4006277979904
 21
195.5336292247424
 31
0.0
  0
LINE
  5
136
  8
0
  6
PHANTOM
 62
     4
 10
-217.5463024417558
 20
195.537954580977
 30
0.0
 11
-217.9006468364583
 21
195.537954580977
 31
0.0
  0
LINE
  5
137
  8
0
  6
PHANTOM
 62
     4
 10
-218.4006277979904
 20
195.5336292247424
 30
0.0
 11
-218.4006277979904
 21
205.5422799372116
 31
0.0
  0
LINE
  5
138
  8
0
  6
PHANTOM
 62
     4
 10
-218.4006277979904
 20
205.5422799372116
 30
0.0
 11
-217.9006468364583
 21
205.537954580977
 31
0.0
  0
LINE
  5
139
  8
0
  6
PHANTOM
 62
     4
 10
-218.4006277979904
 20
170.5336292247424
 30
0.0
 11
-218.4006277979904
 21
180.5422799372116
 31
0.0
  0
LINE
  5
13A
  8
0
  6
PHANTOM
 62
     4
 10
-217.9006468364583
 20
205.537954580977
 30
0.0
 11
-217.5463024417558
 21
205.537954580977
 31
0.0
  0
LINE
  5
13B
  8
0
  6
PHANTOM
 62
     4
 10
-269.8876517292866
 20
149.6967004857858
 30
0.0
 11
-269.8876517292866
 21
147.537954580977
 31
0.0
  0
LINE
  5
13C
  8
0
  6
PHANTOM
 62
     4
 10
-269.8876517292866
 20
147.537954580977
 30
0.0
 11
-270.8876136523508
 21
147.537954580977
 31
0.0
  0
POLYLINE
  5
13D
  8
0
  6
PHANTOM
 62
     4
 66
     1
 10
0.0
 20
0.0
 30
0.0
  0
VERTEX
  5
6CB
  8
0
  6
PHANTOM
 62
     4
 10
-269.8876517292866
 20
149.6967004857858
 30
0.0
  0
VERTEX
  5
6CC
  8
0
  6
PHANTOM
 62
     4
 10
-269.9356991068511
 20
150.1844044698789
 30
0.0
  0
VERTEX
  5
6CD
  8
0
  6
PHANTOM
 62
     4
 10
-270.0779652735732
 20
150.6533636852482
 30
0.0
  0
VERTEX
  5
6CE
  8
0
  6
PHANTOM
 62
     4
 10
-270.3089835488348
 20
151.0855580339855
 30
0.0
  0
VERTEX
  5
6CF
  8
0
  6
PHANTOM
 62
     4
 10
-270.6198768878901
 20
151.4643801348427
 30
0.0
  0
VERTEX
  5
6D0
  8
0
  6
PHANTOM
 62
     4
 10
-270.9986989887473
 20
151.775273473898
 30
0.0
  0
VERTEX
  5
6D1
  8
0
  6
PHANTOM
 62
     4
 10
-271.4308933374846
 20
152.0062917491596
 30
0.0
  0
VERTEX
  5
6D2
  8
0
  6
PHANTOM
 62
     4
 10
-271.8998525528539
 20
152.1485579158817
 30
0.0
  0
VERTEX
  5
6D3
  8
0
  6
PHANTOM
 62
     4
 10
-272.387556536947
 20
152.1966052934462
 30
0.0
  0
SEQEND
  5
822
  8
0
  6
PHANTOM
 62
     4
  0
POLYLINE
  5
13E
  8
0
  6
PHANTOM
 62
     4
 66
     1
 10
0.0
 20
0.0
 30
0.0
  0
VERTEX
  5
6D4
  8
0
  6
PHANTOM
 62
     4
 10
-277.2376517292866
 20
152.6965862549783
 30
0.0
  0
VERTEX
  5
6D5
  8
0
  6
PHANTOM
 62
     4
 10
-277.2370531374166
 20
152.6720490734568
 30
0.0
  0
VERTEX
  5
6D6
  8
0
  6
PHANTOM
 62
     4
 10
-277.2352513311291
 20
152.6475712735951
 30
0.0
  0
VERTEX
  5
6D7
  8
0
  6
PHANTOM
 62
     4
 10
-277.2322506507127
 20
152.6232118188408
 30
0.0
  0
VERTEX
  5
6D8
  8
0
  6
PHANTOM
 62
     4
 10
-277.2280583243683
 20
152.5990293875651
 30
0.0
  0
VERTEX
  5
6D9
  8
0
  6
PHANTOM
 62
     4
 10
-277.2226844507983
 20
152.5750822317158
 30
0.0
  0
VERTEX
  5
6DA
  8
0
  6
PHANTOM
 62
     4
 10
-277.21614197488
 20
152.5514280364964
 30
0.0
  0
VERTEX
  5
6DB
  8
0
  6
PHANTOM
 62
     4
 10
-277.208446656483
 20
152.5281237814111
 30
0.0
  0
VERTEX
  5
6DC
  8
0
  6
PHANTOM
 62
     4
 10
-277.1996170325061
 20
152.5052256030091
 30
0.0
  0
VERTEX
  5
6DD
  8
0
  6
PHANTOM
 62
     4
 10
-277.1896743722249
 20
152.4827886596604
 30
0.0
  0
VERTEX
  5
6DE
  8
0
  6
PHANTOM
 62
     4
 10
-277.178642626057
 20
152.460866998687
 30
0.0
  0
VERTEX
  5
6DF
  8
0
  6
PHANTOM
 62
     4
 10
-277.1665483678689
 20
152.4395134261709
 30
0.0
  0
VERTEX
  5
6E0
  8
0
  6
PHANTOM
 62
     4
 10
-277.1534207309635
 20
152.4187793797519
 30
0.0
  0
VERTEX
  5
6E1
  8
0
  6
PHANTOM
 62
     4
 10
-277.1392913379021
 20
152.3987148047217
 30
0.0
  0
VERTEX
  5
6E2
  8
0
  6
PHANTOM
 62
     4
 10
-277.1241942243307
 20
152.3793680337134
 30
0.0
  0
VERTEX
  5
6E3
  8
0
  6
PHANTOM
 62
     4
 10
-277.1081657569923
 20
152.3607856702747
 30
0.0
  0
VERTEX
  5
6E4
  8
0
  6
PHANTOM
 62
     4
 10
-277.0912445461257
 20
152.3430124766072
 30
0.0
  0
VERTEX
  5
6E5
  8
0
  6
PHANTOM
 62
     4
 10
-277.0734713524581
 20
152.3260912657405
 30
0.0
  0
VERTEX
  5
6E6
  8
0
  6
PHANTOM
 62
     4
 10
-277.0548889890194
 20
152.3100627984022
 30
0.0
  0
VERTEX
  5
6E7
  8
0
  6
PHANTOM
 62
     4
 10
-277.0355422180111
 20
152.2949656848307
 30
0.0
  0
VERTEX
  5
6E8
  8
0
  6
PHANTOM
 62
     4
 10
-277.015477642981
 20
152.2808362917694
 30
0.0
  0
VERTEX
  5
6E9
  8
0
  6
PHANTOM
 62
     4
 10
-276.9947435965619
 20
152.2677086548639
 30
0.0
  0
VERTEX
  5
6EA
  8
0
  6
PHANTOM
 62
     4
 10
-276.9733900240458
 20
152.2556143966758
 30
0.0
  0
VERTEX
  5
6EB
  8
0
  6
PHANTOM
 62
     4
 10
-276.9514683630725
 20
152.2445826505079
 30
0.0
  0
VERTEX
  5
6EC
  8
0
  6
PHANTOM
 62
     4
 10
-276.9290314197238
 20
152.2346399902267
 30
0.0
  0
VERTEX
  5
6ED
  8
0
  6
PHANTOM
 62
     4
 10
-276.9061332413218
 20
152.2258103662498
 30
0.0
  0
VERTEX
  5
6EE
  8
0
  6
PHANTOM
 62
     4
 10
-276.8828289862364
 20
152.2181150478528
 30
0.0
  0
VERTEX
  5
6EF
  8
0
  6
PHANTOM
 62
     4
 10
-276.859174791017
 20
152.2115725719345
 30
0.0
  0
VERTEX
  5
6F0
  8
0
  6
PHANTOM
 62
     4
 10
-276.8352276351677
 20
152.2061986983645
 30
0.0
  0
VERTEX
  5
6F1
  8
0
  6
PHANTOM
 62
     4
 10
-276.8110452038921
 20
152.2020063720202
 30
0.0
  0
VERTEX
  5
6F2
  8
0
  6
PHANTOM
 62
     4
 10
-276.7866857491377
 20
152.1990056916036
 30
0.0
  0
VERTEX
  5
6F3
  8
0
  6
PHANTOM
 62
     4
 10
-276.762207949276
 20
152.1972038853162
 30
0.0
  0
VERTEX
  5
6F4
  8
0
  6
PHANTOM
 62
     4
 10
-276.7376707677545
 20
152.1966052934462
 30
0.0
  0
SEQEND
  5
823
  8
0
  6
PHANTOM
 62
     4
  0
POLYLINE
  5
13F
  8
0
  6
PHANTOM
 62
     4
 66
     1
 10
0.0
 20
0.0
 30
0.0
  0
VERTEX
  5
6F5
  8
0
  6
PHANTOM
 62
     4
 10
-222.554953154225
 20
248.3793229069757
 30
0.0
  0
VERTEX
  5
6F6
  8
0
  6
PHANTOM
 62
     4
 10
-222.555551746095
 20
248.4038600884973
 30
0.0
  0
VERTEX
  5
6F7
  8
0
  6
PHANTOM
 62
     4
 10
-222.5573535523824
 20
248.4283378883589
 30
0.0
  0
VERTEX
  5
6F8
  8
0
  6
PHANTOM
 62
     4
 10
-222.5603542327989
 20
248.4526973431133
 30
0.0
  0
VERTEX
  5
6F9
  8
0
  6
PHANTOM
 62
     4
 10
-222.5645465591433
 20
248.476879774389
 30
0.0
  0
VERTEX
  5
6FA
  8
0
  6
PHANTOM
 62
     4
 10
-222.5699204327132
 20
248.5008269302382
 30
0.0
  0
VERTEX
  5
6FB
  8
0
  6
PHANTOM
 62
     4
 10
-222.5764629086315
 20
248.5244811254577
 30
0.0
  0
VERTEX
  5
6FC
  8
0
  6
PHANTOM
 62
     4
 10
-222.5841582270286
 20
248.547785380543
 30
0.0
  0
VERTEX
  5
6FD
  8
0
  6
PHANTOM
 62
     4
 10
-222.5929878510055
 20
248.570683558945
 30
0.0
  0
VERTEX
  5
6FE
  8
0
  6
PHANTOM
 62
     4
 10
-222.6029305112866
 20
248.5931205022937
 30
0.0
  0
VERTEX
  5
6FF
  8
0
  6
PHANTOM
 62
     4
 10
-222.6139622574545
 20
248.6150421632671
 30
0.0
  0
VERTEX
  5
700
  8
0
  6
PHANTOM
 62
     4
 10
-222.6260565156427
 20
248.6363957357832
 30
0.0
  0
VERTEX
  5
701
  8
0
  6
PHANTOM
 62
     4
 10
-222.6391841525481
 20
248.6571297822022
 30
0.0
  0
VERTEX
  5
702
  8
0
  6
PHANTOM
 62
     4
 10
-222.6533135456094
 20
248.6771943572324
 30
0.0
  0
VERTEX
  5
703
  8
0
  6
PHANTOM
 62
     4
 10
-222.6684106591809
 20
248.6965411282407
 30
0.0
  0
VERTEX
  5
704
  8
0
  6
PHANTOM
 62
     4
 10
-222.6844391265193
 20
248.7151234916794
 30
0.0
  0
VERTEX
  5
705
  8
0
  6
PHANTOM
 62
     4
 10
-222.7013603373859
 20
248.7328966853469
 30
0.0
  0
VERTEX
  5
706
  8
0
  6
PHANTOM
 62
     4
 10
-222.7191335310534
 20
248.7498178962135
 30
0.0
  0
VERTEX
  5
707
  8
0
  6
PHANTOM
 62
     4
 10
-222.7377158944921
 20
248.7658463635519
 30
0.0
  0
VERTEX
  5
708
  8
0
  6
PHANTOM
 62
     4
 10
-222.7570626655004
 20
248.7809434771234
 30
0.0
  0
VERTEX
  5
709
  8
0
  6
PHANTOM
 62
     4
 10
-222.7771272405306
 20
248.7950728701847
 30
0.0
  0
VERTEX
  5
70A
  8
0
  6
PHANTOM
 62
     4
 10
-222.7978612869496
 20
248.8082005070902
 30
0.0
  0
VERTEX
  5
70B
  8
0
  6
PHANTOM
 62
     4
 10
-222.8192148594657
 20
248.8202947652783
 30
0.0
  0
VERTEX
  5
70C
  8
0
  6
PHANTOM
 62
     4
 10
-222.8411365204391
 20
248.8313265114462
 30
0.0
  0
VERTEX
  5
70D
  8
0
  6
PHANTOM
 62
     4
 10
-222.8635734637878
 20
248.8412691717273
 30
0.0
  0
VERTEX
  5
70E
  8
0
  6
PHANTOM
 62
     4
 10
-222.8864716421898
 20
248.8500987957042
 30
0.0
  0
VERTEX
  5
70F
  8
0
  6
PHANTOM
 62
     4
 10
-222.9097758972752
 20
248.8577941141013
 30
0.0
  0
VERTEX
  5
710
  8
0
  6
PHANTOM
 62
     4
 10
-222.9334300924945
 20
248.8643365900196
 30
0.0
  0
VERTEX
  5
711
  8
0
  6
PHANTOM
 62
     4
 10
-222.9573772483438
 20
248.8697104635895
 30
0.0
  0
VERTEX
  5
712
  8
0
  6
PHANTOM
 62
     4
 10
-222.9815596796195
 20
248.8739027899339
 30
0.0
  0
VERTEX
  5
713
  8
0
  6
PHANTOM
 62
     4
 10
-223.0059191343738
 20
248.8769034703504
 30
0.0
  0
VERTEX
  5
714
  8
0
  6
PHANTOM
 62
     4
 10
-223.0303969342355
 20
248.8787052766378
 30
0.0
  0
VERTEX
  5
715
  8
0
  6
PHANTOM
 62
     4
 10
-223.054934115757
 20
248.8793038685078
 30
0.0
  0
SEQEND
  5
824
  8
0
  6
PHANTOM
 62
     4
  0
POLYLINE
  5
140
  8
0
  6
PHANTOM
 62
     4
 66
     1
 10
0.0
 20
0.0
 30
0.0
  0
VERTEX
  5
716
  8
0
  6
PHANTOM
 62
     4
 10
-277.2376517292866
 20
160.5467004857858
 30
0.0
  0
VERTEX
  5
717
  8
0
  6
PHANTOM
 62
     4
 10
-277.2856991068511
 20
161.0344044698789
 30
0.0
  0
VERTEX
  5
718
  8
0
  6
PHANTOM
 62
     4
 10
-277.4279652735732
 20
161.5033636852482
 30
0.0
  0
VERTEX
  5
719
  8
0
  6
PHANTOM
 62
     4
 10
-277.6589835488348
 20
161.9355580339855
 30
0.0
  0
VERTEX
  5
71A
  8
0
  6
PHANTOM
 62
     4
 10
-277.9698768878902
 20
162.3143801348427
 30
0.0
  0
VERTEX
  5
71B
  8
0
  6
PHANTOM
 62
     4
 10
-278.3486989887473
 20
162.625273473898
 30
0.0
  0
VERTEX
  5
71C
  8
0
  6
PHANTOM
 62
     4
 10
-278.7808933374847
 20
162.8562917491596
 30
0.0
  0
VERTEX
  5
71D
  8
0
  6
PHANTOM
 62
     4
 10
-279.2498525528539
 20
162.9985579158817
 30
0.0
  0
VERTEX
  5
71E
  8
0
  6
PHANTOM
 62
     4
 10
-279.737556536947
 20
163.0466052934462
 30
0.0
  0
SEQEND
  5
825
  8
0
  6
PHANTOM
 62
     4
  0
ARC
  5
141
  8
0
  6
PHANTOM
 62
     4
 10
-252.7247592617211
 20
157.7879125857287
 30
0.0
 40
2.499958005034667
 50
199.4733682367792
 51
269.9991379102671
  0
POLYLINE
  5
142
  8
0
  6
PHANTOM
 62
     4
 66
     1
 10
0.0
 20
0.0
 30
0.0
  0
VERTEX
  5
71F
  8
0
  6
PHANTOM
 62
     4
 10
-223.054934115757
 20
152.1966052934462
 30
0.0
  0
VERTEX
  5
720
  8
0
  6
PHANTOM
 62
     4
 10
-223.0303969342355
 20
152.1972038853162
 30
0.0
  0
VERTEX
  5
721
  8
0
  6
PHANTOM
 62
     4
 10
-223.0059191343738
 20
152.1990056916036
 30
0.0
  0
VERTEX
  5
722
  8
0
  6
PHANTOM
 62
     4
 10
-222.9815596796195
 20
152.2020063720202
 30
0.0
  0
VERTEX
  5
723
  8
0
  6
PHANTOM
 62
     4
 10
-222.9573772483438
 20
152.2061986983645
 30
0.0
  0
VERTEX
  5
724
  8
0
  6
PHANTOM
 62
     4
 10
-222.9334300924945
 20
152.2115725719345
 30
0.0
  0
VERTEX
  5
725
  8
0
  6
PHANTOM
 62
     4
 10
-222.9097758972752
 20
152.2181150478528
 30
0.0
  0
VERTEX
  5
726
  8
0
  6
PHANTOM
 62
     4
 10
-222.8864716421898
 20
152.2258103662498
 30
0.0
  0
VERTEX
  5
727
  8
0
  6
PHANTOM
 62
     4
 10
-222.8635734637878
 20
152.2346399902267
 30
0.0
  0
VERTEX
  5
728
  8
0
  6
PHANTOM
 62
     4
 10
-222.8411365204391
 20
152.2445826505079
 30
0.0
  0
VERTEX
  5
729
  8
0
  6
PHANTOM
 62
     4
 10
-222.8192148594657
 20
152.2556143966758
 30
0.0
  0
VERTEX
  5
72A
  8
0
  6
PHANTOM
 62
     4
 10
-222.7978612869496
 20
152.2677086548639
 30
0.0
  0
VERTEX
  5
72B
  8
0
  6
PHANTOM
 62
     4
 10
-222.7771272405306
 20
152.2808362917694
 30
0.0
  0
VERTEX
  5
72C
  8
0
  6
PHANTOM
 62
     4
 10
-222.7570626655004
 20
152.2949656848307
 30
0.0
  0
VERTEX
  5
72D
  8
0
  6
PHANTOM
 62
     4
 10
-222.7377158944921
 20
152.3100627984022
 30
0.0
  0
VERTEX
  5
72E
  8
0
  6
PHANTOM
 62
     4
 10
-222.7191335310534
 20
152.3260912657405
 30
0.0
  0
VERTEX
  5
72F
  8
0
  6
PHANTOM
 62
     4
 10
-222.7013603373859
 20
152.3430124766072
 30
0.0
  0
VERTEX
  5
730
  8
0
  6
PHANTOM
 62
     4
 10
-222.6844391265193
 20
152.3607856702747
 30
0.0
  0
VERTEX
  5
731
  8
0
  6
PHANTOM
 62
     4
 10
-222.6684106591809
 20
152.3793680337134
 30
0.0
  0
VERTEX
  5
732
  8
0
  6
PHANTOM
 62
     4
 10
-222.6533135456094
 20
152.3987148047217
 30
0.0
  0
VERTEX
  5
733
  8
0
  6
PHANTOM
 62
     4
 10
-222.6391841525481
 20
152.4187793797519
 30
0.0
  0
VERTEX
  5
734
  8
0
  6
PHANTOM
 62
     4
 10
-222.6260565156427
 20
152.4395134261709
 30
0.0
  0
VERTEX
  5
735
  8
0
  6
PHANTOM
 62
     4
 10
-222.6139622574545
 20
152.460866998687
 30
0.0
  0
VERTEX
  5
736
  8
0
  6
PHANTOM
 62
     4
 10
-222.6029305112866
 20
152.4827886596604
 30
0.0
  0
VERTEX
  5
737
  8
0
  6
PHANTOM
 62
     4
 10
-222.5929878510055
 20
152.505225603009
 30
0.0
  0
VERTEX
  5
738
  8
0
  6
PHANTOM
 62
     4
 10
-222.5841582270286
 20
152.528123781411
 30
0.0
  0
VERTEX
  5
739
  8
0
  6
PHANTOM
 62
     4
 10
-222.5764629086315
 20
152.5514280364964
 30
0.0
  0
VERTEX
  5
73A
  8
0
  6
PHANTOM
 62
     4
 10
-222.5699204327132
 20
152.5750822317158
 30
0.0
  0
VERTEX
  5
73B
  8
0
  6
PHANTOM
 62
     4
 10
-222.5645465591433
 20
152.5990293875651
 30
0.0
  0
VERTEX
  5
73C
  8
0
  6
PHANTOM
 62
     4
 10
-222.5603542327989
 20
152.6232118188408
 30
0.0
  0
VERTEX
  5
73D
  8
0
  6
PHANTOM
 62
     4
 10
-222.5573535523824
 20
152.6475712735951
 30
0.0
  0
VERTEX
  5
73E
  8
0
  6
PHANTOM
 62
     4
 10
-222.5555517460949
 20
152.6720490734568
 30
0.0
  0
VERTEX
  5
73F
  8
0
  6
PHANTOM
 62
     4
 10
-222.554953154225
 20
152.6965862549783
 30
0.0
  0
SEQEND
  5
826
  8
0
  6
PHANTOM
 62
     4
  0
LINE
  5
143
  8
0
  6
PHANTOM
 62
     4
 10
-269.8876517292866
 20
253.537954580977
 30
0.0
 11
-269.8876517292866
 21
251.3792086761682
 31
0.0
  0
LINE
  5
144
  8
0
  6
PHANTOM
 62
     4
 10
-270.8876136523508
 20
253.537954580977
 30
0.0
 11
-269.8876517292866
 21
253.537954580977
 31
0.0
  0
LINE
  5
145
  8
0
  6
PHANTOM
 62
     4
 10
-276.7376707677545
 20
152.1966052934462
 30
0.0
 11
-272.387556536947
 21
152.1966052934462
 31
0.0
  0
LINE
  5
146
  8
0
  6
PHANTOM
 62
     4
 10
-227.4050483465645
 20
152.1966052934462
 30
0.0
 11
-223.054934115757
 21
152.1966052934462
 31
0.0
  0
LINE
  5
147
  8
0
  6
PHANTOM
 62
     4
 10
-218.4006277979904
 20
220.5336292247424
 30
0.0
 11
-218.4006277979904
 21
230.5422799372116
 31
0.0
  0
ARC
  5
148
  8
0
  6
PHANTOM
 62
     4
 10
-247.0678456217689
 20
157.7879125856981
 30
0.0
 40
2.499958005004093
 50
270.0008620892367
 51
340.5266317637168
  0
LINE
  5
149
  8
0
  6
PHANTOM
 62
     4
 10
-252.7247968768499
 20
155.287954580977
 30
0.0
 11
-247.0678080066617
 21
155.287954580977
 31
0.0
  0
LINE
  5
14A
  8
0
  6
PHANTOM
 62
     4
 10
-214.8963024417558
 20
200.537954580977
 30
0.0
 11
-214.8963024417558
 21
152.537954580977
 31
0.0
  0
LINE
  5
14B
  8
0
  6
PHANTOM
 62
     4
 10
-214.8963024417558
 20
248.537954580977
 30
0.0
 11
-214.8963024417558
 21
200.537954580977
 31
0.0
  0
LINE
  5
14C
  8
0
  6
PHANTOM
 62
     4
 10
-219.8963024417558
 20
147.537954580977
 30
0.0
 11
-228.9049912311608
 21
147.537954580977
 31
0.0
  0
LINE
  5
14D
  8
0
  6
PHANTOM
 62
     4
 10
-228.9049912311608
 20
253.537954580977
 30
0.0
 11
-219.8963024417558
 21
253.537954580977
 31
0.0
  0
ARC
  5
14E
  8
0
  6
PHANTOM
 62
     4
 10
-219.8963024417558
 20
152.537954580977
 30
0.0
 40
4.999999999999977
 50
270.0
 51
359.9999999999999
  0
ARC
  5
14F
  8
0
  6
PHANTOM
 62
     4
 10
-219.8963024417558
 20
248.537954580977
 30
0.0
 40
5.000000000000004
 50
0.0
 51
90.0000000000003
  0
LINE
  5
150
  8
0
  6
CONTINUOUS
 62
     7
 10
-218.4333916298665
 20
177.787954580977
 30
0.0
 11
-218.4484685427859
 21
177.787954580977
 31
0.0
  0
LINE
  5
151
  8
0
  6
CONTINUOUS
 62
     9
 10
-227.4050483465645
 20
248.8793038685078
 30
0.0
 11
-227.4225782374676
 21
248.8617739776047
 31
0.0
  0
LINE
  5
152
  8
0
  6
CONTINUOUS
 62
     9
 10
-272.3700266460439
 20
248.8617739776047
 30
0.0
 11
-272.387556536947
 21
248.8793038685078
 31
0.0
  0
LINE
  5
153
  8
0
  6
CONTINUOUS
 62
     9
 10
-222.5811337575973
 20
240.503028072796
 30
0.0
 11
-222.554953154225
 21
240.5292086761683
 31
0.0
  0
LINE
  5
154
  8
0
  6
PHANTOM
 62
     4
 10
-269.8876517292866
 20
147.537954580977
 30
0.0
 11
-269.8701218383835
 21
147.537954580977
 31
0.0
  0
LINE
  5
155
  8
0
  6
PHANTOM
 62
     4
 10
-229.904953154225
 20
253.537954580977
 30
0.0
 11
-229.922483045128
 21
253.537954580977
 31
0.0
  0
LINE
  5
156
  8
0
  6
CONTINUOUS
 62
     7
 10
-222.6335711196634
 20
225.5553321597871
 30
0.0
 11
-222.6335711196634
 21
225.520577002167
 31
0.0
  0
LINE
  5
157
  8
0
  6
CONTINUOUS
 62
     9
 10
-222.8342890788508
 20
248.0999869823499
 30
0.0
 11
-222.8373434825776
 21
248.0969325786231
 31
0.0
  0
LINE
  5
158
  8
0
  6
PHANTOM
 62
     4
 10
-222.5811337575973
 20
230.529265791572
 30
0.0
 11
-222.5811337575973
 21
240.503028072796
 31
0.0
  0
LINE
  5
159
  8
0
  6
PHANTOM
 62
     4
 10
-222.6161935394034
 20
230.4942060097658
 30
0.0
 11
-222.6334949643418
 21
228.4942821636375
 31
0.0
  0
LINE
  5
15A
  8
0
  6
PHANTOM
 62
     4
 10
-222.6334949643418
 20
222.5816269983166
 30
0.0
 11
-222.6334949643418
 21
228.4942821636375
 31
0.0
  0
LINE
  5
15B
  8
0
  6
PHANTOM
 62
     4
 10
-222.6334949643418
 20
222.5816269983166
 30
0.0
 11
-222.6161935394034
 21
220.5817031521882
 31
0.0
  0
LINE
  5
15C
  8
0
  6
PHANTOM
 62
     4
 10
-222.5811337575973
 20
205.529265791572
 30
0.0
 11
-222.5811337575973
 21
220.5466433703821
 31
0.0
  0
LINE
  5
15D
  8
0
  6
PHANTOM
 62
     4
 10
-222.6161935394034
 20
205.4942060097658
 30
0.0
 11
-222.6334949643418
 21
203.4942821636375
 31
0.0
  0
LINE
  5
15E
  8
0
  6
PHANTOM
 62
     4
 10
-222.6334949643418
 20
197.5816269983166
 30
0.0
 11
-222.6334949643418
 21
203.4942821636375
 31
0.0
  0
LINE
  5
15F
  8
0
  6
PHANTOM
 62
     4
 10
-222.6334949643418
 20
197.5816269983166
 30
0.0
 11
-222.6161935394034
 21
195.5817031521882
 31
0.0
  0
LINE
  5
160
  8
0
  6
PHANTOM
 62
     4
 10
-222.5811337575973
 20
180.529265791572
 30
0.0
 11
-222.5811337575973
 21
195.546643370382
 31
0.0
  0
LINE
  5
161
  8
0
  6
PHANTOM
 62
     4
 10
-222.6161935394034
 20
180.4942060097658
 30
0.0
 11
-222.6334949643418
 21
178.4942821636375
 31
0.0
  0
LINE
  5
162
  8
0
  6
PHANTOM
 62
     4
 10
-222.6334949643418
 20
172.5816269983166
 30
0.0
 11
-222.6334949643418
 21
178.4942821636375
 31
0.0
  0
LINE
  5
163
  8
0
  6
PHANTOM
 62
     4
 10
-222.6334949643418
 20
172.5816269983166
 30
0.0
 11
-222.6161935394034
 21
170.5817031521882
 31
0.0
  0
LINE
  5
164
  8
0
  6
PHANTOM
 62
     4
 10
-222.5811337575973
 20
160.5728810891581
 30
0.0
 11
-222.5811337575973
 21
170.546643370382
 31
0.0
  0
LINE
  5
165
  8
0
  6
PHANTOM
 62
     4
 10
-272.3700266460439
 20
248.8617739776047
 30
0.0
 11
-255.422483045128
 21
248.8617739776047
 31
0.0
  0
LINE
  5
166
  8
0
  6
PHANTOM
 62
     4
 10
-269.8876517292866
 20
253.537954580977
 30
0.0
 11
-269.8701218383835
 21
253.537954580977
 31
0.0
  0
LINE
  5
167
  8
0
  6
PHANTOM
 62
     4
 10
-229.904953154225
 20
147.537954580977
 30
0.0
 11
-229.922483045128
 21
147.537954580977
 31
0.0
  0
LINE
  5
168
  8
0
  6
PHANTOM
 62
     4
 10
-272.3700266460439
 20
152.2141351843493
 30
0.0
 11
-255.422483045128
 21
152.2141351843493
 31
0.0
  0
LINE
  5
169
  8
0
  6
CONTINUOUS
 62
     9
 10
-276.9583158046607
 20
152.9759221796042
 30
0.0
 11
-276.955261400934
 21
152.9789765833309
 31
0.0
  0
LINE
  5
16A
  8
0
  6
PHANTOM
 62
     4
 10
-277.2114711259143
 20
240.503028072796
 30
0.0
 11
-277.2114711259143
 21
160.5728810891581
 31
0.0
  0
LINE
  5
16B
  8
0
  6
CONTINUOUS
 62
     9
 10
-276.955261400934
 20
248.0969325786231
 30
0.0
 11
-276.9583158046607
 21
248.0999869823499
 31
0.0
  0
LINE
  5
16C
  8
0
  6
PHANTOM
 62
     4
 10
-244.3701218383835
 20
248.8617739776047
 30
0.0
 11
-227.4225782374676
 21
248.8617739776047
 31
0.0
  0
LINE
  5
16D
  8
0
  6
PHANTOM
 62
     4
 10
-244.3701218383835
 20
152.2141351843493
 30
0.0
 11
-227.4225782374676
 21
152.2141351843493
 31
0.0
  0
LINE
  5
16E
  8
0
  6
PHANTOM
 62
     4
 10
-221.5811718345331
 20
221.5466052934462
 30
0.0
 11
-218.4311337575972
 21
221.5466052934462
 31
0.0
  0
POLYLINE
  5
16F
  8
0
  6
PHANTOM
 62
     4
 66
     1
 10
0.0
 20
0.0
 30
0.0
  0
VERTEX
  5
740
  8
0
  6
PHANTOM
 62
     4
 10
-221.5811718345331
 20
171.5466052934462
 30
0.0
  0
VERTEX
  5
741
  8
0
  6
PHANTOM
 62
     4
 10
-221.776245392873
 20
171.5273783071231
 30
0.0
  0
VERTEX
  5
742
  8
0
  6
PHANTOM
 62
     4
 10
-221.9638231082796
 20
171.4704658696932
 30
0.0
  0
VERTEX
  5
743
  8
0
  6
PHANTOM
 62
     4
 10
-222.1366971710197
 20
171.3780548828337
 30
0.0
  0
VERTEX
  5
744
  8
0
  6
PHANTOM
 62
     4
 10
-222.2882247698759
 20
171.2536963057249
 30
0.0
  0
VERTEX
  5
745
  8
0
  6
PHANTOM
 62
     4
 10
-222.4125833469847
 20
171.1021687068687
 30
0.0
  0
VERTEX
  5
746
  8
0
  6
PHANTOM
 62
     4
 10
-222.5049943338442
 20
170.9292946441286
 30
0.0
  0
VERTEX
  5
747
  8
0
  6
PHANTOM
 62
     4
 10
-222.5619067712741
 20
170.741716928722
 30
0.0
  0
VERTEX
  5
748
  8
0
  6
PHANTOM
 62
     4
 10
-222.5811337575973
 20
170.5466433703821
 30
0.0
  0
SEQEND
  5
827
  8
0
  6
PHANTOM
 62
     4
  0
LINE
  5
170
  8
0
  6
PHANTOM
 62
     4
 10
-244.3701218383835
 20
248.8617739776047
 30
0.0
 11
-244.3701218383835
 21
242.287954580977
 31
0.0
  0
LINE
  5
171
  8
0
  6
PHANTOM
 62
     4
 10
-255.422483045128
 20
242.287954580977
 30
0.0
 11
-255.422483045128
 21
248.8617739776047
 31
0.0
  0
LINE
  5
172
  8
0
  6
PHANTOM
 62
     4
 10
-229.922483045128
 20
253.537954580977
 30
0.0
 11
-249.8963024417558
 21
253.537954580977
 31
0.0
  0
LINE
  5
173
  8
0
  6
PHANTOM
 62
     4
 10
-249.8963024417558
 20
253.537954580977
 30
0.0
 11
-269.8701218383835
 21
253.537954580977
 31
0.0
  0
LINE
  5
174
  8
0
  6
PHANTOM
 62
     4
 10
-221.5811718345331
 20
196.5466052934462
 30
0.0
 11
-218.4311337575972
 21
196.5466052934462
 31
0.0
  0
POLYLINE
  5
175
  8
0
  6
PHANTOM
 62
     4
 66
     1
 10
0.0
 20
0.0
 30
0.0
  0
VERTEX
  5
749
  8
0
  6
PHANTOM
 62
     4
 10
-221.5811718345331
 20
221.5466052934462
 30
0.0
  0
VERTEX
  5
74A
  8
0
  6
PHANTOM
 62
     4
 10
-221.776245392873
 20
221.5273783071231
 30
0.0
  0
VERTEX
  5
74B
  8
0
  6
PHANTOM
 62
     4
 10
-221.9638231082796
 20
221.4704658696932
 30
0.0
  0
VERTEX
  5
74C
  8
0
  6
PHANTOM
 62
     4
 10
-222.1366971710197
 20
221.3780548828337
 30
0.0
  0
VERTEX
  5
74D
  8
0
  6
PHANTOM
 62
     4
 10
-222.2882247698759
 20
221.2536963057249
 30
0.0
  0
VERTEX
  5
74E
  8
0
  6
PHANTOM
 62
     4
 10
-222.4125833469847
 20
221.1021687068686
 30
0.0
  0
VERTEX
  5
74F
  8
0
  6
PHANTOM
 62
     4
 10
-222.5049943338442
 20
220.9292946441286
 30
0.0
  0
VERTEX
  5
750
  8
0
  6
PHANTOM
 62
     4
 10
-222.5619067712741
 20
220.741716928722
 30
0.0
  0
VERTEX
  5
751
  8
0
  6
PHANTOM
 62
     4
 10
-222.5811337575972
 20
220.5466433703821
 30
0.0
  0
SEQEND
  5
828
  8
0
  6
PHANTOM
 62
     4
  0
POLYLINE
  5
176
  8
0
  6
PHANTOM
 62
     4
 66
     1
 10
0.0
 20
0.0
 30
0.0
  0
VERTEX
  5
752
  8
0
  6
PHANTOM
 62
     4
 10
-222.5811337575972
 20
205.529265791572
 30
0.0
  0
VERTEX
  5
753
  8
0
  6
PHANTOM
 62
     4
 10
-222.5619067712741
 20
205.3341922332321
 30
0.0
  0
VERTEX
  5
754
  8
0
  6
PHANTOM
 62
     4
 10
-222.5049943338442
 20
205.1466145178255
 30
0.0
  0
VERTEX
  5
755
  8
0
  6
PHANTOM
 62
     4
 10
-222.4125833469847
 20
204.9737404550854
 30
0.0
  0
VERTEX
  5
756
  8
0
  6
PHANTOM
 62
     4
 10
-222.2882247698759
 20
204.8222128562292
 30
0.0
  0
VERTEX
  5
757
  8
0
  6
PHANTOM
 62
     4
 10
-222.1366971710197
 20
204.6978542791204
 30
0.0
  0
VERTEX
  5
758
  8
0
  6
PHANTOM
 62
     4
 10
-221.9638231082796
 20
204.6054432922609
 30
0.0
  0
VERTEX
  5
759
  8
0
  6
PHANTOM
 62
     4
 10
-221.776245392873
 20
204.548530854831
 30
0.0
  0
VERTEX
  5
75A
  8
0
  6
PHANTOM
 62
     4
 10
-221.5811718345331
 20
204.5293038685079
 30
0.0
  0
SEQEND
  5
829
  8
0
  6
PHANTOM
 62
     4
  0
LINE
  5
177
  8
0
  6
PHANTOM
 62
     4
 10
-244.3701218383835
 20
152.2141351843493
 30
0.0
 11
-244.3701218383835
 21
158.787954580977
 31
0.0
  0
LINE
  5
178
  8
0
  6
PHANTOM
 62
     4
 10
-255.422483045128
 20
158.787954580977
 30
0.0
 11
-255.422483045128
 21
152.2141351843493
 31
0.0
  0
LINE
  5
179
  8
0
  6
PHANTOM
 62
     4
 10
-249.8963024417558
 20
147.537954580977
 30
0.0
 11
-269.8701218383835
 21
147.537954580977
 31
0.0
  0
LINE
  5
17A
  8
0
  6
PHANTOM
 62
     4
 10
-229.922483045128
 20
147.537954580977
 30
0.0
 11
-249.8963024417558
 21
147.537954580977
 31
0.0
  0
POLYLINE
  5
17B
  8
0
  6
PHANTOM
 62
     4
 66
     1
 10
0.0
 20
0.0
 30
0.0
  0
VERTEX
  5
75B
  8
0
  6
PHANTOM
 62
     4
 10
-222.5811337575972
 20
180.529265791572
 30
0.0
  0
VERTEX
  5
75C
  8
0
  6
PHANTOM
 62
     4
 10
-222.5619067712741
 20
180.3341922332321
 30
0.0
  0
VERTEX
  5
75D
  8
0
  6
PHANTOM
 62
     4
 10
-222.5049943338442
 20
180.1466145178255
 30
0.0
  0
VERTEX
  5
75E
  8
0
  6
PHANTOM
 62
     4
 10
-222.4125833469847
 20
179.9737404550854
 30
0.0
  0
VERTEX
  5
75F
  8
0
  6
PHANTOM
 62
     4
 10
-222.2882247698759
 20
179.8222128562292
 30
0.0
  0
VERTEX
  5
760
  8
0
  6
PHANTOM
 62
     4
 10
-222.1366971710197
 20
179.6978542791204
 30
0.0
  0
VERTEX
  5
761
  8
0
  6
PHANTOM
 62
     4
 10
-221.9638231082796
 20
179.6054432922609
 30
0.0
  0
VERTEX
  5
762
  8
0
  6
PHANTOM
 62
     4
 10
-221.776245392873
 20
179.548530854831
 30
0.0
  0
VERTEX
  5
763
  8
0
  6
PHANTOM
 62
     4
 10
-221.5811718345331
 20
179.5293038685079
 30
0.0
  0
SEQEND
  5
82A
  8
0
  6
PHANTOM
 62
     4
  0
LINE
  5
17C
  8
0
  6
PHANTOM
 62
     4
 10
-218.4311337575972
 20
179.5293038685078
 30
0.0
 11
-221.5811718345331
 21
179.5293038685078
 31
0.0
  0
LINE
  5
17D
  8
0
  6
PHANTOM
 62
     4
 10
-218.4311337575972
 20
229.5293038685078
 30
0.0
 11
-221.5811718345331
 21
229.5293038685078
 31
0.0
  0
POLYLINE
  5
17E
  8
0
  6
PHANTOM
 62
     4
 66
     1
 10
0.0
 20
0.0
 30
0.0
  0
VERTEX
  5
764
  8
0
  6
PHANTOM
 62
     4
 10
-221.5811718345331
 20
196.5466052934462
 30
0.0
  0
VERTEX
  5
765
  8
0
  6
PHANTOM
 62
     4
 10
-221.776245392873
 20
196.5273783071231
 30
0.0
  0
VERTEX
  5
766
  8
0
  6
PHANTOM
 62
     4
 10
-221.9638231082796
 20
196.4704658696932
 30
0.0
  0
VERTEX
  5
767
  8
0
  6
PHANTOM
 62
     4
 10
-222.1366971710197
 20
196.3780548828337
 30
0.0
  0
VERTEX
  5
768
  8
0
  6
PHANTOM
 62
     4
 10
-222.2882247698759
 20
196.2536963057249
 30
0.0
  0
VERTEX
  5
769
  8
0
  6
PHANTOM
 62
     4
 10
-222.4125833469847
 20
196.1021687068687
 30
0.0
  0
VERTEX
  5
76A
  8
0
  6
PHANTOM
 62
     4
 10
-222.5049943338442
 20
195.9292946441286
 30
0.0
  0
VERTEX
  5
76B
  8
0
  6
PHANTOM
 62
     4
 10
-222.5619067712742
 20
195.741716928722
 30
0.0
  0
VERTEX
  5
76C
  8
0
  6
PHANTOM
 62
     4
 10
-222.5811337575973
 20
195.5466433703821
 30
0.0
  0
SEQEND
  5
82B
  8
0
  6
PHANTOM
 62
     4
  0
POLYLINE
  5
17F
  8
0
  6
PHANTOM
 62
     4
 66
     1
 10
0.0
 20
0.0
 30
0.0
  0
VERTEX
  5
76D
  8
0
  6
PHANTOM
 62
     4
 10
-222.5811337575973
 20
230.529265791572
 30
0.0
  0
VERTEX
  5
76E
  8
0
  6
PHANTOM
 62
     4
 10
-222.5619067712742
 20
230.3341922332321
 30
0.0
  0
VERTEX
  5
76F
  8
0
  6
PHANTOM
 62
     4
 10
-222.5049943338442
 20
230.1466145178255
 30
0.0
  0
VERTEX
  5
770
  8
0
  6
PHANTOM
 62
     4
 10
-222.4125833469847
 20
229.9737404550854
 30
0.0
  0
VERTEX
  5
771
  8
0
  6
PHANTOM
 62
     4
 10
-222.2882247698759
 20
229.8222128562292
 30
0.0
  0
VERTEX
  5
772
  8
0
  6
PHANTOM
 62
     4
 10
-222.1366971710197
 20
229.6978542791204
 30
0.0
  0
VERTEX
  5
773
  8
0
  6
PHANTOM
 62
     4
 10
-221.9638231082796
 20
229.6054432922609
 30
0.0
  0
VERTEX
  5
774
  8
0
  6
PHANTOM
 62
     4
 10
-221.776245392873
 20
229.5485308548309
 30
0.0
  0
VERTEX
  5
775
  8
0
  6
PHANTOM
 62
     4
 10
-221.5811718345331
 20
229.5293038685078
 30
0.0
  0
SEQEND
  5
82C
  8
0
  6
PHANTOM
 62
     4
  0
LINE
  5
180
  8
0
  6
PHANTOM
 62
     4
 10
-218.4311337575972
 20
204.5293038685078
 30
0.0
 11
-221.5811718345331
 21
204.5293038685078
 31
0.0
  0
LINE
  5
181
  8
0
  6
PHANTOM
 62
     4
 10
-221.5811718345331
 20
171.5466052934462
 30
0.0
 11
-218.4311337575972
 21
171.5466052934462
 31
0.0
  0
LINE
  5
182
  8
0
  6
PHANTOM
 62
     4
 10
-269.8963024417558
 20
174.037954580977
 30
0.0
 11
-269.8963024417558
 21
174.787954580977
 31
0.0
  0
LINE
  5
183
  8
0
  6
PHANTOM
 62
     4
 10
-269.8963024417558
 20
176.287954580977
 30
0.0
 11
-269.8963024417558
 21
177.037954580977
 31
0.0
  0
LINE
  5
184
  8
0
  6
PHANTOM
 62
     4
 10
-269.8963024417558
 20
227.037954580977
 30
0.0
 11
-269.8963024417558
 21
226.287954580977
 31
0.0
  0
LINE
  5
185
  8
0
  6
PHANTOM
 62
     4
 10
-269.8963024417558
 20
224.787954580977
 30
0.0
 11
-269.8963024417558
 21
224.037954580977
 31
0.0
  0
LINE
  5
186
  8
0
  6
PHANTOM
 62
     4
 10
-269.8963024417558
 20
226.287954580977
 30
0.0
 11
-269.8963024417558
 21
224.787954580977
 31
0.0
  0
LINE
  5
187
  8
0
  6
PHANTOM
 62
     4
 10
-269.8963024417558
 20
174.787954580977
 30
0.0
 11
-269.8963024417558
 21
176.287954580977
 31
0.0
  0
LINE
  5
188
  8
0
  6
PHANTOM
 62
     4
 10
-229.8963024417558
 20
182.037954580977
 30
0.0
 11
-229.8963024417558
 21
219.037954580977
 31
0.0
  0
LINE
  5
189
  8
0
  6
PHANTOM
 62
     4
 10
-229.8963024417558
 20
181.037954580977
 30
0.0
 11
-229.8963024417558
 21
182.037954580977
 31
0.0
  0
LINE
  5
18A
  8
0
  6
PHANTOM
 62
     4
 10
-269.8963024417558
 20
182.037954580977
 30
0.0
 11
-269.8963024417558
 21
181.037954580977
 31
0.0
  0
LINE
  5
18B
  8
0
  6
PHANTOM
 62
     4
 10
-229.8963024417558
 20
219.037954580977
 30
0.0
 11
-229.8963024417558
 21
220.037954580977
 31
0.0
  0
LINE
  5
18C
  8
0
  6
PHANTOM
 62
     4
 10
-269.8963024417558
 20
220.037954580977
 30
0.0
 11
-269.8963024417558
 21
219.037954580977
 31
0.0
  0
LINE
  5
18D
  8
0
  6
PHANTOM
 62
     4
 10
-269.8963024417558
 20
182.037954580977
 30
0.0
 11
-269.8963024417558
 21
219.037954580977
 31
0.0
  0
ARC
  5
18E
  8
0
  6
PHANTOM
 62
     4
 10
-267.3963024417558
 20
169.037954580977
 30
0.0
 40
2.500000000000002
 50
180.0
 51
270.0000000000003
  0
LINE
  5
18F
  8
0
  6
PHANTOM
 62
     4
 10
-253.3963024417558
 20
166.537954580977
 30
0.0
 11
-267.3963024417558
 21
166.537954580977
 31
0.0
  0
LINE
  5
190
  8
0
  6
PHANTOM
 62
     4
 10
-253.948421771683
 20
169.574610895577
 30
0.0
 11
-253.3963024417558
 21
166.537954580977
 31
0.0
  0
ARC
  5
191
  8
0
  6
PHANTOM
 62
     4
 10
-256.9000315019828
 20
169.037954580977
 30
0.0
 40
3.000000000000003
 50
10.30484646876613
 51
89.99999999999949
  0
LINE
  5
192
  8
0
  6
PHANTOM
 62
     4
 10
-260.3963024417558
 20
172.037954580977
 30
0.0
 11
-256.9000315019827
 21
172.037954580977
 31
0.0
  0
LINE
  5
193
  8
0
  6
PHANTOM
 62
     4
 10
-260.3963024417558
 20
167.137954580977
 30
0.0
 11
-260.3963024417558
 21
172.037954580977
 31
0.0
  0
LINE
  5
194
  8
0
  6
PHANTOM
 62
     4
 10
-267.3963024417558
 20
167.137954580977
 30
0.0
 11
-260.3963024417558
 21
167.137954580977
 31
0.0
  0
ARC
  5
195
  8
0
  6
PHANTOM
 62
     4
 10
-267.3963024417558
 20
169.037954580977
 30
0.0
 40
1.900000000000013
 50
179.9999999999996
 51
269.9999999999995
  0
LINE
  5
196
  8
0
  6
PHANTOM
 62
     4
 10
-269.2963024417558
 20
190.037954580977
 30
0.0
 11
-269.2963024417558
 21
169.037954580977
 31
0.0
  0
LINE
  5
197
  8
0
  6
PHANTOM
 62
     4
 10
-264.3963024417558
 20
190.037954580977
 30
0.0
 11
-269.2963024417558
 21
190.037954580977
 31
0.0
  0
LINE
  5
198
  8
0
  6
PHANTOM
 62
     4
 10
-264.3963024417558
 20
193.5342255207501
 30
0.0
 11
-264.3963024417558
 21
190.037954580977
 31
0.0
  0
ARC
  5
199
  8
0
  6
PHANTOM
 62
     4
 10
-267.3963024417558
 20
193.5342255207501
 30
0.0
 40
2.999999999999977
 50
0.0
 51
79.69515353123393
  0
LINE
  5
19A
  8
0
  6
PHANTOM
 62
     4
 10
-269.8963024417558
 20
197.037954580977
 30
0.0
 11
-266.8596461271558
 21
196.4858352510498
 31
0.0
  0
LINE
  5
19B
  8
0
  6
PHANTOM
 62
     4
 10
-269.8963024417558
 20
204.037954580977
 30
0.0
 11
-266.8596461271558
 21
204.5900739109043
 31
0.0
  0
ARC
  5
19C
  8
0
  6
PHANTOM
 62
     4
 10
-267.3963024417558
 20
207.541683641204
 30
0.0
 40
2.999999999999977
 50
280.3048464687661
 51
0.0
  0
LINE
  5
19D
  8
0
  6
PHANTOM
 62
     4
 10
-264.3963024417558
 20
207.541683641204
 30
0.0
 11
-264.3963024417558
 21
211.037954580977
 31
0.0
  0
LINE
  5
19E
  8
0
  6
PHANTOM
 62
     4
 10
-264.3963024417558
 20
211.037954580977
 30
0.0
 11
-269.2963024417558
 21
211.037954580977
 31
0.0
  0
LINE
  5
19F
  8
0
  6
PHANTOM
 62
     4
 10
-269.2963024417558
 20
211.037954580977
 30
0.0
 11
-269.2963024417558
 21
232.037954580977
 31
0.0
  0
ARC
  5
1A0
  8
0
  6
PHANTOM
 62
     4
 10
-267.3963024417558
 20
232.037954580977
 30
0.0
 40
1.900000000000013
 50
90.0
 51
180.0000000000004
  0
LINE
  5
1A1
  8
0
  6
PHANTOM
 62
     4
 10
-267.3963024417558
 20
233.937954580977
 30
0.0
 11
-260.3963024417558
 21
233.937954580977
 31
0.0
  0
LINE
  5
1A2
  8
0
  6
PHANTOM
 62
     4
 10
-260.3963024417558
 20
233.937954580977
 30
0.0
 11
-260.3963024417558
 21
229.037954580977
 31
0.0
  0
ARC
  5
1A3
  8
0
  6
PHANTOM
 62
     4
 10
-256.9000315019828
 20
232.037954580977
 30
0.0
 40
3.000000000000004
 50
343.5463059201539
 51
349.6951535312341
  0
LINE
  5
1A4
  8
0
  6
PHANTOM
 62
     4
 10
-253.948421771683
 20
231.5012982663771
 30
0.0
 11
-253.3963024417558
 21
234.537954580977
 31
0.0
  0
LINE
  5
1A5
  8
0
  6
PHANTOM
 62
     4
 10
-253.3963024417558
 20
234.537954580977
 30
0.0
 11
-267.3963024417558
 21
234.537954580977
 31
0.0
  0
ARC
  5
1A6
  8
0
  6
PHANTOM
 62
     4
 10
-267.3963024417558
 20
232.037954580977
 30
0.0
 40
2.500000000000002
 50
89.99999999999969
 51
180.0
  0
ARC
  5
1A7
  8
0
  6
PHANTOM
 62
     4
 10
-232.3963024417558
 20
232.037954580977
 30
0.0
 40
2.500000000000002
 50
0.0
 51
90.00000000000034
  0
LINE
  5
1A8
  8
0
  6
PHANTOM
 62
     4
 10
-246.3963024417558
 20
234.537954580977
 30
0.0
 11
-232.3963024417558
 21
234.537954580977
 31
0.0
  0
LINE
  5
1A9
  8
0
  6
PHANTOM
 62
     4
 10
-245.8441831118285
 20
231.5012982663771
 30
0.0
 11
-246.3963024417558
 21
234.537954580977
 31
0.0
  0
ARC
  5
1AA
  8
0
  6
CONTINUOUS
 62
     7
 10
-242.8925733815288
 20
232.037954580977
 30
0.0
 40
2.999999999999993
 50
190.3048464687658
 51
193.5564026686722
  0
LINE
  5
1AB
  8
0
  6
PHANTOM
 62
     4
 10
-239.3963024417558
 20
233.937954580977
 30
0.0
 11
-239.3963024417558
 21
229.037954580977
 31
0.0
  0
LINE
  5
1AC
  8
0
  6
PHANTOM
 62
     4
 10
-232.3963024417558
 20
233.937954580977
 30
0.0
 11
-239.3963024417558
 21
233.937954580977
 31
0.0
  0
ARC
  5
1AD
  8
0
  6
PHANTOM
 62
     4
 10
-232.3963024417558
 20
232.037954580977
 30
0.0
 40
1.899999999999985
 50
359.9999999999996
 51
90.0
  0
LINE
  5
1AE
  8
0
  6
PHANTOM
 62
     4
 10
-230.4963024417558
 20
211.037954580977
 30
0.0
 11
-230.4963024417558
 21
232.037954580977
 31
0.0
  0
LINE
  5
1AF
  8
0
  6
PHANTOM
 62
     4
 10
-235.3963024417558
 20
211.037954580977
 30
0.0
 11
-230.4963024417558
 21
211.037954580977
 31
0.0
  0
LINE
  5
1B0
  8
0
  6
PHANTOM
 62
     4
 10
-235.3963024417558
 20
207.541683641204
 30
0.0
 11
-235.3963024417558
 21
211.037954580977
 31
0.0
  0
ARC
  5
1B1
  8
0
  6
PHANTOM
 62
     4
 10
-232.3963024417558
 20
207.541683641204
 30
0.0
 40
2.999999999999982
 50
180.0
 51
259.6951535312339
  0
LINE
  5
1B2
  8
0
  6
PHANTOM
 62
     4
 10
-229.8963024417558
 20
204.0379545809771
 30
0.0
 11
-232.9329587563557
 21
204.5900739109043
 31
0.0
  0
LINE
  5
1B3
  8
0
  6
PHANTOM
 62
     4
 10
-229.8963024417558
 20
197.037954580977
 30
0.0
 11
-232.9329587563557
 21
196.4858352510498
 31
0.0
  0
ARC
  5
1B4
  8
0
  6
PHANTOM
 62
     4
 10
-232.3963024417558
 20
193.5342255207501
 30
0.0
 40
2.999999999999982
 50
100.3048464687661
 51
180.0
  0
LINE
  5
1B5
  8
0
  6
PHANTOM
 62
     4
 10
-235.3963024417558
 20
193.5342255207501
 30
0.0
 11
-235.3963024417558
 21
190.037954580977
 31
0.0
  0
LINE
  5
1B6
  8
0
  6
PHANTOM
 62
     4
 10
-235.3963024417558
 20
190.037954580977
 30
0.0
 11
-230.4963024417558
 21
190.037954580977
 31
0.0
  0
LINE
  5
1B7
  8
0
  6
PHANTOM
 62
     4
 10
-230.4963024417558
 20
190.037954580977
 30
0.0
 11
-230.4963024417558
 21
169.037954580977
 31
0.0
  0
ARC
  5
1B8
  8
0
  6
PHANTOM
 62
     4
 10
-232.3963024417558
 20
169.037954580977
 30
0.0
 40
1.899999999999985
 50
270.0
 51
359.9999999999996
  0
LINE
  5
1B9
  8
0
  6
PHANTOM
 62
     4
 10
-232.3963024417558
 20
167.137954580977
 30
0.0
 11
-239.3963024417558
 21
167.137954580977
 31
0.0
  0
LINE
  5
1BA
  8
0
  6
PHANTOM
 62
     4
 10
-239.3963024417558
 20
167.137954580977
 30
0.0
 11
-239.3963024417558
 21
172.037954580977
 31
0.0
  0
LINE
  5
1BB
  8
0
  6
PHANTOM
 62
     4
 10
-239.3963024417558
 20
172.037954580977
 30
0.0
 11
-242.8925733815288
 21
172.037954580977
 31
0.0
  0
ARC
  5
1BC
  8
0
  6
PHANTOM
 62
     4
 10
-242.8925733815288
 20
169.037954580977
 30
0.0
 40
3.000000000000003
 50
90.00000000000054
 51
169.6951535312339
  0
LINE
  5
1BD
  8
0
  6
PHANTOM
 62
     4
 10
-245.8441831118285
 20
169.574610895577
 30
0.0
 11
-246.3963024417558
 21
166.537954580977
 31
0.0
  0
LINE
  5
1BE
  8
0
  6
PHANTOM
 62
     4
 10
-246.3963024417558
 20
166.537954580977
 30
0.0
 11
-232.3963024417558
 21
166.537954580977
 31
0.0
  0
ARC
  5
1BF
  8
0
  6
PHANTOM
 62
     4
 10
-232.3963024417558
 20
169.037954580977
 30
0.0
 40
2.500000000000002
 50
269.9999999999997
 51
0.0
  0
LINE
  5
1C0
  8
0
  6
PHANTOM
 62
     4
 10
-229.8963024417557
 20
169.037954580977
 30
0.0
 11
-229.8963024417558
 21
181.037954580977
 31
0.0
  0
LINE
  5
1C1
  8
0
  6
PHANTOM
 62
     4
 10
-229.8963024417557
 20
232.037954580977
 30
0.0
 11
-229.8963024417558
 21
220.037954580977
 31
0.0
  0
LINE
  5
1C2
  8
0
  6
PHANTOM
 62
     4
 10
-269.8963024417558
 20
232.037954580977
 30
0.0
 11
-269.8963024417558
 21
227.037954580977
 31
0.0
  0
LINE
  5
1C3
  8
0
  6
PHANTOM
 62
     4
 10
-269.8963024417558
 20
169.037954580977
 30
0.0
 11
-269.8963024417558
 21
174.037954580977
 31
0.0
  0
LINE
  5
1C4
  8
0
  6
PHANTOM
 62
     4
 10
-269.8963024417558
 20
224.037954580977
 30
0.0
 11
-269.8963024417558
 21
220.037954580977
 31
0.0
  0
LINE
  5
1C5
  8
0
  6
PHANTOM
 62
     4
 10
-269.8963024417558
 20
177.037954580977
 30
0.0
 11
-269.8963024417558
 21
181.037954580977
 31
0.0
  0
LINE
  5
1C6
  8
0
  6
CONTINUOUS
 62
     7
 10
-347.1502342115244
 20
177.53795458098
 30
0.0
 11
-347.1502342115244
 21
223.53795458098
 31
0.0
  0
LINE
  5
1C7
  8
0
  6
CONTINUOUS
 62
     7
 10
-345.5502342115245
 20
177.53795458098
 30
0.0
 11
-345.5502342115245
 21
223.53795458098
 31
0.0
  0
LINE
  5
1C8
  8
0
  6
CONTINUOUS
 62
     7
 10
-347.1502342115244
 20
223.53795458098
 30
0.0
 11
-347.1502342115244
 21
225.53795458098
 31
0.0
  0
LINE
  5
1C9
  8
0
  6
CONTINUOUS
 62
     7
 10
-347.1502342115244
 20
225.53795458098
 30
0.0
 11
-345.5502342115245
 21
225.53795458098
 31
0.0
  0
LINE
  5
1CA
  8
0
  6
CONTINUOUS
 62
     7
 10
-345.5502342115245
 20
225.53795458098
 30
0.0
 11
-345.5502342115245
 21
223.53795458098
 31
0.0
  0
LINE
  5
1CB
  8
0
  6
CONTINUOUS
 62
     7
 10
-345.5502342115245
 20
175.53795458098
 30
0.0
 11
-347.1502342115244
 21
175.53795458098
 31
0.0
  0
LINE
  5
1CC
  8
0
  6
CONTINUOUS
 62
     7
 10
-347.1502342115244
 20
175.53795458098
 30
0.0
 11
-347.1502342115244
 21
177.53795458098
 31
0.0
  0
LINE
  5
1CD
  8
0
  6
CONTINUOUS
 62
     7
 10
-345.5502342115245
 20
177.53795458098
 30
0.0
 11
-345.5502342115245
 21
175.53795458098
 31
0.0
  0
LINE
  5
1CE
  8
0
  6
CONTINUOUS
 62
     7
 10
-345.5502342115245
 20
184.03795458098
 30
0.0
 11
-344.5502342115245
 21
184.03795458098
 31
0.0
  0
LINE
  5
1CF
  8
0
  6
CONTINUOUS
 62
     7
 10
-344.5502342115245
 20
217.03795458098
 30
0.0
 11
-345.5502342115245
 21
217.03795458098
 31
0.0
  0
LINE
  5
1D0
  8
0
  6
CONTINUOUS
 62
     7
 10
-167.5502342115245
 20
183.9078030619635
 30
0.0
 11
-167.5502342115245
 21
184.03795458098
 31
0.0
  0
LINE
  5
1D1
  8
0
  6
CONTINUOUS
 62
     7
 10
-331.5502342115245
 20
217.1681060999965
 30
0.0
 11
-331.5502342115245
 21
217.0379545809801
 31
0.0
  0
LINE
  5
1D2
  8
0
  6
CONTINUOUS
 62
     7
 10
-167.5502342115245
 20
217.03795458098
 30
0.0
 11
-167.5502342115245
 21
217.1681060999965
 31
0.0
  0
LINE
  5
1D3
  8
0
  6
CONTINUOUS
 62
     7
 10
-159.5502342115245
 20
217.03795458098
 30
0.0
 11
-167.5502342115245
 21
217.03795458098
 31
0.0
  0
ARC
  5
1D4
  8
0
  6
CONTINUOUS
 62
     7
 10
-159.5502342115245
 20
215.03795458098
 30
0.0
 40
2.000000000000002
 50
0.0
 51
90.0
  0
LINE
  5
1D5
  8
0
  6
CONTINUOUS
 62
     7
 10
-157.5502342115245
 20
204.03795458098
 30
0.0
 11
-157.5502342115245
 21
215.03795458098
 31
0.0
  0
LINE
  5
1D6
  8
0
  6
CONTINUOUS
 62
     7
 10
-157.5502342115245
 20
204.03795458098
 30
0.0
 11
-214.8963024417558
 21
204.03795458098
 31
0.0
  0
LINE
  5
1D7
  8
0
  6
CONTINUOUS
 62
     7
 10
-284.8963024417558
 20
204.03795458098
 30
0.0
 11
-337.5502342115245
 21
204.03795458098
 31
0.0
  0
ARC
  5
1D8
  8
0
  6
CONTINUOUS
 62
     7
 10
-337.5502342115245
 20
200.53795458098
 30
0.0
 40
3.500000000000003
 50
90.0
 51
270.0
  0
LINE
  5
1D9
  8
0
  6
CONTINUOUS
 62
     7
 10
-157.5502342115245
 20
197.03795458098
 30
0.0
 11
-214.8963024417558
 21
197.03795458098
 31
0.0
  0
LINE
  5
1DA
  8
0
  6
CONTINUOUS
 62
     7
 10
-284.8963024417558
 20
197.03795458098
 30
0.0
 11
-337.5502342115245
 21
197.03795458098
 31
0.0
  0
LINE
  5
1DB
  8
0
  6
CONTINUOUS
 62
     7
 10
-157.5502342115245
 20
186.03795458098
 30
0.0
 11
-157.5502342115245
 21
197.03795458098
 31
0.0
  0
ARC
  5
1DC
  8
0
  6
CONTINUOUS
 62
     7
 10
-159.5502342115245
 20
186.03795458098
 30
0.0
 40
1.999999999999974
 50
270.0
 51
0.0
  0
LINE
  5
1DD
  8
0
  6
CONTINUOUS
 62
     7
 10
-331.5502342115245
 20
184.03795458098
 30
0.0
 11
-331.5502342115245
 21
183.9078030619635
 31
0.0
  0
LINE
  5
1DE
  8
0
  6
CONTINUOUS
 62
     7
 10
-167.5502342115245
 20
184.03795458098
 30
0.0
 11
-159.5502342115245
 21
184.03795458098
 31
0.0
  0
LINE
  5
1DF
  8
0
  6
CONTINUOUS
 62
     7
 10
-344.5502342115245
 20
184.0379545809801
 30
0.0
 11
-331.5502342115245
 21
184.03795458098
 31
0.0
  0
LINE
  5
1E0
  8
0
  6
CONTINUOUS
 62
     7
 10
-331.5502342115245
 20
217.0379545809801
 30
0.0
 11
-344.5502342115245
 21
217.03795458098
 31
0.0
  0
ARC
  5
1E1
  8
0
  6
CONTINUOUS
 62
     7
 10
-161.0502342115245
 20
200.53795458098
 30
0.0
 40
1.250000000000001
 50
270.0
 51
0.0
  0
LINE
  5
1E2
  8
0
  6
CONTINUOUS
 62
     7
 10
-157.5502342115245
 20
197.03795458098
 30
0.0
 11
-157.5502342115245
 21
200.53795458098
 31
0.0
  0
ARC
  5
1E3
  8
0
  6
CONTINUOUS
 62
     7
 10
-331.3002342115244
 20
200.53795458098
 30
0.0
 40
1.249999999999999
 50
180.0
 51
270.0
  0
LINE
  5
1E4
  8
0
  6
CONTINUOUS
 62
     7
 10
-298.8002342115245
 20
199.28795458098
 30
0.0
 11
-331.3002342115244
 21
199.28795458098
 31
0.0
  0
ARC
  5
1E5
  8
0
  6
CONTINUOUS
 62
     7
 10
-298.8002342115245
 20
200.53795458098
 30
0.0
 40
1.250000000000001
 50
270.0
 51
0.0
  0
ARC
  5
1E6
  8
0
  6
CONTINUOUS
 62
     7
 10
-291.3002342115245
 20
200.53795458098
 30
0.0
 40
1.249999999999999
 50
180.0
 51
270.0
  0
LINE
  5
1E7
  8
0
  6
CONTINUOUS
 62
     7
 10
-284.8963024417558
 20
199.28795458098
 30
0.0
 11
-291.3002342115245
 21
199.28795458098
 31
0.0
  0
ARC
  5
1E8
  8
0
  6
CONTINUOUS
 62
     7
 10
-211.3002342115245
 20
200.53795458098
 30
0.0
 40
1.249999999999999
 50
180.0
 51
270.0
  0
LINE
  5
1E9
  8
0
  6
CONTINUOUS
 62
     7
 10
-178.8002342115245
 20
199.28795458098
 30
0.0
 11
-211.3002342115245
 21
199.28795458098
 31
0.0
  0
ARC
  5
1EA
  8
0
  6
CONTINUOUS
 62
     7
 10
-178.8002342115245
 20
200.53795458098
 30
0.0
 40
1.250000000000001
 50
270.0
 51
359.9999999999987
  0
ARC
  5
1EB
  8
0
  6
CONTINUOUS
 62
     7
 10
-172.5502342115244
 20
200.53795458098
 30
0.0
 40
1.250000000000001
 50
180.0
 51
270.0
  0
LINE
  5
1EC
  8
0
  6
CONTINUOUS
 62
     7
 10
-161.0502342115245
 20
199.28795458098
 30
0.0
 11
-172.5502342115244
 21
199.28795458098
 31
0.0
  0
LINE
  5
1ED
  8
0
  6
CONTINUOUS
 62
     7
 10
-167.5502342115245
 20
183.9078030619635
 30
0.0
 11
-167.5502342115245
 21
182.4228788214718
 31
0.0
  0
LINE
  5
1EE
  8
0
  6
CONTINUOUS
 62
     7
 10
-331.5502342115245
 20
182.4228788214718
 30
0.0
 11
-331.5502342115245
 21
183.9078030619635
 31
0.0
  0
LINE
  5
1EF
  8
0
  6
CONTINUOUS
 62
     7
 10
-167.5502342115245
 20
218.6530303404883
 30
0.0
 11
-167.5502342115245
 21
217.1681060999965
 31
0.0
  0
LINE
  5
1F0
  8
0
  6
CONTINUOUS
 62
     7
 10
-331.5502342115245
 20
217.1681060999965
 30
0.0
 11
-331.5502342115245
 21
218.6530303404883
 31
0.0
  0
ARC
  5
1F1
  8
0
  6
CONTINUOUS
 62
     7
 10
-178.8002342115245
 20
200.53795458098
 30
0.0
 40
1.250000000000001
 50
0.0
 51
90.0
  0
LINE
  5
1F2
  8
0
  6
CONTINUOUS
 62
     7
 10
-211.3002342115245
 20
201.78795458098
 30
0.0
 11
-178.8002342115245
 21
201.78795458098
 31
0.0
  0
ARC
  5
1F3
  8
0
  6
CONTINUOUS
 62
     7
 10
-211.3002342115245
 20
200.53795458098
 30
0.0
 40
1.249999999999999
 50
90.0
 51
180.0
  0
LINE
  5
1F4
  8
0
  6
CONTINUOUS
 62
     7
 10
-291.3002342115245
 20
201.78795458098
 30
0.0
 11
-284.8963024417558
 21
201.78795458098
 31
0.0
  0
ARC
  5
1F5
  8
0
  6
CONTINUOUS
 62
     7
 10
-291.3002342115245
 20
200.53795458098
 30
0.0
 40
1.249999999999999
 50
90.0
 51
180.0
  0
ARC
  5
1F6
  8
0
  6
CONTINUOUS
 62
     7
 10
-298.8002342115245
 20
200.53795458098
 30
0.0
 40
1.250000000000001
 50
0.0
 51
90.0
  0
LINE
  5
1F7
  8
0
  6
CONTINUOUS
 62
     7
 10
-331.3002342115244
 20
201.78795458098
 30
0.0
 11
-298.8002342115245
 21
201.78795458098
 31
0.0
  0
ARC
  5
1F8
  8
0
  6
CONTINUOUS
 62
     7
 10
-331.3002342115244
 20
200.53795458098
 30
0.0
 40
1.249999999999999
 50
90.0
 51
180.0
  0
ARC
  5
1F9
  8
0
  6
CONTINUOUS
 62
     7
 10
-161.0502342115245
 20
200.53795458098
 30
0.0
 40
1.250000000000001
 50
359.9999999999987
 51
90.0
  0
LINE
  5
1FA
  8
0
  6
CONTINUOUS
 62
     7
 10
-172.5502342115244
 20
201.78795458098
 30
0.0
 11
-161.0502342115245
 21
201.78795458098
 31
0.0
  0
ARC
  5
1FB
  8
0
  6
CONTINUOUS
 62
     7
 10
-172.5502342115244
 20
200.53795458098
 30
0.0
 40
1.250000000000001
 50
90.0
 51
180.0000000000013
  0
LINE
  5
1FC
  8
0
  6
CONTINUOUS
 62
     7
 10
-157.5502342115245
 20
200.53795458098
 30
0.0
 11
-157.5502342115245
 21
204.03795458098
 31
0.0
  0
POLYLINE
  5
1FD
  8
0
  6
CONTINUOUS
 62
     7
 66
     1
 10
0.0
 20
0.0
 30
0.0
  0
VERTEX
  5
776
  8
0
  6
CONTINUOUS
 62
     7
 10
-169.5502342115245
 20
180.16795458098
 30
0.0
  0
VERTEX
  5
777
  8
0
  6
CONTINUOUS
 62
     7
 10
-169.1600535674922
 20
180.1951282980309
 30
0.0
  0
VERTEX
  5
778
  8
0
  6
CONTINUOUS
 62
     7
 10
-168.7848673467943
 20
180.2756051784767
 30
0.0
  0
VERTEX
  5
779
  8
0
  6
CONTINUOUS
 62
     7
 10
-168.4390937454853
 20
180.4062925409337
 30
0.0
  0
VERTEX
  5
77A
  8
0
  6
CONTINUOUS
 62
     7
 10
-168.1360206491514
 20
180.5821681433531
 30
0.0
  0
VERTEX
  5
77B
  8
0
  6
CONTINUOUS
 62
     7
 10
-167.8872949869194
 20
180.796473184966
 30
0.0
  0
VERTEX
  5
77C
  8
0
  6
CONTINUOUS
 62
     7
 10
-167.7024751465019
 20
181.0409720432069
 30
0.0
  0
VERTEX
  5
77D
  8
0
  6
CONTINUOUS
 62
     7
 10
-167.588663650718
 20
181.3062687640702
 30
0.0
  0
VERTEX
  5
77E
  8
0
  6
CONTINUOUS
 62
     7
 10
-167.5502342115245
 20
181.5821681433531
 30
0.0
  0
SEQEND
  5
82D
  8
0
  6
CONTINUOUS
 62
     7
  0
LINE
  5
1FE
  8
0
  6
CONTINUOUS
 62
     7
 10
-169.5502342115245
 20
180.16795458098
 30
0.0
 11
-214.8963024417558
 21
180.16795458098
 31
0.0
  0
LINE
  5
1FF
  8
0
  6
CONTINUOUS
 62
     7
 10
-284.8963024417558
 20
180.16795458098
 30
0.0
 11
-329.5502342115244
 21
180.16795458098
 31
0.0
  0
POLYLINE
  5
200
  8
0
  6
CONTINUOUS
 62
     7
 66
     1
 10
0.0
 20
0.0
 30
0.0
  0
VERTEX
  5
77F
  8
0
  6
CONTINUOUS
 62
     7
 10
-331.5502342115245
 20
181.5821681433531
 30
0.0
  0
VERTEX
  5
780
  8
0
  6
CONTINUOUS
 62
     7
 10
-331.5118047723309
 20
181.3062687640702
 30
0.0
  0
VERTEX
  5
781
  8
0
  6
CONTINUOUS
 62
     7
 10
-331.397993276547
 20
181.0409720432069
 30
0.0
  0
VERTEX
  5
782
  8
0
  6
CONTINUOUS
 62
     7
 10
-331.2131734361295
 20
180.796473184966
 30
0.0
  0
VERTEX
  5
783
  8
0
  6
CONTINUOUS
 62
     7
 10
-330.9644477738975
 20
180.5821681433531
 30
0.0
  0
VERTEX
  5
784
  8
0
  6
CONTINUOUS
 62
     7
 10
-330.6613746775636
 20
180.4062925409337
 30
0.0
  0
VERTEX
  5
785
  8
0
  6
CONTINUOUS
 62
     7
 10
-330.3156010762546
 20
180.2756051784768
 30
0.0
  0
VERTEX
  5
786
  8
0
  6
CONTINUOUS
 62
     7
 10
-329.9404148555567
 20
180.195128298031
 30
0.0
  0
VERTEX
  5
787
  8
0
  6
CONTINUOUS
 62
     7
 10
-329.5502342115244
 20
180.16795458098
 30
0.0
  0
SEQEND
  5
82E
  8
0
  6
CONTINUOUS
 62
     7
  0
LINE
  5
201
  8
0
  6
CONTINUOUS
 62
     7
 10
-167.5502342115245
 20
181.5821681433531
 30
0.0
 11
-167.5502342115245
 21
182.4228788214718
 31
0.0
  0
LINE
  5
202
  8
0
  6
CONTINUOUS
 62
     7
 10
-331.5502342115245
 20
182.4228788214718
 30
0.0
 11
-331.5502342115245
 21
181.5821681433531
 31
0.0
  0
POLYLINE
  5
203
  8
0
  6
CONTINUOUS
 62
     7
 66
     1
 10
0.0
 20
0.0
 30
0.0
  0
VERTEX
  5
788
  8
0
  6
CONTINUOUS
 62
     7
 10
-167.5502342115245
 20
219.4937410186069
 30
0.0
  0
VERTEX
  5
789
  8
0
  6
CONTINUOUS
 62
     7
 10
-167.588663650718
 20
219.7696403978899
 30
0.0
  0
VERTEX
  5
78A
  8
0
  6
CONTINUOUS
 62
     7
 10
-167.7024751465019
 20
220.0349371187531
 30
0.0
  0
VERTEX
  5
78B
  8
0
  6
CONTINUOUS
 62
     7
 10
-167.8872949869194
 20
220.279435976994
 30
0.0
  0
VERTEX
  5
78C
  8
0
  6
CONTINUOUS
 62
     7
 10
-168.1360206491514
 20
220.4937410186069
 30
0.0
  0
VERTEX
  5
78D
  8
0
  6
CONTINUOUS
 62
     7
 10
-168.4390937454853
 20
220.6696166210263
 30
0.0
  0
VERTEX
  5
78E
  8
0
  6
CONTINUOUS
 62
     7
 10
-168.7848673467943
 20
220.8003039834833
 30
0.0
  0
VERTEX
  5
78F
  8
0
  6
CONTINUOUS
 62
     7
 10
-169.1600535674922
 20
220.8807808639291
 30
0.0
  0
VERTEX
  5
790
  8
0
  6
CONTINUOUS
 62
     7
 10
-169.5502342115245
 20
220.90795458098
 30
0.0
  0
SEQEND
  5
82F
  8
0
  6
CONTINUOUS
 62
     7
  0
POLYLINE
  5
204
  8
0
  6
CONTINUOUS
 62
     7
 66
     1
 10
0.0
 20
0.0
 30
0.0
  0
VERTEX
  5
791
  8
0
  6
CONTINUOUS
 62
     7
 10
-329.5502342115244
 20
220.90795458098
 30
0.0
  0
VERTEX
  5
792
  8
0
  6
CONTINUOUS
 62
     7
 10
-329.9404148555567
 20
220.8807808639291
 30
0.0
  0
VERTEX
  5
793
  8
0
  6
CONTINUOUS
 62
     7
 10
-330.3156010762546
 20
220.8003039834833
 30
0.0
  0
VERTEX
  5
794
  8
0
  6
CONTINUOUS
 62
     7
 10
-330.6613746775636
 20
220.6696166210263
 30
0.0
  0
VERTEX
  5
795
  8
0
  6
CONTINUOUS
 62
     7
 10
-330.9644477738976
 20
220.4937410186069
 30
0.0
  0
VERTEX
  5
796
  8
0
  6
CONTINUOUS
 62
     7
 10
-331.2131734361295
 20
220.2794359769941
 30
0.0
  0
VERTEX
  5
797
  8
0
  6
CONTINUOUS
 62
     7
 10
-331.397993276547
 20
220.0349371187531
 30
0.0
  0
VERTEX
  5
798
  8
0
  6
CONTINUOUS
 62
     7
 10
-331.5118047723309
 20
219.7696403978899
 30
0.0
  0
VERTEX
  5
799
  8
0
  6
CONTINUOUS
 62
     7
 10
-331.5502342115245
 20
219.4937410186069
 30
0.0
  0
SEQEND
  5
830
  8
0
  6
CONTINUOUS
 62
     7
  0
LINE
  5
205
  8
0
  6
CONTINUOUS
 62
     7
 10
-169.5502342115245
 20
220.90795458098
 30
0.0
 11
-214.8963024417558
 21
220.90795458098
 31
0.0
  0
LINE
  5
206
  8
0
  6
CONTINUOUS
 62
     7
 10
-284.8963024417558
 20
220.90795458098
 30
0.0
 11
-329.5502342115244
 21
220.90795458098
 31
0.0
  0
LINE
  5
207
  8
0
  6
CONTINUOUS
 62
     7
 10
-167.5502342115245
 20
218.6530303404883
 30
0.0
 11
-167.5502342115245
 21
219.4937410186069
 31
0.0
  0
LINE
  5
208
  8
0
  6
CONTINUOUS
 62
     7
 10
-331.5502342115245
 20
219.4937410186069
 30
0.0
 11
-331.5502342115245
 21
218.6530303404883
 31
0.0
  0
LINE
  5
209
  8
0
  6
CONTINUOUS
 62
     7
 10
-245.6874588054292
 20
232.0296830820452
 30
0.0
 11
-245.6874588054393
 21
231.4592314695209
 31
0.0
  0
LINE
  5
20A
  8
0
  6
CONTINUOUS
 62
     7
 10
-254.2874588054392
 20
231.4592314696774
 30
0.0
 11
-254.2874588054292
 21
232.029683082204
 31
0.0
  0
ENDBLK
  8
0
  0
BLOCK
  8
0
  2
D_FRAME_VIEW_3644
 70
     0
 10
0.0
 20
0.0
 30
0.0
  0
LINE
  5
214
  8
0
  6
CONTINUOUS
 62
     7
 10
-96.06830853550727
 20
235.7365690773987
 30
0.0
 11
-96.06830853550568
 21
223.1000731530149
 31
0.0
  0
LINE
  5
215
  8
0
  6
CONTINUOUS
 62
     7
 10
-96.06830853550568
 20
223.1000731530149
 30
0.0
 11
-94.63889901295613
 21
222.7170640257903
 31
0.0
  0
POLYLINE
  5
216
  8
0
  6
CONTINUOUS
 62
     7
 66
     1
 10
0.0
 20
0.0
 30
0.0
  0
VERTEX
  5
79C
  8
0
  6
CONTINUOUS
 62
     7
 10
-94.26830853550571
 20
222.2341011126433
 30
0.0
  0
VERTEX
  5
79D
  8
0
  6
CONTINUOUS
 62
     7
 10
-94.26878758465193
 20
222.2559449415635
 30
0.0
  0
VERTEX
  5
79E
  8
0
  6
CONTINUOUS
 62
     7
 10
-94.27022016083875
 20
222.2777474611064
 30
0.0
  0
VERTEX
  5
79F
  8
0
  6
CONTINUOUS
 62
     7
 10
-94.27259940718871
 20
222.2994523965472
 30
0.0
  0
VERTEX
  5
7A0
  8
0
  6
CONTINUOUS
 62
     7
 10
-94.27591846682424
 20
222.3210034731622
 30
0.0
  0
VERTEX
  5
7A1
  8
0
  6
CONTINUOUS
 62
     7
 10
-94.28031326583694
 20
222.3429991313245
 30
0.0
  0
VERTEX
  5
7A2
  8
0
  6
CONTINUOUS
 62
     7
 10
-94.28569429773664
 20
222.3647924589669
 30
0.0
  0
VERTEX
  5
7A3
  8
0
  6
CONTINUOUS
 62
     7
 10
-94.29204575277144
 20
222.386324382133
 30
0.0
  0
VERTEX
  5
7A4
  8
0
  6
CONTINUOUS
 62
     7
 10
-94.29935182118942
 20
222.4075358268662
 30
0.0
  0
VERTEX
  5
7A5
  8
0
  6
CONTINUOUS
 62
     7
 10
-94.30736353511973
 20
222.4278226541145
 30
0.0
  0
VERTEX
  5
7A6
  8
0
  6
CONTINUOUS
 62
     7
 10
-94.31626593323006
 20
222.4477702887349
 30
0.0
  0
VERTEX
  5
7A7
  8
0
  6
CONTINUOUS
 62
     7
 10
-94.32603683653237
 20
222.4673264904568
 30
0.0
  0
VERTEX
  5
7A8
  8
0
  6
CONTINUOUS
 62
     7
 10
-94.33665406603875
 20
222.4864390190099
 30
0.0
  0
VERTEX
  5
7A9
  8
0
  6
CONTINUOUS
 62
     7
 10
-94.3484642190471
 20
222.505631530261
 30
0.0
  0
VERTEX
  5
7AA
  8
0
  6
CONTINUOUS
 62
     7
 10
-94.36115687980129
 20
222.5243148445968
 30
0.0
  0
VERTEX
  5
7AB
  8
0
  6
CONTINUOUS
 62
     7
 10
-94.37469878362525
 20
222.5424343554047
 30
0.0
  0
VERTEX
  5
7AC
  8
0
  6
CONTINUOUS
 62
     7
 10
-94.38905666584287
 20
222.5599354560722
 30
0.0
  0
VERTEX
  5
7AD
  8
0
  6
CONTINUOUS
 62
     7
 10
-94.40363416870284
 20
222.5761694646106
 30
0.0
  0
VERTEX
  5
7AE
  8
0
  6
CONTINUOUS
 62
     7
 10
-94.41894919672389
 20
222.5917947968103
 30
0.0
  0
VERTEX
  5
7AF
  8
0
  6
CONTINUOUS
 62
     7
 10
-94.43496307502438
 20
222.6067657926772
 30
0.0
  0
VERTEX
  5
7B0
  8
0
  6
CONTINUOUS
 62
     7
 10
-94.45163712872272
 20
222.6210367922173
 30
0.0
  0
VERTEX
  5
7B1
  8
0
  6
CONTINUOUS
 62
     7
 10
-94.46951811139853
 20
222.6350025385254
 30
0.0
  0
VERTEX
  5
7B2
  8
0
  6
CONTINUOUS
 62
     7
 10
-94.48807635218867
 20
222.6481853923347
 30
0.0
  0
VERTEX
  5
7B3
  8
0
  6
CONTINUOUS
 62
     7
 10
-94.50725835817161
 20
222.6605404250942
 30
0.0
  0
VERTEX
  5
7B4
  8
0
  6
CONTINUOUS
 62
     7
 10
-94.5270106364258
 20
222.6720227082526
 30
0.0
  0
VERTEX
  5
7B5
  8
0
  6
CONTINUOUS
 62
     7
 10
-94.54833508898288
 20
222.6831065933111
 30
0.0
  0
VERTEX
  5
7B6
  8
0
  6
CONTINUOUS
 62
     7
 10
-94.57026362406437
 20
222.6931928940693
 30
0.0
  0
VERTEX
  5
7B7
  8
0
  6
CONTINUOUS
 62
     7
 10
-94.59271877052014
 20
222.7022413840521
 30
0.0
  0
VERTEX
  5
7B8
  8
0
  6
CONTINUOUS
 62
     7
 10
-94.61562305719994
 20
222.710211836784
 30
0.0
  0
VERTEX
  5
7B9
  8
0
  6
CONTINUOUS
 62
     7
 10
-94.63889901295613
 20
222.7170640257903
 30
0.0
  0
SEQEND
  5
831
  8
0
  6
CONTINUOUS
 62
     7
  0
LINE
  5
217
  8
0
  6
CONTINUOUS
 62
     7
 10
-94.26830853550571
 20
222.2341011126433
 30
0.0
 11
-94.26830853550408
 21
202.6320112419795
 31
0.0
  0
LINE
  5
218
  8
0
  6
CONTINUOUS
 62
     7
 10
-80.75779533456887
 20
166.6753069865178
 30
0.0
 11
-86.09820927657167
 21
178.1278616434008
 31
0.0
  0
LINE
  5
219
  8
0
  6
CONTINUOUS
 62
     7
 10
-87.99111677329813
 20
177.4548117037122
 30
0.0
 11
-82.56136393341515
 21
165.8106691620607
 31
0.0
  0
LINE
  5
21A
  8
0
  6
CONTINUOUS
 62
     7
 10
-84.83283085832113
 20
179.6734117180656
 30
0.0
 11
-93.11703200591606
 21
197.4389384099159
 31
0.0
  0
POLYLINE
  5
21B
  8
0
  6
CONTINUOUS
 62
     7
 66
     1
 10
0.0
 20
0.0
 30
0.0
  0
VERTEX
  5
7BA
  8
0
  6
CONTINUOUS
 62
     7
 10
-84.96459094699601
 20
179.0790803656394
 30
0.0
  0
VERTEX
  5
7BB
  8
0
  6
CONTINUOUS
 62
     7
 10
-84.94883503340664
 20
179.0928760456644
 30
0.0
  0
VERTEX
  5
7BC
  8
0
  6
CONTINUOUS
 62
     7
 10
-84.93368609329117
 20
179.1073034928825
 30
0.0
  0
VERTEX
  5
7BD
  8
0
  6
CONTINUOUS
 62
     7
 10
-84.9191805435495
 20
179.1223190712749
 30
0.0
  0
VERTEX
  5
7BE
  8
0
  6
CONTINUOUS
 62
     7
 10
-84.90535480108129
 20
179.1378791448229
 30
0.0
  0
VERTEX
  5
7BF
  8
0
  6
CONTINUOUS
 62
     7
 10
-84.89183504256137
 20
179.1544596783745
 30
0.0
  0
VERTEX
  5
7C0
  8
0
  6
CONTINUOUS
 62
     7
 10
-84.87905276861392
 20
179.1715805259917
 30
0.0
  0
VERTEX
  5
7C1
  8
0
  6
CONTINUOUS
 62
     7
 10
-84.86703682557172
 20
179.1891909174142
 30
0.0
  0
VERTEX
  5
7C2
  8
0
  6
CONTINUOUS
 62
     7
 10
-84.8558160597675
 20
179.2072400823821
 30
0.0
  0
VERTEX
  5
7C3
  8
0
  6
CONTINUOUS
 62
     7
 10
-84.84569471205752
 20
179.2251570080982
 30
0.0
  0
VERTEX
  5
7C4
  8
0
  6
CONTINUOUS
 62
     7
 10
-84.83633014699198
 20
179.2434519299433
 30
0.0
  0
VERTEX
  5
7C5
  8
0
  6
CONTINUOUS
 62
     7
 10
-84.82773965136269
 20
179.2620777191474
 30
0.0
  0
VERTEX
  5
7C6
  8
0
  6
CONTINUOUS
 62
     7
 10
-84.81994051196145
 20
179.2809872469404
 30
0.0
  0
VERTEX
  5
7C7
  8
0
  6
CONTINUOUS
 62
     7
 10
-84.81275878092049
 20
179.3006848547777
 30
0.0
  0
VERTEX
  5
7C8
  8
0
  6
CONTINUOUS
 62
     7
 10
-84.80641471435327
 20
179.320646188722
 30
0.0
  0
VERTEX
  5
7C9
  8
0
  6
CONTINUOUS
 62
     7
 10
-84.80091856313376
 20
179.3408207244713
 30
0.0
  0
VERTEX
  5
7CA
  8
0
  6
CONTINUOUS
 62
     7
 10
-84.79628057813595
 20
179.3611579377237
 30
0.0
  0
VERTEX
  5
7CB
  8
0
  6
CONTINUOUS
 62
     7
 10
-84.79246441217836
 20
179.3818765790517
 30
0.0
  0
VERTEX
  5
7CC
  8
0
  6
CONTINUOUS
 62
     7
 10
-84.78952540297166
 20
179.4027265761677
 30
0.0
  0
VERTEX
  5
7CD
  8
0
  6
CONTINUOUS
 62
     7
 10
-84.78746649214891
 20
179.4236568038309
 30
0.0
  0
VERTEX
  5
7CE
  8
0
  6
CONTINUOUS
 62
     7
 10
-84.7862906213431
 20
179.4446161368004
 30
0.0
  0
VERTEX
  5
7CF
  8
0
  6
CONTINUOUS
 62
     7
 10
-84.78600273743761
 20
179.4661548895871
 30
0.0
  0
VERTEX
  5
7D0
  8
0
  6
CONTINUOUS
 62
     7
 10
-84.78664260181714
 20
179.4876883870781
 30
0.0
  0
VERTEX
  5
7D1
  8
0
  6
CONTINUOUS
 62
     7
 10
-84.78820590070754
 20
179.5091626433998
 30
0.0
  0
VERTEX
  5
7D2
  8
0
  6
CONTINUOUS
 62
     7
 10
-84.79068832033471
 20
179.530523672679
 30
0.0
  0
VERTEX
  5
7D3
  8
0
  6
CONTINUOUS
 62
     7
 10
-84.794707568056
 20
179.5550484570726
 30
0.0
  0
VERTEX
  5
7D4
  8
0
  6
CONTINUOUS
 62
     7
 10
-84.79995794642714
 20
179.5793969486156
 30
0.0
  0
VERTEX
  5
7D5
  8
0
  6
CONTINUOUS
 62
     7
 10
-84.80641746004366
 20
179.6034883338972
 30
0.0
  0
VERTEX
  5
7D6
  8
0
  6
CONTINUOUS
 62
     7
 10
-84.81406411350113
 20
179.6272417995065
 30
0.0
  0
VERTEX
  5
7D7
  8
0
  6
CONTINUOUS
 62
     7
 10
-84.8228759113951
 20
179.650576532033
 30
0.0
  0
VERTEX
  5
7D8
  8
0
  6
CONTINUOUS
 62
     7
 10
-84.83283085832113
 20
179.6734117180656
 30
0.0
  0
SEQEND
  5
832
  8
0
  6
CONTINUOUS
 62
     7
  0
LINE
  5
21C
  8
0
  6
CONTINUOUS
 62
     7
 10
-86.09820927657167
 20
178.1278616434008
 30
0.0
 11
-84.96459094699601
 21
179.0790803656394
 31
0.0
  0
LINE
  5
21D
  8
0
  6
CONTINUOUS
 62
     7
 10
-94.21177351698483
 20
202.0934454897068
 30
0.0
 11
-94.26830853550405
 21
202.3243974548373
 31
0.0
  0
ARC
  5
21E
  8
0
  6
CONTINUOUS
 62
     7
 10
-101.4772018765206
 20
198.3096857177702
 30
0.0
 40
8.19165961568668
 50
12.49757954626648
 51
27.51003304135599
  0
LINE
  5
21F
  8
0
  6
CONTINUOUS
 62
     7
 10
-94.26830853550405
 20
202.6320112419795
 30
0.0
 11
-94.26830853550405
 21
202.3243974548373
 31
0.0
  0
ARC
  5
220
  8
0
  6
CONTINUOUS
 62
     7
 10
-101.4772018765058
 20
198.3096857177736
 30
0.0
 40
8.19165961567154
 50
357.4899669586372
 51
12.4975795453563
  0
LINE
  5
221
  8
0
  6
CONTINUOUS
 62
     7
 10
-93.24703520993339
 20
197.7177311806198
 30
0.0
 11
-93.29340160045659
 21
197.9509374762997
 31
0.0
  0
LINE
  5
222
  8
0
  6
CONTINUOUS
 62
     7
 10
-93.24703520993339
 20
197.7177311806198
 30
0.0
 11
-93.11703200591606
 21
197.4389384099159
 31
0.0
  0
ARC
  5
223
  8
0
  6
CONTINUOUS
 62
     7
 10
-98.33575738917143
 20
199.0030987281641
 30
0.0
 40
4.108347625576375
 50
12.54123439506376
 51
31.51120331513022
  0
ARC
  5
224
  8
0
  6
CONTINUOUS
 62
     7
 10
-98.33703727386658
 20
199.0088719155226
 30
0.0
 40
4.108347625450745
 50
353.4887966845843
 51
12.45876560504513
  0
LINE
  5
225
  8
0
  6
CONTINUOUS
 62
     7
 10
-96.16696845375272
 20
209.5579471872938
 30
0.0
 11
-95.66999094814679
 21
209.6726834850055
 31
0.0
  0
LINE
  5
226
  8
0
  6
CONTINUOUS
 62
     7
 10
-91.41187102662899
 20
190.4655457454085
 30
0.0
 11
-91.91077526465483
 21
190.3595003760086
 31
0.0
  0
ARC
  5
227
  8
0
  6
CONTINUOUS
 62
     7
 10
-95.76830853550469
 20
210.1631371353693
 30
0.0
 40
0.5000000000000091
 50
283.0000000000039
 51
0.0000000000034106
  0
ARC
  5
228
  8
0
  6
CONTINUOUS
 62
     7
 10
-91.2937023524798
 20
189.9794929750666
 30
0.0
 40
0.4999999999999953
 50
24.99999999999858
 51
102.0000000000029
  0
LINE
  5
229
  8
0
  6
CONTINUOUS
 62
     7
 10
-95.26830853550474
 20
210.1631371353693
 30
0.0
 11
-95.26830853550558
 21
219.5769285019433
 31
0.0
  0
LINE
  5
22A
  8
0
  6
CONTINUOUS
 62
     7
 10
-95.26830853550561
 20
219.9793346526983
 30
0.0
 11
-95.26830853550567
 21
220.4314979442761
 31
0.0
  0
LINE
  5
22B
  8
0
  6
CONTINUOUS
 62
     7
 10
-90.84054845896152
 20
190.1908021059369
 30
0.0
 11
-86.50095166299074
 21
180.8845067447958
 31
0.0
  0
ARC
  5
22C
  8
0
  6
CONTINUOUS
 62
     7
 10
-101.4772018765269
 20
198.3096857178226
 30
0.0
 40
7.191659615693792
 50
26.07275466755462
 51
45.31445294629597
  0
LINE
  5
22D
  8
0
  6
CONTINUOUS
 62
     7
 10
-94.83288076846108
 20
201.1505655575798
 30
0.0
 11
-95.01738945970217
 21
201.4705070616251
 31
0.0
  0
ARC
  5
22E
  8
0
  6
CONTINUOUS
 62
     7
 10
-101.4772018764944
 20
198.3096857178292
 30
0.0
 40
7.191659615659931
 50
339.6855470536425
 51
358.9272453324451
  0
LINE
  5
22F
  8
0
  6
CONTINUOUS
 62
     7
 10
-94.25479421702182
 20
198.5429856341509
 30
0.0
 11
-94.28680275837326
 21
198.1750434152794
 31
0.0
  0
LINE
  5
230
  8
0
  6
CONTINUOUS
 62
     7
 10
-96.5683085355043
 20
203.7799698601459
 30
0.0
 11
-96.5683085355043
 21
203.8317101783815
 31
0.0
  0
LINE
  5
231
  8
0
  6
CONTINUOUS
 62
     7
 10
-96.5683085355043
 20
203.8317101783815
 30
0.0
 11
-96.56830853550468
 21
209.0675725702617
 31
0.0
  0
LINE
  5
232
  8
0
  6
CONTINUOUS
 62
     7
 10
-94.71639164037099
 20
195.4265125731953
 30
0.0
 11
-94.69452523701626
 21
195.3796199198745
 31
0.0
  0
LINE
  5
233
  8
0
  6
CONTINUOUS
 62
     7
 10
-94.69452523701626
 20
195.3796199198745
 30
0.0
 11
-92.48175417424959
 21
190.6343170622769
 31
0.0
  0
LINE
  5
234
  8
0
  6
CONTINUOUS
 62
     7
 10
-88.55939764633766
 20
178.6734939687547
 30
0.0
 11
-87.99111677329813
 21
177.4548117037122
 31
0.0
  0
LINE
  5
235
  8
0
  6
CONTINUOUS
 62
     7
 10
-86.61694557543096
 20
180.303404785025
 30
0.0
 11
-88.55939764633766
 21
178.6734939687547
 31
0.0
  0
LINE
  5
236
  8
0
  6
CONTINUOUS
 62
     7
 10
-95.61901902172961
 20
220.9091340298218
 30
0.0
 11
-98.06830853550552
 21
221.5654191770751
 31
0.0
  0
ARC
  5
237
  8
0
  6
CONTINUOUS
 62
     7
 10
-96.06830853550433
 20
203.778277901295
 30
0.0
 40
0.5000000000000004
 50
180.0000000000082
 51
225.3144529463441
  0
ARC
  5
238
  8
0
  6
CONTINUOUS
 62
     7
 10
-94.26395279956151
 20
195.6393551395488
 30
0.0
 40
0.5000000000000069
 50
159.6855470536636
 51
205.0000000000057
  0
ARC
  5
239
  8
0
  6
CONTINUOUS
 62
     7
 10
-96.06830853550474
 20
209.0675725702617
 30
0.0
 40
0.5000000000000091
 50
103.000000000004
 51
180.0000000000041
  0
LINE
  5
23A
  8
0
  6
CONTINUOUS
 62
     7
 10
-96.1807840626767
 20
209.5547576026543
 30
0.0
 11
-96.16696845375272
 21
209.5579471872938
 31
0.0
  0
ARC
  5
23B
  8
0
  6
CONTINUOUS
 62
     7
 10
-92.02860028073131
 20
190.8456261931473
 30
0.0
 40
0.5000000000000188
 50
205.0000000000037
 51
282.0000000000038
  0
LINE
  5
23C
  8
0
  6
CONTINUOUS
 62
     7
 10
-91.91077526465483
 20
190.3595003760086
 30
0.0
 11
-91.92464443532242
 21
190.3565523927804
 31
0.0
  0
ARC
  5
23D
  8
0
  6
CONTINUOUS
 62
     7
 10
-95.76830853550561
 20
220.4314979442802
 30
0.0
 40
0.5000000000000004
 50
359.9999999995396
 51
74.99999999988381
  0
ARC
  5
23E
  8
0
  6
CONTINUOUS
 62
     7
 10
-86.95410555650898
 20
180.6731976139255
 30
0.0
 40
0.4999999999999956
 50
310.0000000000039
 51
25.00000000000256
  0
LINE
  5
23F
  8
0
  6
CONTINUOUS
 62
     7
 10
-95.66705730477368
 20
200.8794470264505
 30
0.0
 11
-94.88941657928049
 21
201.242066852035
 31
0.0
  0
LINE
  5
240
  8
0
  6
CONTINUOUS
 62
     9
 10
-95.62404530492235
 20
200.3478148919179
 30
0.0
 11
-96.33340508278643
 21
200.0170349951127
 31
0.0
  0
LINE
  5
241
  8
0
  6
CONTINUOUS
 62
     9
 10
-96.33340508278648
 20
200.0170349951126
 30
0.0
 11
-96.35968204442908
 21
200.0047818466657
 31
0.0
  0
LINE
  5
242
  8
0
  6
CONTINUOUS
 62
     7
 10
-96.26978474422124
 20
200.5983906056813
 30
0.0
 11
-95.66705730478337
 21
200.8794470264714
 31
0.0
  0
LINE
  5
243
  8
0
  6
CONTINUOUS
 62
     7
 10
-96.0878293389328
 20
198.367570208918
 30
0.0
 11
-96.5679779290196
 21
199.3972521832318
 31
0.0
  0
LINE
  5
244
  8
0
  6
CONTINUOUS
 62
     7
 10
-95.33659419166764
 20
198.1328226056208
 30
0.0
 11
-95.52479917187573
 21
198.0910985660258
 31
0.0
  0
LINE
  5
245
  8
0
  6
CONTINUOUS
 62
     7
 10
-95.52479917187573
 20
198.0910985660258
 30
0.0
 11
-95.52645563844419
 21
198.0907313362287
 31
0.0
  0
ARC
  5
246
  8
0
  6
CONTINUOUS
 62
     7
 10
-95.63467544541454
 20
198.5788793397884
 30
0.0
 40
0.5000000000000053
 50
205.0000000000039
 51
243.7336980695839
  0
LINE
  5
247
  8
0
  6
CONTINUOUS
 62
     7
 10
-94.61823583148116
 20
198.2920788199391
 30
0.0
 11
-95.33659419166764
 21
198.1328226056208
 31
0.0
  0
LINE
  5
248
  8
0
  6
CONTINUOUS
 62
     7
 10
-85.99973362952666
 20
168.451873604319
 30
0.0
 11
-85.78329401558524
 21
167.9877173543493
 31
0.0
  0
LINE
  5
249
  8
0
  6
CONTINUOUS
 62
     7
 10
-83.99973362952703
 20
168.8952629296054
 30
0.0
 11
-85.99973362952686
 21
168.4518736043194
 31
0.0
  0
LINE
  5
24A
  8
0
  6
CONTINUOUS
 62
     7
 10
-85.28329401558867
 20
167.586424928512
 30
0.0
 11
-85.68960180262536
 21
167.78679375525
 31
0.0
  0
LINE
  5
24B
  8
0
  6
CONTINUOUS
 62
     7
 10
-85.68960180262536
 20
167.78679375525
 30
0.0
 11
-85.7832940155887
 21
167.9877173543477
 31
0.0
  0
LINE
  5
24C
  8
0
  6
CONTINUOUS
 62
     7
 10
-84.56685440165069
 20
167.23311600988
 30
0.0
 11
-83.35041478771268
 21
167.5027941797175
 31
0.0
  0
LINE
  5
24D
  8
0
  6
CONTINUOUS
 62
     7
 10
-85.28329401558507
 20
167.5864249285193
 30
0.0
 11
-84.56685440165128
 21
167.2331160098802
 31
0.0
  0
LINE
  5
24E
  8
0
  6
CONTINUOUS
 62
     7
 10
-98.06830853550727
 20
236.0654191772044
 30
0.0
 11
-96.06830853550738
 21
236.0654191771969
 31
0.0
  0
LINE
  5
24F
  8
0
  6
CONTINUOUS
 62
     7
 10
-96.06830853550738
 20
236.0654191771969
 30
0.0
 11
-96.0683085355073
 21
235.8724392743636
 31
0.0
  0
LINE
  5
250
  8
0
  6
CONTINUOUS
 62
     7
 10
-96.0683085355073
 20
235.8724392743636
 30
0.0
 11
-96.06830853550727
 21
235.7365690773954
 31
0.0
  0
LINE
  5
251
  8
0
  6
CONTINUOUS
 62
     7
 10
-82.43143285109795
 20
165.5320310568555
 30
0.0
 11
-80.61881727702477
 21
166.3772675803291
 31
0.0
  0
LINE
  5
252
  8
0
  6
CONTINUOUS
 62
     7
 10
-80.6188172770248
 20
166.3772675803292
 30
0.0
 11
-80.70037410830075
 21
166.5521667694045
 31
0.0
  0
LINE
  5
253
  8
0
  6
CONTINUOUS
 62
     7
 10
-80.70037410830075
 20
166.5521667694045
 30
0.0
 11
-80.75779533457029
 21
166.6753069865209
 31
0.0
  0
LINE
  5
254
  8
0
  6
CONTINUOUS
 62
     7
 10
-82.56136393341649
 20
165.8106691620636
 30
0.0
 11
-82.51391507603995
 21
165.7089147590517
 31
0.0
  0
LINE
  5
255
  8
0
  6
CONTINUOUS
 62
     7
 10
-82.51391507603995
 20
165.7089147590517
 30
0.0
 11
-82.43143285109794
 21
165.5320310568554
 31
0.0
  0
POLYLINE
  5
256
  8
0
  6
CONTINUOUS
 62
     7
 66
     1
 10
0.0
 20
0.0
 30
0.0
  0
VERTEX
  5
7D9
  8
0
  6
CONTINUOUS
 62
     7
 10
-85.1141999731942
 20
171.2852437163019
 30
0.0
  0
VERTEX
  5
7DA
  8
0
  6
CONTINUOUS
 62
     7
 10
-85.12240650581275
 20
171.3013465062091
 30
0.0
  0
VERTEX
  5
7DB
  8
0
  6
CONTINUOUS
 62
     7
 10
-85.13179766212262
 20
171.3170011618431
 30
0.0
  0
VERTEX
  5
7DC
  8
0
  6
CONTINUOUS
 62
     7
 10
-85.14234968958539
 20
171.332168088739
 30
0.0
  0
VERTEX
  5
7DD
  8
0
  6
CONTINUOUS
 62
     7
 10
-85.1540358995347
 20
171.3468089260175
 30
0.0
  0
VERTEX
  5
7DE
  8
0
  6
CONTINUOUS
 62
     7
 10
-85.16682673467837
 20
171.3608866434089
 30
0.0
  0
VERTEX
  5
7DF
  8
0
  6
CONTINUOUS
 62
     7
 10
-85.18068984385613
 20
171.374365634912
 30
0.0
  0
VERTEX
  5
7E0
  8
0
  6
CONTINUOUS
 62
     7
 10
-85.19559016386357
 20
171.3872118088503
 30
0.0
  0
VERTEX
  5
7E1
  8
0
  6
CONTINUOUS
 62
     7
 10
-85.21149000813561
 20
171.3993926740981
 30
0.0
  0
VERTEX
  5
7E2
  8
0
  6
CONTINUOUS
 62
     7
 10
-85.22834916206511
 20
171.4108774222586
 30
0.0
  0
VERTEX
  5
7E3
  8
0
  6
CONTINUOUS
 62
     7
 10
-85.2461249847154
 20
171.4216370055859
 30
0.0
  0
VERTEX
  5
7E4
  8
0
  6
CONTINUOUS
 62
     7
 10
-85.26477251666972
 20
171.4316442104541
 30
0.0
  0
VERTEX
  5
7E5
  8
0
  6
CONTINUOUS
 62
     7
 10
-85.28424459374462
 20
171.4408737261867
 30
0.0
  0
VERTEX
  5
7E6
  8
0
  6
CONTINUOUS
 62
     7
 10
-85.30449196627973
 20
171.4493022090739
 30
0.0
  0
VERTEX
  5
7E7
  8
0
  6
CONTINUOUS
 62
     7
 10
-85.32546342370226
 20
171.4569083414147
 30
0.0
  0
VERTEX
  5
7E8
  8
0
  6
CONTINUOUS
 62
     7
 10
-85.34710592405106
 20
171.4636728854342
 30
0.0
  0
VERTEX
  5
7E9
  8
0
  6
CONTINUOUS
 62
     7
 10
-85.36936472813281
 20
171.4695787319409
 30
0.0
  0
VERTEX
  5
7EA
  8
0
  6
CONTINUOUS
 62
     7
 10
-85.3921835379708
 20
171.4746109436
 30
0.0
  0
VERTEX
  5
7EB
  8
0
  6
CONTINUOUS
 62
     7
 10
-85.4155046391964
 20
171.4787567927135
 30
0.0
  0
VERTEX
  5
7EC
  8
0
  6
CONTINUOUS
 62
     7
 10
-85.43926904702283
 20
171.482005793412
 30
0.0
  0
VERTEX
  5
7ED
  8
0
  6
CONTINUOUS
 62
     7
 10
-85.46341665543211
 20
171.4843497281754
 30
0.0
  0
VERTEX
  5
7EE
  8
0
  6
CONTINUOUS
 62
     7
 10
-85.48788638919802
 20
171.4857826686177
 30
0.0
  0
VERTEX
  5
7EF
  8
0
  6
CONTINUOUS
 62
     7
 10
-85.51261635836025
 20
171.4863009904809
 30
0.0
  0
VERTEX
  5
7F0
  8
0
  6
CONTINUOUS
 62
     7
 10
-85.53754401475929
 20
171.4859033828019
 30
0.0
  0
VERTEX
  5
7F1
  8
0
  6
CONTINUOUS
 62
     7
 10
-85.5626063102362
 20
171.4845908512281
 30
0.0
  0
VERTEX
  5
7F2
  8
0
  6
CONTINUOUS
 62
     7
 10
-85.58773985609672
 20
171.4823667154737
 30
0.0
  0
VERTEX
  5
7F3
  8
0
  6
CONTINUOUS
 62
     7
 10
-85.61288108343685
 20
171.4792366009239
 30
0.0
  0
VERTEX
  5
7F4
  8
0
  6
CONTINUOUS
 62
     7
 10
-85.63796640392431
 20
171.4752084244063
 30
0.0
  0
VERTEX
  5
7F5
  8
0
  6
CONTINUOUS
 62
     7
 10
-85.66293237062892
 20
171.4702923741676
 30
0.0
  0
SEQEND
  5
833
  8
0
  6
CONTINUOUS
 62
     7
  0
LINE
  5
257
  8
0
  6
CONTINUOUS
 62
     7
 10
-85.66293237062894
 20
171.4702923741677
 30
0.0
 11
-89.43392901290903
 21
170.6586630788579
 31
0.0
  0
ARC
  5
258
  8
0
  6
CONTINUOUS
 62
     7
 10
-86.27952405704757
 20
170.2545750014503
 30
0.0
 40
3.180182038793771
 50
150.5179709338478
 51
172.7000092386711
  0
LINE
  5
259
  8
0
  6
CONTINUOUS
 62
     7
 10
-88.5095847402925
 20
171.9413054143347
 30
0.0
 11
-89.04986129844397
 21
171.8215289850413
 31
0.0
  0
LINE
  5
25A
  8
0
  6
CONTINUOUS
 62
     7
 10
-88.26993598405225
 20
171.4273769980763
 30
0.0
 11
-88.5095847402925
 21
171.9413054143347
 31
0.0
  0
LINE
  5
25B
  8
0
  6
CONTINUOUS
 62
     7
 10
-85.46993598409935
 20
172.0481220534663
 30
0.0
 11
-88.26993598405225
 21
171.4273769980763
 31
0.0
  0
LINE
  5
25C
  8
0
  6
CONTINUOUS
 62
     7
 10
-101.4081087841003
 20
227.5682349104353
 30
0.0
 11
-101.4081720216112
 21
227.570579922309
 31
0.0
  0
LINE
  5
25D
  8
0
  6
CONTINUOUS
 62
     7
 10
-101.4081720216112
 20
227.570579922309
 30
0.0
 11
-101.408330000897
 21
227.5733502813052
 31
0.0
  0
LINE
  5
25E
  8
0
  6
CONTINUOUS
 62
     7
 10
-89.87735496357449
 20
170.1420949575279
 30
0.0
 11
-89.84570205727768
 21
170.0742150809076
 31
0.0
  0
LINE
  5
25F
  8
0
  6
CONTINUOUS
 62
     7
 10
-88.39494018224508
 20
167.6319425666526
 30
0.0
 11
-88.7760756361893
 21
167.780454388102
 31
0.0
  0
LINE
  5
260
  8
0
  6
CONTINUOUS
 62
     7
 10
-89.04938506806705
 20
171.821634750132
 30
0.0
 11
-89.04845133587291
 21
171.8194827222827
 31
0.0
  0
LINE
  5
261
  8
0
  6
CONTINUOUS
 62
     7
 10
-89.04845133587291
 20
171.8194827222827
 30
0.0
 11
-89.04742370942742
 21
171.8169051594237
 31
0.0
  0
LINE
  5
262
  8
0
  6
CONTINUOUS
 62
     7
 10
-89.84566739194877
 20
170.0742056749608
 30
0.0
 11
-89.43403986565959
 21
170.6586968431043
 31
0.0
  0
LINE
  5
263
  8
0
  6
CONTINUOUS
 62
     7
 10
-85.87073495364456
 20
168.1752350514747
 30
0.0
 11
-88.39493046483796
 21
167.6319539991916
 31
0.0
  0
LINE
  5
264
  8
0
  6
CONTINUOUS
 62
     7
 10
-89.8457020572777
 20
170.0742150809077
 30
0.0
 11
-88.77609407418865
 21
167.7804333589856
 31
0.0
  0
ARC
  5
265
  8
0
  6
CONTINUOUS
 62
     7
 10
-101.4772018765105
 20
198.3096857180357
 30
0.0
 40
8.19165961567537
 50
9.788978336797868
 51
12.5047386275275
  0
POLYLINE
  5
266
  8
0
  6
CONTINUOUS
 62
     7
 10
0.0
 20
0.0
 30
0.0
 66
     1
 70
     9
  0
VERTEX
  5
267
  8
0
  6
CONTINUOUS
 62
     7
 10
-89.95637368183975
 20
187.5848227027918
 30
0.0
 70
    32
  0
VERTEX
  5
268
  8
0
  6
CONTINUOUS
 62
     7
 10
-89.95637368183978
 20
187.5848227027952
 30
0.0
 70
    32
  0
VERTEX
  5
269
  8
0
  6
CONTINUOUS
 62
     7
 10
-89.95637368183986
 20
187.5848227028085
 30
0.0
 70
    32
  0
VERTEX
  5
26A
  8
0
  6
CONTINUOUS
 62
     7
 10
-89.95637368183986
 20
187.5848227028093
 30
0.0
 70
    32
  0
SEQEND
  5
26B
  8
0
  6
CONTINUOUS
 62
     7
  0
LINE
  5
26C
  8
0
  6
CONTINUOUS
 62
     7
 10
-95.2683085355068
 20
201.0653866312364
 30
0.0
 11
-95.26830853550686
 21
201.9374010742038
 31
0.0
  0
LINE
  5
26D
  8
0
  6
CONTINUOUS
 62
     7
 10
-96.56830853550674
 20
198.9361642329258
 30
0.0
 11
-96.56830853550677
 21
199.3962879143117
 31
0.0
  0
ARC
  5
26E
  8
0
  6
CONTINUOUS
 62
     7
 10
-96.0683085355068
 20
198.9361642329258
 30
0.0
 40
0.5000000000000067
 50
180.0000000000039
 51
263.9370080005877
  0
ARC
  5
26F
  8
0
  6
PHANTOM
 62
     4
 10
-129.8183085355062
 20
175.537954580977
 30
0.0
 40
2.250000000000002
 50
90.0
 51
270.0
  0
LINE
  5
270
  8
0
  6
PHANTOM
 62
     4
 10
-129.8183085355062
 20
173.287954580977
 30
0.0
 11
-126.5683085355062
 21
173.287954580977
 31
0.0
  0
LINE
  5
271
  8
0
  6
PHANTOM
 62
     4
 10
-126.5683085355062
 20
173.287954580977
 30
0.0
 11
-126.5683085355062
 21
177.787954580977
 31
0.0
  0
LINE
  5
272
  8
0
  6
PHANTOM
 62
     4
 10
-126.5683085355062
 20
177.787954580977
 30
0.0
 11
-129.8183085355062
 21
177.787954580977
 31
0.0
  0
ARC
  5
273
  8
0
  6
PHANTOM
 62
     4
 10
-129.8183085355062
 20
225.537954580977
 30
0.0
 40
2.250000000000002
 50
90.0
 51
270.0
  0
LINE
  5
274
  8
0
  6
PHANTOM
 62
     4
 10
-129.8183085355062
 20
223.287954580977
 30
0.0
 11
-126.5683085355062
 21
223.287954580977
 31
0.0
  0
LINE
  5
275
  8
0
  6
PHANTOM
 62
     4
 10
-126.5683085355062
 20
223.287954580977
 30
0.0
 11
-126.5683085355062
 21
227.787954580977
 31
0.0
  0
LINE
  5
276
  8
0
  6
PHANTOM
 62
     4
 10
-126.5683085355062
 20
227.787954580977
 30
0.0
 11
-129.8183085355062
 21
227.787954580977
 31
0.0
  0
LINE
  5
277
  8
0
  6
PHANTOM
 62
     4
 10
-123.0683085355062
 20
240.537954580977
 30
0.0
 11
-123.0683085355062
 21
240.737954580977
 31
0.0
  0
ARC
  5
278
  8
0
  6
PHANTOM
 62
     4
 10
-122.5683085355062
 20
240.737954580977
 30
0.0
 40
0.5000000000000004
 50
90.0
 51
180.0000000000008
  0
ARC
  5
279
  8
0
  6
PHANTOM
 62
     4
 10
-122.5683085355062
 20
240.737954580977
 30
0.0
 40
0.5000000000000004
 50
359.9999999999993
 51
90.0
  0
LINE
  5
27A
  8
0
  6
PHANTOM
 62
     4
 10
-122.0683085355062
 20
240.537954580977
 30
0.0
 11
-122.0683085355062
 21
240.737954580977
 31
0.0
  0
LINE
  5
27B
  8
0
  6
PHANTOM
 62
     4
 10
-122.0683085355062
 20
240.537954580977
 30
0.0
 11
-99.06830853550619
 21
240.537954580977
 31
0.0
  0
LINE
  5
27C
  8
0
  6
PHANTOM
 62
     4
 10
-99.06830853550619
 20
238.2997606146998
 30
0.0
 11
-129.0683085355062
 21
238.037954580977
 31
0.0
  0
LINE
  5
27D
  8
0
  6
PHANTOM
 62
     4
 10
-129.0683085355062
 20
238.037954580977
 30
0.0
 11
-129.0683085355062
 21
230.037954580977
 31
0.0
  0
LINE
  5
27E
  8
0
  6
PHANTOM
 62
     4
 10
-129.0683085355062
 20
230.037954580977
 30
0.0
 11
-99.06830853550619
 21
229.7761485472543
 31
0.0
  0
LINE
  5
27F
  8
0
  6
PHANTOM
 62
     4
 10
-99.06830853550619
 20
227.756126275746
 30
0.0
 11
-122.0857616065029
 21
227.5552560059154
 31
0.0
  0
ARC
  5
280
  8
0
  6
PHANTOM
 62
     4
 10
-122.0683085355062
 20
225.5553321597871
 30
0.0
 40
2.000000000000002
 50
90.50000000000011
 51
180.0
  0
LINE
  5
281
  8
0
  6
PHANTOM
 62
     4
 10
-124.0683085355062
 20
225.5553321597871
 30
0.0
 11
-124.0683085355062
 21
225.520577002167
 31
0.0
  0
ARC
  5
282
  8
0
  6
PHANTOM
 62
     4
 10
-122.0683085355062
 20
225.520577002167
 30
0.0
 40
2.000000000000006
 50
180.0
 51
269.4999999999999
  0
LINE
  5
283
  8
0
  6
PHANTOM
 62
     4
 10
-99.06830853550619
 20
223.3197828862081
 30
0.0
 11
-122.0857616065029
 21
223.5206531560386
 31
0.0
  0
LINE
  5
284
  8
0
  6
PHANTOM
 62
     4
 10
-99.06830853550619
 20
220.7997606146998
 30
0.0
 11
-129.0683085355062
 21
220.537954580977
 31
0.0
  0
LINE
  5
285
  8
0
  6
PHANTOM
 62
     4
 10
-129.0683085355062
 20
220.537954580977
 30
0.0
 11
-129.0683085355062
 21
205.537954580977
 31
0.0
  0
LINE
  5
286
  8
0
  6
PHANTOM
 62
     4
 10
-129.0683085355062
 20
205.537954580977
 30
0.0
 11
-125.0683085355062
 21
205.503047109814
 31
0.0
  0
LINE
  5
287
  8
0
  6
PHANTOM
 62
     4
 10
-125.0683085355062
 20
195.5728620521401
 30
0.0
 11
-129.0683085355062
 21
195.537954580977
 31
0.0
  0
LINE
  5
288
  8
0
  6
PHANTOM
 62
     4
 10
-129.0683085355062
 20
195.537954580977
 30
0.0
 11
-129.0683085355062
 21
180.537954580977
 31
0.0
  0
LINE
  5
289
  8
0
  6
PHANTOM
 62
     4
 10
-129.0683085355062
 20
180.537954580977
 30
0.0
 11
-99.06830853550619
 21
180.2761485472543
 31
0.0
  0
LINE
  5
28A
  8
0
  6
PHANTOM
 62
     4
 10
-99.06830853550619
 20
177.756126275746
 30
0.0
 11
-122.0857616065029
 21
177.5552560059154
 31
0.0
  0
ARC
  5
28B
  8
0
  6
PHANTOM
 62
     4
 10
-122.0683085355062
 20
175.5553321597871
 30
0.0
 40
2.000000000000002
 50
90.50000000000016
 51
180.0
  0
LINE
  5
28C
  8
0
  6
PHANTOM
 62
     4
 10
-124.0683085355062
 20
175.520577002167
 30
0.0
 11
-124.0683085355062
 21
175.5553321597871
 31
0.0
  0
ARC
  5
28D
  8
0
  6
PHANTOM
 62
     4
 10
-122.0683085355062
 20
175.520577002167
 30
0.0
 40
2.000000000000006
 50
180.0
 51
269.4999999999999
  0
LINE
  5
28E
  8
0
  6
PHANTOM
 62
     4
 10
-99.06830853550619
 20
173.3197828862081
 30
0.0
 11
-122.0857616065029
 21
173.5206531560386
 31
0.0
  0
LINE
  5
28F
  8
0
  6
PHANTOM
 62
     4
 10
-129.0683085355062
 20
171.037954580977
 30
0.0
 11
-99.06830853550619
 21
171.2997606146998
 31
0.0
  0
LINE
  5
290
  8
0
  6
PHANTOM
 62
     4
 10
-129.0683085355062
 20
163.037954580977
 30
0.0
 11
-129.0683085355062
 21
171.037954580977
 31
0.0
  0
LINE
  5
291
  8
0
  6
PHANTOM
 62
     4
 10
-99.06830853550619
 20
162.7761485472543
 30
0.0
 11
-129.0683085355062
 21
163.037954580977
 31
0.0
  0
LINE
  5
292
  8
0
  6
PHANTOM
 62
     4
 10
-122.0683085355062
 20
160.537954580977
 30
0.0
 11
-99.06830853550619
 21
160.537954580977
 31
0.0
  0
LINE
  5
293
  8
0
  6
PHANTOM
 62
     4
 10
-122.0683085355062
 20
160.537954580977
 30
0.0
 11
-122.0683085355062
 21
160.3379545809771
 31
0.0
  0
ARC
  5
294
  8
0
  6
PHANTOM
 62
     4
 10
-122.5683085355062
 20
160.3379545809771
 30
0.0
 40
0.5000000000000004
 50
270.0
 51
0.0
  0
ARC
  5
295
  8
0
  6
PHANTOM
 62
     4
 10
-122.5683085355062
 20
160.3379545809771
 30
0.0
 40
0.5000000000000004
 50
180.0
 51
270.0
  0
LINE
  5
296
  8
0
  6
PHANTOM
 62
     4
 10
-123.0683085355062
 20
160.537954580977
 30
0.0
 11
-123.0683085355062
 21
160.3379545809771
 31
0.0
  0
LINE
  5
297
  8
0
  6
PHANTOM
 62
     4
 10
-131.5683085355062
 20
160.537954580977
 30
0.0
 11
-123.0683085355062
 21
160.537954580977
 31
0.0
  0
LINE
  5
298
  8
0
  6
PHANTOM
 62
     4
 10
-131.5683085355062
 20
152.537954580977
 30
0.0
 11
-131.5683085355062
 21
160.537954580977
 31
0.0
  0
LINE
  5
299
  8
0
  6
PHANTOM
 62
     4
 10
-134.0683085355062
 20
200.537954580977
 30
0.0
 11
-134.0683085355062
 21
152.537954580977
 31
0.0
  0
LINE
  5
29A
  8
0
  6
PHANTOM
 62
     4
 10
-134.0683085355062
 20
248.537954580977
 30
0.0
 11
-134.0683085355062
 21
200.537954580977
 31
0.0
  0
LINE
  5
29B
  8
0
  6
PHANTOM
 62
     4
 10
-126.5683085355062
 20
198.287954580977
 30
0.0
 11
-126.5683085355062
 21
202.787954580977
 31
0.0
  0
LINE
  5
29C
  8
0
  6
PHANTOM
 62
     4
 10
-126.5683085355062
 20
202.787954580977
 30
0.0
 11
-129.8183085355062
 21
202.787954580977
 31
0.0
  0
ARC
  5
29D
  8
0
  6
PHANTOM
 62
     4
 10
-129.8183085355062
 20
200.537954580977
 30
0.0
 40
2.250000000000002
 50
90.0
 51
270.0
  0
LINE
  5
29E
  8
0
  6
PHANTOM
 62
     4
 10
-129.8183085355062
 20
198.287954580977
 30
0.0
 11
-126.5683085355062
 21
198.287954580977
 31
0.0
  0
LINE
  5
29F
  8
0
  6
PHANTOM
 62
     4
 10
-131.5683085355062
 20
248.537954580977
 30
0.0
 11
-131.5683085355062
 21
240.537954580977
 31
0.0
  0
LINE
  5
2A0
  8
0
  6
PHANTOM
 62
     4
 10
-131.5683085355062
 20
240.537954580977
 30
0.0
 11
-123.0683085355062
 21
240.537954580977
 31
0.0
  0
LINE
  5
2A1
  8
0
  6
PHANTOM
 62
     4
 10
-134.0683085355062
 20
253.537954580977
 30
0.0
 11
-131.5683085355062
 21
253.537954580977
 31
0.0
  0
LINE
  5
2A2
  8
0
  6
PHANTOM
 62
     4
 10
-134.0683085355062
 20
248.537954580977
 30
0.0
 11
-134.0683085355062
 21
253.537954580977
 31
0.0
  0
LINE
  5
2A3
  8
0
  6
PHANTOM
 62
     4
 10
-131.5683085355062
 20
253.537954580977
 30
0.0
 11
-131.5683085355062
 21
248.537954580977
 31
0.0
  0
LINE
  5
2A4
  8
0
  6
PHANTOM
 62
     4
 10
-98.06830853550619
 20
162.7674216794635
 30
0.0
 11
-98.06830853550619
 21
160.537954580977
 31
0.0
  0
LINE
  5
2A5
  8
0
  6
PHANTOM
 62
     4
 10
-98.06830853550619
 20
160.537954580977
 30
0.0
 11
-99.06830853550619
 21
160.537954580977
 31
0.0
  0
LINE
  5
2A6
  8
0
  6
PHANTOM
 62
     4
 10
-99.06830853550619
 20
162.7761485472543
 30
0.0
 11
-98.06830853550619
 21
162.7674216794635
 31
0.0
  0
LINE
  5
2A7
  8
0
  6
PHANTOM
 62
     4
 10
-98.06830853550619
 20
240.537954580977
 30
0.0
 11
-98.06830853550619
 21
238.3084874824906
 31
0.0
  0
LINE
  5
2A8
  8
0
  6
CONTINUOUS
 62
     7
 10
-98.06830853550619
 20
238.3084874824906
 30
0.0
 11
-99.06830853550619
 21
238.2997606146998
 31
0.0
  0
LINE
  5
2A9
  8
0
  6
PHANTOM
 62
     4
 10
-99.06830853550619
 20
240.537954580977
 30
0.0
 11
-98.06830853550619
 21
240.537954580977
 31
0.0
  0
LINE
  5
2AA
  8
0
  6
PHANTOM
 62
     4
 10
-98.06830853550619
 20
173.3110560184173
 30
0.0
 11
-98.06830853550619
 21
171.3084874824906
 31
0.0
  0
LINE
  5
2AB
  8
0
  6
PHANTOM
 62
     4
 10
-98.06830853550619
 20
171.3084874824906
 30
0.0
 11
-99.06830853550619
 21
171.2997606146998
 31
0.0
  0
LINE
  5
2AC
  8
0
  6
PHANTOM
 62
     4
 10
-99.06830853550619
 20
173.3197828862081
 30
0.0
 11
-98.06830853550619
 21
173.3110560184173
 31
0.0
  0
LINE
  5
2AD
  8
0
  6
PHANTOM
 62
     4
 10
-98.06830853550619
 20
223.3110560184173
 30
0.0
 11
-98.06830853550619
 21
220.8084874824906
 31
0.0
  0
LINE
  5
2AE
  8
0
  6
CONTINUOUS
 62
     7
 10
-98.06830853550619
 20
220.8084874824906
 30
0.0
 11
-99.06830853550619
 21
220.7997606146998
 31
0.0
  0
LINE
  5
2AF
  8
0
  6
PHANTOM
 62
     4
 10
-99.06830853550619
 20
223.3197828862081
 30
0.0
 11
-98.06830853550619
 21
223.3110560184173
 31
0.0
  0
LINE
  5
2B0
  8
0
  6
PHANTOM
 62
     4
 10
-124.0683085355062
 20
205.4943202420232
 30
0.0
 11
-124.0683085355062
 21
195.5815889199308
 31
0.0
  0
LINE
  5
2B1
  8
0
  6
PHANTOM
 62
     4
 10
-124.0683085355062
 20
195.5815889199308
 30
0.0
 11
-125.0683085355062
 21
195.57286205214
 31
0.0
  0
LINE
  5
2B2
  8
0
  6
PHANTOM
 62
     4
 10
-125.0683085355062
 20
205.503047109814
 30
0.0
 11
-124.0683085355062
 21
205.4943202420232
 31
0.0
  0
LINE
  5
2B3
  8
0
  6
PHANTOM
 62
     4
 10
-131.5683085355062
 20
147.537954580977
 30
0.0
 11
-134.0683085355062
 21
147.537954580977
 31
0.0
  0
LINE
  5
2B4
  8
0
  6
PHANTOM
 62
     4
 10
-134.0683085355062
 20
147.537954580977
 30
0.0
 11
-134.0683085355062
 21
152.537954580977
 31
0.0
  0
LINE
  5
2B5
  8
0
  6
PHANTOM
 62
     4
 10
-131.5683085355062
 20
152.537954580977
 30
0.0
 11
-131.5683085355062
 21
147.537954580977
 31
0.0
  0
LINE
  5
2B6
  8
0
  6
PHANTOM
 62
     4
 10
-98.06830853550619
 20
180.2674216794635
 30
0.0
 11
-98.06830853550619
 21
177.7648531435368
 31
0.0
  0
LINE
  5
2B7
  8
0
  6
PHANTOM
 62
     4
 10
-98.06830853550619
 20
177.7648531435368
 30
0.0
 11
-99.06830853550619
 21
177.756126275746
 31
0.0
  0
LINE
  5
2B8
  8
0
  6
PHANTOM
 62
     4
 10
-99.06830853550619
 20
180.2761485472543
 30
0.0
 11
-98.06830853550619
 21
180.2674216794635
 31
0.0
  0
LINE
  5
2B9
  8
0
  6
PHANTOM
 62
     4
 10
-98.06830853550619
 20
229.7674216794635
 30
0.0
 11
-98.06830853550619
 21
227.7648531435368
 31
0.0
  0
LINE
  5
2BA
  8
0
  6
CONTINUOUS
 62
     7
 10
-98.06830853550619
 20
227.7648531435368
 30
0.0
 11
-99.06830853550619
 21
227.756126275746
 31
0.0
  0
LINE
  5
2BB
  8
0
  6
CONTINUOUS
 62
     7
 10
-99.06830853550619
 20
229.7761485472543
 30
0.0
 11
-98.06830853550619
 21
229.7674216794635
 31
0.0
  0
ARC
  5
2BC
  8
0
  6
PHANTOM
 62
     4
 10
-103.5683085355062
 20
158.037954580977
 30
0.0
 40
2.500000000000002
 50
0.0
 51
90.0
  0
ARC
  5
2BD
  8
0
  6
PHANTOM
 62
     4
 10
-126.5683085355062
 20
158.037954580977
 30
0.0
 40
2.500000000000002
 50
90.0
 51
180.0
  0
ARC
  5
2BE
  8
0
  6
PHANTOM
 62
     4
 10
-103.5683085355062
 20
243.037954580977
 30
0.0
 40
2.500000000000002
 50
270.0
 51
0.0
  0
ARC
  5
2BF
  8
0
  6
PHANTOM
 62
     4
 10
-126.5683085355062
 20
243.037954580977
 30
0.0
 40
2.500000000000002
 50
180.0
 51
270.0
  0
LINE
  5
2C0
  8
0
  6
PHANTOM
 62
     4
 10
-98.06830853550619
 20
249.037954580977
 30
0.0
 11
-98.06830853550619
 21
240.537954580977
 31
0.0
  0
ARC
  5
2C1
  8
0
  6
PHANTOM
 62
     4
 10
-100.5683085355062
 20
249.037954580977
 30
0.0
 40
2.500000000000002
 50
0.0
 51
90.0
  0
LINE
  5
2C2
  8
0
  6
PHANTOM
 62
     4
 10
-98.06830853550619
 20
160.537954580977
 30
0.0
 11
-98.06830853550619
 21
152.037954580977
 31
0.0
  0
LINE
  5
2C3
  8
0
  6
PHANTOM
 62
     4
 10
-101.0683085355062
 20
243.037954580977
 30
0.0
 11
-101.0683085355062
 21
249.037954580977
 31
0.0
  0
LINE
  5
2C4
  8
0
  6
CONTINUOUS
 62
     7
 10
-99.06830853550619
 20
204.0379545809801
 30
0.0
 11
-99.06830853550619
 21
197.0379545809799
 31
0.0
  0
LINE
  5
2C5
  8
0
  6
PHANTOM
 62
     4
 10
-98.06830853550619
 20
219.03795458098
 30
0.0
 11
-98.06830853550619
 21
220.8084874824906
 31
0.0
  0
LINE
  5
2C6
  8
0
  6
PHANTOM
 62
     4
 10
-98.06830853550619
 20
180.2674216794635
 30
0.0
 11
-98.06830853550619
 21
182.0379545809801
 31
0.0
  0
ARC
  5
2C7
  8
0
  6
PHANTOM
 62
     4
 10
-100.5683085355062
 20
150.037954580977
 30
0.0
 40
0.5000000000000004
 50
180.0
 51
270.0
  0
LINE
  5
2C8
  8
0
  6
PHANTOM
 62
     4
 10
-101.0683085355062
 20
150.037954580977
 30
0.0
 11
-101.0683085355062
 21
152.037954580977
 31
0.0
  0
LINE
  5
2C9
  8
0
  6
PHANTOM
 62
     4
 10
-101.0683085355062
 20
152.037954580977
 30
0.0
 11
-101.0683085355062
 21
158.037954580977
 31
0.0
  0
LINE
  5
2CA
  8
0
  6
PHANTOM
 62
     4
 10
-101.0683085355062
 20
249.037954580977
 30
0.0
 11
-101.0683085355062
 21
251.037954580977
 31
0.0
  0
ARC
  5
2CB
  8
0
  6
PHANTOM
 62
     4
 10
-100.5683085355062
 20
251.037954580977
 30
0.0
 40
0.5000000000000004
 50
90.0
 51
180.0
  0
ARC
  5
2CC
  8
0
  6
PHANTOM
 62
     4
 10
-100.5683085355062
 20
152.037954580977
 30
0.0
 40
2.500000000000002
 50
270.0
 51
0.0
  0
LINE
  5
2CD
  8
0
  6
PHANTOM
 62
     4
 10
-129.0683085355062
 20
249.037954580977
 30
0.0
 11
-129.0683085355062
 21
243.037954580977
 31
0.0
  0
LINE
  5
2CE
  8
0
  6
PHANTOM
 62
     4
 10
-129.0683085355062
 20
251.037954580977
 30
0.0
 11
-129.0683085355062
 21
249.037954580977
 31
0.0
  0
ARC
  5
2CF
  8
0
  6
PHANTOM
 62
     4
 10
-129.5683085355062
 20
251.037954580977
 30
0.0
 40
0.5000000000000004
 50
0.0
 51
90.0
  0
LINE
  5
2D0
  8
0
  6
PHANTOM
 62
     4
 10
-129.5683085355062
 20
149.537954580977
 30
0.0
 11
-131.5683085355062
 21
149.537954580977
 31
0.0
  0
LINE
  5
2D1
  8
0
  6
PHANTOM
 62
     4
 10
-131.5683085355062
 20
251.537954580977
 30
0.0
 11
-129.5683085355062
 21
251.537954580977
 31
0.0
  0
LINE
  5
2D2
  8
0
  6
PHANTOM
 62
     4
 10
-129.0683085355062
 20
158.037954580977
 30
0.0
 11
-129.0683085355062
 21
152.037954580977
 31
0.0
  0
LINE
  5
2D3
  8
0
  6
PHANTOM
 62
     4
 10
-129.0683085355062
 20
152.037954580977
 30
0.0
 11
-129.0683085355062
 21
150.037954580977
 31
0.0
  0
ARC
  5
2D4
  8
0
  6
PHANTOM
 62
     4
 10
-129.5683085355062
 20
150.037954580977
 30
0.0
 40
0.5000000000000004
 50
270.0
 51
0.0
  0
LINE
  5
2D5
  8
0
  6
PHANTOM
 62
     4
 10
-98.06830853550619
 20
238.3084874824906
 30
0.0
 11
-98.06830853550619
 21
229.7674216794635
 31
0.0
  0
LINE
  5
2D6
  8
0
  6
PHANTOM
 62
     4
 10
-98.06830853550619
 20
171.3084874824906
 30
0.0
 11
-98.06830853550619
 21
162.7674216794635
 31
0.0
  0
LINE
  5
2D7
  8
0
  6
PHANTOM
 62
     4
 10
-98.06830853550619
 20
223.3110560184173
 30
0.0
 11
-98.06830853550619
 21
227.7648531435368
 31
0.0
  0
LINE
  5
2D8
  8
0
  6
PHANTOM
 62
     4
 10
-98.06830853550619
 20
177.7648531435368
 30
0.0
 11
-98.06830853550619
 21
173.3110560184173
 31
0.0
  0
LINE
  5
2D9
  8
0
  6
PHANTOM
 62
     4
 10
-129.0683085355062
 20
253.537954580977
 30
0.0
 11
-129.0683085355062
 21
251.037954580977
 31
0.0
  0
LINE
  5
2DA
  8
0
  6
PHANTOM
 62
     4
 10
-131.5683085355062
 20
253.537954580977
 30
0.0
 11
-129.0683085355062
 21
253.537954580977
 31
0.0
  0
LINE
  5
2DB
  8
0
  6
PHANTOM
 62
     4
 10
-129.0683085355062
 20
147.537954580977
 30
0.0
 11
-129.0683085355062
 21
150.037954580977
 31
0.0
  0
LINE
  5
2DC
  8
0
  6
PHANTOM
 62
     4
 10
-131.5683085355062
 20
147.537954580977
 30
0.0
 11
-129.0683085355062
 21
147.537954580977
 31
0.0
  0
LINE
  5
2DD
  8
0
  6
PHANTOM
 62
     4
 10
-100.5683085355062
 20
251.537954580977
 30
0.0
 11
-129.0683085355062
 21
251.537954580977
 31
0.0
  0
LINE
  5
2DE
  8
0
  6
PHANTOM
 62
     4
 10
-129.0683085355062
 20
149.537954580977
 30
0.0
 11
-100.5683085355062
 21
149.537954580977
 31
0.0
  0
LINE
  5
2DF
  8
0
  6
PHANTOM
 62
     4
 10
-98.06830853550619
 20
251.837954580977
 30
0.0
 11
-103.0683085355062
 21
251.837954580977
 31
0.0
  0
LINE
  5
2E0
  8
0
  6
PHANTOM
 62
     4
 10
-103.0683085355062
 20
251.537954580977
 30
0.0
 11
-103.0683085355062
 21
251.837954580977
 31
0.0
  0
LINE
  5
2E1
  8
0
  6
PHANTOM
 62
     4
 10
-98.06830853550619
 20
249.037954580977
 30
0.0
 11
-98.06830853550619
 21
251.837954580977
 31
0.0
  0
LINE
  5
2E2
  8
0
  6
PHANTOM
 62
     4
 10
-103.0683085355062
 20
149.537954580977
 30
0.0
 11
-103.0683085355062
 21
149.2379545809771
 31
0.0
  0
LINE
  5
2E3
  8
0
  6
PHANTOM
 62
     4
 10
-98.06830853550619
 20
149.2379545809771
 30
0.0
 11
-103.0683085355062
 21
149.2379545809771
 31
0.0
  0
LINE
  5
2E4
  8
0
  6
PHANTOM
 62
     4
 10
-98.06830853550619
 20
152.037954580977
 30
0.0
 11
-98.06830853550619
 21
149.2379545809771
 31
0.0
  0
LINE
  5
2E5
  8
0
  6
PHANTOM
 62
     4
 10
-123.0683085355062
 20
176.987954580977
 30
0.0
 11
-123.4638704289039
 21
176.987954580977
 31
0.0
  0
LINE
  5
2E6
  8
0
  6
PHANTOM
 62
     4
 10
-123.0683085355062
 20
174.087954580977
 30
0.0
 11
-123.4638704289039
 21
174.087954580977
 31
0.0
  0
LINE
  5
2E7
  8
0
  6
PHANTOM
 62
     4
 10
-123.0683085355062
 20
224.087954580977
 30
0.0
 11
-123.4638704289039
 21
224.087954580977
 31
0.0
  0
LINE
  5
2E8
  8
0
  6
PHANTOM
 62
     4
 10
-123.0683085355062
 20
226.987954580977
 30
0.0
 11
-123.4638704289039
 21
226.987954580977
 31
0.0
  0
LINE
  5
2E9
  8
0
  6
PHANTOM
 62
     4
 10
-122.0683085355062
 20
177.5554083165586
 30
0.0
 11
-122.0683085355062
 21
176.987954580977
 31
0.0
  0
LINE
  5
2EA
  8
0
  6
PHANTOM
 62
     4
 10
-122.0683085355062
 20
176.987954580977
 30
0.0
 11
-123.0683085355062
 21
176.987954580977
 31
0.0
  0
LINE
  5
2EB
  8
0
  6
PHANTOM
 62
     4
 10
-123.0683085355062
 20
174.087954580977
 30
0.0
 11
-122.0683085355062
 21
174.087954580977
 31
0.0
  0
LINE
  5
2EC
  8
0
  6
PHANTOM
 62
     4
 10
-122.0683085355062
 20
174.087954580977
 30
0.0
 11
-122.0683085355062
 21
173.5205008453955
 31
0.0
  0
LINE
  5
2ED
  8
0
  6
PHANTOM
 62
     4
 10
-122.0683085355062
 20
227.5554083165586
 30
0.0
 11
-122.0683085355062
 21
226.987954580977
 31
0.0
  0
LINE
  5
2EE
  8
0
  6
PHANTOM
 62
     4
 10
-122.0683085355062
 20
226.987954580977
 30
0.0
 11
-123.0683085355062
 21
226.9879545809771
 31
0.0
  0
LINE
  5
2EF
  8
0
  6
PHANTOM
 62
     4
 10
-122.0683085355062
 20
224.087954580977
 30
0.0
 11
-122.0683085355062
 21
223.5205008453955
 31
0.0
  0
LINE
  5
2F0
  8
0
  6
PHANTOM
 62
     4
 10
-123.0683085355062
 20
224.087954580977
 30
0.0
 11
-122.0683085355062
 21
224.087954580977
 31
0.0
  0
LINE
  5
2F1
  8
0
  6
CONTINUOUS
 62
     7
 10
-97.46830853550614
 20
184.03795458098
 30
0.0
 11
-99.06830853550613
 21
184.03795458098
 31
0.0
  0
LINE
  5
2F2
  8
0
  6
CONTINUOUS
 62
     7
 10
-97.46830853550614
 20
186.03795458098
 30
0.0
 11
-97.46830853550614
 21
184.03795458098
 31
0.0
  0
LINE
  5
2F3
  8
0
  6
CONTINUOUS
 62
     7
 10
-99.06830853550613
 20
184.03795458098
 30
0.0
 11
-99.06830853550616
 21
186.03795458098
 31
0.0
  0
LINE
  5
2F4
  8
0
  6
CONTINUOUS
 62
     7
 10
-99.06830853550613
 20
217.03795458098
 30
0.0
 11
-97.46830853550614
 21
217.03795458098
 31
0.0
  0
LINE
  5
2F5
  8
0
  6
CONTINUOUS
 62
     7
 10
-97.46830853550614
 20
217.03795458098
 30
0.0
 11
-97.46830853550614
 21
215.03795458098
 31
0.0
  0
LINE
  5
2F6
  8
0
  6
CONTINUOUS
 62
     7
 10
-99.06830853550616
 20
215.03795458098
 30
0.0
 11
-99.06830853550616
 21
217.03795458098
 31
0.0
  0
LINE
  5
2F7
  8
0
  6
CONTINUOUS
 62
     7
 10
-97.46830853550614
 20
204.3046212476467
 30
0.0
 11
-96.35479502199262
 21
201.056873499899
 31
0.0
  0
ARC
  5
2F8
  8
0
  6
CONTINUOUS
 62
     7
 10
-97.86830853550613
 20
200.53795458098
 30
0.0
 40
1.599999999999991
 50
341.0753555839487
 51
18.92464441605142
  0
LINE
  5
2F9
  8
0
  6
CONTINUOUS
 62
     7
 10
-99.06830853550613
 20
197.03795458098
 30
0.0
 11
-97.86830853550613
 21
200.53795458098
 31
0.0
  0
LINE
  5
2FA
  8
0
  6
CONTINUOUS
 62
     7
 10
-96.35479502199262
 20
200.0190356620611
 30
0.0
 11
-97.46830853550614
 21
196.7712879143133
 31
0.0
  0
LINE
  5
2FB
  8
0
  6
CONTINUOUS
 62
     7
 10
-97.86830853550613
 20
200.53795458098
 30
0.0
 11
-99.06830853550613
 21
204.03795458098
 31
0.0
  0
LINE
  5
2FC
  8
0
  6
CONTINUOUS
 62
     7
 10
-97.46830853550614
 20
215.03795458098
 30
0.0
 11
-97.46830853550614
 21
204.3046212476467
 31
0.0
  0
LINE
  5
2FD
  8
0
  6
CONTINUOUS
 62
     7
 10
-97.46830853550614
 20
196.7712879143133
 30
0.0
 11
-97.46830853550614
 21
186.03795458098
 31
0.0
  0
LINE
  5
2FE
  8
0
  6
CONTINUOUS
 62
     7
 10
-99.06830853550613
 20
204.03795458098
 30
0.0
 11
-99.06830853550613
 21
215.03795458098
 31
0.0
  0
LINE
  5
2FF
  8
0
  6
CONTINUOUS
 62
     7
 10
-99.06830853550613
 20
186.03795458098
 30
0.0
 11
-99.06830853550613
 21
197.03795458098
 31
0.0
  0
LINE
  5
300
  8
0
  6
CONTINUOUS
 62
     7
 10
-96.48115124798073
 20
218.3623701687085
 30
0.0
 11
-97.3218619260994
 21
217.5216594905898
 31
0.0
  0
ARC
  5
301
  8
0
  6
CONTINUOUS
 62
     7
 10
-96.96830853550614
 20
217.1681060999965
 30
0.0
 40
0.5000000000000004
 50
135.0000000000002
 51
180.0
  0
ARC
  5
302
  8
0
  6
CONTINUOUS
 62
     7
 10
-96.96830853550614
 20
217.1681060999965
 30
0.0
 40
2.099999999999981
 50
135.0
 51
180.0
  0
LINE
  5
303
  8
0
  6
CONTINUOUS
 62
     7
 10
-98.45323277599788
 20
218.6530303404883
 30
0.0
 11
-97.61252209787921
 21
219.4937410186069
 31
0.0
  0
LINE
  5
304
  8
0
  6
CONTINUOUS
 62
     7
 10
-97.46830853550614
 20
217.1681060999965
 30
0.0
 11
-97.46830853550614
 21
217.03795458098
 31
0.0
  0
LINE
  5
305
  8
0
  6
CONTINUOUS
 62
     7
 10
-99.06830853550613
 20
217.03795458098
 30
0.0
 11
-99.06830853550613
 21
217.1681060999965
 31
0.0
  0
ARC
  5
306
  8
0
  6
CONTINUOUS
 62
     7
 10
-96.96830853550614
 20
183.9078030619635
 30
0.0
 40
0.4999999999999983
 50
180.0
 51
225.0
  0
LINE
  5
307
  8
0
  6
CONTINUOUS
 62
     7
 10
-97.3218619260994
 20
183.5542496713702
 30
0.0
 11
-96.48115124798076
 21
182.7135389932516
 31
0.0
  0
LINE
  5
308
  8
0
  6
CONTINUOUS
 62
     7
 10
-97.61252209787921
 20
181.5821681433531
 30
0.0
 11
-98.45323277599788
 21
182.4228788214718
 31
0.0
  0
ARC
  5
309
  8
0
  6
CONTINUOUS
 62
     7
 10
-96.96830853550614
 20
183.9078030619635
 30
0.0
 40
2.099999999999991
 50
180.0
 51
225.0
  0
LINE
  5
30A
  8
0
  6
CONTINUOUS
 62
     7
 10
-97.46830853550614
 20
184.03795458098
 30
0.0
 11
-97.46830853550614
 21
183.9078030619635
 31
0.0
  0
LINE
  5
30B
  8
0
  6
CONTINUOUS
 62
     7
 10
-99.06830853550613
 20
183.9078030619635
 30
0.0
 11
-99.06830853550616
 21
184.03795458098
 31
0.0
  0
LINE
  5
30C
  8
0
  6
CONTINUOUS
 62
     7
 10
-95.06693768560767
 20
181.2993254308785
 30
0.0
 11
-96.19830853550614
 21
180.16795458098
 31
0.0
  0
LINE
  5
30D
  8
0
  6
CONTINUOUS
 62
     7
 10
-96.19830853550611
 20
180.16795458098
 30
0.0
 11
-97.61252209787921
 21
181.5821681433531
 31
0.0
  0
LINE
  5
30E
  8
0
  6
CONTINUOUS
 62
     7
 10
-96.48115124798076
 20
182.7135389932516
 30
0.0
 11
-95.06693768560764
 21
181.2993254308785
 31
0.0
  0
LINE
  5
30F
  8
0
  6
CONTINUOUS
 62
     7
 10
-97.61252209787921
 20
219.4937410186069
 30
0.0
 11
-96.19830853550611
 21
220.90795458098
 31
0.0
  0
LINE
  5
310
  8
0
  6
CONTINUOUS
 62
     7
 10
-95.85597159894118
 20
198.1305178648325
 30
0.0
 11
-95.51940757044133
 21
198.0925104785376
 31
0.0
  0
LINE
  5
311
  8
0
  6
CONTINUOUS
 62
     7
 10
-89.16879082823905
 20
171.5646701112736
 30
0.0
 11
-89.87505704481147
 21
170.1371670548371
 31
0.0
  0
LINE
  5
312
  8
0
  6
CONTINUOUS
 62
     7
 10
-95.2682864777809
 20
201.2241890088202
 30
0.0
 11
-96.29557505907208
 21
200.8302402897808
 31
0.0
  0
ENDBLK
  8
0
  0
ENDSEC
  0
SECTION
  2
ENTITIES
  0
LINE
  5
6F
  8
0
  6
PHANTOM
 62
     4
 10
-282.2463024417557
 20
163.0466052934462
 30
0.0
 11
-282.2463024417557
 21
238.0293038685078
 31
0.0
  0
LINE
  5
71
  8
0
  6
PHANTOM
 62
     4
 10
-217.5463024417558
 20
163.0466052934462
 30
0.0
 11
-217.5463024417558
 21
170.537954580977
 31
0.0
  0
LINE
  5
72
  8
0
  6
CONTINUOUS
 62
     7
 10
-257.3491379021571
 20
171.5888733109353
 30
0.0
 11
-256.9694897732199
 21
171.9413054145881
 31
0.0
  0
LINE
  5
73
  8
0
  6
CONTINUOUS
 62
     7
 10
-253.7875092568081
 20
230.9471433888053
 30
0.0
 11
-254.2874588054392
 21
231.4592314696774
 31
0.0
  0
LINE
  5
74
  8
0
  6
PHANTOM
 62
     4
 10
-260.3963024417558
 20
229.037954580977
 30
0.0
 11
-258.0377027584569
 21
229.037954580977
 31
0.0
  0
LINE
  5
75
  8
0
  6
PHANTOM
 62
     4
 10
-239.3963024417558
 20
229.037954580977
 30
0.0
 11
-241.9372148525012
 21
229.037954580977
 31
0.0
  0
LINE
  5
76
  8
0
  6
PHANTOM
 62
     4
 10
-217.5463024417558
 20
230.537954580977
 30
0.0
 11
-217.5463024417558
 21
238.0293038685078
 31
0.0
  0
LINE
  5
77
  8
0
  6
CONTINUOUS
 62
     7
 10
-94.31689473467242
 20
197.6458507523763
 30
0.0
 11
-94.81727723824365
 21
198.7189244941866
 31
0.0
  0
TEXT
  5
78
  8
0
  6
CONTINUOUS
 62
     7
 10
-211.0628071860295
 20
126.4624025434077
 30
0.0
 40
5.0
  1
KGP-188EZ2
  0
INSERT
  5
20B
  8
0
  6
PHANTOM
 62
     7
  2
D_FRAME_VIEW_1330
 10
0.0
 20
0.0
 30
0.0
  0
LINE
  5
20C
  8
0
  6
CONTINUOUS
 62
     7
 10
-96.19830853550611
 20
220.90795458098
 30
0.0
 11
-95.26830853550558
 21
219.5769285019433
 31
0.0
  0
LINE
  5
20D
  8
0
  6
CONTINUOUS
 62
     7
 10
-258.0481189783076
 20
171.5607454961474
 30
0.0
 11
-258.0500396300242
 21
171.4824481541516
 31
0.0
  0
LINE
  5
20E
  8
0
  6
CONTINUOUS
 62
     7
 10
-95.26830853550558
 20
219.5769285019433
 30
0.0
 11
-95.26830853550561
 21
219.9793346526983
 31
0.0
  0
LINE
  5
20F
  8
0
  6
CONTINUOUS
 62
     7
 10
-95.26830853550558
 20
219.5769285019433
 30
0.0
 11
-96.90150658704006
 21
217.9420148296491
 31
0.0
  0
LINE
  5
210
  8
0
  6
CONTINUOUS
 62
     7
 10
-241.9294513495264
 20
171.4702923741677
 30
0.0
 11
-241.926798634748
 21
171.5607454958548
 31
0.0
  0
INSERT
  5
313
  8
0
  6
CONTINUOUS
 62
     7
  2
D_FRAME_VIEW_3644
 10
0.0
 20
0.0
 30
0.0
  0
POLYLINE
  5
314
  8
0
  6
CONTINUOUS
 62
     7
 66
     1
 10
0.0
 20
0.0
 30
0.0
  0
VERTEX
  5
356
  8
0
  6
CONTINUOUS
 62
     7
 10
-218.8002342115245
 20
201.78795458098
 30
0.0
  0
VERTEX
  5
357
  8
0
  6
CONTINUOUS
 62
     7
 10
-218.7388996186152
 20
201.7864489012365
 30
0.0
  0
VERTEX
  5
358
  8
0
  6
CONTINUOUS
 62
     7
 10
-218.6777127861126
 20
201.7819354893202
 30
0.0
  0
VERTEX
  5
359
  8
0
  6
CONTINUOUS
 62
     7
 10
-218.6168211184553
 20
201.774425218436
 30
0.0
  0
VERTEX
  5
35A
  8
0
  6
CONTINUOUS
 62
     7
 10
-218.5563713090043
 20
201.763936181484
 30
0.0
  0
VERTEX
  5
35B
  8
0
  6
CONTINUOUS
 62
     7
 10
-218.4965089866454
 20
201.7504936474732
 30
0.0
  0
VERTEX
  5
35C
  8
0
  6
CONTINUOUS
 62
     7
 10
-218.4373783649564
 20
201.7341300006453
 30
0.0
  0
VERTEX
  5
35D
  8
0
  6
CONTINUOUS
 62
     7
 10
-218.3791218947842
 20
201.7148846624587
 30
0.0
  0
VERTEX
  5
35E
  8
0
  6
CONTINUOUS
 62
     7
 10
-218.3218799210682
 20
201.6928039966191
 30
0.0
  0
VERTEX
  5
35F
  8
0
  6
CONTINUOUS
 62
     7
 10
-218.2657903447366
 20
201.6679411973843
 30
0.0
  0
VERTEX
  5
360
  8
0
  6
CONTINUOUS
 62
     7
 10
-218.210988290492
 20
201.6403561614154
 30
0.0
  0
VERTEX
  5
361
  8
0
  6
CONTINUOUS
 62
     7
 10
-218.157605781283
 20
201.6101153434803
 30
0.0
  0
VERTEX
  5
362
  8
0
  6
CONTINUOUS
 62
     7
 10
-218.10577142025
 20
201.5772915963582
 30
0.0
  0
VERTEX
  5
363
  8
0
  6
CONTINUOUS
 62
     7
 10
-218.055610080909
 20
201.5419639953308
 30
0.0
  0
VERTEX
  5
364
  8
0
  6
CONTINUOUS
 62
     7
 10
-218.0072426063199
 20
201.5042176476834
 30
0.0
  0
VERTEX
  5
365
  8
0
  6
CONTINUOUS
 62
     7
 10
-217.9607855179657
 20
201.4641434876737
 30
0.0
  0
VERTEX
  5
366
  8
0
  6
CONTINUOUS
 62
     7
 10
-217.9163507350413
 20
201.4218380574632
 30
0.0
  0
VERTEX
  5
367
  8
0
  6
CONTINUOUS
 62
     7
 10
-217.8740453048308
 20
201.3774032745387
 30
0.0
  0
VERTEX
  5
368
  8
0
  6
CONTINUOUS
 62
     7
 10
-217.833971144821
 20
201.3309461861845
 30
0.0
  0
VERTEX
  5
369
  8
0
  6
CONTINUOUS
 62
     7
 10
-217.7962247971736
 20
201.2825787115955
 30
0.0
  0
VERTEX
  5
36A
  8
0
  6
CONTINUOUS
 62
     7
 10
-217.7608971961463
 20
201.2324173722545
 30
0.0
  0
VERTEX
  5
36B
  8
0
  6
CONTINUOUS
 62
     7
 10
-217.7280734490241
 20
201.1805830112216
 30
0.0
  0
VERTEX
  5
36C
  8
0
  6
CONTINUOUS
 62
     7
 10
-217.697832631089
 20
201.1272005020125
 30
0.0
  0
VERTEX
  5
36D
  8
0
  6
CONTINUOUS
 62
     7
 10
-217.6702475951201
 20
201.0723984477679
 30
0.0
  0
VERTEX
  5
36E
  8
0
  6
CONTINUOUS
 62
     7
 10
-217.6453847958854
 20
201.0163088714363
 30
0.0
  0
VERTEX
  5
36F
  8
0
  6
CONTINUOUS
 62
     7
 10
-217.6233041300457
 20
200.9590668977202
 30
0.0
  0
VERTEX
  5
370
  8
0
  6
CONTINUOUS
 62
     7
 10
-217.6040587918592
 20
200.900810427548
 30
0.0
  0
VERTEX
  5
371
  8
0
  6
CONTINUOUS
 62
     7
 10
-217.5876951450313
 20
200.8416798058591
 30
0.0
  0
VERTEX
  5
372
  8
0
  6
CONTINUOUS
 62
     7
 10
-217.5742526110204
 20
200.7818174835002
 30
0.0
  0
VERTEX
  5
373
  8
0
  6
CONTINUOUS
 62
     7
 10
-217.5637635740685
 20
200.7213676740492
 30
0.0
  0
VERTEX
  5
374
  8
0
  6
CONTINUOUS
 62
     7
 10
-217.5562533031842
 20
200.6604760063919
 30
0.0
  0
VERTEX
  5
375
  8
0
  6
CONTINUOUS
 62
     7
 10
-217.551739891268
 20
200.5992891738892
 30
0.0
  0
VERTEX
  5
376
  8
0
  6
CONTINUOUS
 62
     7
 10
-217.5502342115245
 20
200.53795458098
 30
0.0
  0
SEQEND
  5
7F6
  8
0
  6
CONTINUOUS
 62
     7
  0
POLYLINE
  5
315
  8
0
  6
CONTINUOUS
 62
     7
 66
     1
 10
0.0
 20
0.0
 30
0.0
  0
VERTEX
  5
377
  8
0
  6
CONTINUOUS
 62
     7
 10
-257.5502342115245
 20
200.53795458098
 30
0.0
  0
VERTEX
  5
378
  8
0
  6
CONTINUOUS
 62
     7
 10
-257.551739891268
 20
200.4766199880707
 30
0.0
  0
VERTEX
  5
379
  8
0
  6
CONTINUOUS
 62
     7
 10
-257.5562533031842
 20
200.415433155568
 30
0.0
  0
VERTEX
  5
37A
  8
0
  6
CONTINUOUS
 62
     7
 10
-257.5637635740685
 20
200.3545414879108
 30
0.0
  0
VERTEX
  5
37B
  8
0
  6
CONTINUOUS
 62
     7
 10
-257.5742526110204
 20
200.2940916784598
 30
0.0
  0
VERTEX
  5
37C
  8
0
  6
CONTINUOUS
 62
     7
 10
-257.5876951450313
 20
200.2342293561009
 30
0.0
  0
VERTEX
  5
37D
  8
0
  6
CONTINUOUS
 62
     7
 10
-257.6040587918592
 20
200.1750987344119
 30
0.0
  0
VERTEX
  5
37E
  8
0
  6
CONTINUOUS
 62
     7
 10
-257.6233041300458
 20
200.1168422642397
 30
0.0
  0
VERTEX
  5
37F
  8
0
  6
CONTINUOUS
 62
     7
 10
-257.6453847958854
 20
200.0596002905236
 30
0.0
  0
VERTEX
  5
380
  8
0
  6
CONTINUOUS
 62
     7
 10
-257.6702475951201
 20
200.0035107141921
 30
0.0
  0
VERTEX
  5
381
  8
0
  6
CONTINUOUS
 62
     7
 10
-257.697832631089
 20
199.9487086599474
 30
0.0
  0
VERTEX
  5
382
  8
0
  6
CONTINUOUS
 62
     7
 10
-257.7280734490241
 20
199.8953261507385
 30
0.0
  0
VERTEX
  5
383
  8
0
  6
CONTINUOUS
 62
     7
 10
-257.7608971961463
 20
199.8434917897055
 30
0.0
  0
VERTEX
  5
384
  8
0
  6
CONTINUOUS
 62
     7
 10
-257.7962247971737
 20
199.7933304503645
 30
0.0
  0
VERTEX
  5
385
  8
0
  6
CONTINUOUS
 62
     7
 10
-257.8339711448211
 20
199.7449629757754
 30
0.0
  0
VERTEX
  5
386
  8
0
  6
CONTINUOUS
 62
     7
 10
-257.8740453048308
 20
199.6985058874213
 30
0.0
  0
VERTEX
  5
387
  8
0
  6
CONTINUOUS
 62
     7
 10
-257.9163507350414
 20
199.6540711044968
 30
0.0
  0
VERTEX
  5
388
  8
0
  6
CONTINUOUS
 62
     7
 10
-257.9607855179657
 20
199.6117656742863
 30
0.0
  0
VERTEX
  5
389
  8
0
  6
CONTINUOUS
 62
     7
 10
-258.0072426063199
 20
199.5716915142766
 30
0.0
  0
VERTEX
  5
38A
  8
0
  6
CONTINUOUS
 62
     7
 10
-258.055610080909
 20
199.5339451666292
 30
0.0
  0
VERTEX
  5
38B
  8
0
  6
CONTINUOUS
 62
     7
 10
-258.1057714202501
 20
199.4986175656018
 30
0.0
  0
VERTEX
  5
38C
  8
0
  6
CONTINUOUS
 62
     7
 10
-258.1576057812829
 20
199.4657938184797
 30
0.0
  0
VERTEX
  5
38D
  8
0
  6
CONTINUOUS
 62
     7
 10
-258.210988290492
 20
199.4355530005446
 30
0.0
  0
VERTEX
  5
38E
  8
0
  6
CONTINUOUS
 62
     7
 10
-258.2657903447366
 20
199.4079679645757
 30
0.0
  0
VERTEX
  5
38F
  8
0
  6
CONTINUOUS
 62
     7
 10
-258.3218799210682
 20
199.3831051653409
 30
0.0
  0
VERTEX
  5
390
  8
0
  6
CONTINUOUS
 62
     7
 10
-258.3791218947842
 20
199.3610244995013
 30
0.0
  0
VERTEX
  5
391
  8
0
  6
CONTINUOUS
 62
     7
 10
-258.4373783649564
 20
199.3417791613147
 30
0.0
  0
VERTEX
  5
392
  8
0
  6
CONTINUOUS
 62
     7
 10
-258.4965089866454
 20
199.3254155144868
 30
0.0
  0
VERTEX
  5
393
  8
0
  6
CONTINUOUS
 62
     7
 10
-258.5563713090043
 20
199.311972980476
 30
0.0
  0
VERTEX
  5
394
  8
0
  6
CONTINUOUS
 62
     7
 10
-258.6168211184553
 20
199.301483943524
 30
0.0
  0
VERTEX
  5
395
  8
0
  6
CONTINUOUS
 62
     7
 10
-258.6777127861125
 20
199.2939736726398
 30
0.0
  0
VERTEX
  5
396
  8
0
  6
CONTINUOUS
 62
     7
 10
-258.7388996186153
 20
199.2894602607235
 30
0.0
  0
VERTEX
  5
397
  8
0
  6
CONTINUOUS
 62
     7
 10
-258.8002342115245
 20
199.28795458098
 30
0.0
  0
SEQEND
  5
7F7
  8
0
  6
CONTINUOUS
 62
     7
  0
LINE
  5
316
  8
0
  6
CONTINUOUS
 62
     7
 10
-251.3002342115245
 20
201.78795458098
 30
0.0
 11
-218.8002342115244
 21
201.78795458098
 31
0.0
  0
LINE
  5
317
  8
0
  6
CONTINUOUS
 62
     7
 10
-157.5502342115247
 20
204.03795458098
 30
0.0
 11
-337.5502342115246
 21
204.03795458098
 31
0.0
  0
POLYLINE
  5
318
  8
0
  6
CONTINUOUS
 62
     7
 66
     1
 10
0.0
 20
0.0
 30
0.0
  0
VERTEX
  5
398
  8
0
  6
CONTINUOUS
 62
     7
 10
-252.5502342115246
 20
200.53795458098
 30
0.0
  0
VERTEX
  5
399
  8
0
  6
CONTINUOUS
 62
     7
 10
-252.548728531781
 20
200.5992891738892
 30
0.0
  0
VERTEX
  5
39A
  8
0
  6
CONTINUOUS
 62
     7
 10
-252.5442151198648
 20
200.660476006392
 30
0.0
  0
VERTEX
  5
39B
  8
0
  6
CONTINUOUS
 62
     7
 10
-252.5367048489805
 20
200.7213676740492
 30
0.0
  0
VERTEX
  5
39C
  8
0
  6
CONTINUOUS
 62
     7
 10
-252.5262158120286
 20
200.7818174835002
 30
0.0
  0
VERTEX
  5
39D
  8
0
  6
CONTINUOUS
 62
     7
 10
-252.5127732780177
 20
200.8416798058591
 30
0.0
  0
VERTEX
  5
39E
  8
0
  6
CONTINUOUS
 62
     7
 10
-252.4964096311898
 20
200.9008104275481
 30
0.0
  0
VERTEX
  5
39F
  8
0
  6
CONTINUOUS
 62
     7
 10
-252.4771642930033
 20
200.9590668977202
 30
0.0
  0
VERTEX
  5
3A0
  8
0
  6
CONTINUOUS
 62
     7
 10
-252.4550836271636
 20
201.0163088714363
 30
0.0
  0
VERTEX
  5
3A1
  8
0
  6
CONTINUOUS
 62
     7
 10
-252.4302208279289
 20
201.0723984477679
 30
0.0
  0
VERTEX
  5
3A2
  8
0
  6
CONTINUOUS
 62
     7
 10
-252.40263579196
 20
201.1272005020125
 30
0.0
  0
VERTEX
  5
3A3
  8
0
  6
CONTINUOUS
 62
     7
 10
-252.3723949740248
 20
201.1805830112216
 30
0.0
  0
VERTEX
  5
3A4
  8
0
  6
CONTINUOUS
 62
     7
 10
-252.3395712269027
 20
201.2324173722545
 30
0.0
  0
VERTEX
  5
3A5
  8
0
  6
CONTINUOUS
 62
     7
 10
-252.3042436258753
 20
201.2825787115955
 30
0.0
  0
VERTEX
  5
3A6
  8
0
  6
CONTINUOUS
 62
     7
 10
-252.266497278228
 20
201.3309461861845
 30
0.0
  0
VERTEX
  5
3A7
  8
0
  6
CONTINUOUS
 62
     7
 10
-252.2264231182182
 20
201.3774032745387
 30
0.0
  0
VERTEX
  5
3A8
  8
0
  6
CONTINUOUS
 62
     7
 10
-252.1841176880076
 20
201.4218380574632
 30
0.0
  0
VERTEX
  5
3A9
  8
0
  6
CONTINUOUS
 62
     7
 10
-252.1396829050832
 20
201.4641434876737
 30
0.0
  0
VERTEX
  5
3AA
  8
0
  6
CONTINUOUS
 62
     7
 10
-252.0932258167291
 20
201.5042176476834
 30
0.0
  0
VERTEX
  5
3AB
  8
0
  6
CONTINUOUS
 62
     7
 10
-252.04485834214
 20
201.5419639953308
 30
0.0
  0
VERTEX
  5
3AC
  8
0
  6
CONTINUOUS
 62
     7
 10
-251.9946970027991
 20
201.5772915963582
 30
0.0
  0
VERTEX
  5
3AD
  8
0
  6
CONTINUOUS
 62
     7
 10
-251.9428626417661
 20
201.6101153434803
 30
0.0
  0
VERTEX
  5
3AE
  8
0
  6
CONTINUOUS
 62
     7
 10
-251.889480132557
 20
201.6403561614154
 30
0.0
  0
VERTEX
  5
3AF
  8
0
  6
CONTINUOUS
 62
     7
 10
-251.8346780783124
 20
201.6679411973843
 30
0.0
  0
VERTEX
  5
3B0
  8
0
  6
CONTINUOUS
 62
     7
 10
-251.7785885019809
 20
201.6928039966191
 30
0.0
  0
VERTEX
  5
3B1
  8
0
  6
CONTINUOUS
 62
     7
 10
-251.7213465282648
 20
201.7148846624587
 30
0.0
  0
VERTEX
  5
3B2
  8
0
  6
CONTINUOUS
 62
     7
 10
-251.6630900580926
 20
201.7341300006453
 30
0.0
  0
VERTEX
  5
3B3
  8
0
  6
CONTINUOUS
 62
     7
 10
-251.6039594364036
 20
201.7504936474732
 30
0.0
  0
VERTEX
  5
3B4
  8
0
  6
CONTINUOUS
 62
     7
 10
-251.5440971140447
 20
201.763936181484
 30
0.0
  0
VERTEX
  5
3B5
  8
0
  6
CONTINUOUS
 62
     7
 10
-251.4836473045937
 20
201.774425218436
 30
0.0
  0
VERTEX
  5
3B6
  8
0
  6
CONTINUOUS
 62
     7
 10
-251.4227556369364
 20
201.7819354893202
 30
0.0
  0
VERTEX
  5
3B7
  8
0
  6
CONTINUOUS
 62
     7
 10
-251.3615688044337
 20
201.7864489012365
 30
0.0
  0
VERTEX
  5
3B8
  8
0
  6
CONTINUOUS
 62
     7
 10
-251.3002342115245
 20
201.78795458098
 30
0.0
  0
SEQEND
  5
7F8
  8
0
  6
CONTINUOUS
 62
     7
  0
LINE
  5
319
  8
0
  6
CONTINUOUS
 62
     7
 10
-218.8002342115245
 20
199.28795458098
 30
0.0
 11
-251.3002342115245
 21
199.28795458098
 31
0.0
  0
LINE
  5
31A
  8
0
  6
CONTINUOUS
 62
     7
 10
-157.5502342115247
 20
197.03795458098
 30
0.0
 11
-337.5502342115246
 21
197.03795458098
 31
0.0
  0
POLYLINE
  5
31B
  8
0
  6
CONTINUOUS
 62
     7
 66
     1
 10
0.0
 20
0.0
 30
0.0
  0
VERTEX
  5
3B9
  8
0
  6
CONTINUOUS
 62
     7
 10
-258.8002342115245
 20
201.78795458098
 30
0.0
  0
VERTEX
  5
3BA
  8
0
  6
CONTINUOUS
 62
     7
 10
-258.7388996186153
 20
201.7864489012365
 30
0.0
  0
VERTEX
  5
3BB
  8
0
  6
CONTINUOUS
 62
     7
 10
-258.6777127861125
 20
201.7819354893202
 30
0.0
  0
VERTEX
  5
3BC
  8
0
  6
CONTINUOUS
 62
     7
 10
-258.6168211184553
 20
201.774425218436
 30
0.0
  0
VERTEX
  5
3BD
  8
0
  6
CONTINUOUS
 62
     7
 10
-258.5563713090043
 20
201.763936181484
 30
0.0
  0
VERTEX
  5
3BE
  8
0
  6
CONTINUOUS
 62
     7
 10
-258.4965089866454
 20
201.7504936474732
 30
0.0
  0
VERTEX
  5
3BF
  8
0
  6
CONTINUOUS
 62
     7
 10
-258.4373783649564
 20
201.7341300006453
 30
0.0
  0
VERTEX
  5
3C0
  8
0
  6
CONTINUOUS
 62
     7
 10
-258.3791218947842
 20
201.7148846624587
 30
0.0
  0
VERTEX
  5
3C1
  8
0
  6
CONTINUOUS
 62
     7
 10
-258.3218799210682
 20
201.6928039966191
 30
0.0
  0
VERTEX
  5
3C2
  8
0
  6
CONTINUOUS
 62
     7
 10
-258.2657903447366
 20
201.6679411973843
 30
0.0
  0
VERTEX
  5
3C3
  8
0
  6
CONTINUOUS
 62
     7
 10
-258.210988290492
 20
201.6403561614154
 30
0.0
  0
VERTEX
  5
3C4
  8
0
  6
CONTINUOUS
 62
     7
 10
-258.1576057812829
 20
201.6101153434803
 30
0.0
  0
VERTEX
  5
3C5
  8
0
  6
CONTINUOUS
 62
     7
 10
-258.1057714202499
 20
201.5772915963582
 30
0.0
  0
VERTEX
  5
3C6
  8
0
  6
CONTINUOUS
 62
     7
 10
-258.055610080909
 20
201.5419639953308
 30
0.0
  0
VERTEX
  5
3C7
  8
0
  6
CONTINUOUS
 62
     7
 10
-258.0072426063199
 20
201.5042176476834
 30
0.0
  0
VERTEX
  5
3C8
  8
0
  6
CONTINUOUS
 62
     7
 10
-257.9607855179657
 20
201.4641434876737
 30
0.0
  0
VERTEX
  5
3C9
  8
0
  6
CONTINUOUS
 62
     7
 10
-257.9163507350414
 20
201.4218380574632
 30
0.0
  0
VERTEX
  5
3CA
  8
0
  6
CONTINUOUS
 62
     7
 10
-257.8740453048308
 20
201.3774032745387
 30
0.0
  0
VERTEX
  5
3CB
  8
0
  6
CONTINUOUS
 62
     7
 10
-257.833971144821
 20
201.3309461861845
 30
0.0
  0
VERTEX
  5
3CC
  8
0
  6
CONTINUOUS
 62
     7
 10
-257.7962247971737
 20
201.2825787115955
 30
0.0
  0
VERTEX
  5
3CD
  8
0
  6
CONTINUOUS
 62
     7
 10
-257.7608971961463
 20
201.2324173722545
 30
0.0
  0
VERTEX
  5
3CE
  8
0
  6
CONTINUOUS
 62
     7
 10
-257.7280734490241
 20
201.1805830112216
 30
0.0
  0
VERTEX
  5
3CF
  8
0
  6
CONTINUOUS
 62
     7
 10
-257.697832631089
 20
201.1272005020125
 30
0.0
  0
VERTEX
  5
3D0
  8
0
  6
CONTINUOUS
 62
     7
 10
-257.6702475951201
 20
201.0723984477679
 30
0.0
  0
VERTEX
  5
3D1
  8
0
  6
CONTINUOUS
 62
     7
 10
-257.6453847958854
 20
201.0163088714363
 30
0.0
  0
VERTEX
  5
3D2
  8
0
  6
CONTINUOUS
 62
     7
 10
-257.6233041300458
 20
200.9590668977202
 30
0.0
  0
VERTEX
  5
3D3
  8
0
  6
CONTINUOUS
 62
     7
 10
-257.6040587918592
 20
200.900810427548
 30
0.0
  0
VERTEX
  5
3D4
  8
0
  6
CONTINUOUS
 62
     7
 10
-257.5876951450313
 20
200.8416798058591
 30
0.0
  0
VERTEX
  5
3D5
  8
0
  6
CONTINUOUS
 62
     7
 10
-257.5742526110204
 20
200.7818174835002
 30
0.0
  0
VERTEX
  5
3D6
  8
0
  6
CONTINUOUS
 62
     7
 10
-257.5637635740685
 20
200.7213676740492
 30
0.0
  0
VERTEX
  5
3D7
  8
0
  6
CONTINUOUS
 62
     7
 10
-257.5562533031842
 20
200.6604760063919
 30
0.0
  0
VERTEX
  5
3D8
  8
0
  6
CONTINUOUS
 62
     7
 10
-257.551739891268
 20
200.5992891738892
 30
0.0
  0
VERTEX
  5
3D9
  8
0
  6
CONTINUOUS
 62
     7
 10
-257.5502342115245
 20
200.53795458098
 30
0.0
  0
SEQEND
  5
7F9
  8
0
  6
CONTINUOUS
 62
     7
  0
POLYLINE
  5
31C
  8
0
  6
CONTINUOUS
 62
     7
 66
     1
 10
0.0
 20
0.0
 30
0.0
  0
VERTEX
  5
3DA
  8
0
  6
CONTINUOUS
 62
     7
 10
-217.5502342115245
 20
200.53795458098
 30
0.0
  0
VERTEX
  5
3DB
  8
0
  6
CONTINUOUS
 62
     7
 10
-217.551739891268
 20
200.4766199880707
 30
0.0
  0
VERTEX
  5
3DC
  8
0
  6
CONTINUOUS
 62
     7
 10
-217.5562533031842
 20
200.415433155568
 30
0.0
  0
VERTEX
  5
3DD
  8
0
  6
CONTINUOUS
 62
     7
 10
-217.5637635740685
 20
200.3545414879108
 30
0.0
  0
VERTEX
  5
3DE
  8
0
  6
CONTINUOUS
 62
     7
 10
-217.5742526110204
 20
200.2940916784598
 30
0.0
  0
VERTEX
  5
3DF
  8
0
  6
CONTINUOUS
 62
     7
 10
-217.5876951450313
 20
200.2342293561009
 30
0.0
  0
VERTEX
  5
3E0
  8
0
  6
CONTINUOUS
 62
     7
 10
-217.6040587918592
 20
200.1750987344119
 30
0.0
  0
VERTEX
  5
3E1
  8
0
  6
CONTINUOUS
 62
     7
 10
-217.6233041300457
 20
200.1168422642397
 30
0.0
  0
VERTEX
  5
3E2
  8
0
  6
CONTINUOUS
 62
     7
 10
-217.6453847958854
 20
200.0596002905236
 30
0.0
  0
VERTEX
  5
3E3
  8
0
  6
CONTINUOUS
 62
     7
 10
-217.6702475951202
 20
200.0035107141921
 30
0.0
  0
VERTEX
  5
3E4
  8
0
  6
CONTINUOUS
 62
     7
 10
-217.697832631089
 20
199.9487086599474
 30
0.0
  0
VERTEX
  5
3E5
  8
0
  6
CONTINUOUS
 62
     7
 10
-217.7280734490241
 20
199.8953261507385
 30
0.0
  0
VERTEX
  5
3E6
  8
0
  6
CONTINUOUS
 62
     7
 10
-217.7608971961463
 20
199.8434917897055
 30
0.0
  0
VERTEX
  5
3E7
  8
0
  6
CONTINUOUS
 62
     7
 10
-217.7962247971736
 20
199.7933304503645
 30
0.0
  0
VERTEX
  5
3E8
  8
0
  6
CONTINUOUS
 62
     7
 10
-217.8339711448211
 20
199.7449629757754
 30
0.0
  0
VERTEX
  5
3E9
  8
0
  6
CONTINUOUS
 62
     7
 10
-217.8740453048308
 20
199.6985058874212
 30
0.0
  0
VERTEX
  5
3EA
  8
0
  6
CONTINUOUS
 62
     7
 10
-217.9163507350413
 20
199.6540711044968
 30
0.0
  0
VERTEX
  5
3EB
  8
0
  6
CONTINUOUS
 62
     7
 10
-217.9607855179657
 20
199.6117656742863
 30
0.0
  0
VERTEX
  5
3EC
  8
0
  6
CONTINUOUS
 62
     7
 10
-218.0072426063199
 20
199.5716915142766
 30
0.0
  0
VERTEX
  5
3ED
  8
0
  6
CONTINUOUS
 62
     7
 10
-218.055610080909
 20
199.5339451666292
 30
0.0
  0
VERTEX
  5
3EE
  8
0
  6
CONTINUOUS
 62
     7
 10
-218.10577142025
 20
199.4986175656018
 30
0.0
  0
VERTEX
  5
3EF
  8
0
  6
CONTINUOUS
 62
     7
 10
-218.157605781283
 20
199.4657938184797
 30
0.0
  0
VERTEX
  5
3F0
  8
0
  6
CONTINUOUS
 62
     7
 10
-218.210988290492
 20
199.4355530005446
 30
0.0
  0
VERTEX
  5
3F1
  8
0
  6
CONTINUOUS
 62
     7
 10
-218.2657903447366
 20
199.4079679645757
 30
0.0
  0
VERTEX
  5
3F2
  8
0
  6
CONTINUOUS
 62
     7
 10
-218.3218799210682
 20
199.3831051653409
 30
0.0
  0
VERTEX
  5
3F3
  8
0
  6
CONTINUOUS
 62
     7
 10
-218.3791218947842
 20
199.3610244995013
 30
0.0
  0
VERTEX
  5
3F4
  8
0
  6
CONTINUOUS
 62
     7
 10
-218.4373783649564
 20
199.3417791613147
 30
0.0
  0
VERTEX
  5
3F5
  8
0
  6
CONTINUOUS
 62
     7
 10
-218.4965089866454
 20
199.3254155144868
 30
0.0
  0
VERTEX
  5
3F6
  8
0
  6
CONTINUOUS
 62
     7
 10
-218.5563713090043
 20
199.311972980476
 30
0.0
  0
VERTEX
  5
3F7
  8
0
  6
CONTINUOUS
 62
     7
 10
-218.6168211184553
 20
199.301483943524
 30
0.0
  0
VERTEX
  5
3F8
  8
0
  6
CONTINUOUS
 62
     7
 10
-218.6777127861126
 20
199.2939736726398
 30
0.0
  0
VERTEX
  5
3F9
  8
0
  6
CONTINUOUS
 62
     7
 10
-218.7388996186152
 20
199.2894602607235
 30
0.0
  0
VERTEX
  5
3FA
  8
0
  6
CONTINUOUS
 62
     7
 10
-218.8002342115245
 20
199.28795458098
 30
0.0
  0
SEQEND
  5
7FA
  8
0
  6
CONTINUOUS
 62
     7
  0
LINE
  5
31D
  8
0
  6
CONTINUOUS
 62
     7
 10
-291.3002342115245
 20
201.78795458098
 30
0.0
 11
-258.8002342115245
 21
201.78795458098
 31
0.0
  0
LINE
  5
31E
  8
0
  6
CONTINUOUS
 62
     7
 10
-169.5502342115246
 20
220.90795458098
 30
0.0
 11
-329.5502342115245
 21
220.90795458098
 31
0.0
  0
POLYLINE
  5
31F
  8
0
  6
CONTINUOUS
 62
     7
 66
     1
 10
0.0
 20
0.0
 30
0.0
  0
VERTEX
  5
3FB
  8
0
  6
CONTINUOUS
 62
     7
 10
-251.3002342115245
 20
199.28795458098
 30
0.0
  0
VERTEX
  5
3FC
  8
0
  6
CONTINUOUS
 62
     7
 10
-251.3615688044337
 20
199.2894602607235
 30
0.0
  0
VERTEX
  5
3FD
  8
0
  6
CONTINUOUS
 62
     7
 10
-251.4227556369365
 20
199.2939736726398
 30
0.0
  0
VERTEX
  5
3FE
  8
0
  6
CONTINUOUS
 62
     7
 10
-251.4836473045937
 20
199.301483943524
 30
0.0
  0
VERTEX
  5
3FF
  8
0
  6
CONTINUOUS
 62
     7
 10
-251.5440971140447
 20
199.311972980476
 30
0.0
  0
VERTEX
  5
400
  8
0
  6
CONTINUOUS
 62
     7
 10
-251.6039594364036
 20
199.3254155144868
 30
0.0
  0
VERTEX
  5
401
  8
0
  6
CONTINUOUS
 62
     7
 10
-251.6630900580926
 20
199.3417791613147
 30
0.0
  0
VERTEX
  5
402
  8
0
  6
CONTINUOUS
 62
     7
 10
-251.7213465282648
 20
199.3610244995013
 30
0.0
  0
VERTEX
  5
403
  8
0
  6
CONTINUOUS
 62
     7
 10
-251.7785885019809
 20
199.3831051653409
 30
0.0
  0
VERTEX
  5
404
  8
0
  6
CONTINUOUS
 62
     7
 10
-251.8346780783124
 20
199.4079679645757
 30
0.0
  0
VERTEX
  5
405
  8
0
  6
CONTINUOUS
 62
     7
 10
-251.889480132557
 20
199.4355530005446
 30
0.0
  0
VERTEX
  5
406
  8
0
  6
CONTINUOUS
 62
     7
 10
-251.942862641766
 20
199.4657938184797
 30
0.0
  0
VERTEX
  5
407
  8
0
  6
CONTINUOUS
 62
     7
 10
-251.994697002799
 20
199.4986175656018
 30
0.0
  0
VERTEX
  5
408
  8
0
  6
CONTINUOUS
 62
     7
 10
-252.04485834214
 20
199.5339451666292
 30
0.0
  0
VERTEX
  5
409
  8
0
  6
CONTINUOUS
 62
     7
 10
-252.0932258167291
 20
199.5716915142766
 30
0.0
  0
VERTEX
  5
40A
  8
0
  6
CONTINUOUS
 62
     7
 10
-252.1396829050832
 20
199.6117656742863
 30
0.0
  0
VERTEX
  5
40B
  8
0
  6
CONTINUOUS
 62
     7
 10
-252.1841176880076
 20
199.6540711044968
 30
0.0
  0
VERTEX
  5
40C
  8
0
  6
CONTINUOUS
 62
     7
 10
-252.2264231182182
 20
199.6985058874212
 30
0.0
  0
VERTEX
  5
40D
  8
0
  6
CONTINUOUS
 62
     7
 10
-252.2664972782279
 20
199.7449629757754
 30
0.0
  0
VERTEX
  5
40E
  8
0
  6
CONTINUOUS
 62
     7
 10
-252.3042436258753
 20
199.7933304503645
 30
0.0
  0
VERTEX
  5
40F
  8
0
  6
CONTINUOUS
 62
     7
 10
-252.3395712269027
 20
199.8434917897055
 30
0.0
  0
VERTEX
  5
410
  8
0
  6
CONTINUOUS
 62
     7
 10
-252.3723949740248
 20
199.8953261507385
 30
0.0
  0
VERTEX
  5
411
  8
0
  6
CONTINUOUS
 62
     7
 10
-252.40263579196
 20
199.9487086599474
 30
0.0
  0
VERTEX
  5
412
  8
0
  6
CONTINUOUS
 62
     7
 10
-252.4302208279289
 20
200.0035107141921
 30
0.0
  0
VERTEX
  5
413
  8
0
  6
CONTINUOUS
 62
     7
 10
-252.4550836271636
 20
200.0596002905236
 30
0.0
  0
VERTEX
  5
414
  8
0
  6
CONTINUOUS
 62
     7
 10
-252.4771642930033
 20
200.1168422642397
 30
0.0
  0
VERTEX
  5
415
  8
0
  6
CONTINUOUS
 62
     7
 10
-252.4964096311898
 20
200.1750987344119
 30
0.0
  0
VERTEX
  5
416
  8
0
  6
CONTINUOUS
 62
     7
 10
-252.5127732780177
 20
200.2342293561009
 30
0.0
  0
VERTEX
  5
417
  8
0
  6
CONTINUOUS
 62
     7
 10
-252.5262158120286
 20
200.2940916784598
 30
0.0
  0
VERTEX
  5
418
  8
0
  6
CONTINUOUS
 62
     7
 10
-252.5367048489805
 20
200.3545414879108
 30
0.0
  0
VERTEX
  5
419
  8
0
  6
CONTINUOUS
 62
     7
 10
-252.5442151198648
 20
200.415433155568
 30
0.0
  0
VERTEX
  5
41A
  8
0
  6
CONTINUOUS
 62
     7
 10
-252.548728531781
 20
200.4766199880707
 30
0.0
  0
VERTEX
  5
41B
  8
0
  6
CONTINUOUS
 62
     7
 10
-252.5502342115246
 20
200.53795458098
 30
0.0
  0
SEQEND
  5
7FB
  8
0
  6
CONTINUOUS
 62
     7
  0
LINE
  5
320
  8
0
  6
CONTINUOUS
 62
     7
 10
-169.5502342115246
 20
180.1679545809801
 30
0.0
 11
-329.5502342115245
 21
180.1679545809801
 31
0.0
  0
LINE
  5
321
  8
0
  6
CONTINUOUS
 62
     7
 10
-258.8002342115245
 20
199.28795458098
 30
0.0
 11
-291.3002342115246
 21
199.28795458098
 31
0.0
  0
ARC
  5
322
  8
0
  6
CONTINUOUS
 62
     7
 10
-234.3687247679364
 20
213.1673196753347
 30
0.0
 40
33.33809237551187
 50
137.3418302482004
 51
163.0078144001043
  0
LINE
  5
323
  8
0
  6
CONTINUOUS
 62
     7
 10
-267.0473751456735
 20
221.226062496537
 30
0.0
 11
-266.7818677984118
 21
222.0242392347228
 31
0.0
  0
ARC
  5
324
  8
0
  6
CONTINUOUS
 62
     7
 10
-238.0313507263543
 20
187.1539222096501
 30
0.0
 40
29.84033557150799
 50
198.9676082290347
 51
225.6635622685344
  0
LINE
  5
325
  8
0
  6
CONTINUOUS
 62
     7
 10
-267.1412814228321
 20
220.9086873302498
 30
0.0
 11
-267.0474717345215
 21
221.2255441281134
 31
0.0
  0
LINE
  5
326
  8
0
  6
CONTINUOUS
 62
     7
 10
-244.5741709156219
 20
236.0654191772543
 30
0.0
 11
-241.8274052656338
 21
236.0654191772045
 31
0.0
  0
LINE
  5
327
  8
0
  6
CONTINUOUS
 62
     7
 10
-232.9274467198448
 20
221.2255470566234
 30
0.0
 11
-232.8336361021206
 21
220.9086872160622
 31
0.0
  0
LINE
  5
328
  8
0
  6
CONTINUOUS
 62
     7
 10
-244.5741709156219
 20
236.0654191772543
 30
0.0
 11
-245.2500892830917
 21
235.8222968362842
 31
0.0
  0
LINE
  5
329
  8
0
  6
CONTINUOUS
 62
     7
 10
-258.1475123450777
 20
236.0654191775006
 30
0.0
 11
-255.4007466950895
 21
236.0654191774508
 31
0.0
  0
POLYLINE
  5
32A
  8
0
  6
CONTINUOUS
 62
     7
 66
     1
 10
0.0
 20
0.0
 30
0.0
  0
VERTEX
  5
41C
  8
0
  6
CONTINUOUS
 62
     7
 10
-241.0890427630287
 20
235.7579760445112
 30
0.0
  0
VERTEX
  5
41D
  8
0
  6
CONTINUOUS
 62
     7
 10
-241.1244347501255
 20
235.7922737273679
 30
0.0
  0
VERTEX
  5
41E
  8
0
  6
CONTINUOUS
 62
     7
 10
-241.1614952027787
 20
235.8248494887731
 30
0.0
  0
VERTEX
  5
41F
  8
0
  6
CONTINUOUS
 62
     7
 10
-241.2000860429124
 20
235.8555980481066
 30
0.0
  0
VERTEX
  5
420
  8
0
  6
CONTINUOUS
 62
     7
 10
-241.24006919245
 20
235.8844141247482
 30
0.0
  0
VERTEX
  5
421
  8
0
  6
CONTINUOUS
 62
     7
 10
-241.2830722139523
 20
235.912290315585
 30
0.0
  0
VERTEX
  5
422
  8
0
  6
CONTINUOUS
 62
     7
 10
-241.3274670573568
 20
235.9380191772063
 30
0.0
  0
VERTEX
  5
423
  8
0
  6
CONTINUOUS
 62
     7
 10
-241.3730833086857
 20
235.9615160856455
 30
0.0
  0
VERTEX
  5
424
  8
0
  6
CONTINUOUS
 62
     7
 10
-241.419750553961
 20
235.9826964169357
 30
0.0
  0
VERTEX
  5
425
  8
0
  6
CONTINUOUS
 62
     7
 10
-241.4592352208618
 20
235.9984940770723
 30
0.0
  0
VERTEX
  5
426
  8
0
  6
CONTINUOUS
 62
     7
 10
-241.4993673095534
 20
236.0126734669073
 30
0.0
  0
VERTEX
  5
427
  8
0
  6
CONTINUOUS
 62
     7
 10
-241.5400446295313
 20
236.0252040209635
 30
0.0
  0
VERTEX
  5
428
  8
0
  6
CONTINUOUS
 62
     7
 10
-241.5811649902909
 20
236.0360551737641
 30
0.0
  0
VERTEX
  5
429
  8
0
  6
CONTINUOUS
 62
     7
 10
-241.6238607954133
 20
236.0454472321275
 30
0.0
  0
VERTEX
  5
42A
  8
0
  6
CONTINUOUS
 62
     7
 10
-241.666949825195
 20
236.0530517215161
 30
0.0
  0
VERTEX
  5
42B
  8
0
  6
CONTINUOUS
 62
     7
 10
-241.7103186152226
 20
236.0588527841547
 30
0.0
  0
VERTEX
  5
42C
  8
0
  6
CONTINUOUS
 62
     7
 10
-241.7538537010832
 20
236.0628345622677
 30
0.0
  0
VERTEX
  5
42D
  8
0
  6
CONTINUOUS
 62
     7
 10
-241.7905840797501
 20
236.0647720620415
 30
0.0
  0
VERTEX
  5
42E
  8
0
  6
CONTINUOUS
 62
     7
 10
-241.8274052656338
 20
236.0654191772044
 30
0.0
  0
SEQEND
  5
7FC
  8
0
  6
CONTINUOUS
 62
     7
  0
POLYLINE
  5
32B
  8
0
  6
CONTINUOUS
 62
     7
 66
     1
 10
0.0
 20
0.0
 30
0.0
  0
VERTEX
  5
42F
  8
0
  6
CONTINUOUS
 62
     7
 10
-234.6333158712116
 20
178.6734939687548
 30
0.0
  0
VERTEX
  5
430
  8
0
  6
CONTINUOUS
 62
     7
 10
-234.5931335739992
 20
178.6727518778753
 30
0.0
  0
VERTEX
  5
431
  8
0
  6
CONTINUOUS
 62
     7
 10
-234.5529843860549
 20
178.6705259190377
 30
0.0
  0
VERTEX
  5
432
  8
0
  6
CONTINUOUS
 62
     7
 10
-234.5129694926473
 20
178.6668165629408
 30
0.0
  0
VERTEX
  5
433
  8
0
  6
CONTINUOUS
 62
     7
 10
-234.473190079045
 20
178.6616242802837
 30
0.0
  0
VERTEX
  5
434
  8
0
  6
CONTINUOUS
 62
     7
 10
-234.4325606999849
 20
178.6547299001431
 30
0.0
  0
VERTEX
  5
435
  8
0
  6
CONTINUOUS
 62
     7
 10
-234.3922556284236
 20
178.6462645649193
 30
0.0
  0
VERTEX
  5
436
  8
0
  6
CONTINUOUS
 62
     7
 10
-234.3523863341315
 20
178.6362482255272
 30
0.0
  0
VERTEX
  5
437
  8
0
  6
CONTINUOUS
 62
     7
 10
-234.3130642868788
 20
178.6247008328821
 30
0.0
  0
VERTEX
  5
438
  8
0
  6
CONTINUOUS
 62
     7
 10
-234.2753849769168
 20
178.6120028693968
 30
0.0
  0
VERTEX
  5
439
  8
0
  6
CONTINUOUS
 62
     7
 10
-234.2382939602304
 20
178.5978706950825
 30
0.0
  0
VERTEX
  5
43A
  8
0
  6
CONTINUOUS
 62
     7
 10
-234.201889700322
 20
178.5823412831363
 30
0.0
  0
VERTEX
  5
43B
  8
0
  6
CONTINUOUS
 62
     7
 10
-234.1662706606942
 20
178.565451606755
 30
0.0
  0
VERTEX
  5
43C
  8
0
  6
CONTINUOUS
 62
     7
 10
-234.1304465601089
 20
178.5466454604859
 30
0.0
  0
VERTEX
  5
43D
  8
0
  6
CONTINUOUS
 62
     7
 10
-234.0955241976879
 20
178.5264283064101
 30
0.0
  0
VERTEX
  5
43E
  8
0
  6
CONTINUOUS
 62
     7
 10
-234.0616005069818
 20
178.5048595599248
 30
0.0
  0
VERTEX
  5
43F
  8
0
  6
CONTINUOUS
 62
     7
 10
-234.0287724215414
 20
178.4819986364269
 30
0.0
  0
VERTEX
  5
440
  8
0
  6
CONTINUOUS
 62
     7
 10
-233.9983733707369
 20
178.4588962419221
 30
0.0
  0
VERTEX
  5
441
  8
0
  6
CONTINUOUS
 62
     7
 10
-233.9690325136782
 20
178.4346502033915
 30
0.0
  0
VERTEX
  5
442
  8
0
  6
CONTINUOUS
 62
     7
 10
-233.9408213287895
 20
178.409326484914
 30
0.0
  0
VERTEX
  5
443
  8
0
  6
CONTINUOUS
 62
     7
 10
-233.913811294495
 20
178.3829910505688
 30
0.0
  0
VERTEX
  5
444
  8
0
  6
CONTINUOUS
 62
     7
 10
-233.887307987793
 20
178.3548711600489
 30
0.0
  0
VERTEX
  5
445
  8
0
  6
CONTINUOUS
 62
     7
 10
-233.8621159054243
 20
178.3257363181604
 30
0.0
  0
VERTEX
  5
446
  8
0
  6
CONTINUOUS
 62
     7
 10
-233.8382948003098
 20
178.2956686046919
 30
0.0
  0
VERTEX
  5
447
  8
0
  6
CONTINUOUS
 62
     7
 10
-233.8159044253706
 20
178.2647500994323
 30
0.0
  0
VERTEX
  5
448
  8
0
  6
CONTINUOUS
 62
     7
 10
-233.7953384945911
 20
178.2336059102892
 30
0.0
  0
VERTEX
  5
449
  8
0
  6
CONTINUOUS
 62
     7
 10
-233.7761743295685
 20
178.2017015826973
 30
0.0
  0
VERTEX
  5
44A
  8
0
  6
CONTINUOUS
 62
     7
 10
-233.7584503578393
 20
178.1691199534527
 30
0.0
  0
VERTEX
  5
44B
  8
0
  6
CONTINUOUS
 62
     7
 10
-233.7422050069397
 20
178.1359438593516
 30
0.0
  0
VERTEX
  5
44C
  8
0
  6
CONTINUOUS
 62
     7
 10
-233.7270681469031
 20
178.1012773697231
 30
0.0
  0
VERTEX
  5
44D
  8
0
  6
CONTINUOUS
 62
     7
 10
-233.7135013814637
 20
178.0660479668337
 30
0.0
  0
VERTEX
  5
44E
  8
0
  6
CONTINUOUS
 62
     7
 10
-233.7015275618506
 20
178.030346748206
 30
0.0
  0
VERTEX
  5
44F
  8
0
  6
CONTINUOUS
 62
     7
 10
-233.691169539293
 20
177.9942648113621
 30
0.0
  0
VERTEX
  5
450
  8
0
  6
CONTINUOUS
 62
     7
 10
-233.6823725127786
 20
177.9575622884675
 30
0.0
  0
VERTEX
  5
451
  8
0
  6
CONTINUOUS
 62
     7
 10
-233.6752121839054
 20
177.9205377385159
 30
0.0
  0
VERTEX
  5
452
  8
0
  6
CONTINUOUS
 62
     7
 10
-233.6696945053
 20
177.8832822563996
 30
0.0
  0
VERTEX
  5
453
  8
0
  6
CONTINUOUS
 62
     7
 10
-233.6658254295886
 20
177.8458869370115
 30
0.0
  0
VERTEX
  5
454
  8
0
  6
CONTINUOUS
 62
     7
 10
-233.6635666186847
 20
177.8073841061706
 30
0.0
  0
VERTEX
  5
455
  8
0
  6
CONTINUOUS
 62
     7
 10
-233.6630309975381
 20
177.7687984212707
 30
0.0
  0
VERTEX
  5
456
  8
0
  6
CONTINUOUS
 62
     7
 10
-233.6642087342952
 20
177.7302238400976
 30
0.0
  0
VERTEX
  5
457
  8
0
  6
CONTINUOUS
 62
     7
 10
-233.6670899971024
 20
177.6917543204369
 30
0.0
  0
VERTEX
  5
458
  8
0
  6
CONTINUOUS
 62
     7
 10
-233.6672602589649
 20
177.6900199128344
 30
0.0
  0
SEQEND
  5
7FD
  8
0
  6
CONTINUOUS
 62
     7
  0
POLYLINE
  5
32C
  8
0
  6
CONTINUOUS
 62
     7
 66
     1
 10
0.0
 20
0.0
 30
0.0
  0
VERTEX
  5
459
  8
0
  6
CONTINUOUS
 62
     7
 10
-258.1475123450777
 20
236.0654191775006
 30
0.0
  0
VERTEX
  5
45A
  8
0
  6
CONTINUOUS
 62
     7
 10
-258.1966287221961
 20
236.0642619960848
 30
0.0
  0
VERTEX
  5
45B
  8
0
  6
CONTINUOUS
 62
     7
 10
-258.2456909253807
 20
236.0607995680432
 30
0.0
  0
VERTEX
  5
45C
  8
0
  6
CONTINUOUS
 62
     7
 10
-258.2945372826012
 20
236.0550455676879
 30
0.0
  0
VERTEX
  5
45D
  8
0
  6
CONTINUOUS
 62
     7
 10
-258.3430061218275
 20
236.0470136693305
 30
0.0
  0
VERTEX
  5
45E
  8
0
  6
CONTINUOUS
 62
     7
 10
-258.392844514124
 20
236.0362679624794
 30
0.0
  0
VERTEX
  5
45F
  8
0
  6
CONTINUOUS
 62
     7
 10
-258.4421576858645
 20
236.0230850307227
 30
0.0
  0
VERTEX
  5
460
  8
0
  6
CONTINUOUS
 62
     7
 10
-258.4907685197741
 20
236.0075119241092
 30
0.0
  0
VERTEX
  5
461
  8
0
  6
CONTINUOUS
 62
     7
 10
-258.5384998985779
 20
235.9895956926881
 30
0.0
  0
VERTEX
  5
462
  8
0
  6
CONTINUOUS
 62
     7
 10
-258.5783817690259
 20
235.9725085066289
 30
0.0
  0
VERTEX
  5
463
  8
0
  6
CONTINUOUS
 62
     7
 10
-258.6175469198214
 20
235.9537480399528
 30
0.0
  0
VERTEX
  5
464
  8
0
  6
CONTINUOUS
 62
     7
 10
-258.6558907918125
 20
235.9333622041762
 30
0.0
  0
VERTEX
  5
465
  8
0
  6
CONTINUOUS
 62
     7
 10
-258.6933088258473
 20
235.9113989108156
 30
0.0
  0
VERTEX
  5
466
  8
0
  6
CONTINUOUS
 62
     7
 10
-258.7308402501777
 20
235.8871389109945
 30
0.0
  0
VERTEX
  5
467
  8
0
  6
CONTINUOUS
 62
     7
 10
-258.7673126869674
 20
235.86124018306
 30
0.0
  0
VERTEX
  5
468
  8
0
  6
CONTINUOUS
 62
     7
 10
-258.8026197482241
 20
235.8337746952433
 30
0.0
  0
VERTEX
  5
469
  8
0
  6
CONTINUOUS
 62
     7
 10
-258.8366550459549
 20
235.8048144157758
 30
0.0
  0
VERTEX
  5
46A
  8
0
  6
CONTINUOUS
 62
     7
 10
-258.861643952808
 20
235.7818212265232
 30
0.0
  0
VERTEX
  5
46B
  8
0
  6
CONTINUOUS
 62
     7
 10
-258.8858748476943
 20
235.7579760448339
 30
0.0
  0
SEQEND
  5
7FE
  8
0
  6
CONTINUOUS
 62
     7
  0
LINE
  5
32D
  8
0
  6
CONTINUOUS
 62
     7
 10
-244.5741709169037
 20
165.5320310569053
 30
0.0
 11
-245.250089284365
 21
165.7523747277525
 31
0.0
  0
LINE
  5
32E
  8
0
  6
CONTINUOUS
 62
     7
 10
-233.1930494008804
 20
222.0242385103683
 30
0.0
 11
-232.9275424961303
 21
221.2260615088932
 31
0.0
  0
LINE
  5
32F
  8
0
  6
CONTINUOUS
 62
     7
 10
-241.0890427642999
 20
165.8106691620608
 30
0.0
 11
-241.8274052669156
 21
165.5320310568556
 31
0.0
  0
LINE
  5
330
  8
0
  6
CONTINUOUS
 62
     7
 10
-244.5741709169037
 20
165.5320310569053
 30
0.0
 11
-241.8274052669156
 21
165.5320310568555
 31
0.0
  0
LINE
  5
331
  8
0
  6
CONTINUOUS
 62
     7
 10
-254.724828328902
 20
165.7523747279244
 30
0.0
 11
-255.4007466963714
 21
165.5320310571018
 31
0.0
  0
LINE
  5
332
  8
0
  6
CONTINUOUS
 62
     7
 10
-258.1475123463595
 20
165.5320310571517
 30
0.0
 11
-255.4007466963713
 21
165.5320310571018
 31
0.0
  0
LINE
  5
333
  8
0
  6
CONTINUOUS
 62
     7
 10
-266.2514301455432
 20
177.4548117043058
 30
0.0
 11
-266.2960023868904
 21
177.6100144153036
 31
0.0
  0
POLYLINE
  5
334
  8
0
  6
CONTINUOUS
 62
     7
 66
     1
 10
0.0
 20
0.0
 30
0.0
  0
VERTEX
  5
46C
  8
0
  6
CONTINUOUS
 62
     7
 10
-254.7248283276282
 20
235.8222968364568
 30
0.0
  0
VERTEX
  5
46D
  8
0
  6
CONTINUOUS
 62
     7
 10
-253.5061761429904
 20
234.9937237906724
 30
0.0
  0
VERTEX
  5
46E
  8
0
  6
CONTINUOUS
 62
     7
 10
-252.1536885261659
 20
234.4231878964507
 30
0.0
  0
VERTEX
  5
46F
  8
0
  6
CONTINUOUS
 62
     7
 10
-250.7188077350433
 20
234.1323896516302
 30
0.0
  0
VERTEX
  5
470
  8
0
  6
CONTINUOUS
 62
     7
 10
-249.2561098757384
 20
234.1323896516037
 30
0.0
  0
VERTEX
  5
471
  8
0
  6
CONTINUOUS
 62
     7
 10
-247.8212290846052
 20
234.4231878963721
 30
0.0
  0
VERTEX
  5
472
  8
0
  6
CONTINUOUS
 62
     7
 10
-246.4687414677601
 20
234.9937237905446
 30
0.0
  0
VERTEX
  5
473
  8
0
  6
CONTINUOUS
 62
     7
 10
-245.2500892830922
 20
235.8222968362847
 30
0.0
  0
SEQEND
  5
7FF
  8
0
  6
CONTINUOUS
 62
     7
  0
LINE
  5
335
  8
0
  6
CONTINUOUS
 62
     7
 10
-258.1475123463595
 20
165.5320310571517
 30
0.0
 11
-258.8858748489654
 21
165.8106691623841
 31
0.0
  0
LINE
  5
336
  8
0
  6
CONTINUOUS
 62
     9
 10
-233.7234874664731
 20
222.9100862785197
 30
0.0
 11
-233.1930494008831
 21
222.0242385103776
 31
0.0
  0
ARC
  5
337
  8
0
  6
CONTINUOUS
 62
     7
 10
-266.5634046581889
 20
212.6185605660993
 30
0.0
 40
34.41475937222518
 50
17.40018983094155
 51
42.25016551659532
  0
LINE
  5
338
  8
0
  6
CONTINUOUS
 62
     9
 10
-266.7818677984118
 20
222.0242392347228
 30
0.0
 11
-266.251430144716
 21
222.9100862791099
 31
0.0
  0
POLYLINE
  5
339
  8
0
  6
CONTINUOUS
 62
     7
 66
     1
 10
0.0
 20
0.0
 30
0.0
  0
VERTEX
  5
474
  8
0
  6
CONTINUOUS
 62
     7
 10
-266.2514301447159
 20
222.9100862791099
 30
0.0
  0
VERTEX
  5
475
  8
0
  6
CONTINUOUS
 62
     7
 10
-266.2651755526428
 20
222.8680083926901
 30
0.0
  0
VERTEX
  5
476
  8
0
  6
CONTINUOUS
 62
     7
 10
-266.277208786674
 20
222.8253709641939
 30
0.0
  0
VERTEX
  5
477
  8
0
  6
CONTINUOUS
 62
     7
 10
-266.2874957600648
 20
222.7822793820857
 30
0.0
  0
VERTEX
  5
478
  8
0
  6
CONTINUOUS
 62
     7
 10
-266.2960023860703
 20
222.73883903483
 30
0.0
  0
VERTEX
  5
479
  8
0
  6
CONTINUOUS
 62
     7
 10
-266.3028727445448
 20
222.6938401214373
 30
0.0
  0
VERTEX
  5
47A
  8
0
  6
CONTINUOUS
 62
     7
 10
-266.3078297564564
 20
222.6485487358502
 30
0.0
  0
VERTEX
  5
47B
  8
0
  6
CONTINUOUS
 62
     7
 10
-266.3108525949086
 20
222.6030880629251
 30
0.0
  0
VERTEX
  5
47C
  8
0
  6
CONTINUOUS
 62
     7
 10
-266.3119204330046
 20
222.5575812875184
 30
0.0
  0
VERTEX
  5
47D
  8
0
  6
CONTINUOUS
 62
     7
 10
-266.3110664029679
 20
222.5133090671905
 30
0.0
  0
VERTEX
  5
47E
  8
0
  6
CONTINUOUS
 62
     7
 10
-266.3083413002797
 20
222.4690725708682
 30
0.0
  0
VERTEX
  5
47F
  8
0
  6
CONTINUOUS
 62
     7
 10
-266.3037439795298
 20
222.4249921707442
 30
0.0
  0
VERTEX
  5
480
  8
0
  6
CONTINUOUS
 62
     7
 10
-266.2972732953075
 20
222.3811882390112
 30
0.0
  0
VERTEX
  5
481
  8
0
  6
CONTINUOUS
 62
     7
 10
-266.2886280201601
 20
222.3363602499046
 30
0.0
  0
VERTEX
  5
482
  8
0
  6
CONTINUOUS
 62
     7
 10
-266.2779810936394
 20
222.2919178193988
 30
0.0
  0
VERTEX
  5
483
  8
0
  6
CONTINUOUS
 62
     7
 10
-266.265355123791
 20
222.2479977371584
 30
0.0
  0
VERTEX
  5
484
  8
0
  6
CONTINUOUS
 62
     7
 10
-266.2507727186612
 20
222.2047367928479
 30
0.0
  0
VERTEX
  5
485
  8
0
  6
CONTINUOUS
 62
     7
 10
-266.2353286573801
 20
222.1648418040129
 30
0.0
  0
VERTEX
  5
486
  8
0
  6
CONTINUOUS
 62
     7
 10
-266.2181735630007
 20
222.1256088157881
 30
0.0
  0
VERTEX
  5
487
  8
0
  6
CONTINUOUS
 62
     7
 10
-266.1993483691033
 20
222.0871501569029
 30
0.0
  0
VERTEX
  5
488
  8
0
  6
CONTINUOUS
 62
     7
 10
-266.1788940092684
 20
222.0495781560865
 30
0.0
  0
VERTEX
  5
489
  8
0
  6
CONTINUOUS
 62
     7
 10
-266.156085304813
 20
222.0117844520973
 30
0.0
  0
VERTEX
  5
48A
  8
0
  6
CONTINUOUS
 62
     7
 10
-266.1315681899482
 20
221.9750213867661
 30
0.0
  0
VERTEX
  5
48B
  8
0
  6
CONTINUOUS
 62
     7
 10
-266.1054135454179
 20
221.9394056433028
 30
0.0
  0
VERTEX
  5
48C
  8
0
  6
CONTINUOUS
 62
     7
 10
-266.0776922519663
 20
221.9050539049168
 30
0.0
  0
VERTEX
  5
48D
  8
0
  6
CONTINUOUS
 62
     7
 10
-266.0506631981394
 20
221.8744359841707
 30
0.0
  0
VERTEX
  5
48E
  8
0
  6
CONTINUOUS
 62
     7
 10
-266.0223333034576
 20
221.8449661974151
 30
0.0
  0
VERTEX
  5
48F
  8
0
  6
CONTINUOUS
 62
     7
 10
-265.9927781140865
 20
221.8167258942568
 30
0.0
  0
VERTEX
  5
490
  8
0
  6
CONTINUOUS
 62
     7
 10
-265.9620731761911
 20
221.7897964243035
 30
0.0
  0
VERTEX
  5
491
  8
0
  6
CONTINUOUS
 62
     7
 10
-265.9292451737585
 20
221.7634454852452
 30
0.0
  0
VERTEX
  5
492
  8
0
  6
CONTINUOUS
 62
     7
 10
-265.8952538771421
 20
221.7385436349844
 30
0.0
  0
VERTEX
  5
493
  8
0
  6
CONTINUOUS
 62
     7
 10
-265.8601994823423
 20
221.7151621700146
 30
0.0
  0
VERTEX
  5
494
  8
0
  6
CONTINUOUS
 62
     7
 10
-265.8241821853598
 20
221.6933723868291
 30
0.0
  0
VERTEX
  5
495
  8
0
  6
CONTINUOUS
 62
     7
 10
-265.7893179666555
 20
221.6742826118169
 30
0.0
  0
VERTEX
  5
496
  8
0
  6
CONTINUOUS
 62
     7
 10
-265.7536580320697
 20
221.6566461189987
 30
0.0
  0
VERTEX
  5
497
  8
0
  6
CONTINUOUS
 62
     7
 10
-265.7172967621707
 20
221.6405045850163
 30
0.0
  0
VERTEX
  5
498
  8
0
  6
CONTINUOUS
 62
     7
 10
-265.6803285375263
 20
221.6258996865116
 30
0.0
  0
VERTEX
  5
499
  8
0
  6
CONTINUOUS
 62
     7
 10
-265.6416907702286
 20
221.6124918646764
 30
0.0
  0
VERTEX
  5
49A
  8
0
  6
CONTINUOUS
 62
     7
 10
-265.6024823707393
 20
221.6007287867108
 30
0.0
  0
VERTEX
  5
49B
  8
0
  6
CONTINUOUS
 62
     7
 10
-265.5628111017063
 20
221.5906344905024
 30
0.0
  0
VERTEX
  5
49C
  8
0
  6
CONTINUOUS
 62
     7
 10
-265.5227847257778
 20
221.5822330139389
 30
0.0
  0
VERTEX
  5
49D
  8
0
  6
CONTINUOUS
 62
     7
 10
-265.4778560335382
 20
221.5748808096039
 30
0.0
  0
VERTEX
  5
49E
  8
0
  6
CONTINUOUS
 62
     7
 10
-265.4325843778579
 20
221.5696260580863
 30
0.0
  0
VERTEX
  5
49F
  8
0
  6
CONTINUOUS
 62
     7
 10
-265.3871171498945
 20
221.5664713254183
 30
0.0
  0
VERTEX
  5
4A0
  8
0
  6
CONTINUOUS
 62
     7
 10
-265.3416017408056
 20
221.5654191776325
 30
0.0
  0
SEQEND
  5
800
  8
0
  6
CONTINUOUS
 62
     7
  0
LINE
  5
33A
  8
0
  6
CONTINUOUS
 62
     7
 10
-254.7248283276286
 20
235.8222968364562
 30
0.0
 11
-255.4007466950896
 21
236.0654191774508
 31
0.0
  0
POLYLINE
  5
33B
  8
0
  6
CONTINUOUS
 62
     7
 66
     1
 10
0.0
 20
0.0
 30
0.0
  0
VERTEX
  5
4A1
  8
0
  6
CONTINUOUS
 62
     7
 10
-234.6333158704322
 20
221.5654191770751
 30
0.0
  0
VERTEX
  5
4A2
  8
0
  6
CONTINUOUS
 62
     7
 10
-234.5931335732196
 20
221.5662379837638
 30
0.0
  0
VERTEX
  5
4A3
  8
0
  6
CONTINUOUS
 62
     7
 10
-234.5529843852753
 20
221.5686940575923
 30
0.0
  0
VERTEX
  5
4A4
  8
0
  6
CONTINUOUS
 62
     7
 10
-234.5129694918676
 20
221.5727868792016
 30
0.0
  0
VERTEX
  5
4A5
  8
0
  6
CONTINUOUS
 62
     7
 10
-234.473190078265
 20
221.5785159292329
 30
0.0
  0
VERTEX
  5
4A6
  8
0
  6
CONTINUOUS
 62
     7
 10
-234.4325606992047
 20
221.5861230360435
 30
0.0
  0
VERTEX
  5
4A7
  8
0
  6
CONTINUOUS
 62
     7
 10
-234.3922556276431
 20
221.5954635000046
 30
0.0
  0
VERTEX
  5
4A8
  8
0
  6
CONTINUOUS
 62
     7
 10
-234.3523863333506
 20
221.6065153077171
 30
0.0
  0
VERTEX
  5
4A9
  8
0
  6
CONTINUOUS
 62
     7
 10
-234.3130642860974
 20
221.6192564457817
 30
0.0
  0
VERTEX
  5
4AA
  8
0
  6
CONTINUOUS
 62
     7
 10
-234.275384976135
 20
221.6332670983058
 30
0.0
  0
VERTEX
  5
4AB
  8
0
  6
CONTINUOUS
 62
     7
 10
-234.2382939594481
 20
221.6488602273897
 30
0.0
  0
VERTEX
  5
4AC
  8
0
  6
CONTINUOUS
 62
     7
 10
-234.201889699539
 20
221.6659950376242
 30
0.0
  0
VERTEX
  5
4AD
  8
0
  6
CONTINUOUS
 62
     7
 10
-234.1662706599106
 20
221.6846307336004
 30
0.0
  0
VERTEX
  5
4AE
  8
0
  6
CONTINUOUS
 62
     7
 10
-234.1304465593246
 20
221.7053810201331
 30
0.0
  0
VERTEX
  5
4AF
  8
0
  6
CONTINUOUS
 62
     7
 10
-234.0955241969028
 20
221.7276881815233
 30
0.0
  0
VERTEX
  5
4B0
  8
0
  6
CONTINUOUS
 62
     7
 10
-234.0616005061958
 20
221.7514866601336
 30
0.0
  0
VERTEX
  5
4B1
  8
0
  6
CONTINUOUS
 62
     7
 10
-234.0287724207545
 20
221.7767108983269
 30
0.0
  0
VERTEX
  5
4B2
  8
0
  6
CONTINUOUS
 62
     7
 10
-233.9983733699492
 20
221.8022015702976
 30
0.0
  0
VERTEX
  5
4B3
  8
0
  6
CONTINUOUS
 62
     7
 10
-233.9690325128896
 20
221.8289541138334
 30
0.0
  0
VERTEX
  5
4B4
  8
0
  6
CONTINUOUS
 62
     7
 10
-233.940821328
 20
221.8568957456264
 30
0.0
  0
VERTEX
  5
4B5
  8
0
  6
CONTINUOUS
 62
     7
 10
-233.9138112937045
 20
221.8859536823682
 30
0.0
  0
VERTEX
  5
4B6
  8
0
  6
CONTINUOUS
 62
     7
 10
-233.8873079870014
 20
221.9169805486504
 30
0.0
  0
VERTEX
  5
4B7
  8
0
  6
CONTINUOUS
 62
     7
 10
-233.8621159046316
 20
221.9491272898618
 30
0.0
  0
VERTEX
  5
4B8
  8
0
  6
CONTINUOUS
 62
     7
 10
-233.8382947995159
 20
221.9823033409757
 30
0.0
  0
VERTEX
  5
4B9
  8
0
  6
CONTINUOUS
 62
     7
 10
-233.8159044245755
 20
222.0164181369658
 30
0.0
  0
VERTEX
  5
4BA
  8
0
  6
CONTINUOUS
 62
     7
 10
-233.7953384937948
 20
222.0507819475694
 30
0.0
  0
VERTEX
  5
4BB
  8
0
  6
CONTINUOUS
 62
     7
 10
-233.776174328771
 20
222.0859844781529
 30
0.0
  0
VERTEX
  5
4BC
  8
0
  6
CONTINUOUS
 62
     7
 10
-233.7584503570406
 20
222.1219343284246
 30
0.0
  0
VERTEX
  5
4BD
  8
0
  6
CONTINUOUS
 62
     7
 10
-233.7422050061397
 20
222.1585400980925
 30
0.0
  0
VERTEX
  5
4BE
  8
0
  6
CONTINUOUS
 62
     7
 10
-233.7270681461018
 20
222.1967903372759
 30
0.0
  0
VERTEX
  5
4BF
  8
0
  6
CONTINUOUS
 62
     7
 10
-233.713501380661
 20
222.2356616825218
 30
0.0
  0
VERTEX
  5
4C0
  8
0
  6
CONTINUOUS
 62
     7
 10
-233.7015275610466
 20
222.2750536188353
 30
0.0
  0
VERTEX
  5
4C1
  8
0
  6
CONTINUOUS
 62
     7
 10
-233.6911695384876
 20
222.3148656312218
 30
0.0
  0
VERTEX
  5
4C2
  8
0
  6
CONTINUOUS
 62
     7
 10
-233.6823725119717
 20
222.3553623845536
 30
0.0
  0
VERTEX
  5
4C3
  8
0
  6
CONTINUOUS
 62
     7
 10
-233.6752121830971
 20
222.3962144554294
 30
0.0
  0
VERTEX
  5
4C4
  8
0
  6
CONTINUOUS
 62
     7
 10
-233.6696945044903
 20
222.4373213317565
 30
0.0
  0
VERTEX
  5
4C5
  8
0
  6
CONTINUOUS
 62
     7
 10
-233.6658254287776
 20
222.4785825014418
 30
0.0
  0
VERTEX
  5
4C6
  8
0
  6
CONTINUOUS
 62
     7
 10
-233.6635666178721
 20
222.5210656748091
 30
0.0
  0
VERTEX
  5
4C7
  8
0
  6
CONTINUOUS
 62
     7
 10
-233.663030996724
 20
222.5636402675157
 30
0.0
  0
VERTEX
  5
4C8
  8
0
  6
CONTINUOUS
 62
     7
 10
-233.6642087334797
 20
222.6062026086155
 30
0.0
  0
VERTEX
  5
4C9
  8
0
  6
CONTINUOUS
 62
     7
 10
-233.6670899962854
 20
222.6486490271622
 30
0.0
  0
VERTEX
  5
4CA
  8
0
  6
CONTINUOUS
 62
     7
 10
-233.6731357427411
 20
222.7018607017425
 30
0.0
  0
VERTEX
  5
4CB
  8
0
  6
CONTINUOUS
 62
     7
 10
-233.6818524085086
 20
222.7548007142406
 30
0.0
  0
VERTEX
  5
4CC
  8
0
  6
CONTINUOUS
 62
     7
 10
-233.6931859480671
 20
222.8072786145842
 30
0.0
  0
VERTEX
  5
4CD
  8
0
  6
CONTINUOUS
 62
     7
 10
-233.7070823158955
 20
222.8591039527013
 30
0.0
  0
VERTEX
  5
4CE
  8
0
  6
CONTINUOUS
 62
     7
 10
-233.7234874664731
 20
222.9100862785195
 30
0.0
  0
SEQEND
  5
801
  8
0
  6
CONTINUOUS
 62
     7
  0
LINE
  5
33C
  8
0
  6
CONTINUOUS
 62
     7
 10
-265.3416017408056
 20
221.5654191776325
 30
0.0
 11
-234.6333158704321
 21
221.5654191770752
 31
0.0
  0
POLYLINE
  5
33D
  8
0
  6
CONTINUOUS
 62
     7
 66
     1
 10
0.0
 20
0.0
 30
0.0
  0
VERTEX
  5
4CF
  8
0
  6
CONTINUOUS
 62
     7
 10
-245.2500892843667
 20
165.7523747277525
 30
0.0
  0
VERTEX
  5
4D0
  8
0
  6
CONTINUOUS
 62
     7
 10
-246.4687414690056
 20
166.5033169312777
 30
0.0
  0
VERTEX
  5
4D1
  8
0
  6
CONTINUOUS
 62
     7
 10
-247.8212290858307
 20
167.020398054997
 30
0.0
  0
VERTEX
  5
4D2
  8
0
  6
CONTINUOUS
 62
     7
 10
-249.2561098769534
 20
167.2839507687369
 30
0.0
  0
VERTEX
  5
4D3
  8
0
  6
CONTINUOUS
 62
     7
 10
-250.7188077362579
 20
167.2839507687634
 30
0.0
  0
VERTEX
  5
4D4
  8
0
  6
CONTINUOUS
 62
     7
 10
-252.1536885273902
 20
167.0203980550756
 30
0.0
  0
VERTEX
  5
4D5
  8
0
  6
CONTINUOUS
 62
     7
 10
-253.5061761442342
 20
166.5033169314054
 30
0.0
  0
VERTEX
  5
4D6
  8
0
  6
CONTINUOUS
 62
     7
 10
-254.7248283289003
 20
165.7523747279245
 30
0.0
  0
SEQEND
  5
802
  8
0
  6
CONTINUOUS
 62
     7
  0
LINE
  5
33E
  8
0
  6
CONTINUOUS
 62
     7
 10
-265.3416017415852
 20
178.673493969312
 30
0.0
 11
-234.6333158712117
 21
178.6734939687547
 31
0.0
  0
ARC
  5
33F
  8
0
  6
CONTINUOUS
 62
     7
 10
-262.6765856708384
 20
187.6175965745285
 30
0.0
 40
30.68491635827407
 50
314.7103386883359
 51
340.6584908099265
  0
LINE
  5
340
  8
0
  6
CONTINUOUS
 62
     7
 10
-266.8402744700072
 20
179.9061935754247
 30
0.0
 11
-266.2928449541656
 21
177.648149433344
 31
0.0
  0
LINE
  5
341
  8
0
  6
CONTINUOUS
 62
     9
 10
-233.1534541327534
 20
179.7664338949694
 30
0.0
 11
-233.1414884882341
 21
179.8813658563403
 31
0.0
  0
LINE
  5
342
  8
0
  6
CONTINUOUS
 62
     7
 10
-266.8129374183471
 20
179.7148926972933
 30
0.0
 11
-266.8227344936638
 21
179.773931822705
 31
0.0
  0
LINE
  5
343
  8
0
  6
CONTINUOUS
 62
     9
 10
-266.8334515959298
 20
179.8821186083309
 30
0.0
 11
-266.8224584962625
 21
179.7722706561198
 31
0.0
  0
LINE
  5
344
  8
0
  6
CONTINUOUS
 62
     7
 10
-233.1620074936246
 20
179.7147426912124
 30
0.0
 11
-233.1930494016511
 21
179.6124633622184
 31
0.0
  0
LINE
  5
345
  8
0
  6
CONTINUOUS
 62
     9
 10
-233.1930494016535
 20
179.6124633622103
 30
0.0
 11
-233.1534541327535
 21
179.7664338949694
 31
0.0
  0
LINE
  5
346
  8
0
  6
CONTINUOUS
 62
     7
 10
-266.7818677991833
 20
179.6124615989526
 30
0.0
 11
-266.8129115301493
 21
179.7147471379834
 31
0.0
  0
POLYLINE
  5
347
  8
0
  6
CONTINUOUS
 62
     7
 66
     1
 10
0.0
 20
0.0
 30
0.0
  0
VERTEX
  5
4D7
  8
0
  6
CONTINUOUS
 62
     7
 10
-266.2960023868911
 20
177.6100144153071
 30
0.0
  0
VERTEX
  5
4D8
  8
0
  6
CONTINUOUS
 62
     7
 10
-266.3028727453633
 20
177.6507972809199
 30
0.0
  0
VERTEX
  5
4D9
  8
0
  6
CONTINUOUS
 62
     7
 10
-266.3078297572734
 20
177.6918452163633
 30
0.0
  0
VERTEX
  5
4DA
  8
0
  6
CONTINUOUS
 62
     7
 10
-266.310852595724
 20
177.7330465782393
 30
0.0
  0
VERTEX
  5
4DB
  8
0
  6
CONTINUOUS
 62
     7
 10
-266.3119204338184
 20
177.7742897231534
 30
0.0
  0
VERTEX
  5
4DC
  8
0
  6
CONTINUOUS
 62
     7
 10
-266.3110664037803
 20
177.814413981186
 30
0.0
  0
VERTEX
  5
4DD
  8
0
  6
CONTINUOUS
 62
     7
 10
-266.3083413010906
 20
177.854505862274
 30
0.0
  0
VERTEX
  5
4DE
  8
0
  6
CONTINUOUS
 62
     7
 10
-266.303743980339
 20
177.8944562721619
 30
0.0
  0
VERTEX
  5
4DF
  8
0
  6
CONTINUOUS
 62
     7
 10
-266.2972732961153
 20
177.9341561165941
 30
0.0
  0
VERTEX
  5
4E0
  8
0
  6
CONTINUOUS
 62
     7
 10
-266.2886280209663
 20
177.9747840721982
 30
0.0
  0
VERTEX
  5
4E1
  8
0
  6
CONTINUOUS
 62
     7
 10
-266.277981094444
 20
178.0150625930402
 30
0.0
  0
VERTEX
  5
4E2
  8
0
  6
CONTINUOUS
 62
     7
 10
-266.2653551245941
 20
178.0548677055815
 30
0.0
  0
VERTEX
  5
4E3
  8
0
  6
CONTINUOUS
 62
     7
 10
-266.2507727194628
 20
178.0940754362841
 30
0.0
  0
VERTEX
  5
4E4
  8
0
  6
CONTINUOUS
 62
     7
 10
-266.2353286581803
 20
178.1302325753286
 30
0.0
  0
VERTEX
  5
4E5
  8
0
  6
CONTINUOUS
 62
     7
 10
-266.2181735637995
 20
178.1657897380647
 30
0.0
  0
VERTEX
  5
4E6
  8
0
  6
CONTINUOUS
 62
     7
 10
-266.1993483699007
 20
178.2006451200907
 30
0.0
  0
VERTEX
  5
4E7
  8
0
  6
CONTINUOUS
 62
     7
 10
-266.1788940100647
 20
178.2346969170045
 30
0.0
  0
VERTEX
  5
4E8
  8
0
  6
CONTINUOUS
 62
     7
 10
-266.156085305608
 20
178.26894964523
 30
0.0
  0
VERTEX
  5
4E9
  8
0
  6
CONTINUOUS
 62
     7
 10
-266.1315681907419
 20
178.3022682976141
 30
0.0
  0
VERTEX
  5
4EA
  8
0
  6
CONTINUOUS
 62
     7
 10
-266.1054135462103
 20
178.3345471232552
 30
0.0
  0
VERTEX
  5
4EB
  8
0
  6
CONTINUOUS
 62
     7
 10
-266.0776922527576
 20
178.3656803712517
 30
0.0
  0
VERTEX
  5
4EC
  8
0
  6
CONTINUOUS
 62
     7
 10
-266.0506631989294
 20
178.3934296312458
 30
0.0
  0
VERTEX
  5
4ED
  8
0
  6
CONTINUOUS
 62
     7
 10
-266.0223333042467
 20
178.4201383284638
 30
0.0
  0
VERTEX
  5
4EE
  8
0
  6
CONTINUOUS
 62
     7
 10
-265.9927781148747
 20
178.4457327351234
 30
0.0
  0
VERTEX
  5
4EF
  8
0
  6
CONTINUOUS
 62
     7
 10
-265.9620731769783
 20
178.4701391234418
 30
0.0
  0
VERTEX
  5
4F0
  8
0
  6
CONTINUOUS
 62
     7
 10
-265.9292451745449
 20
178.4940211847048
 30
0.0
  0
VERTEX
  5
4F1
  8
0
  6
CONTINUOUS
 62
     7
 10
-265.8952538779275
 20
178.5165899255067
 30
0.0
  0
VERTEX
  5
4F2
  8
0
  6
CONTINUOUS
 62
     7
 10
-265.8601994831269
 20
178.53778072928
 30
0.0
  0
VERTEX
  5
4F3
  8
0
  6
CONTINUOUS
 62
     7
 10
-265.8241821861437
 20
178.5575289794575
 30
0.0
  0
VERTEX
  5
4F4
  8
0
  6
CONTINUOUS
 62
     7
 10
-265.7893179674386
 20
178.5748301912027
 30
0.0
  0
VERTEX
  5
4F5
  8
0
  6
CONTINUOUS
 62
     7
 10
-265.7536580328523
 20
178.5908142819786
 30
0.0
  0
VERTEX
  5
4F6
  8
0
  6
CONTINUOUS
 62
     7
 10
-265.7172967629529
 20
178.6054434799202
 30
0.0
  0
VERTEX
  5
4F7
  8
0
  6
CONTINUOUS
 62
     7
 10
-265.6803285383079
 20
178.6186800131628
 30
0.0
  0
VERTEX
  5
4F8
  8
0
  6
CONTINUOUS
 62
     7
 10
-265.6416907710097
 20
178.6308316264978
 30
0.0
  0
VERTEX
  5
4F9
  8
0
  6
CONTINUOUS
 62
     7
 10
-265.60248237152
 20
178.6414925956562
 30
0.0
  0
VERTEX
  5
4FA
  8
0
  6
CONTINUOUS
 62
     7
 10
-265.5628111024867
 20
178.6506411349131
 30
0.0
  0
VERTEX
  5
4FB
  8
0
  6
CONTINUOUS
 62
     7
 10
-265.5227847265578
 20
178.6582554585438
 30
0.0
  0
VERTEX
  5
4FC
  8
0
  6
CONTINUOUS
 62
     7
 10
-265.4778560343181
 20
178.664918818583
 30
0.0
  0
VERTEX
  5
4FD
  8
0
  6
CONTINUOUS
 62
     7
 10
-265.4325843786375
 20
178.6696812408008
 30
0.0
  0
VERTEX
  5
4FE
  8
0
  6
CONTINUOUS
 62
     7
 10
-265.387117150674
 20
178.6725403995822
 30
0.0
  0
VERTEX
  5
4FF
  8
0
  6
CONTINUOUS
 62
     7
 10
-265.3416017415852
 20
178.6734939693121
 30
0.0
  0
SEQEND
  5
803
  8
0
  6
CONTINUOUS
 62
     7
  0
LINE
  5
348
  8
0
  6
CONTINUOUS
 62
     7
 10
-266.8129115301493
 20
179.7147471379834
 30
0.0
 11
-266.9527833163112
 21
180.1679731321228
 31
0.0
  0
LINE
  5
349
  8
0
  6
CONTINUOUS
 62
     9
 10
-266.8224584962624
 20
179.7722706561198
 30
0.0
 11
-266.7818677991836
 21
179.6124615989533
 31
0.0
  0
LINE
  5
34A
  8
0
  6
CONTINUOUS
 62
     7
 10
-233.6820704301433
 20
177.6481581527946
 30
0.0
 11
-233.1346428908797
 21
179.9061946711248
 31
0.0
  0
LINE
  5
34B
  8
0
  6
CONTINUOUS
 62
     9
 10
-266.7689746990214
 20
180.1679903253045
 30
0.0
 11
-266.8334515959297
 21
179.8821186083309
 31
0.0
  0
LINE
  5
34C
  8
0
  6
CONTINUOUS
 62
     7
 10
-233.0221341572553
 20
180.1679729204726
 30
0.0
 11
-233.1620074936246
 21
179.7147426912125
 31
0.0
  0
LINE
  5
34D
  8
0
  6
CONTINUOUS
 62
     7
 10
-233.1521837045211
 20
179.7739283153876
 30
0.0
 11
-233.161981392499
 21
179.7148870526808
 31
0.0
  0
LINE
  5
34E
  8
0
  6
CONTINUOUS
 62
     7
 10
-233.6672602589649
 20
177.6900199128344
 30
0.0
 11
-233.7234874672979
 21
177.4548117037155
 31
0.0
  0
ENDSEC
  0
EOF
